  0
SECTION
  2
HEADER
  9
$ACADVER
  1
AC1024
  9
$ACADMAINTVER
 70
     6
  9
$DWGCODEPAGE
  3
UNDEFINED
  9
$INSBASE
 10
0.0
 20
0.0
 30
0.0
  9
$EXTMIN
 10
1.000000000000000E+20
 20
1.000000000000000E+20
 30
1.000000000000000E+20
  9
$EXTMAX
 10
-1.000000000000000E+20
 20
-1.000000000000000E+20
 30
-1.000000000000000E+20
  9
$LIMMIN
 10
0.0
 20
0.0
  9
$LIMMAX
 10
12.0
 20
9.0
  9
$ORTHOMODE
 70
     0
  9
$REGENMODE
 70
     1
  9
$FILLMODE
 70
     1
  9
$QTEXTMODE
 70
     0
  9
$MIRRTEXT
 70
     1
  9
$LTSCALE
 40
1.0
  9
$ATTMODE
 70
     1
  9
$TEXTSIZE
 40
0.2
  9
$TRACEWID
 40
0.05
  9
$TEXTSTYLE
  7
Standard
  9
$CLAYER
  8
0
  9
$CELTYPE
  6
ByLayer
  9
$CECOLOR
 62
   256
  9
$CELTSCALE
 40
1.0
  9
$DISPSILH
 70
     0
  9
$DIMSCALE
 40
1.0
  9
$DIMASZ
 40
0.18
  9
$DIMEXO
 40
0.0625
  9
$DIMDLI
 40
0.38
  9
$DIMRND
 40
0.0
  9
$DIMDLE
 40
0.0
  9
$DIMEXE
 40
0.18
  9
$DIMTP
 40
0.0
  9
$DIMTM
 40
0.0
  9
$DIMTXT
 40
0.18
  9
$DIMCEN
 40
0.09
  9
$DIMTSZ
 40
0.0
  9
$DIMTOL
 70
     0
  9
$DIMLIM
 70
     0
  9
$DIMTIH
 70
     1
  9
$DIMTOH
 70
     1
  9
$DIMSE1
 70
     0
  9
$DIMSE2
 70
     0
  9
$DIMTAD
 70
     0
  9
$DIMZIN
 70
     0
  9
$DIMBLK
  1

  9
$DIMASO
 70
     1
  9
$DIMSHO
 70
     1
  9
$DIMPOST
  1

  9
$DIMAPOST
  1

  9
$DIMALT
 70
     0
  9
$DIMALTD
 70
     2
  9
$DIMALTF
 40
25.4
  9
$DIMLFAC
 40
1.0
  9
$DIMTOFL
 70
     0
  9
$DIMTVP
 40
0.0
  9
$DIMTIX
 70
     0
  9
$DIMSOXD
 70
     0
  9
$DIMSAH
 70
     0
  9
$DIMBLK1
  1

  9
$DIMBLK2
  1

  9
$DIMSTYLE
  2
Standard
  9
$DIMCLRD
 70
     0
  9
$DIMCLRE
 70
     0
  9
$DIMCLRT
 70
     0
  9
$DIMTFAC
 40
1.0
  9
$DIMGAP
 40
0.09
  9
$DIMJUST
 70
     0
  9
$DIMSD1
 70
     0
  9
$DIMSD2
 70
     0
  9
$DIMTOLJ
 70
     1
  9
$DIMTZIN
 70
     0
  9
$DIMALTZ
 70
     0
  9
$DIMALTTZ
 70
     0
  9
$DIMUPT
 70
     0
  9
$DIMDEC
 70
     4
  9
$DIMTDEC
 70
     4
  9
$DIMALTU
 70
     2
  9
$DIMALTTD
 70
     2
  9
$DIMTXSTY
  7
Standard
  9
$DIMAUNIT
 70
     0
  9
$DIMADEC
 70
     0
  9
$DIMALTRND
 40
0.0
  9
$DIMAZIN
 70
     0
  9
$DIMDSEP
 70
    46
  9
$DIMATFIT
 70
     3
  9
$DIMFRAC
 70
     0
  9
$DIMLDRBLK
  1

  9
$DIMLUNIT
 70
     2
  9
$DIMLWD
 70
    -2
  9
$DIMLWE
 70
    -2
  9
$DIMTMOVE
 70
     0
  9
$DIMFXL
 40
1.0
  9
$DIMFXLON
 70
     0
  9
$DIMJOGANG
 40
0.7853981633974483
  9
$DIMTFILL
 70
     0
  9
$DIMTFILLCLR
 70
     0
  9
$DIMARCSYM
 70
     0
  9
$DIMLTYPE
  6

  9
$DIMLTEX1
  6

  9
$DIMLTEX2
  6

  9
$DIMTXTDIRECTION
 70
     0
  9
$LUNITS
 70
     2
  9
$LUPREC
 70
     4
  9
$SKETCHINC
 40
0.1
  9
$FILLETRAD
 40
0.5
  9
$AUNITS
 70
     0
  9
$AUPREC
 70
     0
  9
$MENU
  1
.
  9
$ELEVATION
 40
0.0
  9
$PELEVATION
 40
0.0
  9
$THICKNESS
 40
0.0
  9
$LIMCHECK
 70
     0
  9
$CHAMFERA
 40
0.5
  9
$CHAMFERB
 40
0.5
  9
$CHAMFERC
 40
1.0
  9
$CHAMFERD
 40
0.0
  9
$SKPOLY
 70
     0
  9
$TDCREATE
 40
2457917.614282396
  9
$TDUCREATE
 40
2457917.239282407
  9
$TDUPDATE
 40
2457917.614282396
  9
$TDUUPDATE
 40
2457917.239282407
  9
$TDINDWG
 40
0.0000000116
  9
$TDUSRTIMER
 40
0.0000000116
  9
$USRTIMER
 70
     1
  9
$ANGBASE
 50
0.0
  9
$ANGDIR
 70
     0
  9
$PDMODE
 70
     0
  9
$PDSIZE
 40
0.0
  9
$PLINEWID
 40
0.0
  9
$SPLFRAME
 70
     0
  9
$SPLINETYPE
 70
     6
  9
$SPLINESEGS
 70
     8
  9
$HANDSEED
  5
E9
  9
$SURFTAB1
 70
     6
  9
$SURFTAB2
 70
     6
  9
$SURFTYPE
 70
     6
  9
$SURFU
 70
     6
  9
$SURFV
 70
     6
  9
$UCSBASE
  2

  9
$UCSNAME
  2

  9
$UCSORG
 10
0.0
 20
0.0
 30
0.0
  9
$UCSXDIR
 10
1.0
 20
0.0
 30
0.0
  9
$UCSYDIR
 10
0.0
 20
1.0
 30
0.0
  9
$UCSORTHOREF
  2

  9
$UCSORTHOVIEW
 70
     0
  9
$UCSORGTOP
 10
0.0
 20
0.0
 30
0.0
  9
$UCSORGBOTTOM
 10
0.0
 20
0.0
 30
0.0
  9
$UCSORGLEFT
 10
0.0
 20
0.0
 30
0.0
  9
$UCSORGRIGHT
 10
0.0
 20
0.0
 30
0.0
  9
$UCSORGFRONT
 10
0.0
 20
0.0
 30
0.0
  9
$UCSORGBACK
 10
0.0
 20
0.0
 30
0.0
  9
$PUCSBASE
  2

  9
$PUCSNAME
  2

  9
$PUCSORG
 10
0.0
 20
0.0
 30
0.0
  9
$PUCSXDIR
 10
1.0
 20
0.0
 30
0.0
  9
$PUCSYDIR
 10
0.0
 20
1.0
 30
0.0
  9
$PUCSORTHOREF
  2

  9
$PUCSORTHOVIEW
 70
     0
  9
$PUCSORGTOP
 10
0.0
 20
0.0
 30
0.0
  9
$PUCSORGBOTTOM
 10
0.0
 20
0.0
 30
0.0
  9
$PUCSORGLEFT
 10
0.0
 20
0.0
 30
0.0
  9
$PUCSORGRIGHT
 10
0.0
 20
0.0
 30
0.0
  9
$PUCSORGFRONT
 10
0.0
 20
0.0
 30
0.0
  9
$PUCSORGBACK
 10
0.0
 20
0.0
 30
0.0
  9
$USERI1
 70
     0
  9
$USERI2
 70
     0
  9
$USERI3
 70
     0
  9
$USERI4
 70
     0
  9
$USERI5
 70
     0
  9
$USERR1
 40
0.0
  9
$USERR2
 40
0.0
  9
$USERR3
 40
0.0
  9
$USERR4
 40
0.0
  9
$USERR5
 40
0.0
  9
$WORLDVIEW
 70
     1
  9
$SHADEDGE
 70
     3
  9
$SHADEDIF
 70
    70
  9
$TILEMODE
 70
     1
  9
$MAXACTVP
 70
    64
  9
$PINSBASE
 10
0.0
 20
0.0
 30
0.0
  9
$PLIMCHECK
 70
     0
  9
$PEXTMIN
 10
1.000000000000000E+20
 20
1.000000000000000E+20
 30
1.000000000000000E+20
  9
$PEXTMAX
 10
-1.000000000000000E+20
 20
-1.000000000000000E+20
 30
-1.000000000000000E+20
  9
$PLIMMIN
 10
0.0
 20
0.0
  9
$PLIMMAX
 10
12.0
 20
9.0
  9
$UNITMODE
 70
     0
  9
$VISRETAIN
 70
     1
  9
$PLINEGEN
 70
     0
  9
$PSLTSCALE
 70
     1
  9
$TREEDEPTH
 70
  3020
  9
$CMLSTYLE
  2
Standard
  9
$CMLJUST
 70
     0
  9
$CMLSCALE
 40
1.0
  9
$PROXYGRAPHICS
 70
     1
  9
$MEASUREMENT
 70
     0
  9
$CELWEIGHT
370
    -1
  9
$ENDCAPS
280
     0
  9
$JOINSTYLE
280
     0
  9
$LWDISPLAY
290
     1
  9
$INSUNITS
 70
     1
  9
$HYPERLINKBASE
  1

  9
$STYLESHEET
  1

  9
$XEDIT
290
     1
  9
$CEPSNTYPE
380
     0
  9
$PSTYLEMODE
290
     1
  9
$FINGERPRINTGUID
  2
{357A6348-8EE8-0DC7-08DD-45DE41DD74EB}
  9
$VERSIONGUID
  2
{FAEB1C32-E019-11D5-929B-00C0DF256EC4}
  9
$EXTNAMES
290
     1
  9
$PSVPSCALE
 40
0.0
  9
$OLESTARTUP
290
     0
  9
$SORTENTS
280
   127
  9
$INDEXCTL
280
     0
  9
$HIDETEXT
280
     1
  9
$XCLIPFRAME
280
     2
  9
$HALOGAP
280
     0
  9
$OBSCOLOR
 70
   257
  9
$OBSLTYPE
280
     0
  9
$INTERSECTIONDISPLAY
280
     0
  9
$INTERSECTIONCOLOR
 70
   257
  9
$DIMASSOC
280
     2
  9
$PROJECTNAME
  1

  9
$CAMERADISPLAY
290
     0
  9
$LENSLENGTH
 40
50.0
  9
$CAMERAHEIGHT
 40
0.0
  9
$STEPSPERSEC
 40
2.0
  9
$STEPSIZE
 40
6.0
  9
$3DDWFPREC
 40
2.0
  9
$PSOLWIDTH
 40
0.25
  9
$PSOLHEIGHT
 40
4.0
  9
$LOFTANG1
 40
1.570796326794897
  9
$LOFTANG2
 40
1.570796326794897
  9
$LOFTMAG1
 40
0.0
  9
$LOFTMAG2
 40
0.0
  9
$LOFTPARAM
 70
     7
  9
$LOFTNORMALS
280
     1
  9
$LATITUDE
 40
37.795
  9
$LONGITUDE
 40
-122.394
  9
$NORTHDIRECTION
 40
0.0
  9
$TIMEZONE
 70
 -8000
  9
$LIGHTGLYPHDISPLAY
280
     1
  9
$TILEMODELIGHTSYNCH
280
     1
  9
$CMATERIAL
347
3C
  9
$SOLIDHIST
280
     1
  9
$SHOWHIST
280
     1
  9
$DWFFRAME
280
     2
  9
$DGNFRAME
280
     2
  9
$REALWORLDSCALE
290
     1
  9
$INTERFERECOLOR
 62
   256
  9
$CSHADOW
280
     0
  9
$SHADOWPLANELOCATION
 40
0.0
  0
ENDSEC
  0
SECTION
  2
CLASSES
  0
CLASS
  1
ACDBDICTIONARYWDFLT
  2
AcDbDictionaryWithDefault
  3
ObjectDBX Classes
 90
        0
 91
        4
280
     0
281
     0
  0
CLASS
  1
VISUALSTYLE
  2
AcDbVisualStyle
  3
ObjectDBX Classes
 90
     4095
 91
        4
280
     0
281
     0
  0
CLASS
  1
MATERIAL
  2
AcDbMaterial
  3
ObjectDBX Classes
 90
     1153
 91
        4
280
     0
281
     0
  0
CLASS
  1
SUN
  2
AcDbSun
  3
SCENEOE
 90
     1024
 91
        4
280
     0
281
     0
  0
ENDSEC
  0
SECTION
  2
TABLES
  0
TABLE
  2
VPORT
  5
8
330
0
100
AcDbSymbolTable
 70
     1
  0
VPORT
  5
29
330
8
100
AcDbSymbolTableRecord
100
AcDbViewportTableRecord
  2
*Active
 70
     0
 10
0.0
 20
0.0
 11
1.0
 21
1.0
 12
0.0
 22
0.0
 13
0.0
 23
0.0
 14
0.5
 24
0.5
 15
0.5
 25
0.5
 16
0.0
 26
0.0
 36
1.0
 17
91.00082462281999
 27
-128.4993055234307
 37
0.0
 40
256.9986110468615
 41
0.7081814508812795
 42
50.0
 43
0.0
 44
0.0
 50
0.0
 51
0.0
 71
     0
 72
   100
 73
     1
 74
     3
 75
     0
 76
     0
 77
     0
 78
     0
281
     0
 65
     1
110
0.0
120
0.0
130
0.0
111
1.0
121
0.0
131
0.0
112
0.0
122
1.0
132
0.0
 79
     0
146
0.0
 60
     3
 61
     5
292
     1
282
     1
141
0.0
142
0.0
 63
   250
361
3F
  0
ENDTAB
  0
TABLE
  2
LTYPE
  5
5
330
0
100
AcDbSymbolTable
 70
     1
  0
LTYPE
  5
14
330
5
100
AcDbSymbolTableRecord
100
AcDbLinetypeTableRecord
  2
ByBlock
 70
     0
  3

 72
    65
 73
     0
 40
0.0
  0
LTYPE
  5
15
330
5
100
AcDbSymbolTableRecord
100
AcDbLinetypeTableRecord
  2
ByLayer
 70
     0
  3

 72
    65
 73
     0
 40
0.0
  0
LTYPE
  5
16
330
5
100
AcDbSymbolTableRecord
100
AcDbLinetypeTableRecord
  2
Continuous
 70
     0
  3
Solid line
 72
    65
 73
     0
 40
0.0
  0
ENDTAB
  0
TABLE
  2
LAYER
  5
2
330
0
100
AcDbSymbolTable
 70
     2
  0
LAYER
  5
10
330
2
100
AcDbSymbolTableRecord
100
AcDbLayerTableRecord
  2
0
 70
     0
 62
     7
  6
Continuous
370
    -3
390
F
347
3E
  0
LAYER
  5
40
330
2
100
AcDbSymbolTableRecord
100
AcDbLayerTableRecord
  2
_U+30EC_U+30A4_U+30E4_U+30FC 1
 70
     0
 62
     7
  6
Continuous
370
    -3
390
F
347
3E
  0
ENDTAB
  0
TABLE
  2
STYLE
  5
3
330
0
100
AcDbSymbolTable
 70
     1
  0
STYLE
  5
11
330
3
100
AcDbSymbolTableRecord
100
AcDbTextStyleTableRecord
  2
Standard
 70
     0
 40
0.0
 41
1.0
 50
0.0
 71
     0
 42
0.2
  3
txt
  4

  0
ENDTAB
  0
TABLE
  2
VIEW
  5
6
330
0
100
AcDbSymbolTable
 70
     0
  0
ENDTAB
  0
TABLE
  2
UCS
  5
7
330
0
100
AcDbSymbolTable
 70
     0
  0
ENDTAB
  0
TABLE
  2
APPID
  5
9
330
0
100
AcDbSymbolTable
 70
     1
  0
APPID
  5
12
330
9
100
AcDbSymbolTableRecord
100
AcDbRegAppTableRecord
  2
ACAD
 70
     0
  0
ENDTAB
  0
TABLE
  2
DIMSTYLE
  5
A
330
0
100
AcDbSymbolTable
 70
     1
100
AcDbDimStyleTable
  0
DIMSTYLE
105
27
330
A
100
AcDbSymbolTableRecord
100
AcDbDimStyleTableRecord
  2
Standard
 70
     0
178
     0
340
11
  0
ENDTAB
  0
TABLE
  2
BLOCK_RECORD
  5
1
330
0
100
AcDbSymbolTable
 70
    11
  0
BLOCK_RECORD
  5
1F
330
1
100
AcDbSymbolTableRecord
100
AcDbBlockTableRecord
  2
*Model_Space
340
22
 70
     0
280
     1
281
     0
  0
BLOCK_RECORD
  5
1B
330
1
100
AcDbSymbolTableRecord
100
AcDbBlockTableRecord
  2
*Paper_Space
340
1E
 70
     0
280
     1
281
     0
  0
BLOCK_RECORD
  5
23
330
1
100
AcDbSymbolTableRecord
100
AcDbBlockTableRecord
  2
*Paper_Space0
340
26
 70
     0
280
     1
281
     0
  0
BLOCK_RECORD
  5
41
330
1
100
AcDbSymbolTableRecord
100
AcDbBlockTableRecord
  2
block 2
340
0
102
{BLKREFS
331
42
102
}
 70
     0
280
     1
281
     0
  0
BLOCK_RECORD
  5
53
330
1
100
AcDbSymbolTableRecord
100
AcDbBlockTableRecord
  2
block 3
340
0
102
{BLKREFS
331
54
102
}
 70
     0
280
     1
281
     0
  0
BLOCK_RECORD
  5
6E
330
1
100
AcDbSymbolTableRecord
100
AcDbBlockTableRecord
  2
block 4
340
0
102
{BLKREFS
331
6F
102
}
 70
     0
280
     1
281
     0
  0
BLOCK_RECORD
  5
82
330
1
100
AcDbSymbolTableRecord
100
AcDbBlockTableRecord
  2
block 5
340
0
102
{BLKREFS
331
83
102
}
 70
     0
280
     1
281
     0
  0
BLOCK_RECORD
  5
88
330
1
100
AcDbSymbolTableRecord
100
AcDbBlockTableRecord
  2
block 6
340
0
102
{BLKREFS
331
89
102
}
 70
     0
280
     1
281
     0
  0
BLOCK_RECORD
  5
94
330
1
100
AcDbSymbolTableRecord
100
AcDbBlockTableRecord
  2
block 7
340
0
102
{BLKREFS
331
95
102
}
 70
     0
280
     1
281
     0
  0
BLOCK_RECORD
  5
B1
330
1
100
AcDbSymbolTableRecord
100
AcDbBlockTableRecord
  2
block 8
340
0
102
{BLKREFS
331
B2
102
}
 70
     0
280
     1
281
     0
  0
BLOCK_RECORD
  5
C6
330
1
100
AcDbSymbolTableRecord
100
AcDbBlockTableRecord
  2
block 9
340
0
102
{BLKREFS
331
C7
102
}
 70
     0
280
     1
281
     0
  0
BLOCK_RECORD
  5
CF
330
1
100
AcDbSymbolTableRecord
100
AcDbBlockTableRecord
  2
block 10
340
0
102
{BLKREFS
331
D0
102
}
 70
     0
280
     1
281
     0
  0
BLOCK_RECORD
  5
DF
330
1
100
AcDbSymbolTableRecord
100
AcDbBlockTableRecord
  2
block 11
340
0
102
{BLKREFS
331
E0
102
}
 70
     0
280
     1
281
     0
  0
ENDTAB
  0
ENDSEC
  0
SECTION
  2
BLOCKS
  0
BLOCK
  5
20
330
1F
100
AcDbEntity
  8
0
100
AcDbBlockBegin
  2
*Model_Space
 70
     0
 10
0.0
 20
0.0
 30
0.0
  3
*Model_Space
  1

  0
ENDBLK
  5
21
330
1F
100
AcDbEntity
  8
0
100
AcDbBlockEnd
  0
BLOCK
  5
1C
330
1B
100
AcDbEntity
 67
     1
  8
0
100
AcDbBlockBegin
  2
*Paper_Space
 70
     0
 10
0.0
 20
0.0
 30
0.0
  3
*Paper_Space
  1

  0
ENDBLK
  5
1D
330
1B
100
AcDbEntity
 67
     1
  8
0
100
AcDbBlockEnd
  0
BLOCK
  5
24
330
23
100
AcDbEntity
  8
0
100
AcDbBlockBegin
  2
*Paper_Space0
 70
     0
 10
0.0
 20
0.0
 30
0.0
  3
*Paper_Space0
  1

  0
ENDBLK
  5
25
330
23
100
AcDbEntity
  8
0
100
AcDbBlockEnd
  0
BLOCK
  5
43
330
41
100
AcDbEntity
  8
0
100
AcDbBlockBegin
  2
block 2
 70
     0
 10
0.0
 20
0.0
 30
0.0
  3
block 2
  1

  0
POLYLINE
  5
45
330
41
100
AcDbEntity
  8
_U+30EC_U+30A4_U+30E4_U+30FC 1
370
     0
100
AcDb2dPolyline
 66
     1
 10
0.0
 20
0.0
 30
0.0
  0
VERTEX
  5
46
330
45
100
AcDbEntity
  8
_U+30EC_U+30A4_U+30E4_U+30FC 1
370
     0
100
AcDbVertex
100
AcDb2dVertex
 10
73.29921229664797
 20
-126.6441177461169
 30
0.0
  0
VERTEX
  5
47
330
45
100
AcDbEntity
  8
_U+30EC_U+30A4_U+30E4_U+30FC 1
370
     0
100
AcDbVertex
100
AcDb2dVertex
 10
83.33531648505006
 20
-126.6441177461169
 30
0.0
  0
VERTEX
  5
48
330
45
100
AcDbEntity
  8
_U+30EC_U+30A4_U+30E4_U+30FC 1
370
     0
100
AcDbVertex
100
AcDb2dVertex
 10
83.33531648505006
 20
-133.8443827443169
 30
0.0
  0
VERTEX
  5
49
330
45
100
AcDbEntity
  8
_U+30EC_U+30A4_U+30E4_U+30FC 1
370
     0
100
AcDbVertex
100
AcDb2dVertex
 10
91.3351521142906
 20
-133.8443827443169
 30
0.0
  0
VERTEX
  5
4A
330
45
100
AcDbEntity
  8
_U+30EC_U+30A4_U+30E4_U+30FC 1
370
     0
100
AcDbVertex
100
AcDb2dVertex
 10
91.3351521142906
 20
-132.8446105223444
 30
0.0
  0
VERTEX
  5
4B
330
45
100
AcDbEntity
  8
_U+30EC_U+30A4_U+30E4_U+30FC 1
370
     0
100
AcDbVertex
100
AcDb2dVertex
 10
84.23518201764814
 20
-132.8446105223444
 30
0.0
  0
VERTEX
  5
4C
330
45
100
AcDbEntity
  8
_U+30EC_U+30A4_U+30E4_U+30FC 1
370
     0
100
AcDbVertex
100
AcDb2dVertex
 10
84.23518201764814
 20
-126.6441177461169
 30
0.0
  0
VERTEX
  5
4D
330
45
100
AcDbEntity
  8
_U+30EC_U+30A4_U+30E4_U+30FC 1
370
     0
100
AcDbVertex
100
AcDb2dVertex
 10
103.3356287525774
 20
-126.6441177461169
 30
0.0
  0
VERTEX
  5
4E
330
45
100
AcDbEntity
  8
_U+30EC_U+30A4_U+30E4_U+30FC 1
370
     0
100
AcDbVertex
100
AcDb2dVertex
 10
103.3356287525774
 20
-125.6440280241444
 30
0.0
  0
VERTEX
  5
4F
330
45
100
AcDbEntity
  8
_U+30EC_U+30A4_U+30E4_U+30FC 1
370
     0
100
AcDbVertex
100
AcDb2dVertex
 10
73.29921229664797
 20
-125.6440280241444
 30
0.0
  0
VERTEX
  5
50
330
45
100
AcDbEntity
  8
_U+30EC_U+30A4_U+30E4_U+30FC 1
370
     0
100
AcDbVertex
100
AcDb2dVertex
 10
73.29921229664797
 20
-126.6441177461169
 30
0.0
  0
SEQEND
  5
52
330
45
100
AcDbEntity
  8
_U+30EC_U+30A4_U+30E4_U+30FC 1
370
     0
  0
HATCH
  5
51
330
41
100
AcDbEntity
  8
_U+30EC_U+30A4_U+30E4_U+30FC 1
 62
   253
420
 11711154
100
AcDbHatch
 10
0.0
 20
0.0
 30
0.0
210
0.0
220
0.0
230
1.0
  2
SOLID
 70
     1
 71
     0
 91
        1
 92
        1
 93
       10
 72
     1
 10
73.29921229664797
 20
-126.6441177461169
 11
83.33531648505006
 21
-126.6441177461169
 72
     1
 10
83.33531648505006
 20
-126.6441177461169
 11
83.33531648505006
 21
-133.8443827443169
 72
     1
 10
83.33531648505006
 20
-133.8443827443169
 11
91.3351521142906
 21
-133.8443827443169
 72
     1
 10
91.3351521142906
 20
-133.8443827443169
 11
91.3351521142906
 21
-132.8446105223444
 72
     1
 10
91.3351521142906
 20
-132.8446105223444
 11
84.23518201764814
 21
-132.8446105223444
 72
     1
 10
84.23518201764814
 20
-132.8446105223444
 11
84.23518201764814
 21
-126.6441177461169
 72
     1
 10
84.23518201764814
 20
-126.6441177461169
 11
103.3356287525774
 21
-126.6441177461169
 72
     1
 10
103.3356287525774
 20
-126.6441177461169
 11
103.3356287525774
 21
-125.6440280241444
 72
     1
 10
103.3356287525774
 20
-125.6440280241444
 11
73.29921229664797
 21
-125.6440280241444
 72
     1
 10
73.29921229664797
 20
-125.6440280241444
 11
73.29921229664797
 21
-126.6441177461169
 97
        0
 75
     2
 76
     1
 98
        0
  0
INSERT
  5
54
330
41
100
AcDbEntity
  8
_U+30EC_U+30A4_U+30E4_U+30FC 1
100
AcDbBlockReference
  2
block 3
 10
0.0
 20
0.0
 30
0.0
  0
ENDBLK
  5
44
330
41
100
AcDbEntity
  8
0
100
AcDbBlockEnd
  0
BLOCK
  5
55
330
53
100
AcDbEntity
  8
0
100
AcDbBlockBegin
  2
block 3
 70
     0
 10
0.0
 20
0.0
 30
0.0
  3
block 3
  1

  0
POLYLINE
  5
57
330
53
100
AcDbEntity
  8
_U+30EC_U+30A4_U+30E4_U+30FC 1
 62
     7
420
 16777215
370
    25
100
AcDb2dPolyline
 66
     1
 10
0.0
 20
0.0
 30
0.0
  0
VERTEX
  5
58
330
57
100
AcDbEntity
  8
_U+30EC_U+30A4_U+30E4_U+30FC 1
 62
     7
420
 16777215
370
    25
100
AcDbVertex
100
AcDb2dVertex
 10
73.33505451795578
 20
-126.6441177461169
 30
0.0
  0
VERTEX
  5
59
330
57
100
AcDbEntity
  8
_U+30EC_U+30A4_U+30E4_U+30FC 1
 62
     7
420
 16777215
370
    25
100
AcDbVertex
100
AcDb2dVertex
 10
83.33531648505006
 20
-126.6441177461169
 30
0.0
  0
VERTEX
  5
5A
330
57
100
AcDbEntity
  8
_U+30EC_U+30A4_U+30E4_U+30FC 1
 62
     7
420
 16777215
370
    25
100
AcDbVertex
100
AcDb2dVertex
 10
83.33531648505006
 20
-133.8443827443169
 30
0.0
  0
VERTEX
  5
5B
330
57
100
AcDbEntity
  8
_U+30EC_U+30A4_U+30E4_U+30FC 1
 62
     7
420
 16777215
370
    25
100
AcDbVertex
100
AcDb2dVertex
 10
91.3351521142906
 20
-133.8443827443169
 30
0.0
  0
VERTEX
  5
5C
330
57
100
AcDbEntity
  8
_U+30EC_U+30A4_U+30E4_U+30FC 1
 62
     7
420
 16777215
370
    25
100
AcDbVertex
100
AcDb2dVertex
 10
91.3351521142906
 20
-132.8446105223444
 30
0.0
  0
VERTEX
  5
5D
330
57
100
AcDbEntity
  8
_U+30EC_U+30A4_U+30E4_U+30FC 1
 62
     7
420
 16777215
370
    25
100
AcDbVertex
100
AcDb2dVertex
 10
84.23518201764814
 20
-132.8446105223444
 30
0.0
  0
VERTEX
  5
5E
330
57
100
AcDbEntity
  8
_U+30EC_U+30A4_U+30E4_U+30FC 1
 62
     7
420
 16777215
370
    25
100
AcDbVertex
100
AcDb2dVertex
 10
84.23518201764814
 20
-126.6441177461169
 30
0.0
  0
VERTEX
  5
5F
330
57
100
AcDbEntity
  8
_U+30EC_U+30A4_U+30E4_U+30FC 1
 62
     7
420
 16777215
370
    25
100
AcDbVertex
100
AcDb2dVertex
 10
103.3356287525774
 20
-126.6441177461169
 30
0.0
  0
VERTEX
  5
60
330
57
100
AcDbEntity
  8
_U+30EC_U+30A4_U+30E4_U+30FC 1
 62
     7
420
 16777215
370
    25
100
AcDbVertex
100
AcDb2dVertex
 10
103.3356287525774
 20
-125.6440280241444
 30
0.0
  0
VERTEX
  5
61
330
57
100
AcDbEntity
  8
_U+30EC_U+30A4_U+30E4_U+30FC 1
 62
     7
420
 16777215
370
    25
100
AcDbVertex
100
AcDb2dVertex
 10
73.33505451795578
 20
-125.6440280241444
 30
0.0
  0
VERTEX
  5
62
330
57
100
AcDbEntity
  8
_U+30EC_U+30A4_U+30E4_U+30FC 1
 62
     7
420
 16777215
370
    25
100
AcDbVertex
100
AcDb2dVertex
 10
73.27959785270393
 20
-125.6440280241444
 30
0.0
  0
VERTEX
  5
63
330
57
100
AcDbEntity
  8
_U+30EC_U+30A4_U+30E4_U+30FC 1
 62
     7
420
 16777215
370
    25
100
AcDbVertex
100
AcDb2dVertex
 10
73.27959785270393
 20
-126.6441177461169
 30
0.0
  0
VERTEX
  5
64
330
57
100
AcDbEntity
  8
_U+30EC_U+30A4_U+30E4_U+30FC 1
 62
     7
420
 16777215
370
    25
100
AcDbVertex
100
AcDb2dVertex
 10
73.33505451795578
 20
-126.6441177461169
 30
0.0
  0
SEQEND
  5
65
330
57
100
AcDbEntity
  8
_U+30EC_U+30A4_U+30E4_U+30FC 1
 62
     7
420
 16777215
370
    25
  0
SPLINE
  5
66
330
53
100
AcDbEntity
  8
_U+30EC_U+30A4_U+30E4_U+30FC 1
 62
     7
420
 16777215
370
     9
100
AcDbSpline
210
0.0
220
0.0
230
1.0
 70
    11
 71
     3
 72
    17
 73
    13
 74
     0
 42
0.0000000001
 43
0.0000000001
 12
1.0
 22
0.0
 32
0.0
 13
1.0
 23
0.0
 33
0.0
 40
0.0
 40
0.0
 40
0.0
 40
0.0
 40
1.0
 40
1.0
 40
1.0
 40
2.0
 40
2.0
 40
2.0
 40
3.0
 40
3.0
 40
3.0
 40
4.0
 40
4.0
 40
4.0
 40
4.0
 10
73.43841840420764
 20
-121.6442688584779
 30
0.0
 10
73.43841840420764
 20
-121.5891296918248
 30
0.0
 10
73.39361562757287
 20
-121.5443621918362
 30
0.0
 10
73.3385117400898
 20
-121.5443621918362
 30
0.0
 10
73.28337257482985
 20
-121.5443621918362
 30
0.0
 10
73.23860507597196
 20
-121.5891296918248
 30
0.0
 10
73.23860507597196
 20
-121.6442688584779
 30
0.0
 10
73.23860507597196
 20
-121.6993727473528
 30
0.0
 10
73.28337257482985
 20
-121.7441755251195
 30
0.0
 10
73.3385117400898
 20
-121.7441755251195
 30
0.0
 10
73.39361562757287
 20
-121.7441755251195
 30
0.0
 10
73.43841840420764
 20
-121.6993727473528
 30
0.0
 10
73.43841840420764
 20
-121.6442688584779
 30
0.0
  0
SPLINE
  5
67
330
53
100
AcDbEntity
  8
_U+30EC_U+30A4_U+30E4_U+30FC 1
 62
     7
420
 16777215
370
     9
100
AcDbSpline
210
0.0
220
0.0
230
1.0
 70
    11
 71
     3
 72
    17
 73
    13
 74
     0
 42
0.0000000001
 43
0.0000000001
 12
1.0
 22
0.0
 32
0.0
 13
1.0
 23
0.0
 33
0.0
 40
0.0
 40
0.0
 40
0.0
 40
0.0
 40
1.0
 40
1.0
 40
1.0
 40
2.0
 40
2.0
 40
2.0
 40
3.0
 40
3.0
 40
3.0
 40
4.0
 40
4.0
 40
4.0
 40
4.0
 10
103.4355354166952
 20
-121.6442688584779
 30
0.0
 10
103.4355354166952
 20
-121.5891296918248
 30
0.0
 10
103.3907679178373
 20
-121.5443621918362
 30
0.0
 10
103.3356287525774
 20
-121.5443621918362
 30
0.0
 10
103.2805248650943
 20
-121.5443621918362
 30
0.0
 10
103.2357220884595
 20
-121.5891296918248
 30
0.0
 10
103.2357220884595
 20
-121.6442688584779
 30
0.0
 10
103.2357220884595
 20
-121.6993727473528
 30
0.0
 10
103.2805248650943
 20
-121.7441755251195
 30
0.0
 10
103.3356287525774
 20
-121.7441755251195
 30
0.0
 10
103.3907679178373
 20
-121.7441755251195
 30
0.0
 10
103.4355354166952
 20
-121.6993727473528
 30
0.0
 10
103.4355354166952
 20
-121.6442688584779
 30
0.0
  0
SPLINE
  5
68
330
53
100
AcDbEntity
  8
_U+30EC_U+30A4_U+30E4_U+30FC 1
 62
     7
420
 16777215
370
     9
100
AcDbSpline
210
0.0
220
0.0
230
1.0
 70
    11
 71
     3
 72
    17
 73
    13
 74
     0
 42
0.0000000001
 43
0.0000000001
 12
1.0
 22
0.0
 32
0.0
 13
1.0
 23
0.0
 33
0.0
 40
0.0
 40
0.0
 40
0.0
 40
0.0
 40
1.0
 40
1.0
 40
1.0
 40
2.0
 40
2.0
 40
2.0
 40
3.0
 40
3.0
 40
3.0
 40
4.0
 40
4.0
 40
4.0
 40
4.0
 10
107.4352971953631
 20
-126.6441177461169
 30
0.0
 10
107.4352971953631
 20
-126.5890138572417
 30
0.0
 10
107.3905269824616
 20
-126.5442110794749
 30
0.0
 10
107.3353878172017
 20
-126.5442110794749
 30
0.0
 10
107.2802839297186
 20
-126.5442110794749
 30
0.0
 10
107.2354811530838
 20
-126.5890138572417
 30
0.0
 10
107.2354811530838
 20
-126.6441177461169
 30
0.0
 10
107.2354811530838
 20
-126.6992569127697
 30
0.0
 10
107.2802839297186
 20
-126.7440244127585
 30
0.0
 10
107.3353878172017
 20
-126.7440244127585
 30
0.0
 10
107.3905269824616
 20
-126.7440244127585
 30
0.0
 10
107.4352971953631
 20
-126.6992569127697
 30
0.0
 10
107.4352971953631
 20
-126.6441177461169
 30
0.0
  0
SPLINE
  5
69
330
53
100
AcDbEntity
  8
_U+30EC_U+30A4_U+30E4_U+30FC 1
 62
     7
420
 16777215
370
     9
100
AcDbSpline
210
0.0
220
0.0
230
1.0
 70
    11
 71
     3
 72
    17
 73
    13
 74
     0
 42
0.0000000001
 43
0.0000000001
 12
1.0
 22
0.0
 32
0.0
 13
1.0
 23
0.0
 33
0.0
 40
0.0
 40
0.0
 40
0.0
 40
0.0
 40
1.0
 40
1.0
 40
1.0
 40
2.0
 40
2.0
 40
2.0
 40
3.0
 40
3.0
 40
3.0
 40
4.0
 40
4.0
 40
4.0
 40
4.0
 10
107.4352971953631
 20
-125.6440280241444
 30
0.0
 10
107.4352971953631
 20
-125.5888888574917
 30
0.0
 10
107.3905269824616
 20
-125.5440860797249
 30
0.0
 10
107.3353878172017
 20
-125.5440860797249
 30
0.0
 10
107.2802839297186
 20
-125.5440860797249
 30
0.0
 10
107.2354811530838
 20
-125.5888888574917
 30
0.0
 10
107.2354811530838
 20
-125.6440280241444
 30
0.0
 10
107.2354811530838
 20
-125.6991319130197
 30
0.0
 10
107.2802839297186
 20
-125.7439346907864
 30
0.0
 10
107.3353878172017
 20
-125.7439346907864
 30
0.0
 10
107.3905269824616
 20
-125.7439346907864
 30
0.0
 10
107.4352971953631
 20
-125.6991319130197
 30
0.0
 10
107.4352971953631
 20
-125.6440280241444
 30
0.0
  0
SPLINE
  5
6A
330
53
100
AcDbEntity
  8
_U+30EC_U+30A4_U+30E4_U+30FC 1
 62
     7
420
 16777215
370
     9
100
AcDbSpline
210
0.0
220
0.0
230
1.0
 70
    11
 71
     3
 72
    17
 73
    13
 74
     0
 42
0.0000000001
 43
0.0000000001
 12
1.0
 22
0.0
 32
0.0
 13
1.0
 23
0.0
 33
0.0
 40
0.0
 40
0.0
 40
0.0
 40
0.0
 40
1.0
 40
1.0
 40
1.0
 40
2.0
 40
2.0
 40
2.0
 40
3.0
 40
3.0
 40
3.0
 40
4.0
 40
4.0
 40
4.0
 40
4.0
 10
107.4352971953631
 20
-132.8446105223444
 30
0.0
 10
107.4352971953631
 20
-132.7888010779139
 30
0.0
 10
107.3905269824616
 20
-132.7439983001472
 30
0.0
 10
107.3353878172017
 20
-132.7439983001472
 30
0.0
 10
107.2802839297186
 20
-132.7439983001472
 30
0.0
 10
107.2354811530838
 20
-132.7888010779139
 30
0.0
 10
107.2354811530838
 20
-132.8446105223444
 30
0.0
 10
107.2354811530838
 20
-132.8997144112193
 30
0.0
 10
107.2802839297186
 20
-132.944517188986
 30
0.0
 10
107.3353878172017
 20
-132.944517188986
 30
0.0
 10
107.3905269824616
 20
-132.944517188986
 30
0.0
 10
107.4352971953631
 20
-132.8997144112193
 30
0.0
 10
107.4352971953631
 20
-132.8446105223444
 30
0.0
  0
SPLINE
  5
6B
330
53
100
AcDbEntity
  8
_U+30EC_U+30A4_U+30E4_U+30FC 1
 62
     7
420
 16777215
370
     9
100
AcDbSpline
210
0.0
220
0.0
230
1.0
 70
    11
 71
     3
 72
    17
 73
    13
 74
     0
 42
0.0000000001
 43
0.0000000001
 12
1.0
 22
0.0
 32
0.0
 13
1.0
 23
0.0
 33
0.0
 40
0.0
 40
0.0
 40
0.0
 40
0.0
 40
1.0
 40
1.0
 40
1.0
 40
2.0
 40
2.0
 40
2.0
 40
3.0
 40
3.0
 40
3.0
 40
4.0
 40
4.0
 40
4.0
 40
4.0
 10
83.4352231491679
 20
-137.8441419099832
 30
0.0
 10
83.4352231491679
 20
-137.7890027433307
 30
0.0
 10
83.39042037253313
 20
-137.7442352433415
 30
0.0
 10
83.33531648505006
 20
-137.7442352433415
 30
0.0
 10
83.28017731979011
 20
-137.7442352433415
 30
0.0
 10
83.23540982093223
 20
-137.7890027433307
 30
0.0
 10
83.23540982093223
 20
-137.8441419099832
 30
0.0
 10
83.23540982093223
 20
-137.8992457988587
 30
0.0
 10
83.28017731979011
 20
-137.9440485766248
 30
0.0
 10
83.33531648505006
 20
-137.9440485766248
 30
0.0
 10
83.39042037253313
 20
-137.9440485766248
 30
0.0
 10
83.4352231491679
 20
-137.8992457988587
 30
0.0
 10
83.4352231491679
 20
-137.8441419099832
 30
0.0
  0
SPLINE
  5
6C
330
53
100
AcDbEntity
  8
_U+30EC_U+30A4_U+30E4_U+30FC 1
 62
     7
420
 16777215
370
     9
100
AcDbSpline
210
0.0
220
0.0
230
1.0
 70
    11
 71
     3
 72
    17
 73
    13
 74
     0
 42
0.0000000001
 43
0.0000000001
 12
1.0
 22
0.0
 32
0.0
 13
1.0
 23
0.0
 33
0.0
 40
0.0
 40
0.0
 40
0.0
 40
0.0
 40
1.0
 40
1.0
 40
1.0
 40
2.0
 40
2.0
 40
2.0
 40
3.0
 40
3.0
 40
3.0
 40
4.0
 40
4.0
 40
4.0
 40
4.0
 10
91.43488238952403
 20
-137.8441419099832
 30
0.0
 10
91.43488238952403
 20
-137.7890027433307
 30
0.0
 10
91.39011489066615
 20
-137.7442352433415
 30
0.0
 10
91.3351521142906
 20
-137.7442352433415
 30
0.0
 10
91.27969544903874
 20
-137.7442352433415
 30
0.0
 10
91.23492795018085
 20
-137.7890027433307
 30
0.0
 10
91.23492795018085
 20
-137.8441419099832
 30
0.0
 10
91.23492795018085
 20
-137.8992457988587
 30
0.0
 10
91.27969544903874
 20
-137.9440485766248
 30
0.0
 10
91.3351521142906
 20
-137.9440485766248
 30
0.0
 10
91.39011489066615
 20
-137.9440485766248
 30
0.0
 10
91.43488238952403
 20
-137.8992457988587
 30
0.0
 10
91.43488238952403
 20
-137.8441419099832
 30
0.0
  0
SPLINE
  5
6D
330
53
100
AcDbEntity
  8
_U+30EC_U+30A4_U+30E4_U+30FC 1
 62
     7
420
 16777215
370
     9
100
AcDbSpline
210
0.0
220
0.0
230
1.0
 70
    11
 71
     3
 72
    17
 73
    13
 74
     0
 42
0.0000000001
 43
0.0000000001
 12
1.0
 22
0.0
 32
0.0
 13
1.0
 23
0.0
 33
0.0
 40
0.0
 40
0.0
 40
0.0
 40
0.0
 40
1.0
 40
1.0
 40
1.0
 40
2.0
 40
2.0
 40
2.0
 40
3.0
 40
3.0
 40
3.0
 40
4.0
 40
4.0
 40
4.0
 40
4.0
 10
73.43841840420764
 20
-137.8441419099832
 30
0.0
 10
73.43841840420764
 20
-137.7890027433307
 30
0.0
 10
73.39361562757287
 20
-137.7442352433415
 30
0.0
 10
73.3385117400898
 20
-137.7442352433415
 30
0.0
 10
73.28301979706107
 20
-137.7442352433415
 30
0.0
 10
73.2382522982032
 20
-137.7890027433307
 30
0.0
 10
73.2382522982032
 20
-137.8441419099832
 30
0.0
 10
73.2382522982032
 20
-137.8992457988587
 30
0.0
 10
73.28301979706107
 20
-137.9440485766248
 30
0.0
 10
73.3385117400898
 20
-137.9440485766248
 30
0.0
 10
73.39361562757287
 20
-137.9440485766248
 30
0.0
 10
73.43841840420764
 20
-137.8992457988587
 30
0.0
 10
73.43841840420764
 20
-137.8441419099832
 30
0.0
  0
INSERT
  5
6F
330
53
100
AcDbEntity
  8
_U+30EC_U+30A4_U+30E4_U+30FC 1
100
AcDbBlockReference
  2
block 4
 10
0.0
 20
0.0
 30
0.0
  0
INSERT
  5
89
330
53
100
AcDbEntity
  8
_U+30EC_U+30A4_U+30E4_U+30FC 1
100
AcDbBlockReference
  2
block 6
 10
0.0
 20
0.0
 30
0.0
  0
POLYLINE
  5
A5
330
53
100
AcDbEntity
  8
_U+30EC_U+30A4_U+30E4_U+30FC 1
 62
     7
420
 16777215
370
     9
100
AcDb2dPolyline
 66
     1
 10
0.0
 20
0.0
 30
0.0
  0
VERTEX
  5
A6
330
A5
100
AcDbEntity
  8
_U+30EC_U+30A4_U+30E4_U+30FC 1
 62
     7
420
 16777215
370
     9
100
AcDbVertex
100
AcDb2dVertex
 10
73.33505451795578
 20
-121.6442688584779
 30
0.0
  0
VERTEX
  5
A7
330
A5
100
AcDbEntity
  8
_U+30EC_U+30A4_U+30E4_U+30FC 1
 62
     7
420
 16777215
370
     9
100
AcDbVertex
100
AcDb2dVertex
 10
103.3356287525774
 20
-121.6442688584779
 30
0.0
  0
SEQEND
  5
A8
330
A5
100
AcDbEntity
  8
_U+30EC_U+30A4_U+30E4_U+30FC 1
 62
     7
420
 16777215
370
     9
  0
POLYLINE
  5
A9
330
53
100
AcDbEntity
  8
_U+30EC_U+30A4_U+30E4_U+30FC 1
 62
     7
420
 16777215
370
     9
100
AcDb2dPolyline
 66
     1
 10
0.0
 20
0.0
 30
0.0
  0
VERTEX
  5
AA
330
A9
100
AcDbEntity
  8
_U+30EC_U+30A4_U+30E4_U+30FC 1
 62
     7
420
 16777215
370
     9
100
AcDbVertex
100
AcDb2dVertex
 10
73.3385117400898
 20
-123.1039574692241
 30
0.0
  0
VERTEX
  5
AB
330
A9
100
AcDbEntity
  8
_U+30EC_U+30A4_U+30E4_U+30FC 1
 62
     7
420
 16777215
370
     9
100
AcDbVertex
100
AcDb2dVertex
 10
73.3385117400898
 20
-120.6437910809501
 30
0.0
  0
SEQEND
  5
AC
330
A9
100
AcDbEntity
  8
_U+30EC_U+30A4_U+30E4_U+30FC 1
 62
     7
420
 16777215
370
     9
  0
POLYLINE
  5
AD
330
53
100
AcDbEntity
  8
_U+30EC_U+30A4_U+30E4_U+30FC 1
 62
     7
420
 16777215
370
     9
100
AcDb2dPolyline
 66
     1
 10
0.0
 20
0.0
 30
0.0
  0
VERTEX
  5
AE
330
AD
100
AcDbEntity
  8
_U+30EC_U+30A4_U+30E4_U+30FC 1
 62
     7
420
 16777215
370
     9
100
AcDbVertex
100
AcDb2dVertex
 10
103.3356287525774
 20
-123.1039574692241
 30
0.0
  0
VERTEX
  5
AF
330
AD
100
AcDbEntity
  8
_U+30EC_U+30A4_U+30E4_U+30FC 1
 62
     7
420
 16777215
370
     9
100
AcDbVertex
100
AcDb2dVertex
 10
103.3356287525774
 20
-120.6437910809501
 30
0.0
  0
SEQEND
  5
B0
330
AD
100
AcDbEntity
  8
_U+30EC_U+30A4_U+30E4_U+30FC 1
 62
     7
420
 16777215
370
     9
  0
INSERT
  5
B2
330
53
100
AcDbEntity
  8
_U+30EC_U+30A4_U+30E4_U+30FC 1
100
AcDbBlockReference
  2
block 8
 10
0.0
 20
0.0
 30
0.0
  0
POLYLINE
  5
BA
330
53
100
AcDbEntity
  8
_U+30EC_U+30A4_U+30E4_U+30FC 1
 62
     7
420
 16777215
370
     9
100
AcDb2dPolyline
 66
     1
 10
0.0
 20
0.0
 30
0.0
  0
VERTEX
  5
BB
330
BA
100
AcDbEntity
  8
_U+30EC_U+30A4_U+30E4_U+30FC 1
 62
     7
420
 16777215
370
     9
100
AcDbVertex
100
AcDb2dVertex
 10
83.33531648505006
 20
-137.8441419099832
 30
0.0
  0
VERTEX
  5
BC
330
BA
100
AcDbEntity
  8
_U+30EC_U+30A4_U+30E4_U+30FC 1
 62
     7
420
 16777215
370
     9
100
AcDbVertex
100
AcDb2dVertex
 10
73.33505451795578
 20
-137.8441419099832
 30
0.0
  0
SEQEND
  5
BD
330
BA
100
AcDbEntity
  8
_U+30EC_U+30A4_U+30E4_U+30FC 1
 62
     7
420
 16777215
370
     9
  0
POLYLINE
  5
BE
330
53
100
AcDbEntity
  8
_U+30EC_U+30A4_U+30E4_U+30FC 1
 62
     7
420
 16777215
370
     9
100
AcDb2dPolyline
 66
     1
 10
0.0
 20
0.0
 30
0.0
  0
VERTEX
  5
BF
330
BE
100
AcDbEntity
  8
_U+30EC_U+30A4_U+30E4_U+30FC 1
 62
     7
420
 16777215
370
     9
100
AcDbVertex
100
AcDb2dVertex
 10
83.33531648505006
 20
-136.3841005214595
 30
0.0
  0
VERTEX
  5
C0
330
BE
100
AcDbEntity
  8
_U+30EC_U+30A4_U+30E4_U+30FC 1
 62
     7
420
 16777215
370
     9
100
AcDbVertex
100
AcDb2dVertex
 10
83.33531648505006
 20
-138.8445844097331
 30
0.0
  0
SEQEND
  5
C1
330
BE
100
AcDbEntity
  8
_U+30EC_U+30A4_U+30E4_U+30FC 1
 62
     7
420
 16777215
370
     9
  0
POLYLINE
  5
C2
330
53
100
AcDbEntity
  8
_U+30EC_U+30A4_U+30E4_U+30FC 1
 62
     7
420
 16777215
370
     9
100
AcDb2dPolyline
 66
     1
 10
0.0
 20
0.0
 30
0.0
  0
VERTEX
  5
C3
330
C2
100
AcDbEntity
  8
_U+30EC_U+30A4_U+30E4_U+30FC 1
 62
     7
420
 16777215
370
     9
100
AcDbVertex
100
AcDb2dVertex
 10
73.3385117400898
 20
-129.184541078815
 30
0.0
  0
VERTEX
  5
C4
330
C2
100
AcDbEntity
  8
_U+30EC_U+30A4_U+30E4_U+30FC 1
 62
     7
420
 16777215
370
     9
100
AcDbVertex
100
AcDb2dVertex
 10
73.3385117400898
 20
-138.8445844097331
 30
0.0
  0
SEQEND
  5
C5
330
C2
100
AcDbEntity
  8
_U+30EC_U+30A4_U+30E4_U+30FC 1
 62
     7
420
 16777215
370
     9
  0
INSERT
  5
C7
330
53
100
AcDbEntity
  8
_U+30EC_U+30A4_U+30E4_U+30FC 1
100
AcDbBlockReference
  2
block 9
 10
0.0
 20
0.0
 30
0.0
  0
INSERT
  5
D0
330
53
100
AcDbEntity
  8
_U+30EC_U+30A4_U+30E4_U+30FC 1
100
AcDbBlockReference
  2
block 10
 10
0.0
 20
0.0
 30
0.0
  0
ENDBLK
  5
56
330
53
100
AcDbEntity
  8
0
100
AcDbBlockEnd
  0
BLOCK
  5
70
330
6E
100
AcDbEntity
  8
0
100
AcDbBlockBegin
  2
block 4
 70
     0
 10
0.0
 20
0.0
 30
0.0
  3
block 4
  1

  0
POLYLINE
  5
72
330
6E
100
AcDbEntity
  8
_U+30EC_U+30A4_U+30E4_U+30FC 1
 62
     7
420
 16777215
370
     9
100
AcDb2dPolyline
 66
     1
 10
0.0
 20
0.0
 30
0.0
  0
VERTEX
  5
73
330
72
100
AcDbEntity
  8
_U+30EC_U+30A4_U+30E4_U+30FC 1
 62
     7
420
 16777215
370
     9
100
AcDbVertex
100
AcDb2dVertex
 10
107.3353878172017
 20
-125.6440280241444
 30
0.0
  0
VERTEX
  5
74
330
72
100
AcDbEntity
  8
_U+30EC_U+30A4_U+30E4_U+30FC 1
 62
     7
420
 16777215
370
     9
100
AcDbVertex
100
AcDb2dVertex
 10
107.3353878172017
 20
-121.873715525087
 30
0.0
  0
SEQEND
  5
75
330
72
100
AcDbEntity
  8
_U+30EC_U+30A4_U+30E4_U+30FC 1
 62
     7
420
 16777215
370
     9
  0
POLYLINE
  5
76
330
6E
100
AcDbEntity
  8
_U+30EC_U+30A4_U+30E4_U+30FC 1
 62
     7
420
 16777215
370
     9
100
AcDb2dPolyline
 66
     1
 10
0.0
 20
0.0
 30
0.0
  0
VERTEX
  5
77
330
76
100
AcDbEntity
  8
_U+30EC_U+30A4_U+30E4_U+30FC 1
 62
     7
420
 16777215
370
     9
100
AcDbVertex
100
AcDb2dVertex
 10
107.3353878172017
 20
-126.6441177461169
 30
0.0
  0
VERTEX
  5
78
330
76
100
AcDbEntity
  8
_U+30EC_U+30A4_U+30E4_U+30FC 1
 62
     7
420
 16777215
370
     9
100
AcDbVertex
100
AcDb2dVertex
 10
107.3353878172017
 20
-125.6440280241444
 30
0.0
  0
SEQEND
  5
79
330
76
100
AcDbEntity
  8
_U+30EC_U+30A4_U+30E4_U+30FC 1
 62
     7
420
 16777215
370
     9
  0
POLYLINE
  5
7A
330
6E
100
AcDbEntity
  8
_U+30EC_U+30A4_U+30E4_U+30FC 1
 62
     7
420
 16777215
370
     9
100
AcDb2dPolyline
 66
     1
 10
0.0
 20
0.0
 30
0.0
  0
VERTEX
  5
7B
330
7A
100
AcDbEntity
  8
_U+30EC_U+30A4_U+30E4_U+30FC 1
 62
     7
420
 16777215
370
     9
100
AcDbVertex
100
AcDb2dVertex
 10
105.8753464655615
 20
-126.6441177461169
 30
0.0
  0
VERTEX
  5
7C
330
7A
100
AcDbEntity
  8
_U+30EC_U+30A4_U+30E4_U+30FC 1
 62
     7
420
 16777215
370
     9
100
AcDbVertex
100
AcDb2dVertex
 10
108.3358655694551
 20
-126.6441177461169
 30
0.0
  0
SEQEND
  5
7D
330
7A
100
AcDbEntity
  8
_U+30EC_U+30A4_U+30E4_U+30FC 1
 62
     7
420
 16777215
370
     9
  0
POLYLINE
  5
7E
330
6E
100
AcDbEntity
  8
_U+30EC_U+30A4_U+30E4_U+30FC 1
 62
     7
420
 16777215
370
     9
100
AcDb2dPolyline
 66
     1
 10
0.0
 20
0.0
 30
0.0
  0
VERTEX
  5
7F
330
7E
100
AcDbEntity
  8
_U+30EC_U+30A4_U+30E4_U+30FC 1
 62
     7
420
 16777215
370
     9
100
AcDbVertex
100
AcDb2dVertex
 10
105.8753464655615
 20
-125.6440280241444
 30
0.0
  0
VERTEX
  5
80
330
7E
100
AcDbEntity
  8
_U+30EC_U+30A4_U+30E4_U+30FC 1
 62
     7
420
 16777215
370
     9
100
AcDbVertex
100
AcDb2dVertex
 10
108.3358655694551
 20
-125.6440280241444
 30
0.0
  0
SEQEND
  5
81
330
7E
100
AcDbEntity
  8
_U+30EC_U+30A4_U+30E4_U+30FC 1
 62
     7
420
 16777215
370
     9
  0
INSERT
  5
83
330
6E
100
AcDbEntity
  8
_U+30EC_U+30A4_U+30E4_U+30FC 1
100
AcDbBlockReference
  2
block 5
 10
0.0
 20
0.0
 30
0.0
  0
ENDBLK
  5
71
330
6E
100
AcDbEntity
  8
0
100
AcDbBlockEnd
  0
BLOCK
  5
84
330
82
100
AcDbEntity
  8
0
100
AcDbBlockBegin
  2
block 5
 70
     0
 10
0.0
 20
0.0
 30
0.0
  3
block 5
  1

  0
SPLINE
  5
86
330
82
100
AcDbEntity
  8
_U+30EC_U+30A4_U+30E4_U+30FC 1
370
     0
100
AcDbSpline
210
0.0
220
0.0
230
1.0
 70
    11
 71
     3
 72
    26
 73
    22
 74
     0
 42
0.0000000001
 43
0.0000000001
 12
1.0
 22
0.0
 32
0.0
 13
1.0
 23
0.0
 33
0.0
 40
0.0
 40
0.0
 40
0.0
 40
0.0
 40
1.0
 40
1.0
 40
1.0
 40
2.0
 40
2.0
 40
2.0
 40
3.0
 40
3.0
 40
3.0
 40
4.0
 40
4.0
 40
4.0
 40
5.0
 40
5.0
 40
5.0
 40
6.0
 40
6.0
 40
6.0
 40
7.0
 40
7.0
 40
7.0
 40
7.0
 10
106.219184001223
 20
-126.3023681324869
 30
0.0
 10
106.219184001223
 20
-126.3023681324869
 30
0.0
 10
105.1150308982004
 20
-126.3023681324869
 30
0.0
 10
105.1150308982004
 20
-126.3023681324869
 30
0.0
 10
105.1150308982004
 20
-126.3023681324869
 30
0.0
 10
105.1150308982004
 20
-126.6324082799738
 30
0.0
 10
105.1150308982004
 20
-126.6324082799738
 30
0.0
 10
105.1150308982004
 20
-126.6324082799738
 30
0.0
 10
104.9668917923347
 20
-126.6324082799738
 30
0.0
 10
104.9668917923347
 20
-126.6324082799738
 30
0.0
 10
104.9520778817481
 20
-126.3003010751958
 30
0.0
 10
104.7891248652958
 20
-126.2537922861449
 30
0.0
 10
104.6747476951855
 20
-126.2241644649717
 30
0.0
 10
104.6747476951855
 20
-126.2241644649717
 30
0.0
 10
104.6747476951855
 20
-126.0780924163972
 30
0.0
 10
104.6747476951855
 20
-126.0780924163972
 30
0.0
 10
104.6747476951855
 20
-126.0780924163972
 30
0.0
 10
106.219184001223
 20
-126.0780924163972
 30
0.0
 10
106.219184001223
 20
-126.0780924163972
 30
0.0
 10
106.219184001223
 20
-126.0780924163972
 30
0.0
 10
106.219184001223
 20
-126.3023681324869
 30
0.0
 10
106.219184001223
 20
-126.3023681324869
 30
0.0
  0
HATCH
  5
87
330
82
100
AcDbEntity
  8
_U+30EC_U+30A4_U+30E4_U+30FC 1
 62
     7
420
 16777215
100
AcDbHatch
 10
0.0
 20
0.0
 30
0.0
210
0.0
220
0.0
230
1.0
  2
SOLID
 70
     1
 71
     0
 91
        1
 92
        1
 93
        1
 72
     4
 94
        3
 73
     0
 74
     1
 95
       26
 96
       22
 40
0.0
 40
0.0
 40
0.0
 40
0.0
 40
1.0
 40
1.0
 40
1.0
 40
2.0
 40
2.0
 40
2.0
 40
3.0
 40
3.0
 40
3.0
 40
4.0
 40
4.0
 40
4.0
 40
5.0
 40
5.0
 40
5.0
 40
6.0
 40
6.0
 40
6.0
 40
7.0
 40
7.0
 40
7.0
 40
7.0
 10
106.219184001223
 20
-126.3023681324869
 10
106.219184001223
 20
-126.3023681324869
 10
105.1150308982004
 20
-126.3023681324869
 10
105.1150308982004
 20
-126.3023681324869
 10
105.1150308982004
 20
-126.3023681324869
 10
105.1150308982004
 20
-126.6324082799738
 10
105.1150308982004
 20
-126.6324082799738
 10
105.1150308982004
 20
-126.6324082799738
 10
104.9668917923347
 20
-126.6324082799738
 10
104.9668917923347
 20
-126.6324082799738
 10
104.9520778817481
 20
-126.3003010751958
 10
104.7891248652958
 20
-126.2537922861449
 10
104.6747476951855
 20
-126.2241644649717
 10
104.6747476951855
 20
-126.2241644649717
 10
104.6747476951855
 20
-126.0780924163972
 10
104.6747476951855
 20
-126.0780924163972
 10
104.6747476951855
 20
-126.0780924163972
 10
106.219184001223
 20
-126.0780924163972
 10
106.219184001223
 20
-126.0780924163972
 10
106.219184001223
 20
-126.0780924163972
 10
106.219184001223
 20
-126.3023681324869
 10
106.219184001223
 20
-126.3023681324869
 97
        0
 97
        0
 75
     2
 76
     1
 98
        0
  0
ENDBLK
  5
85
330
82
100
AcDbEntity
  8
0
100
AcDbBlockEnd
  0
BLOCK
  5
8A
330
88
100
AcDbEntity
  8
0
100
AcDbBlockBegin
  2
block 6
 70
     0
 10
0.0
 20
0.0
 30
0.0
  3
block 6
  1

  0
POLYLINE
  5
8C
330
88
100
AcDbEntity
  8
_U+30EC_U+30A4_U+30E4_U+30FC 1
 62
     7
420
 16777215
370
     9
100
AcDb2dPolyline
 66
     1
 10
0.0
 20
0.0
 30
0.0
  0
VERTEX
  5
8D
330
8C
100
AcDbEntity
  8
_U+30EC_U+30A4_U+30E4_U+30FC 1
 62
     7
420
 16777215
370
     9
100
AcDbVertex
100
AcDb2dVertex
 10
107.3353878172017
 20
-126.6441177461169
 30
0.0
  0
VERTEX
  5
8E
330
8C
100
AcDbEntity
  8
_U+30EC_U+30A4_U+30E4_U+30FC 1
 62
     7
420
 16777215
370
     9
100
AcDbVertex
100
AcDb2dVertex
 10
107.3353878172017
 20
-132.8446105223444
 30
0.0
  0
SEQEND
  5
8F
330
8C
100
AcDbEntity
  8
_U+30EC_U+30A4_U+30E4_U+30FC 1
 62
     7
420
 16777215
370
     9
  0
POLYLINE
  5
90
330
88
100
AcDbEntity
  8
_U+30EC_U+30A4_U+30E4_U+30FC 1
 62
     7
420
 16777215
370
     9
100
AcDb2dPolyline
 66
     1
 10
0.0
 20
0.0
 30
0.0
  0
VERTEX
  5
91
330
90
100
AcDbEntity
  8
_U+30EC_U+30A4_U+30E4_U+30FC 1
 62
     7
420
 16777215
370
     9
100
AcDbVertex
100
AcDb2dVertex
 10
93.87539899392793
 20
-132.8446105223444
 30
0.0
  0
VERTEX
  5
92
330
90
100
AcDbEntity
  8
_U+30EC_U+30A4_U+30E4_U+30FC 1
 62
     7
420
 16777215
370
     9
100
AcDbVertex
100
AcDb2dVertex
 10
108.3358655694551
 20
-132.8446105223444
 30
0.0
  0
SEQEND
  5
93
330
90
100
AcDbEntity
  8
_U+30EC_U+30A4_U+30E4_U+30FC 1
 62
     7
420
 16777215
370
     9
  0
INSERT
  5
95
330
88
100
AcDbEntity
  8
_U+30EC_U+30A4_U+30E4_U+30FC 1
100
AcDbBlockReference
  2
block 7
 10
0.0
 20
0.0
 30
0.0
  0
ENDBLK
  5
8B
330
88
100
AcDbEntity
  8
0
100
AcDbBlockEnd
  0
BLOCK
  5
96
330
94
100
AcDbEntity
  8
0
100
AcDbBlockBegin
  2
block 7
 70
     0
 10
0.0
 20
0.0
 30
0.0
  3
block 7
  1

  0
SPLINE
  5
98
330
94
100
AcDbEntity
  8
_U+30EC_U+30A4_U+30E4_U+30FC 1
370
     0
100
AcDbSpline
210
0.0
220
0.0
230
1.0
 70
    11
 71
     3
 72
    32
 73
    28
 74
     0
 42
0.0000000001
 43
0.0000000001
 12
1.0
 22
0.0
 32
0.0
 13
1.0
 23
0.0
 33
0.0
 40
0.0
 40
0.0
 40
0.0
 40
0.0
 40
1.0
 40
1.0
 40
1.0
 40
2.0
 40
2.0
 40
2.0
 40
3.0
 40
3.0
 40
3.0
 40
4.0
 40
4.0
 40
4.0
 40
5.0
 40
5.0
 40
5.0
 40
6.0
 40
6.0
 40
6.0
 40
7.0
 40
7.0
 40
7.0
 40
8.0
 40
8.0
 40
8.0
 40
9.0
 40
9.0
 40
9.0
 40
9.0
 10
106.7404269481413
 20
-130.6018472980787
 30
0.0
 10
106.7404269481413
 20
-131.1179226017691
 30
0.0
 10
106.1864555941131
 20
-131.1265353404823
 30
0.0
 10
105.9725151644791
 20
-131.1265353404823
 30
0.0
 10
105.7420382765159
 20
-131.1265353404823
 30
0.0
 10
105.0947048348374
 20
-131.1072428057649
 30
0.0
 10
105.0947048348374
 20
-130.5636067381924
 30
0.0
 10
105.0947048348374
 20
-130.3903184352844
 30
0.0
 10
105.164640273188
 20
-130.1446831271861
 30
0.0
 10
105.4967474779661
 20
-130.1067870768483
 30
0.0
 10
105.4967474779661
 20
-130.1067870768483
 30
0.0
 10
105.4967474779661
 20
-130.3203829969338
 30
0.0
 10
105.4967474779661
 20
-130.3203829969338
 30
0.0
 10
105.439558892911
 20
-130.3310627929381
 30
0.0
 10
105.2914197870452
 20
-130.3627576714024
 30
0.0
 10
105.2914197870452
 20
-130.5656737954836
 30
0.0
 10
105.2914197870452
 20
-130.8578178926328
 30
0.0
 10
105.619392877241
 20
-130.8977810002617
 30
0.0
 10
105.8243760586134
 20
-130.9105278535571
 30
0.0
 10
105.7461723910982
 20
-130.8175102754554
 30
0.0
 10
105.6869167487519
 20
-130.7496418943959
 30
0.0
 10
105.6869167487519
 20
-130.5677408527747
 30
0.0
 10
105.6869167487519
 20
-130.3879068684447
 30
0.0
 10
105.7950927469887
 20
-130.0854274848398
 30
0.0
 10
106.2012695046997
 20
-130.0854274848398
 30
0.0
 10
106.5206298561824
 20
-130.0854274848398
 30
0.0
 10
106.7404269481413
 20
-130.2845540038872
 30
0.0
 10
106.7404269481413
 20
-130.6018472980787
 30
0.0
  0
SPLINE
  5
99
330
94
100
AcDbEntity
  8
_U+30EC_U+30A4_U+30E4_U+30FC 1
370
     0
100
AcDbSpline
210
0.0
220
0.0
230
1.0
 70
    11
 71
     3
 72
    17
 73
    13
 74
     0
 42
0.0000000001
 43
0.0000000001
 12
1.0
 22
0.0
 32
0.0
 13
1.0
 23
0.0
 33
0.0
 40
0.0
 40
0.0
 40
0.0
 40
0.0
 40
1.0
 40
1.0
 40
1.0
 40
2.0
 40
2.0
 40
2.0
 40
3.0
 40
3.0
 40
3.0
 40
4.0
 40
4.0
 40
4.0
 40
4.0
 10
105.8815646436685
 20
-130.584966330201
 30
0.0
 10
105.8815646436685
 20
-130.8471380966285
 30
0.0
 10
106.0930935064628
 20
-130.8850341469662
 30
0.0
 10
106.2095377338643
 20
-130.8850341469662
 30
0.0
 10
106.385237603612
 20
-130.8850341469662
 30
0.0
 10
106.5481906200643
 20
-130.7899495115734
 30
0.0
 10
106.5481906200643
 20
-130.605981412661
 30
0.0
 10
106.5481906200643
 20
-130.4854030706773
 30
0.0
 10
106.488934977718
 20
-130.3097032009295
 30
0.0
 10
106.2033365619908
 20
-130.3097032009295
 30
0.0
 10
105.9790608459011
 20
-130.3097032009295
 30
0.0
 10
105.8815646436685
 20
-130.4492295680821
 30
0.0
 10
105.8815646436685
 20
-130.584966330201
 30
0.0
  0
HATCH
  5
9A
330
94
100
AcDbEntity
  8
_U+30EC_U+30A4_U+30E4_U+30FC 1
 62
     7
420
 16777215
100
AcDbHatch
 10
0.0
 20
0.0
 30
0.0
210
0.0
220
0.0
230
1.0
  2
SOLID
 70
     1
 71
     0
 91
        2
 92
        1
 93
        1
 72
     4
 94
        3
 73
     0
 74
     1
 95
       32
 96
       28
 40
0.0
 40
0.0
 40
0.0
 40
0.0
 40
1.0
 40
1.0
 40
1.0
 40
2.0
 40
2.0
 40
2.0
 40
3.0
 40
3.0
 40
3.0
 40
4.0
 40
4.0
 40
4.0
 40
5.0
 40
5.0
 40
5.0
 40
6.0
 40
6.0
 40
6.0
 40
7.0
 40
7.0
 40
7.0
 40
8.0
 40
8.0
 40
8.0
 40
9.0
 40
9.0
 40
9.0
 40
9.0
 10
106.7404269481413
 20
-130.6018472980787
 10
106.7404269481413
 20
-131.1179226017691
 10
106.1864555941131
 20
-131.1265353404823
 10
105.9725151644791
 20
-131.1265353404823
 10
105.7420382765159
 20
-131.1265353404823
 10
105.0947048348374
 20
-131.1072428057649
 10
105.0947048348374
 20
-130.5636067381924
 10
105.0947048348374
 20
-130.3903184352844
 10
105.164640273188
 20
-130.1446831271861
 10
105.4967474779661
 20
-130.1067870768483
 10
105.4967474779661
 20
-130.1067870768483
 10
105.4967474779661
 20
-130.3203829969338
 10
105.4967474779661
 20
-130.3203829969338
 10
105.439558892911
 20
-130.3310627929381
 10
105.2914197870452
 20
-130.3627576714024
 10
105.2914197870452
 20
-130.5656737954836
 10
105.2914197870452
 20
-130.8578178926328
 10
105.619392877241
 20
-130.8977810002617
 10
105.8243760586134
 20
-130.9105278535571
 10
105.7461723910982
 20
-130.8175102754554
 10
105.6869167487519
 20
-130.7496418943959
 10
105.6869167487519
 20
-130.5677408527747
 10
105.6869167487519
 20
-130.3879068684447
 10
105.7950927469887
 20
-130.0854274848398
 10
106.2012695046997
 20
-130.0854274848398
 10
106.5206298561824
 20
-130.0854274848398
 10
106.7404269481413
 20
-130.2845540038872
 10
106.7404269481413
 20
-130.6018472980787
 97
        0
 97
        0
 92
        1
 93
        1
 72
     4
 94
        3
 73
     0
 74
     1
 95
       17
 96
       13
 40
0.0
 40
0.0
 40
0.0
 40
0.0
 40
1.0
 40
1.0
 40
1.0
 40
2.0
 40
2.0
 40
2.0
 40
3.0
 40
3.0
 40
3.0
 40
4.0
 40
4.0
 40
4.0
 40
4.0
 10
105.8815646436685
 20
-130.584966330201
 10
105.8815646436685
 20
-130.8471380966285
 10
106.0930935064628
 20
-130.8850341469662
 10
106.2095377338643
 20
-130.8850341469662
 10
106.385237603612
 20
-130.8850341469662
 10
106.5481906200643
 20
-130.7899495115734
 10
106.5481906200643
 20
-130.605981412661
 10
106.5481906200643
 20
-130.4854030706773
 10
106.488934977718
 20
-130.3097032009295
 10
106.2033365619908
 20
-130.3097032009295
 10
105.9790608459011
 20
-130.3097032009295
 10
105.8815646436685
 20
-130.4492295680821
 10
105.8815646436685
 20
-130.584966330201
 97
        0
 97
        0
 75
     2
 76
     1
 98
        0
  0
POLYLINE
  5
9B
330
94
100
AcDbEntity
  8
_U+30EC_U+30A4_U+30E4_U+30FC 1
370
     0
100
AcDb2dPolyline
 66
     1
 10
0.0
 20
0.0
 30
0.0
  0
VERTEX
  5
9C
330
9B
100
AcDbEntity
  8
_U+30EC_U+30A4_U+30E4_U+30FC 1
370
     0
100
AcDbVertex
100
AcDb2dVertex
 10
106.6897840445081
 20
-129.8690754883661
 30
0.0
  0
VERTEX
  5
9D
330
9B
100
AcDbEntity
  8
_U+30EC_U+30A4_U+30E4_U+30FC 1
370
     0
100
AcDbVertex
100
AcDb2dVertex
 10
106.4379475645363
 20
-129.8690754883661
 30
0.0
  0
VERTEX
  5
9E
330
9B
100
AcDbEntity
  8
_U+30EC_U+30A4_U+30E4_U+30FC 1
370
     0
100
AcDbVertex
100
AcDb2dVertex
 10
106.4379475645363
 20
-129.6172390083943
 30
0.0
  0
VERTEX
  5
9F
330
9B
100
AcDbEntity
  8
_U+30EC_U+30A4_U+30E4_U+30FC 1
370
     0
100
AcDbVertex
100
AcDb2dVertex
 10
106.6897840445081
 20
-129.6172390083943
 30
0.0
  0
VERTEX
  5
A0
330
9B
100
AcDbEntity
  8
_U+30EC_U+30A4_U+30E4_U+30FC 1
370
     0
100
AcDbVertex
100
AcDb2dVertex
 10
106.6897840445081
 20
-129.8690754883661
 30
0.0
  0
SEQEND
  5
A1
330
9B
100
AcDbEntity
  8
_U+30EC_U+30A4_U+30E4_U+30FC 1
370
     0
  0
HATCH
  5
A2
330
94
100
AcDbEntity
  8
_U+30EC_U+30A4_U+30E4_U+30FC 1
 62
     7
420
 16777215
100
AcDbHatch
 10
0.0
 20
0.0
 30
0.0
210
0.0
220
0.0
230
1.0
  2
SOLID
 70
     1
 71
     0
 91
        1
 92
        1
 93
        4
 72
     1
 10
106.6897840445081
 20
-129.8690754883661
 11
106.4379475645363
 21
-129.8690754883661
 72
     1
 10
106.4379475645363
 20
-129.8690754883661
 11
106.4379475645363
 21
-129.6172390083943
 72
     1
 10
106.4379475645363
 20
-129.6172390083943
 11
106.6897840445081
 21
-129.6172390083943
 72
     1
 10
106.6897840445081
 20
-129.6172390083943
 11
106.6897840445081
 21
-129.8690754883661
 97
        0
 75
     2
 76
     1
 98
        0
  0
SPLINE
  5
A3
330
94
100
AcDbEntity
  8
_U+30EC_U+30A4_U+30E4_U+30FC 1
370
     0
100
AcDbSpline
210
0.0
220
0.0
230
1.0
 70
    11
 71
     3
 72
    44
 73
    40
 74
     0
 42
0.0000000001
 43
0.0000000001
 12
1.0
 22
0.0
 32
0.0
 13
1.0
 23
0.0
 33
0.0
 40
0.0
 40
0.0
 40
0.0
 40
0.0
 40
1.0
 40
1.0
 40
1.0
 40
2.0
 40
2.0
 40
2.0
 40
3.0
 40
3.0
 40
3.0
 40
4.0
 40
4.0
 40
4.0
 40
5.0
 40
5.0
 40
5.0
 40
6.0
 40
6.0
 40
6.0
 40
7.0
 40
7.0
 40
7.0
 40
8.0
 40
8.0
 40
8.0
 40
9.0
 40
9.0
 40
9.0
 40
10.0
 40
10.0
 40
10.0
 40
11.0
 40
11.0
 40
11.0
 40
12.0
 40
12.0
 40
12.0
 40
13.0
 40
13.0
 40
13.0
 40
13.0
 10
106.1079074170494
 20
-128.7880045250947
 30
0.0
 10
106.2667263189194
 20
-129.0057345597625
 30
0.0
 10
106.3407958718523
 20
-129.0987521378642
 30
0.0
 10
106.4844563535872
 20
-129.1476724937548
 30
0.0
 10
106.4844563535872
 20
-129.1476724937548
 30
0.0
 10
106.4844563535872
 20
-128.3690809140883
 30
0.0
 10
106.4844563535872
 20
-128.3690809140883
 30
0.0
 10
106.4844563535872
 20
-128.3690809140883
 30
0.0
 10
106.6897840445081
 20
-128.3690809140883
 30
0.0
 10
106.6897840445081
 20
-128.3690809140883
 30
0.0
 10
106.6897840445081
 20
-128.3690809140883
 30
0.0
 10
106.6897840445081
 20
-129.3970974068868
 30
0.0
 10
106.6897840445081
 20
-129.3970974068868
 30
0.0
 10
106.3321831331392
 20
-129.3654025284225
 30
0.0
 10
106.253979465624
 20
-129.2999457142028
 30
0.0
 10
105.9556341966014
 20
-128.9147840389519
 30
0.0
 10
105.7568521871025
 20
-128.6588134443978
 30
0.0
 10
105.688983806043
 20
-128.5933566301781
 30
0.0
 10
105.5515244961816
 20
-128.5933566301781
 30
0.0
 10
105.433013211489
 20
-128.5933566301781
 30
0.0
 10
105.3020995830495
 20
-128.6653591258198
 30
0.0
 10
105.3020995830495
 20
-128.8620740780275
 30
0.0
 10
105.3020995830495
 20
-129.1221787871639
 30
0.0
 10
105.5325764710127
 20
-129.1304470163285
 30
0.0
 10
105.6490206984141
 20
-129.1349256404593
 30
0.0
 10
105.6490206984141
 20
-129.1349256404593
 30
0.0
 10
105.6490206984141
 20
-129.3592013565491
 30
0.0
 10
105.6490206984141
 20
-129.3592013565491
 30
0.0
 10
105.5218966750084
 20
-129.350588617836
 30
0.0
 10
105.4099310717378
 20
-129.3399088218317
 30
0.0
 10
105.2914197870452
 20
-129.2596380970254
 30
0.0
 10
105.130533827884
 20
-129.1497395510459
 30
0.0
 10
105.0967718921286
 20
-128.9633598852939
 30
0.0
 10
105.0967718921286
 20
-128.847260167441
 30
0.0
 10
105.0967718921286
 20
-128.5699299808784
 30
0.0
 10
105.2807399910409
 20
-128.3625352326663
 30
0.0
 10
105.5535915534727
 20
-128.3625352326663
 30
0.0
 10
105.7823458936933
 20
-128.3625352326663
 30
0.0
 10
105.8815646436685
 20
-128.4789794600678
 30
0.0
 10
106.1079074170494
 20
-128.7880045250947
 30
0.0
  0
HATCH
  5
A4
330
94
100
AcDbEntity
  8
_U+30EC_U+30A4_U+30E4_U+30FC 1
 62
     7
420
 16777215
100
AcDbHatch
 10
0.0
 20
0.0
 30
0.0
210
0.0
220
0.0
230
1.0
  2
SOLID
 70
     1
 71
     0
 91
        1
 92
        1
 93
        1
 72
     4
 94
        3
 73
     0
 74
     1
 95
       44
 96
       40
 40
0.0
 40
0.0
 40
0.0
 40
0.0
 40
1.0
 40
1.0
 40
1.0
 40
2.0
 40
2.0
 40
2.0
 40
3.0
 40
3.0
 40
3.0
 40
4.0
 40
4.0
 40
4.0
 40
5.0
 40
5.0
 40
5.0
 40
6.0
 40
6.0
 40
6.0
 40
7.0
 40
7.0
 40
7.0
 40
8.0
 40
8.0
 40
8.0
 40
9.0
 40
9.0
 40
9.0
 40
10.0
 40
10.0
 40
10.0
 40
11.0
 40
11.0
 40
11.0
 40
12.0
 40
12.0
 40
12.0
 40
13.0
 40
13.0
 40
13.0
 40
13.0
 10
106.1079074170494
 20
-128.7880045250947
 10
106.2667263189194
 20
-129.0057345597625
 10
106.3407958718523
 20
-129.0987521378642
 10
106.4844563535872
 20
-129.1476724937548
 10
106.4844563535872
 20
-129.1476724937548
 10
106.4844563535872
 20
-128.3690809140883
 10
106.4844563535872
 20
-128.3690809140883
 10
106.4844563535872
 20
-128.3690809140883
 10
106.6897840445081
 20
-128.3690809140883
 10
106.6897840445081
 20
-128.3690809140883
 10
106.6897840445081
 20
-128.3690809140883
 10
106.6897840445081
 20
-129.3970974068868
 10
106.6897840445081
 20
-129.3970974068868
 10
106.3321831331392
 20
-129.3654025284225
 10
106.253979465624
 20
-129.2999457142028
 10
105.9556341966014
 20
-128.9147840389519
 10
105.7568521871025
 20
-128.6588134443978
 10
105.688983806043
 20
-128.5933566301781
 10
105.5515244961816
 20
-128.5933566301781
 10
105.433013211489
 20
-128.5933566301781
 10
105.3020995830495
 20
-128.6653591258198
 10
105.3020995830495
 20
-128.8620740780275
 10
105.3020995830495
 20
-129.1221787871639
 10
105.5325764710127
 20
-129.1304470163285
 10
105.6490206984141
 20
-129.1349256404593
 10
105.6490206984141
 20
-129.1349256404593
 10
105.6490206984141
 20
-129.3592013565491
 10
105.6490206984141
 20
-129.3592013565491
 10
105.5218966750084
 20
-129.350588617836
 10
105.4099310717378
 20
-129.3399088218317
 10
105.2914197870452
 20
-129.2596380970254
 10
105.130533827884
 20
-129.1497395510459
 10
105.0967718921286
 20
-128.9633598852939
 10
105.0967718921286
 20
-128.847260167441
 10
105.0967718921286
 20
-128.5699299808784
 10
105.2807399910409
 20
-128.3625352326663
 10
105.5535915534727
 20
-128.3625352326663
 10
105.7823458936933
 20
-128.3625352326663
 10
105.8815646436685
 20
-128.4789794600678
 10
106.1079074170494
 20
-128.7880045250947
 97
        0
 97
        0
 75
     2
 76
     1
 98
        0
  0
ENDBLK
  5
97
330
94
100
AcDbEntity
  8
0
100
AcDbBlockEnd
  0
BLOCK
  5
B3
330
B1
100
AcDbEntity
  8
0
100
AcDbBlockBegin
  2
block 8
 70
     0
 10
0.0
 20
0.0
 30
0.0
  3
block 8
  1

  0
SPLINE
  5
B5
330
B1
100
AcDbEntity
  8
_U+30EC_U+30A4_U+30E4_U+30FC 1
370
     0
100
AcDbSpline
210
0.0
220
0.0
230
1.0
 70
    11
 71
     3
 72
    62
 73
    58
 74
     0
 42
0.0000000001
 43
0.0000000001
 12
1.0
 22
0.0
 32
0.0
 13
1.0
 23
0.0
 33
0.0
 40
0.0
 40
0.0
 40
0.0
 40
0.0
 40
1.0
 40
1.0
 40
1.0
 40
2.0
 40
2.0
 40
2.0
 40
3.0
 40
3.0
 40
3.0
 40
4.0
 40
4.0
 40
4.0
 40
5.0
 40
5.0
 40
5.0
 40
6.0
 40
6.0
 40
6.0
 40
7.0
 40
7.0
 40
7.0
 40
8.0
 40
8.0
 40
8.0
 40
9.0
 40
9.0
 40
9.0
 40
10.0
 40
10.0
 40
10.0
 40
11.0
 40
11.0
 40
11.0
 40
12.0
 40
12.0
 40
12.0
 40
13.0
 40
13.0
 40
13.0
 40
14.0
 40
14.0
 40
14.0
 40
15.0
 40
15.0
 40
15.0
 40
16.0
 40
16.0
 40
16.0
 40
17.0
 40
17.0
 40
17.0
 40
18.0
 40
18.0
 40
18.0
 40
19.0
 40
19.0
 40
19.0
 40
19.0
 10
87.73848603492303
 20
-121.0485975174809
 30
0.0
 10
87.64322914475586
 20
-121.0485975174809
 30
0.0
 10
87.42532685531381
 20
-121.0274101802466
 30
0.0
 10
87.30061439874777
 20
-120.8412027692689
 30
0.0
 10
87.2265448458149
 20
-120.729064911224
 30
0.0
 10
87.22223847645833
 20
-120.6296739064745
 30
0.0
 10
87.21810436187603
 20
-120.5450968123116
 30
0.0
 10
87.21810436187603
 20
-120.5450968123116
 30
0.0
 10
87.43807370860924
 20
-120.5450968123116
 30
0.0
 10
87.43807370860924
 20
-120.5450968123116
 30
0.0
 10
87.44014076590038
 20
-120.6191663652445
 30
0.0
 10
87.45082056190466
 20
-120.8539496225643
 30
0.0
 10
87.73435192034073
 20
-120.8539496225643
 30
0.0
 10
87.87181123020218
 20
-120.8539496225643
 30
0.0
 10
88.02408445065024
 20
-120.784186438988
 30
0.0
 10
88.02408445065024
 20
-120.5556043535417
 30
0.0
 10
88.02408445065024
 20
-120.4393323809145
 30
0.0
 10
87.98601614553822
 20
-120.3905842797982
 30
0.0
 10
87.95432126707392
 20
-120.3588894013339
 30
0.0
 10
87.88025171414105
 20
-120.284819848401
 30
0.0
 10
87.76380748673961
 20
-120.2722452498799
 30
0.0
 10
87.70885821374988
 20
-120.2722452498799
 30
0.0
 10
87.689910188581
 20
-120.2722452498799
 30
0.0
 10
87.65390894076013
 20
-120.274312307171
 30
0.0
 10
87.62634817687814
 20
-120.2784464217533
 30
0.0
 10
87.62634817687814
 20
-120.2784464217533
 30
0.0
 10
87.62634817687814
 20
-120.0837985268367
 30
0.0
 10
87.62634817687814
 20
-120.0837985268367
 30
0.0
 10
87.66441648199014
 20
-120.0901719534844
 30
0.0
 10
87.70679115645872
 20
-120.0924112655498
 30
0.0
 10
87.71316458310643
 20
-120.0924112655498
 30
0.0
 10
87.77862139732618
 20
-120.0924112655498
 30
0.0
 10
87.97757566159936
 20
-120.0712239283155
 30
0.0
 10
87.97757566159936
 20
-119.8342013589303
 30
0.0
 10
87.97757566159936
 20
-119.6566066866657
 30
0.0
 10
87.84631752361135
 20
-119.6014851589017
 30
0.0
 10
87.73641897763187
 20
-119.6014851589017
 30
0.0
 10
87.47200789913894
 20
-119.6014851589017
 30
0.0
 10
87.46356741520009
 20
-119.8342013589303
 30
0.0
 10
87.45926104584352
 20
-119.9062038545721
 30
0.0
 10
87.45926104584352
 20
-119.9062038545721
 30
0.0
 10
87.25617266698805
 20
-119.9062038545721
 30
0.0
 10
87.25617266698805
 20
-119.9062038545721
 30
0.0
 10
87.2646131509269
 20
-119.7813191432318
 30
0.0
 10
87.2921739148089
 20
-119.404770206694
 30
0.0
 10
87.74899357615304
 20
-119.404770206694
 30
0.0
 10
87.9732692922428
 20
-119.404770206694
 30
0.0
 10
88.2144259762103
 20
-119.5317219753254
 30
0.0
 10
88.2144259762103
 20
-119.8278279322826
 30
0.0
 10
88.2144259762103
 20
-120.0140353432604
 30
0.0
 10
88.11934134081739
 20
-120.0965453801321
 30
0.0
 10
88.01977808129367
 20
-120.1578680797696
 30
0.0
 10
88.08127303570538
 20
-120.1854288436516
 30
0.0
 10
88.26317407732657
 20
-120.2658718232321
 30
0.0
 10
88.26317407732657
 20
-120.5430297550205
 30
0.0
 10
88.26317407732657
 20
-120.8815103864463
 30
0.0
 10
88.01564396671137
 20
-121.0485975174809
 30
0.0
 10
87.73848603492303
 20
-121.0485975174809
 30
0.0
  0
HATCH
  5
B6
330
B1
100
AcDbEntity
  8
_U+30EC_U+30A4_U+30E4_U+30FC 1
 62
     7
420
 16777215
100
AcDbHatch
 10
0.0
 20
0.0
 30
0.0
210
0.0
220
0.0
230
1.0
  2
SOLID
 70
     1
 71
     0
 91
        1
 92
        1
 93
        1
 72
     4
 94
        3
 73
     0
 74
     1
 95
       62
 96
       58
 40
0.0
 40
0.0
 40
0.0
 40
0.0
 40
1.0
 40
1.0
 40
1.0
 40
2.0
 40
2.0
 40
2.0
 40
3.0
 40
3.0
 40
3.0
 40
4.0
 40
4.0
 40
4.0
 40
5.0
 40
5.0
 40
5.0
 40
6.0
 40
6.0
 40
6.0
 40
7.0
 40
7.0
 40
7.0
 40
8.0
 40
8.0
 40
8.0
 40
9.0
 40
9.0
 40
9.0
 40
10.0
 40
10.0
 40
10.0
 40
11.0
 40
11.0
 40
11.0
 40
12.0
 40
12.0
 40
12.0
 40
13.0
 40
13.0
 40
13.0
 40
14.0
 40
14.0
 40
14.0
 40
15.0
 40
15.0
 40
15.0
 40
16.0
 40
16.0
 40
16.0
 40
17.0
 40
17.0
 40
17.0
 40
18.0
 40
18.0
 40
18.0
 40
19.0
 40
19.0
 40
19.0
 40
19.0
 10
87.73848603492303
 20
-121.0485975174809
 10
87.64322914475586
 20
-121.0485975174809
 10
87.42532685531381
 20
-121.0274101802466
 10
87.30061439874777
 20
-120.8412027692689
 10
87.2265448458149
 20
-120.729064911224
 10
87.22223847645833
 20
-120.6296739064745
 10
87.21810436187603
 20
-120.5450968123116
 10
87.21810436187603
 20
-120.5450968123116
 10
87.43807370860924
 20
-120.5450968123116
 10
87.43807370860924
 20
-120.5450968123116
 10
87.44014076590038
 20
-120.6191663652445
 10
87.45082056190466
 20
-120.8539496225643
 10
87.73435192034073
 20
-120.8539496225643
 10
87.87181123020218
 20
-120.8539496225643
 10
88.02408445065024
 20
-120.784186438988
 10
88.02408445065024
 20
-120.5556043535417
 10
88.02408445065024
 20
-120.4393323809145
 10
87.98601614553822
 20
-120.3905842797982
 10
87.95432126707392
 20
-120.3588894013339
 10
87.88025171414105
 20
-120.284819848401
 10
87.76380748673961
 20
-120.2722452498799
 10
87.70885821374988
 20
-120.2722452498799
 10
87.689910188581
 20
-120.2722452498799
 10
87.65390894076013
 20
-120.274312307171
 10
87.62634817687814
 20
-120.2784464217533
 10
87.62634817687814
 20
-120.2784464217533
 10
87.62634817687814
 20
-120.0837985268367
 10
87.62634817687814
 20
-120.0837985268367
 10
87.66441648199014
 20
-120.0901719534844
 10
87.70679115645872
 20
-120.0924112655498
 10
87.71316458310643
 20
-120.0924112655498
 10
87.77862139732618
 20
-120.0924112655498
 10
87.97757566159936
 20
-120.0712239283155
 10
87.97757566159936
 20
-119.8342013589303
 10
87.97757566159936
 20
-119.6566066866657
 10
87.84631752361135
 20
-119.6014851589017
 10
87.73641897763187
 20
-119.6014851589017
 10
87.47200789913894
 20
-119.6014851589017
 10
87.46356741520009
 20
-119.8342013589303
 10
87.45926104584352
 20
-119.9062038545721
 10
87.45926104584352
 20
-119.9062038545721
 10
87.25617266698805
 20
-119.9062038545721
 10
87.25617266698805
 20
-119.9062038545721
 10
87.2646131509269
 20
-119.7813191432318
 10
87.2921739148089
 20
-119.404770206694
 10
87.74899357615304
 20
-119.404770206694
 10
87.9732692922428
 20
-119.404770206694
 10
88.2144259762103
 20
-119.5317219753254
 10
88.2144259762103
 20
-119.8278279322826
 10
88.2144259762103
 20
-120.0140353432604
 10
88.11934134081739
 20
-120.0965453801321
 10
88.01977808129367
 20
-120.1578680797696
 10
88.08127303570538
 20
-120.1854288436516
 10
88.26317407732657
 20
-120.2658718232321
 10
88.26317407732657
 20
-120.5430297550205
 10
88.26317407732657
 20
-120.8815103864463
 10
88.01564396671137
 20
-121.0485975174809
 10
87.73848603492303
 20
-121.0485975174809
 97
        0
 97
        0
 75
     2
 76
     1
 98
        0
  0
SPLINE
  5
B7
330
B1
100
AcDbEntity
  8
_U+30EC_U+30A4_U+30E4_U+30FC 1
370
     0
100
AcDbSpline
210
0.0
220
0.0
230
1.0
 70
    11
 71
     3
 72
    29
 73
    25
 74
     0
 42
0.0000000001
 43
0.0000000001
 12
1.0
 22
0.0
 32
0.0
 13
1.0
 23
0.0
 33
0.0
 40
0.0
 40
0.0
 40
0.0
 40
0.0
 40
1.0
 40
1.0
 40
1.0
 40
2.0
 40
2.0
 40
2.0
 40
3.0
 40
3.0
 40
3.0
 40
4.0
 40
4.0
 40
4.0
 40
5.0
 40
5.0
 40
5.0
 40
6.0
 40
6.0
 40
6.0
 40
7.0
 40
7.0
 40
7.0
 40
8.0
 40
8.0
 40
8.0
 40
8.0
 10
89.32150741039533
 20
-120.8200154320346
 30
0.0
 10
89.21367592170701
 20
-121.0294772375378
 30
0.0
 10
89.04021536402468
 20
-121.0485975174809
 30
0.0
 10
88.92377113662323
 20
-121.0485975174809
 30
0.0
 10
88.76305743223632
 20
-121.0485975174809
 30
0.0
 10
88.6212917530183
 20
-121.00208872843
 30
0.0
 10
88.52603486285113
 20
-120.8200154320346
 30
0.0
 10
88.42250974351937
 20
-120.625367537118
 30
0.0
 10
88.40338946357625
 20
-120.388517222507
 30
0.0
 10
88.40338946357625
 20
-120.2255642060547
 30
0.0
 10
88.40338946357625
 20
-120.0817314695455
 30
0.0
 10
88.42027043145396
 20
-119.830067244348
 30
0.0
 10
88.52603486285113
 20
-119.6311129800749
 30
0.0
 10
88.63403860631372
 20
-119.4280246012194
 30
0.0
 10
88.79475231070062
 20
-119.404770206694
 30
0.0
 10
88.92377113662323
 20
-119.404770206694
 30
0.0
 10
89.08241778371898
 20
-119.404770206694
 30
0.0
 10
89.22625052022816
 20
-119.4492119384537
 30
0.0
 10
89.32150741039533
 20
-119.6311129800749
 30
0.0
 10
89.42089841514478
 20
-119.8236938177003
 30
0.0
 10
89.44415280967021
 20
-120.0521036483724
 30
0.0
 10
89.44415280967021
 20
-120.2255642060547
 30
0.0
 10
89.44415280967021
 20
-120.3969577064459
 30
0.0
 10
89.42313772721019
 20
-120.6276068491834
 30
0.0
 10
89.32150741039533
 20
-120.8200154320346
 30
0.0
  0
SPLINE
  5
B8
330
B1
100
AcDbEntity
  8
_U+30EC_U+30A4_U+30E4_U+30FC 1
370
     0
100
AcDbSpline
210
0.0
220
0.0
230
1.0
 70
    11
 71
     3
 72
    17
 73
    13
 74
     0
 42
0.0000000001
 43
0.0000000001
 12
1.0
 22
0.0
 32
0.0
 13
1.0
 23
0.0
 33
0.0
 40
0.0
 40
0.0
 40
0.0
 40
0.0
 40
1.0
 40
1.0
 40
1.0
 40
2.0
 40
2.0
 40
2.0
 40
3.0
 40
3.0
 40
3.0
 40
4.0
 40
4.0
 40
4.0
 40
4.0
 10
88.92377113662323
 20
-119.5973510443194
 30
0.0
 10
88.67417396871687
 20
-119.5973510443194
 30
0.0
 10
88.62766517966601
 20
-119.8808824027555
 30
0.0
 10
88.62766517966601
 20
-120.2255642060547
 30
0.0
 10
88.62766517966601
 20
-120.5450968123116
 30
0.0
 10
88.66366642748686
 20
-120.8539496225643
 30
0.0
 10
88.92377113662323
 20
-120.8539496225643
 30
0.0
 10
89.17130124723843
 20
-120.8539496225643
 30
0.0
 10
89.22004934835472
 20
-120.5724853214194
 30
0.0
 10
89.22004934835472
 20
-120.2255642060547
 30
0.0
 10
89.22004934835472
 20
-119.9062038545721
 30
0.0
 10
89.1819810432427
 20
-119.5973510443194
 30
0.0
 10
88.92377113662323
 20
-119.5973510443194
 30
0.0
  0
HATCH
  5
B9
330
B1
100
AcDbEntity
  8
_U+30EC_U+30A4_U+30E4_U+30FC 1
 62
     7
420
 16777215
100
AcDbHatch
 10
0.0
 20
0.0
 30
0.0
210
0.0
220
0.0
230
1.0
  2
SOLID
 70
     1
 71
     0
 91
        2
 92
        1
 93
        1
 72
     4
 94
        3
 73
     0
 74
     1
 95
       29
 96
       25
 40
0.0
 40
0.0
 40
0.0
 40
0.0
 40
1.0
 40
1.0
 40
1.0
 40
2.0
 40
2.0
 40
2.0
 40
3.0
 40
3.0
 40
3.0
 40
4.0
 40
4.0
 40
4.0
 40
5.0
 40
5.0
 40
5.0
 40
6.0
 40
6.0
 40
6.0
 40
7.0
 40
7.0
 40
7.0
 40
8.0
 40
8.0
 40
8.0
 40
8.0
 10
89.32150741039533
 20
-120.8200154320346
 10
89.21367592170701
 20
-121.0294772375378
 10
89.04021536402468
 20
-121.0485975174809
 10
88.92377113662323
 20
-121.0485975174809
 10
88.76305743223632
 20
-121.0485975174809
 10
88.6212917530183
 20
-121.00208872843
 10
88.52603486285113
 20
-120.8200154320346
 10
88.42250974351937
 20
-120.625367537118
 10
88.40338946357625
 20
-120.388517222507
 10
88.40338946357625
 20
-120.2255642060547
 10
88.40338946357625
 20
-120.0817314695455
 10
88.42027043145396
 20
-119.830067244348
 10
88.52603486285113
 20
-119.6311129800749
 10
88.63403860631372
 20
-119.4280246012194
 10
88.79475231070062
 20
-119.404770206694
 10
88.92377113662323
 20
-119.404770206694
 10
89.08241778371898
 20
-119.404770206694
 10
89.22625052022816
 20
-119.4492119384537
 10
89.32150741039533
 20
-119.6311129800749
 10
89.42089841514478
 20
-119.8236938177003
 10
89.44415280967021
 20
-120.0521036483724
 10
89.44415280967021
 20
-120.2255642060547
 10
89.44415280967021
 20
-120.3969577064459
 10
89.42313772721019
 20
-120.6276068491834
 10
89.32150741039533
 20
-120.8200154320346
 97
        0
 97
        0
 92
        1
 93
        1
 72
     4
 94
        3
 73
     0
 74
     1
 95
       17
 96
       13
 40
0.0
 40
0.0
 40
0.0
 40
0.0
 40
1.0
 40
1.0
 40
1.0
 40
2.0
 40
2.0
 40
2.0
 40
3.0
 40
3.0
 40
3.0
 40
4.0
 40
4.0
 40
4.0
 40
4.0
 10
88.92377113662323
 20
-119.5973510443194
 10
88.67417396871687
 20
-119.5973510443194
 10
88.62766517966601
 20
-119.8808824027555
 10
88.62766517966601
 20
-120.2255642060547
 10
88.62766517966601
 20
-120.5450968123116
 10
88.66366642748686
 20
-120.8539496225643
 10
88.92377113662323
 20
-120.8539496225643
 10
89.17130124723843
 20
-120.8539496225643
 10
89.22004934835472
 20
-120.5724853214194
 10
89.22004934835472
 20
-120.2255642060547
 10
89.22004934835472
 20
-119.9062038545721
 10
89.1819810432427
 20
-119.5973510443194
 10
88.92377113662323
 20
-119.5973510443194
 97
        0
 97
        0
 75
     2
 76
     1
 98
        0
  0
ENDBLK
  5
B4
330
B1
100
AcDbEntity
  8
0
100
AcDbBlockEnd
  0
BLOCK
  5
C8
330
C6
100
AcDbEntity
  8
0
100
AcDbBlockBegin
  2
block 9
 70
     0
 10
0.0
 20
0.0
 30
0.0
  3
block 9
  1

  0
SPLINE
  5
CA
330
C6
100
AcDbEntity
  8
_U+30EC_U+30A4_U+30E4_U+30FC 1
370
     0
100
AcDbSpline
210
0.0
220
0.0
230
1.0
 70
    11
 71
     3
 72
    26
 73
    22
 74
     0
 42
0.0000000001
 43
0.0000000001
 12
1.0
 22
0.0
 32
0.0
 13
1.0
 23
0.0
 33
0.0
 40
0.0
 40
0.0
 40
0.0
 40
0.0
 40
1.0
 40
1.0
 40
1.0
 40
2.0
 40
2.0
 40
2.0
 40
3.0
 40
3.0
 40
3.0
 40
4.0
 40
4.0
 40
4.0
 40
5.0
 40
5.0
 40
5.0
 40
6.0
 40
6.0
 40
6.0
 40
7.0
 40
7.0
 40
7.0
 40
7.0
 10
77.69913328135647
 20
-137.1978271141381
 30
0.0
 10
77.69913328135647
 20
-137.1978271141381
 30
0.0
 10
77.69913328135647
 20
-136.093329501567
 30
0.0
 10
77.69913328135647
 20
-136.093329501567
 30
0.0
 10
77.69913328135647
 20
-136.093329501567
 30
0.0
 10
77.36909313386954
 20
-136.093329501567
 30
0.0
 10
77.36909313386954
 20
-136.093329501567
 30
0.0
 10
77.36909313386954
 20
-136.093329501567
 30
0.0
 10
77.36909313386954
 20
-135.9455349052497
 30
0.0
 10
77.36909313386954
 20
-135.9455349052497
 30
0.0
 10
77.70120033864762
 20
-135.9307209946631
 30
0.0
 10
77.7477091276985
 20
-135.7677679782109
 30
0.0
 10
77.77733694887164
 20
-135.6533908081005
 30
0.0
 10
77.77733694887164
 20
-135.6533908081005
 30
0.0
 10
77.92340899744623
 20
-135.6533908081005
 30
0.0
 10
77.92340899744623
 20
-135.6533908081005
 30
0.0
 10
77.92340899744623
 20
-135.6533908081005
 30
0.0
 10
77.92340899744623
 20
-137.1978271141381
 30
0.0
 10
77.92340899744623
 20
-137.1978271141381
 30
0.0
 10
77.92340899744623
 20
-137.1978271141381
 30
0.0
 10
77.69913328135647
 20
-137.1978271141381
 30
0.0
 10
77.69913328135647
 20
-137.1978271141381
 30
0.0
  0
HATCH
  5
CB
330
C6
100
AcDbEntity
  8
_U+30EC_U+30A4_U+30E4_U+30FC 1
 62
     7
420
 16777215
100
AcDbHatch
 10
0.0
 20
0.0
 30
0.0
210
0.0
220
0.0
230
1.0
  2
SOLID
 70
     1
 71
     0
 91
        1
 92
        1
 93
        1
 72
     4
 94
        3
 73
     0
 74
     1
 95
       26
 96
       22
 40
0.0
 40
0.0
 40
0.0
 40
0.0
 40
1.0
 40
1.0
 40
1.0
 40
2.0
 40
2.0
 40
2.0
 40
3.0
 40
3.0
 40
3.0
 40
4.0
 40
4.0
 40
4.0
 40
5.0
 40
5.0
 40
5.0
 40
6.0
 40
6.0
 40
6.0
 40
7.0
 40
7.0
 40
7.0
 40
7.0
 10
77.69913328135647
 20
-137.1978271141381
 10
77.69913328135647
 20
-137.1978271141381
 10
77.69913328135647
 20
-136.093329501567
 10
77.69913328135647
 20
-136.093329501567
 10
77.69913328135647
 20
-136.093329501567
 10
77.36909313386954
 20
-136.093329501567
 10
77.36909313386954
 20
-136.093329501567
 10
77.36909313386954
 20
-136.093329501567
 10
77.36909313386954
 20
-135.9455349052497
 10
77.36909313386954
 20
-135.9455349052497
 10
77.70120033864762
 20
-135.9307209946631
 10
77.7477091276985
 20
-135.7677679782109
 10
77.77733694887164
 20
-135.6533908081005
 10
77.77733694887164
 20
-135.6533908081005
 10
77.92340899744623
 20
-135.6533908081005
 10
77.92340899744623
 20
-135.6533908081005
 10
77.92340899744623
 20
-135.6533908081005
 10
77.92340899744623
 20
-137.1978271141381
 10
77.92340899744623
 20
-137.1978271141381
 10
77.92340899744623
 20
-137.1978271141381
 10
77.69913328135647
 20
-137.1978271141381
 10
77.69913328135647
 20
-137.1978271141381
 97
        0
 97
        0
 75
     2
 76
     1
 98
        0
  0
SPLINE
  5
CC
330
C6
100
AcDbEntity
  8
_U+30EC_U+30A4_U+30E4_U+30FC 1
370
     0
100
AcDbSpline
210
0.0
220
0.0
230
1.0
 70
    11
 71
     3
 72
    29
 73
    25
 74
     0
 42
0.0000000001
 43
0.0000000001
 12
1.0
 22
0.0
 32
0.0
 13
1.0
 23
0.0
 33
0.0
 40
0.0
 40
0.0
 40
0.0
 40
0.0
 40
1.0
 40
1.0
 40
1.0
 40
2.0
 40
2.0
 40
2.0
 40
3.0
 40
3.0
 40
3.0
 40
4.0
 40
4.0
 40
4.0
 40
5.0
 40
5.0
 40
5.0
 40
6.0
 40
6.0
 40
6.0
 40
7.0
 40
7.0
 40
7.0
 40
8.0
 40
8.0
 40
8.0
 40
8.0
 10
79.32229001923193
 20
-137.0200601870991
 30
0.0
 10
79.21445853054361
 20
-137.2295219926023
 30
0.0
 10
79.04099797286128
 20
-137.2484700177712
 30
0.0
 10
78.92455374545983
 20
-137.2484700177712
 30
0.0
 10
78.76384004107294
 20
-137.2484700177712
 30
0.0
 10
78.6220743618549
 20
-137.2019612287203
 30
0.0
 10
78.52681747168775
 20
-137.0200601870991
 30
0.0
 10
78.42329235235599
 20
-136.8254122921825
 30
0.0
 10
78.40417207241285
 20
-136.5883897227974
 30
0.0
 10
78.40417207241285
 20
-136.425436706345
 30
0.0
 10
78.40417207241285
 20
-136.2817762246101
 30
0.0
 10
78.42105304029057
 20
-136.0299397446383
 30
0.0
 10
78.52681747168775
 20
-135.8311577351394
 30
0.0
 10
78.63482121515032
 20
-135.6278971015097
 30
0.0
 10
78.79553491953723
 20
-135.6048149617585
 30
0.0
 10
78.92455374545983
 20
-135.6048149617585
 30
0.0
 10
79.0832003925556
 20
-135.6048149617585
 30
0.0
 10
79.22703312906478
 20
-135.6492566935183
 30
0.0
 10
79.32229001923193
 20
-135.8311577351394
 30
0.0
 10
79.42168102398139
 20
-136.0237385727649
 30
0.0
 10
79.44493541850683
 20
-136.252148403437
 30
0.0
 10
79.44493541850683
 20
-136.425436706345
 30
0.0
 10
79.44493541850683
 20
-136.5970024615105
 30
0.0
 10
79.4239203360468
 20
-136.8274793494737
 30
0.0
 10
79.32229001923193
 20
-137.0200601870991
 30
0.0
  0
SPLINE
  5
CD
330
C6
100
AcDbEntity
  8
_U+30EC_U+30A4_U+30E4_U+30FC 1
370
     0
100
AcDbSpline
210
0.0
220
0.0
230
1.0
 70
    11
 71
     3
 72
    17
 73
    13
 74
     0
 42
0.0000000001
 43
0.0000000001
 12
1.0
 22
0.0
 32
0.0
 13
1.0
 23
0.0
 33
0.0
 40
0.0
 40
0.0
 40
0.0
 40
0.0
 40
1.0
 40
1.0
 40
1.0
 40
2.0
 40
2.0
 40
2.0
 40
3.0
 40
3.0
 40
3.0
 40
4.0
 40
4.0
 40
4.0
 40
4.0
 10
78.92455374545983
 20
-135.797395799384
 30
0.0
 10
78.67495657755349
 20
-135.797395799384
 30
0.0
 10
78.62844778850261
 20
-136.08092715782
 30
0.0
 10
78.62844778850261
 20
-136.425436706345
 30
0.0
 10
78.62844778850261
 20
-136.7451415673762
 30
0.0
 10
78.66444903632348
 20
-137.0538221228546
 30
0.0
 10
78.92455374545983
 20
-137.0538221228546
 30
0.0
 10
79.17208385607503
 20
-137.0538221228546
 30
0.0
 10
79.22083195719132
 20
-136.7723578217097
 30
0.0
 10
79.22083195719132
 20
-136.425436706345
 30
0.0
 10
79.22083195719132
 20
-136.1060763548624
 30
0.0
 10
79.18259139730505
 20
-135.797395799384
 30
0.0
 10
78.92455374545983
 20
-135.797395799384
 30
0.0
  0
HATCH
  5
CE
330
C6
100
AcDbEntity
  8
_U+30EC_U+30A4_U+30E4_U+30FC 1
 62
     7
420
 16777215
100
AcDbHatch
 10
0.0
 20
0.0
 30
0.0
210
0.0
220
0.0
230
1.0
  2
SOLID
 70
     1
 71
     0
 91
        2
 92
        1
 93
        1
 72
     4
 94
        3
 73
     0
 74
     1
 95
       29
 96
       25
 40
0.0
 40
0.0
 40
0.0
 40
0.0
 40
1.0
 40
1.0
 40
1.0
 40
2.0
 40
2.0
 40
2.0
 40
3.0
 40
3.0
 40
3.0
 40
4.0
 40
4.0
 40
4.0
 40
5.0
 40
5.0
 40
5.0
 40
6.0
 40
6.0
 40
6.0
 40
7.0
 40
7.0
 40
7.0
 40
8.0
 40
8.0
 40
8.0
 40
8.0
 10
79.32229001923193
 20
-137.0200601870991
 10
79.21445853054361
 20
-137.2295219926023
 10
79.04099797286128
 20
-137.2484700177712
 10
78.92455374545983
 20
-137.2484700177712
 10
78.76384004107294
 20
-137.2484700177712
 10
78.6220743618549
 20
-137.2019612287203
 10
78.52681747168775
 20
-137.0200601870991
 10
78.42329235235599
 20
-136.8254122921825
 10
78.40417207241285
 20
-136.5883897227974
 10
78.40417207241285
 20
-136.425436706345
 10
78.40417207241285
 20
-136.2817762246101
 10
78.42105304029057
 20
-136.0299397446383
 10
78.52681747168775
 20
-135.8311577351394
 10
78.63482121515032
 20
-135.6278971015097
 10
78.79553491953723
 20
-135.6048149617585
 10
78.92455374545983
 20
-135.6048149617585
 10
79.0832003925556
 20
-135.6048149617585
 10
79.22703312906478
 20
-135.6492566935183
 10
79.32229001923193
 20
-135.8311577351394
 10
79.42168102398139
 20
-136.0237385727649
 10
79.44493541850683
 20
-136.252148403437
 10
79.44493541850683
 20
-136.425436706345
 10
79.44493541850683
 20
-136.5970024615105
 10
79.4239203360468
 20
-136.8274793494737
 10
79.32229001923193
 20
-137.0200601870991
 97
        0
 97
        0
 92
        1
 93
        1
 72
     4
 94
        3
 73
     0
 74
     1
 95
       17
 96
       13
 40
0.0
 40
0.0
 40
0.0
 40
0.0
 40
1.0
 40
1.0
 40
1.0
 40
2.0
 40
2.0
 40
2.0
 40
3.0
 40
3.0
 40
3.0
 40
4.0
 40
4.0
 40
4.0
 40
4.0
 10
78.92455374545983
 20
-135.797395799384
 10
78.67495657755349
 20
-135.797395799384
 10
78.62844778850261
 20
-136.08092715782
 10
78.62844778850261
 20
-136.425436706345
 10
78.62844778850261
 20
-136.7451415673762
 10
78.66444903632348
 20
-137.0538221228546
 10
78.92455374545983
 20
-137.0538221228546
 10
79.17208385607503
 20
-137.0538221228546
 10
79.22083195719132
 20
-136.7723578217097
 10
79.22083195719132
 20
-136.425436706345
 10
79.22083195719132
 20
-136.1060763548624
 10
79.18259139730505
 20
-135.797395799384
 10
78.92455374545983
 20
-135.797395799384
 97
        0
 97
        0
 75
     2
 76
     1
 98
        0
  0
ENDBLK
  5
C9
330
C6
100
AcDbEntity
  8
0
100
AcDbBlockEnd
  0
BLOCK
  5
D1
330
CF
100
AcDbEntity
  8
0
100
AcDbBlockBegin
  2
block 10
 70
     0
 10
0.0
 20
0.0
 30
0.0
  3
block 10
  1

  0
POLYLINE
  5
D3
330
CF
100
AcDbEntity
  8
_U+30EC_U+30A4_U+30E4_U+30FC 1
 62
     7
420
 16777215
370
     9
100
AcDb2dPolyline
 66
     1
 10
0.0
 20
0.0
 30
0.0
  0
VERTEX
  5
D4
330
D3
100
AcDbEntity
  8
_U+30EC_U+30A4_U+30E4_U+30FC 1
 62
     7
420
 16777215
370
     9
100
AcDbVertex
100
AcDb2dVertex
 10
83.33531648505006
 20
-137.8441419099832
 30
0.0
  0
VERTEX
  5
D5
330
D3
100
AcDbEntity
  8
_U+30EC_U+30A4_U+30E4_U+30FC 1
 62
     7
420
 16777215
370
     9
100
AcDbVertex
100
AcDb2dVertex
 10
91.3351521142906
 20
-137.8441419099832
 30
0.0
  0
SEQEND
  5
D6
330
D3
100
AcDbEntity
  8
_U+30EC_U+30A4_U+30E4_U+30FC 1
 62
     7
420
 16777215
370
     9
  0
POLYLINE
  5
D7
330
CF
100
AcDbEntity
  8
_U+30EC_U+30A4_U+30E4_U+30FC 1
 62
     7
420
 16777215
370
     9
100
AcDb2dPolyline
 66
     1
 10
0.0
 20
0.0
 30
0.0
  0
VERTEX
  5
D8
330
D7
100
AcDbEntity
  8
_U+30EC_U+30A4_U+30E4_U+30FC 1
 62
     7
420
 16777215
370
     9
100
AcDbVertex
100
AcDb2dVertex
 10
83.33531648505006
 20
-136.3841005214595
 30
0.0
  0
VERTEX
  5
D9
330
D7
100
AcDbEntity
  8
_U+30EC_U+30A4_U+30E4_U+30FC 1
 62
     7
420
 16777215
370
     9
100
AcDbVertex
100
AcDb2dVertex
 10
83.33531648505006
 20
-138.8445844097331
 30
0.0
  0
SEQEND
  5
DA
330
D7
100
AcDbEntity
  8
_U+30EC_U+30A4_U+30E4_U+30FC 1
 62
     7
420
 16777215
370
     9
  0
POLYLINE
  5
DB
330
CF
100
AcDbEntity
  8
_U+30EC_U+30A4_U+30E4_U+30FC 1
 62
     7
420
 16777215
370
     9
100
AcDb2dPolyline
 66
     1
 10
0.0
 20
0.0
 30
0.0
  0
VERTEX
  5
DC
330
DB
100
AcDbEntity
  8
_U+30EC_U+30A4_U+30E4_U+30FC 1
 62
     7
420
 16777215
370
     9
100
AcDbVertex
100
AcDb2dVertex
 10
91.3351521142906
 20
-136.3841005214595
 30
0.0
  0
VERTEX
  5
DD
330
DB
100
AcDbEntity
  8
_U+30EC_U+30A4_U+30E4_U+30FC 1
 62
     7
420
 16777215
370
     9
100
AcDbVertex
100
AcDb2dVertex
 10
91.3351521142906
 20
-138.8445844097331
 30
0.0
  0
SEQEND
  5
DE
330
DB
100
AcDbEntity
  8
_U+30EC_U+30A4_U+30E4_U+30FC 1
 62
     7
420
 16777215
370
     9
  0
INSERT
  5
E0
330
CF
100
AcDbEntity
  8
_U+30EC_U+30A4_U+30E4_U+30FC 1
100
AcDbBlockReference
  2
block 11
 10
0.0
 20
0.0
 30
0.0
  0
ENDBLK
  5
D2
330
CF
100
AcDbEntity
  8
0
100
AcDbBlockEnd
  0
BLOCK
  5
E1
330
DF
100
AcDbEntity
  8
0
100
AcDbBlockBegin
  2
block 11
 70
     0
 10
0.0
 20
0.0
 30
0.0
  3
block 11
  1

  0
SPLINE
  5
E3
330
DF
100
AcDbEntity
  8
_U+30EC_U+30A4_U+30E4_U+30FC 1
370
     0
100
AcDbSpline
210
0.0
220
0.0
230
1.0
 70
    11
 71
     3
 72
    29
 73
    25
 74
     0
 42
0.0000000001
 43
0.0000000001
 12
1.0
 22
0.0
 32
0.0
 13
1.0
 23
0.0
 33
0.0
 40
0.0
 40
0.0
 40
0.0
 40
0.0
 40
1.0
 40
1.0
 40
1.0
 40
2.0
 40
2.0
 40
2.0
 40
3.0
 40
3.0
 40
3.0
 40
4.0
 40
4.0
 40
4.0
 40
5.0
 40
5.0
 40
5.0
 40
6.0
 40
6.0
 40
6.0
 40
7.0
 40
7.0
 40
7.0
 40
8.0
 40
8.0
 40
8.0
 40
8.0
 10
87.3354098631488
 20
-137.2484700177712
 30
0.0
 10
87.06893172736471
 20
-137.2484700177712
 30
0.0
 10
86.8150281901018
 20
-137.1110107079097
 30
0.0
 10
86.8150281901018
 20
-136.7620225352539
 30
0.0
 10
86.8150281901018
 20
-136.5060519406999
 30
0.0
 10
86.95679386931984
 20
-136.4106227957585
 30
0.0
 10
87.062558300717
 20
-136.349300096121
 30
0.0
 10
86.9376735893767
 20
-136.2900444537747
 30
0.0
 10
86.86153697915267
 20
-136.176011793213
 30
0.0
 10
86.86153697915267
 20
-136.0151258340518
 30
0.0
 10
86.86153697915267
 20
-135.7402072143288
 30
0.0
 10
87.06049124342586
 20
-135.6048149617585
 30
0.0
 10
87.3354098631488
 20
-135.6048149617585
 30
0.0
 10
87.61894122158485
 20
-135.6048149617585
 30
0.0
 10
87.8092827471449
 20
-135.7484754434934
 30
0.0
 10
87.8092827471449
 20
-136.0151258340518
 30
0.0
 10
87.8092827471449
 20
-136.176011793213
 30
0.0
 10
87.73107907962974
 20
-136.2900444537747
 30
0.0
 10
87.60619436828942
 20
-136.349300096121
 30
0.0
 10
87.69507783180887
 20
-136.4002875093027
 30
0.0
 10
87.85372447890462
 20
-136.4953721446956
 30
0.0
 10
87.85372447890462
 20
-136.7578884206716
 30
0.0
 10
87.85372447890462
 20
-137.1320257903698
 30
0.0
 10
87.57449948982513
 20
-137.2484700177712
 30
0.0
 10
87.3354098631488
 20
-137.2484700177712
 30
0.0
  0
SPLINE
  5
E4
330
DF
100
AcDbEntity
  8
_U+30EC_U+30A4_U+30E4_U+30FC 1
370
     0
100
AcDbSpline
210
0.0
220
0.0
230
1.0
 70
    11
 71
     3
 72
    17
 73
    13
 74
     0
 42
0.0000000001
 43
0.0000000001
 12
1.0
 22
0.0
 32
0.0
 13
1.0
 23
0.0
 33
0.0
 40
0.0
 40
0.0
 40
0.0
 40
0.0
 40
1.0
 40
1.0
 40
1.0
 40
2.0
 40
2.0
 40
2.0
 40
3.0
 40
3.0
 40
3.0
 40
4.0
 40
4.0
 40
4.0
 40
4.0
 10
87.3354098631488
 20
-136.4574760943579
 30
0.0
 10
87.19157712663961
 20
-136.4574760943579
 30
0.0
 10
87.03930390619156
 20
-136.5439479910376
 30
0.0
 10
87.03930390619156
 20
-136.7472086246674
 30
0.0
 10
87.03930390619156
 20
-136.9521918060397
 30
0.0
 10
87.16625567482302
 20
-137.0538221228546
 30
0.0
 10
87.3354098631488
 20
-137.0538221228546
 30
0.0
 10
87.52161727412654
 20
-137.0538221228546
 30
0.0
 10
87.63168807488027
 20
-136.9311767235797
 30
0.0
 10
87.63168807488027
 20
-136.7534097965408
 30
0.0
 10
87.63168807488027
 20
-136.5312011377422
 30
0.0
 10
87.46873505842795
 20
-136.4574760943579
 30
0.0
 10
87.3354098631488
 20
-136.4574760943579
 30
0.0
  0
SPLINE
  5
E5
330
DF
100
AcDbEntity
  8
_U+30EC_U+30A4_U+30E4_U+30FC 1
370
     0
100
AcDbSpline
210
0.0
220
0.0
230
1.0
 70
    11
 71
     3
 72
    17
 73
    13
 74
     0
 42
0.0000000001
 43
0.0000000001
 12
1.0
 22
0.0
 32
0.0
 13
1.0
 23
0.0
 33
0.0
 40
0.0
 40
0.0
 40
0.0
 40
0.0
 40
1.0
 40
1.0
 40
1.0
 40
2.0
 40
2.0
 40
2.0
 40
3.0
 40
3.0
 40
3.0
 40
4.0
 40
4.0
 40
4.0
 40
4.0
 10
87.3354098631488
 20
-135.797395799384
 30
0.0
 10
87.17038978940532
 20
-135.797395799384
 30
0.0
 10
87.08581269524244
 20
-135.8924804347769
 30
0.0
 10
87.08581269524244
 20
-136.0278726873472
 30
0.0
 10
87.08581269524244
 20
-136.1505180866221
 30
0.0
 10
87.15781519088416
 20
-136.2690293713147
 30
0.0
 10
87.3354098631488
 20
-136.2690293713147
 30
0.0
 10
87.51317679018769
 20
-136.2690293713147
 30
0.0
 10
87.58500703105514
 20
-136.1505180866221
 30
0.0
 10
87.58500703105514
 20
-136.0278726873472
 30
0.0
 10
87.58500703105514
 20
-135.8924804347769
 30
0.0
 10
87.4983628796011
 20
-135.797395799384
 30
0.0
 10
87.3354098631488
 20
-135.797395799384
 30
0.0
  0
HATCH
  5
E6
330
DF
100
AcDbEntity
  8
_U+30EC_U+30A4_U+30E4_U+30FC 1
 62
     7
420
 16777215
100
AcDbHatch
 10
0.0
 20
0.0
 30
0.0
210
0.0
220
0.0
230
1.0
  2
SOLID
 70
     1
 71
     0
 91
        3
 92
        1
 93
        1
 72
     4
 94
        3
 73
     0
 74
     1
 95
       29
 96
       25
 40
0.0
 40
0.0
 40
0.0
 40
0.0
 40
1.0
 40
1.0
 40
1.0
 40
2.0
 40
2.0
 40
2.0
 40
3.0
 40
3.0
 40
3.0
 40
4.0
 40
4.0
 40
4.0
 40
5.0
 40
5.0
 40
5.0
 40
6.0
 40
6.0
 40
6.0
 40
7.0
 40
7.0
 40
7.0
 40
8.0
 40
8.0
 40
8.0
 40
8.0
 10
87.3354098631488
 20
-137.2484700177712
 10
87.06893172736471
 20
-137.2484700177712
 10
86.8150281901018
 20
-137.1110107079097
 10
86.8150281901018
 20
-136.7620225352539
 10
86.8150281901018
 20
-136.5060519406999
 10
86.95679386931984
 20
-136.4106227957585
 10
87.062558300717
 20
-136.349300096121
 10
86.9376735893767
 20
-136.2900444537747
 10
86.86153697915267
 20
-136.176011793213
 10
86.86153697915267
 20
-136.0151258340518
 10
86.86153697915267
 20
-135.7402072143288
 10
87.06049124342586
 20
-135.6048149617585
 10
87.3354098631488
 20
-135.6048149617585
 10
87.61894122158485
 20
-135.6048149617585
 10
87.8092827471449
 20
-135.7484754434934
 10
87.8092827471449
 20
-136.0151258340518
 10
87.8092827471449
 20
-136.176011793213
 10
87.73107907962974
 20
-136.2900444537747
 10
87.60619436828942
 20
-136.349300096121
 10
87.69507783180887
 20
-136.4002875093027
 10
87.85372447890462
 20
-136.4953721446956
 10
87.85372447890462
 20
-136.7578884206716
 10
87.85372447890462
 20
-137.1320257903698
 10
87.57449948982513
 20
-137.2484700177712
 10
87.3354098631488
 20
-137.2484700177712
 97
        0
 97
        0
 92
        1
 93
        1
 72
     4
 94
        3
 73
     0
 74
     1
 95
       17
 96
       13
 40
0.0
 40
0.0
 40
0.0
 40
0.0
 40
1.0
 40
1.0
 40
1.0
 40
2.0
 40
2.0
 40
2.0
 40
3.0
 40
3.0
 40
3.0
 40
4.0
 40
4.0
 40
4.0
 40
4.0
 10
87.3354098631488
 20
-136.4574760943579
 10
87.19157712663961
 20
-136.4574760943579
 10
87.03930390619156
 20
-136.5439479910376
 10
87.03930390619156
 20
-136.7472086246674
 10
87.03930390619156
 20
-136.9521918060397
 10
87.16625567482302
 20
-137.0538221228546
 10
87.3354098631488
 20
-137.0538221228546
 10
87.52161727412654
 20
-137.0538221228546
 10
87.63168807488027
 20
-136.9311767235797
 10
87.63168807488027
 20
-136.7534097965408
 10
87.63168807488027
 20
-136.5312011377422
 10
87.46873505842795
 20
-136.4574760943579
 10
87.3354098631488
 20
-136.4574760943579
 97
        0
 97
        0
 92
        1
 93
        1
 72
     4
 94
        3
 73
     0
 74
     1
 95
       17
 96
       13
 40
0.0
 40
0.0
 40
0.0
 40
0.0
 40
1.0
 40
1.0
 40
1.0
 40
2.0
 40
2.0
 40
2.0
 40
3.0
 40
3.0
 40
3.0
 40
4.0
 40
4.0
 40
4.0
 40
4.0
 10
87.3354098631488
 20
-135.797395799384
 10
87.17038978940532
 20
-135.797395799384
 10
87.08581269524244
 20
-135.8924804347769
 10
87.08581269524244
 20
-136.0278726873472
 10
87.08581269524244
 20
-136.1505180866221
 10
87.15781519088416
 20
-136.2690293713147
 10
87.3354098631488
 20
-136.2690293713147
 10
87.51317679018769
 20
-136.2690293713147
 10
87.58500703105514
 20
-136.1505180866221
 10
87.58500703105514
 20
-136.0278726873472
 10
87.58500703105514
 20
-135.8924804347769
 10
87.4983628796011
 20
-135.797395799384
 10
87.3354098631488
 20
-135.797395799384
 97
        0
 97
        0
 75
     2
 76
     1
 98
        0
  0
ENDBLK
  5
E2
330
DF
100
AcDbEntity
  8
0
100
AcDbBlockEnd
  0
ENDSEC
  0
SECTION
  2
ENTITIES
  0
INSERT
  5
42
330
1F
100
AcDbEntity
  8
_U+30EC_U+30A4_U+30E4_U+30FC 1
100
AcDbBlockReference
  2
block 2
 10
0.0
 20
0.0
 30
0.0
  0
ENDSEC
  0
SECTION
  2
OBJECTS
  0
DICTIONARY
  5
C
330
0
100
AcDbDictionary
281
     1
  3
ACAD_GROUP
350
D
  3
ACAD_LAYOUT
350
1A
  3
ACAD_MATERIAL
350
3B
  3
ACAD_MLEADERSTYLE
350
E8
  3
ACAD_MLINESTYLE
350
17
  3
ACAD_PLOTSETTINGS
350
19
  3
ACAD_PLOTSTYLENAME
350
E
  3
ACAD_TABLESTYLE
350
E7
  3
ACAD_VISUALSTYLE
350
2A
  0
SUN
  5
3F
330
29
100
AcDbSun
 90
        1
290
     0
 63
     7
421
 16777215
 40
1.0
291
     1
 91
  2455826
 92
 54000000
292
     0
 70
     2
 71
   256
280
     1
  0
DICTIONARY
  5
D
102
{ACAD_REACTORS
330
C
102
}
330
C
100
AcDbDictionary
281
     1
  0
DICTIONARY
  5
1A
102
{ACAD_REACTORS
330
C
102
}
330
C
100
AcDbDictionary
281
     1
  3
Layout1
350
1E
  3
Layout2
350
26
  3
Model
350
22
  0
DICTIONARY
  5
3B
102
{ACAD_REACTORS
330
C
102
}
330
C
100
AcDbDictionary
281
     1
  3
ByBlock
350
3D
  3
ByLayer
350
3C
  3
Global
350
3E
  0
DICTIONARY
  5
E8
102
{ACAD_REACTORS
330
C
102
}
330
C
100
AcDbDictionary
281
     1
  0
DICTIONARY
  5
17
102
{ACAD_REACTORS
330
C
102
}
330
C
100
AcDbDictionary
281
     1
  3
Standard
350
18
  0
DICTIONARY
  5
19
102
{ACAD_REACTORS
330
C
102
}
330
C
100
AcDbDictionary
281
     1
  0
ACDBDICTIONARYWDFLT
  5
E
102
{ACAD_REACTORS
330
C
102
}
330
C
100
AcDbDictionary
281
     1
  3
Normal
350
F
100
AcDbDictionaryWithDefault
340
F
  0
DICTIONARY
  5
E7
102
{ACAD_REACTORS
330
C
102
}
330
C
100
AcDbDictionary
281
     1
  0
DICTIONARY
  5
2A
102
{ACAD_REACTORS
330
C
102
}
330
C
100
AcDbDictionary
281
     1
  3
2dWireframe
350
2F
  3
3D Hidden
350
31
  3
3dWireframe
350
30
  3
Basic
350
32
  3
Brighten
350
36
  3
ColorChange
350
3A
  3
Conceptual
350
34
  3
Dim
350
35
  3
Facepattern
350
39
  3
Flat
350
2B
  3
FlatWithEdges
350
2C
  3
Gouraud
350
2D
  3
GouraudWithEdges
350
2E
  3
Linepattern
350
38
  3
Realistic
350
33
  3
Thicken
350
37
  0
LAYOUT
  5
1E
102
{ACAD_REACTORS
330
1A
102
}
330
1A
100
AcDbPlotSettings
  1

  2
none_device
  4

  6

 40
0.0
 41
0.0
 42
0.0
 43
0.0
 44
0.0
 45
0.0
 46
0.0
 47
0.0
 48
0.0
 49
0.0
140
0.0
141
0.0
142
1.0
143
1.0
 70
   688
 72
     0
 73
     0
 74
     5
  7

 75
    16
 76
     0
 77
     2
 78
   300
147
1.0
148
0.0
149
0.0
100
AcDbLayout
  1
Layout1
 70
     1
 71
     1
 10
0.0
 20
0.0
 11
12.0
 21
9.0
 12
0.0
 22
0.0
 32
0.0
 14
1.000000000000000E+20
 24
1.000000000000000E+20
 34
1.000000000000000E+20
 15
-1.000000000000000E+20
 25
-1.000000000000000E+20
 35
-1.000000000000000E+20
146
0.0
 13
0.0
 23
0.0
 33
0.0
 16
1.0
 26
0.0
 36
0.0
 17
0.0
 27
1.0
 37
0.0
 76
     0
330
1B
  0
LAYOUT
  5
26
102
{ACAD_REACTORS
330
1A
102
}
330
1A
100
AcDbPlotSettings
  1

  2
none_device
  4

  6

 40
0.0
 41
0.0
 42
0.0
 43
0.0
 44
0.0
 45
0.0
 46
0.0
 47
0.0
 48
0.0
 49
0.0
140
0.0
141
0.0
142
1.0
143
1.0
 70
   688
 72
     0
 73
     0
 74
     5
  7

 75
    16
 76
     0
 77
     2
 78
   300
147
1.0
148
0.0
149
0.0
100
AcDbLayout
  1
Layout2
 70
     1
 71
     2
 10
0.0
 20
0.0
 11
0.0
 21
0.0
 12
0.0
 22
0.0
 32
0.0
 14
0.0
 24
0.0
 34
0.0
 15
0.0
 25
0.0
 35
0.0
146
0.0
 13
0.0
 23
0.0
 33
0.0
 16
1.0
 26
0.0
 36
0.0
 17
0.0
 27
1.0
 37
0.0
 76
     0
330
23
  0
LAYOUT
  5
22
102
{ACAD_REACTORS
330
1A
102
}
330
1A
100
AcDbPlotSettings
  1

  2
none_device
  4

  6

 40
0.0
 41
0.0
 42
0.0
 43
0.0
 44
0.0
 45
0.0
 46
0.0
 47
0.0
 48
0.0
 49
0.0
140
0.0
141
0.0
142
1.0
143
1.0
 70
  1712
 72
     0
 73
     0
 74
     0
  7

 75
     0
 76
     0
 77
     2
 78
   300
147
1.0
148
0.0
149
0.0
100
AcDbLayout
  1
Model
 70
     1
 71
     0
 10
0.0
 20
0.0
 11
12.0
 21
9.0
 12
0.0
 22
0.0
 32
0.0
 14
1.000000000000000E+20
 24
1.000000000000000E+20
 34
1.000000000000000E+20
 15
-1.000000000000000E+20
 25
-1.000000000000000E+20
 35
-1.000000000000000E+20
146
0.0
 13
0.0
 23
0.0
 33
0.0
 16
1.0
 26
0.0
 36
0.0
 17
0.0
 27
1.0
 37
0.0
 76
     0
330
1F
331
29
  0
MATERIAL
  5
3D
102
{ACAD_REACTORS
330
3B
102
}
330
3B
100
AcDbMaterial
  1
ByBlock
 72
     1
 94
      127
  0
MATERIAL
  5
3C
102
{ACAD_REACTORS
330
3B
102
}
330
3B
100
AcDbMaterial
  1
ByLayer
 72
     1
 94
      127
  0
MATERIAL
  5
3E
102
{ACAD_REACTORS
330
3B
102
}
330
3B
100
AcDbMaterial
  1
Global
 72
     1
 94
      127
  0
MLINESTYLE
  5
18
102
{ACAD_REACTORS
330
17
102
}
330
17
100
AcDbMlineStyle
  2
Standard
 70
     0
  3

 62
   256
 51
90.0
 52
90.0
 71
     2
 49
0.5
 62
   256
  6
BYLAYER
 49
-0.5
 62
   256
  6
BYLAYER
  0
ACDBPLACEHOLDER
  5
F
102
{ACAD_REACTORS
330
E
102
}
330
E
  0
VISUALSTYLE
  5
2F
102
{ACAD_REACTORS
330
2A
102
}
330
2A
100
AcDbVisualStyle
  2
2dWireframe
 70
     4
177
     2
291
     0
 71
     0
176
     1
 72
     2
176
     1
 73
     0
176
     1
 90
        0
176
     1
 40
-0.6
176
     1
 41
-30.0
176
     1
 62
     5
 63
     7
421
 16777215
176
     1
 74
     1
176
     1
 91
        4
176
     1
 64
     7
176
     1
 65
   257
176
     1
 75
     1
176
     1
175
     1
176
     1
 42
1.0
176
     1
 92
        0
176
     1
 66
   257
176
     1
 43
1.0
176
     1
 76
     1
176
     1
 77
     6
176
     1
 78
     2
176
     1
 67
     7
176
     1
 79
     5
176
     1
170
     0
176
     1
171
     0
176
     1
290
     0
176
     1
 93
        1
176
     1
 44
0.0
176
     1
173
     0
176
     1
  0
VISUALSTYLE
  5
31
102
{ACAD_REACTORS
330
2A
102
}
330
2A
100
AcDbVisualStyle
  2
3D Hidden
 70
     6
177
     2
291
     0
 71
     1
176
     1
 72
     2
176
     1
 73
     2
176
     1
 90
        0
176
     1
 40
-0.6
176
     1
 41
-30.0
176
     1
 62
     5
 63
     7
421
 16777215
176
     1
 74
     2
176
     1
 91
        2
176
     1
 64
     7
176
     1
 65
   257
176
     1
 75
     2
176
     1
175
     1
176
     1
 42
40.0
176
     1
 92
        0
176
     1
 66
   257
176
     1
 43
1.0
176
     1
 76
     1
176
     1
 77
     6
176
     1
 78
     2
176
     1
 67
     7
176
     1
 79
     3
176
     1
170
     0
176
     1
171
     0
176
     1
290
     0
176
     1
 93
        1
176
     1
 44
0.0
176
     1
173
     0
176
     1
  0
VISUALSTYLE
  5
30
102
{ACAD_REACTORS
330
2A
102
}
330
2A
100
AcDbVisualStyle
  2
3dWireframe
 70
     5
177
     2
291
     0
 71
     0
176
     1
 72
     2
176
     1
 73
     0
176
     1
 90
        0
176
     1
 40
-0.6
176
     1
 41
-30.0
176
     1
 62
     5
 63
     7
421
 16777215
176
     1
 74
     1
176
     1
 91
        4
176
     1
 64
     7
176
     1
 65
   257
176
     1
 75
     1
176
     1
175
     1
176
     1
 42
1.0
176
     1
 92
        0
176
     1
 66
   257
176
     1
 43
1.0
176
     1
 76
     1
176
     1
 77
     6
176
     1
 78
     2
176
     1
 67
     7
176
     1
 79
     5
176
     1
170
     0
176
     1
171
     0
176
     1
290
     0
176
     1
 93
        1
176
     1
 44
0.0
176
     1
173
     0
176
     1
  0
VISUALSTYLE
  5
32
102
{ACAD_REACTORS
330
2A
102
}
330
2A
100
AcDbVisualStyle
  2
Basic
 70
     7
177
     2
291
     1
 71
     1
176
     1
 72
     0
176
     1
 73
     1
176
     1
 90
        0
176
     1
 40
-0.6
176
     1
 41
-30.0
176
     1
 62
     5
 63
     7
421
 16777215
176
     1
 74
     0
176
     1
 91
        4
176
     1
 64
     7
176
     1
 65
   257
176
     1
 75
     1
176
     1
175
     1
176
     1
 42
1.0
176
     1
 92
        8
176
     1
 66
     7
176
     1
 43
1.0
176
     1
 76
     1
176
     1
 77
     6
176
     1
 78
     2
176
     1
 67
     7
176
     1
 79
     5
176
     1
170
     0
176
     1
171
     0
176
     1
290
     0
176
     1
 93
        1
176
     1
 44
0.0
176
     1
173
     0
176
     1
  0
VISUALSTYLE
  5
36
102
{ACAD_REACTORS
330
2A
102
}
330
2A
100
AcDbVisualStyle
  2
Brighten
 70
    12
177
     2
291
     1
 71
     2
176
     1
 72
     2
176
     1
 73
     0
176
     1
 90
        0
176
     1
 40
-0.6
176
     1
 41
-30.0
176
     1
 62
     5
 63
     7
421
 16777215
176
     1
 74
     1
176
     1
 91
        4
176
     1
 64
     7
176
     1
 65
   257
176
     1
 75
     1
176
     1
175
     1
176
     1
 42
1.0
176
     1
 92
        8
176
     1
 66
     7
176
     1
 43
1.0
176
     1
 76
     1
176
     1
 77
     6
176
     1
 78
     2
176
     1
 67
     7
176
     1
 79
     5
176
     1
170
     0
176
     1
171
     0
176
     1
290
     0
176
     1
 93
        1
176
     1
 44
50.0
176
     1
173
     0
176
     1
  0
VISUALSTYLE
  5
3A
102
{ACAD_REACTORS
330
2A
102
}
330
2A
100
AcDbVisualStyle
  2
ColorChange
 70
    16
177
     2
291
     1
 71
     2
176
     1
 72
     2
176
     1
 73
     3
176
     1
 90
        0
176
     1
 40
-0.6
176
     1
 41
-30.0
176
     1
 62
     5
 63
     8
421
  8421504
176
     1
 74
     1
176
     1
 91
        4
176
     1
 64
     7
176
     1
 65
   257
176
     1
 75
     1
176
     1
175
     1
176
     1
 42
1.0
176
     1
 92
        8
176
     1
 66
     8
424
  8421504
176
     1
 43
1.0
176
     1
 76
     1
176
     1
 77
     6
176
     1
 78
     2
176
     1
 67
     7
176
     1
 79
     5
176
     1
170
     0
176
     1
171
     0
176
     1
290
     0
176
     1
 93
        1
176
     1
 44
0.0
176
     1
173
     0
176
     1
  0
VISUALSTYLE
  5
34
102
{ACAD_REACTORS
330
2A
102
}
330
2A
100
AcDbVisualStyle
  2
Conceptual
 70
     9
177
     2
291
     0
 71
     3
176
     1
 72
     2
176
     1
 73
     0
176
     1
 90
        0
176
     1
 40
-0.6
176
     1
 41
-30.0
176
     1
 62
     5
 63
     7
421
 16777215
176
     1
 74
     2
176
     1
 91
        2
176
     1
 64
     7
176
     1
 65
   257
176
     1
 75
     1
176
     1
175
     1
176
     1
 42
40.0
176
     1
 92
        8
176
     1
 66
     7
176
     1
 43
1.0
176
     1
 76
     1
176
     1
 77
     6
176
     1
 78
     2
176
     1
 67
     7
176
     1
 79
     3
176
     1
170
     0
176
     1
171
     0
176
     1
290
     0
176
     1
 93
        1
176
     1
 44
0.0
176
     1
173
     0
176
     1
  0
VISUALSTYLE
  5
35
102
{ACAD_REACTORS
330
2A
102
}
330
2A
100
AcDbVisualStyle
  2
Dim
 70
    11
177
     2
291
     1
 71
     2
176
     1
 72
     2
176
     1
 73
     0
176
     1
 90
        0
176
     1
 40
-0.6
176
     1
 41
-30.0
176
     1
 62
     5
 63
     7
421
 16777215
176
     1
 74
     1
176
     1
 91
        4
176
     1
 64
     7
176
     1
 65
   257
176
     1
 75
     1
176
     1
175
     1
176
     1
 42
1.0
176
     1
 92
        8
176
     1
 66
     7
176
     1
 43
1.0
176
     1
 76
     1
176
     1
 77
     6
176
     1
 78
     2
176
     1
 67
     7
176
     1
 79
     5
176
     1
170
     0
176
     1
171
     0
176
     1
290
     0
176
     1
 93
        1
176
     1
 44
-50.0
176
     1
173
     0
176
     1
  0
VISUALSTYLE
  5
39
102
{ACAD_REACTORS
330
2A
102
}
330
2A
100
AcDbVisualStyle
  2
Facepattern
 70
    15
177
     2
291
     1
 71
     2
176
     1
 72
     2
176
     1
 73
     0
176
     1
 90
        0
176
     1
 40
-0.6
176
     1
 41
-30.0
176
     1
 62
     5
 63
     7
421
 16777215
176
     1
 74
     1
176
     1
 91
        4
176
     1
 64
     7
176
     1
 65
   257
176
     1
 75
     1
176
     1
175
     1
176
     1
 42
1.0
176
     1
 92
        8
176
     1
 66
     7
176
     1
 43
1.0
176
     1
 76
     1
176
     1
 77
     6
176
     1
 78
     2
176
     1
 67
     7
176
     1
 79
     5
176
     1
170
     0
176
     1
171
     0
176
     1
290
     0
176
     1
 93
        1
176
     1
 44
0.0
176
     1
173
     0
176
     1
  0
VISUALSTYLE
  5
2B
102
{ACAD_REACTORS
330
2A
102
}
330
2A
100
AcDbVisualStyle
  2
Flat
 70
     0
177
     2
291
     1
 71
     2
176
     1
 72
     1
176
     1
 73
     1
176
     1
 90
        2
176
     1
 40
-0.6
176
     1
 41
30.0
176
     1
 62
     5
 63
     7
421
 16777215
176
     1
 74
     0
176
     1
 91
        4
176
     1
 64
     7
176
     1
 65
   257
176
     1
 75
     1
176
     1
175
     1
176
     1
 42
1.0
176
     1
 92
        8
176
     1
 66
     7
176
     1
 43
1.0
176
     1
 76
     1
176
     1
 77
     6
176
     1
 78
     2
176
     1
 67
     7
176
     1
 79
     5
176
     1
170
     0
176
     1
171
     0
176
     1
290
     0
176
     1
 93
       13
176
     1
 44
0.0
176
     1
173
     0
176
     1
  0
VISUALSTYLE
  5
2C
102
{ACAD_REACTORS
330
2A
102
}
330
2A
100
AcDbVisualStyle
  2
FlatWithEdges
 70
     1
177
     2
291
     1
 71
     2
176
     1
 72
     1
176
     1
 73
     1
176
     1
 90
        2
176
     1
 40
-0.6
176
     1
 41
30.0
176
     1
 62
     5
 63
     7
421
 16777215
176
     1
 74
     1
176
     1
 91
        4
176
     1
 64
     7
176
     1
 65
   257
176
     1
 75
     1
176
     1
175
     1
176
     1
 42
1.0
176
     1
 92
        0
176
     1
 66
   257
176
     1
 43
1.0
176
     1
 76
     1
176
     1
 77
     6
176
     1
 78
     2
176
     1
 67
     7
176
     1
 79
     5
176
     1
170
     0
176
     1
171
     0
176
     1
290
     0
176
     1
 93
       13
176
     1
 44
0.0
176
     1
173
     0
176
     1
  0
VISUALSTYLE
  5
2D
102
{ACAD_REACTORS
330
2A
102
}
330
2A
100
AcDbVisualStyle
  2
Gouraud
 70
     2
177
     2
291
     1
 71
     2
176
     1
 72
     2
176
     1
 73
     1
176
     1
 90
        2
176
     1
 40
-0.6
176
     1
 41
30.0
176
     1
 62
     5
 63
     7
421
 16777215
176
     1
 74
     0
176
     1
 91
        4
176
     1
 64
     7
176
     1
 65
   257
176
     1
 75
     1
176
     1
175
     1
176
     1
 42
1.0
176
     1
 92
        0
176
     1
 66
     7
176
     1
 43
1.0
176
     1
 76
     1
176
     1
 77
     6
176
     1
 78
     2
176
     1
 67
     7
176
     1
 79
     5
176
     1
170
     0
176
     1
171
     0
176
     1
290
     0
176
     1
 93
       13
176
     1
 44
0.0
176
     1
173
     0
176
     1
  0
VISUALSTYLE
  5
2E
102
{ACAD_REACTORS
330
2A
102
}
330
2A
100
AcDbVisualStyle
  2
GouraudWithEdges
 70
     3
177
     2
291
     1
 71
     2
176
     1
 72
     2
176
     1
 73
     1
176
     1
 90
        2
176
     1
 40
-0.6
176
     1
 41
30.0
176
     1
 62
     5
 63
     7
421
 16777215
176
     1
 74
     1
176
     1
 91
        4
176
     1
 64
     7
176
     1
 65
   257
176
     1
 75
     1
176
     1
175
     1
176
     1
 42
1.0
176
     1
 92
        0
176
     1
 66
   257
176
     1
 43
1.0
176
     1
 76
     1
176
     1
 77
     6
176
     1
 78
     2
176
     1
 67
     7
176
     1
 79
     5
176
     1
170
     0
176
     1
171
     0
176
     1
290
     0
176
     1
 93
       13
176
     1
 44
0.0
176
     1
173
     0
176
     1
  0
VISUALSTYLE
  5
38
102
{ACAD_REACTORS
330
2A
102
}
330
2A
100
AcDbVisualStyle
  2
Linepattern
 70
    14
177
     2
291
     1
 71
     2
176
     1
 72
     2
176
     1
 73
     0
176
     1
 90
        0
176
     1
 40
-0.6
176
     1
 41
-30.0
176
     1
 62
     5
 63
     7
421
 16777215
176
     1
 74
     1
176
     1
 91
        4
176
     1
 64
     7
176
     1
 65
   257
176
     1
 75
     7
176
     1
175
     7
176
     1
 42
1.0
176
     1
 92
        8
176
     1
 66
     7
176
     1
 43
1.0
176
     1
 76
     1
176
     1
 77
     6
176
     1
 78
     2
176
     1
 67
     7
176
     1
 79
     5
176
     1
170
     0
176
     1
171
     0
176
     1
290
     0
176
     1
 93
        1
176
     1
 44
0.0
176
     1
173
     0
176
     1
  0
VISUALSTYLE
  5
33
102
{ACAD_REACTORS
330
2A
102
}
330
2A
100
AcDbVisualStyle
  2
Realistic
 70
     8
177
     2
291
     0
 71
     2
176
     1
 72
     2
176
     1
 73
     0
176
     1
 90
        0
176
     1
 40
-0.6
176
     1
 41
-30.0
176
     1
 62
     5
 63
     7
421
 16777215
176
     1
 74
     1
176
     1
 91
        0
176
     1
 64
     7
176
     1
 65
   257
176
     1
 75
     1
176
     1
175
     1
176
     1
 42
1.0
176
     1
 92
        8
176
     1
 66
     8
424
  7895160
176
     1
 43
1.0
176
     1
 76
     1
176
     1
 77
     6
176
     1
 78
     2
176
     1
 67
     7
176
     1
 79
     5
176
     1
170
     0
176
     1
171
     0
176
     1
290
     0
176
     1
 93
       13
176
     1
 44
0.0
176
     1
173
     0
176
     1
  0
VISUALSTYLE
  5
37
102
{ACAD_REACTORS
330
2A
102
}
330
2A
100
AcDbVisualStyle
  2
Thicken
 70
    13
177
     2
291
     1
 71
     2
176
     1
 72
     2
176
     1
 73
     0
176
     1
 90
        0
176
     1
 40
-0.6
176
     1
 41
-30.0
176
     1
 62
     5
 63
     7
421
 16777215
176
     1
 74
     1
176
     1
 91
        4
176
     1
 64
     7
176
     1
 65
   257
176
     1
 75
     1
176
     1
175
     1
176
     1
 42
1.0
176
     1
 92
       12
176
     1
 66
     7
176
     1
 43
1.0
176
     1
 76
     1
176
     1
 77
     6
176
     1
 78
     2
176
     1
 67
     7
176
     1
 79
     5
176
     1
170
     0
176
     1
171
     0
176
     1
290
     0
176
     1
 93
        1
176
     1
 44
0.0
176
     1
173
     0
176
     1
  0
ENDSEC
  0
EOF
