  0
SECTION
  2
HEADER
  9
$ACADVER
  1
AC1024
  9
$ACADMAINTVER
 70
     6
  9
$DWGCODEPAGE
  3
UNDEFINED
  9
$INSBASE
 10
0.0
 20
0.0
 30
0.0
  9
$EXTMIN
 10
1.000000000000000E+20
 20
1.000000000000000E+20
 30
1.000000000000000E+20
  9
$EXTMAX
 10
-1.000000000000000E+20
 20
-1.000000000000000E+20
 30
-1.000000000000000E+20
  9
$LIMMIN
 10
0.0
 20
0.0
  9
$LIMMAX
 10
12.0
 20
9.0
  9
$ORTHOMODE
 70
     0
  9
$REGENMODE
 70
     1
  9
$FILLMODE
 70
     1
  9
$QTEXTMODE
 70
     0
  9
$MIRRTEXT
 70
     1
  9
$LTSCALE
 40
1.0
  9
$ATTMODE
 70
     1
  9
$TEXTSIZE
 40
0.2
  9
$TRACEWID
 40
0.05
  9
$TEXTSTYLE
  7
Standard
  9
$CLAYER
  8
0
  9
$CELTYPE
  6
ByLayer
  9
$CECOLOR
 62
   256
  9
$CELTSCALE
 40
1.0
  9
$DISPSILH
 70
     0
  9
$DIMSCALE
 40
1.0
  9
$DIMASZ
 40
0.18
  9
$DIMEXO
 40
0.0625
  9
$DIMDLI
 40
0.38
  9
$DIMRND
 40
0.0
  9
$DIMDLE
 40
0.0
  9
$DIMEXE
 40
0.18
  9
$DIMTP
 40
0.0
  9
$DIMTM
 40
0.0
  9
$DIMTXT
 40
0.18
  9
$DIMCEN
 40
0.09
  9
$DIMTSZ
 40
0.0
  9
$DIMTOL
 70
     0
  9
$DIMLIM
 70
     0
  9
$DIMTIH
 70
     1
  9
$DIMTOH
 70
     1
  9
$DIMSE1
 70
     0
  9
$DIMSE2
 70
     0
  9
$DIMTAD
 70
     0
  9
$DIMZIN
 70
     0
  9
$DIMBLK
  1

  9
$DIMASO
 70
     1
  9
$DIMSHO
 70
     1
  9
$DIMPOST
  1

  9
$DIMAPOST
  1

  9
$DIMALT
 70
     0
  9
$DIMALTD
 70
     2
  9
$DIMALTF
 40
25.4
  9
$DIMLFAC
 40
1.0
  9
$DIMTOFL
 70
     0
  9
$DIMTVP
 40
0.0
  9
$DIMTIX
 70
     0
  9
$DIMSOXD
 70
     0
  9
$DIMSAH
 70
     0
  9
$DIMBLK1
  1

  9
$DIMBLK2
  1

  9
$DIMSTYLE
  2
Standard
  9
$DIMCLRD
 70
     0
  9
$DIMCLRE
 70
     0
  9
$DIMCLRT
 70
     0
  9
$DIMTFAC
 40
1.0
  9
$DIMGAP
 40
0.09
  9
$DIMJUST
 70
     0
  9
$DIMSD1
 70
     0
  9
$DIMSD2
 70
     0
  9
$DIMTOLJ
 70
     1
  9
$DIMTZIN
 70
     0
  9
$DIMALTZ
 70
     0
  9
$DIMALTTZ
 70
     0
  9
$DIMUPT
 70
     0
  9
$DIMDEC
 70
     4
  9
$DIMTDEC
 70
     4
  9
$DIMALTU
 70
     2
  9
$DIMALTTD
 70
     2
  9
$DIMTXSTY
  7
Standard
  9
$DIMAUNIT
 70
     0
  9
$DIMADEC
 70
     0
  9
$DIMALTRND
 40
0.0
  9
$DIMAZIN
 70
     0
  9
$DIMDSEP
 70
    46
  9
$DIMATFIT
 70
     3
  9
$DIMFRAC
 70
     0
  9
$DIMLDRBLK
  1

  9
$DIMLUNIT
 70
     2
  9
$DIMLWD
 70
    -2
  9
$DIMLWE
 70
    -2
  9
$DIMTMOVE
 70
     0
  9
$DIMFXL
 40
1.0
  9
$DIMFXLON
 70
     0
  9
$DIMJOGANG
 40
0.7853981633974483
  9
$DIMTFILL
 70
     0
  9
$DIMTFILLCLR
 70
     0
  9
$DIMARCSYM
 70
     0
  9
$DIMLTYPE
  6

  9
$DIMLTEX1
  6

  9
$DIMLTEX2
  6

  9
$DIMTXTDIRECTION
 70
     0
  9
$LUNITS
 70
     2
  9
$LUPREC
 70
     4
  9
$SKETCHINC
 40
0.1
  9
$FILLETRAD
 40
0.5
  9
$AUNITS
 70
     0
  9
$AUPREC
 70
     0
  9
$MENU
  1
.
  9
$ELEVATION
 40
0.0
  9
$PELEVATION
 40
0.0
  9
$THICKNESS
 40
0.0
  9
$LIMCHECK
 70
     0
  9
$CHAMFERA
 40
0.5
  9
$CHAMFERB
 40
0.5
  9
$CHAMFERC
 40
1.0
  9
$CHAMFERD
 40
0.0
  9
$SKPOLY
 70
     0
  9
$TDCREATE
 40
2457917.614236111
  9
$TDUCREATE
 40
2457917.239236111
  9
$TDUPDATE
 40
2457917.614247685
  9
$TDUUPDATE
 40
2457917.239247685
  9
$TDINDWG
 40
0.0000000116
  9
$TDUSRTIMER
 40
0.0000000116
  9
$USRTIMER
 70
     1
  9
$ANGBASE
 50
0.0
  9
$ANGDIR
 70
     0
  9
$PDMODE
 70
     0
  9
$PDSIZE
 40
0.0
  9
$PLINEWID
 40
0.0
  9
$SPLFRAME
 70
     0
  9
$SPLINETYPE
 70
     6
  9
$SPLINESEGS
 70
     8
  9
$HANDSEED
  5
DF
  9
$SURFTAB1
 70
     6
  9
$SURFTAB2
 70
     6
  9
$SURFTYPE
 70
     6
  9
$SURFU
 70
     6
  9
$SURFV
 70
     6
  9
$UCSBASE
  2

  9
$UCSNAME
  2

  9
$UCSORG
 10
0.0
 20
0.0
 30
0.0
  9
$UCSXDIR
 10
1.0
 20
0.0
 30
0.0
  9
$UCSYDIR
 10
0.0
 20
1.0
 30
0.0
  9
$UCSORTHOREF
  2

  9
$UCSORTHOVIEW
 70
     0
  9
$UCSORGTOP
 10
0.0
 20
0.0
 30
0.0
  9
$UCSORGBOTTOM
 10
0.0
 20
0.0
 30
0.0
  9
$UCSORGLEFT
 10
0.0
 20
0.0
 30
0.0
  9
$UCSORGRIGHT
 10
0.0
 20
0.0
 30
0.0
  9
$UCSORGFRONT
 10
0.0
 20
0.0
 30
0.0
  9
$UCSORGBACK
 10
0.0
 20
0.0
 30
0.0
  9
$PUCSBASE
  2

  9
$PUCSNAME
  2

  9
$PUCSORG
 10
0.0
 20
0.0
 30
0.0
  9
$PUCSXDIR
 10
1.0
 20
0.0
 30
0.0
  9
$PUCSYDIR
 10
0.0
 20
1.0
 30
0.0
  9
$PUCSORTHOREF
  2

  9
$PUCSORTHOVIEW
 70
     0
  9
$PUCSORGTOP
 10
0.0
 20
0.0
 30
0.0
  9
$PUCSORGBOTTOM
 10
0.0
 20
0.0
 30
0.0
  9
$PUCSORGLEFT
 10
0.0
 20
0.0
 30
0.0
  9
$PUCSORGRIGHT
 10
0.0
 20
0.0
 30
0.0
  9
$PUCSORGFRONT
 10
0.0
 20
0.0
 30
0.0
  9
$PUCSORGBACK
 10
0.0
 20
0.0
 30
0.0
  9
$USERI1
 70
     0
  9
$USERI2
 70
     0
  9
$USERI3
 70
     0
  9
$USERI4
 70
     0
  9
$USERI5
 70
     0
  9
$USERR1
 40
0.0
  9
$USERR2
 40
0.0
  9
$USERR3
 40
0.0
  9
$USERR4
 40
0.0
  9
$USERR5
 40
0.0
  9
$WORLDVIEW
 70
     1
  9
$SHADEDGE
 70
     3
  9
$SHADEDIF
 70
    70
  9
$TILEMODE
 70
     1
  9
$MAXACTVP
 70
    64
  9
$PINSBASE
 10
0.0
 20
0.0
 30
0.0
  9
$PLIMCHECK
 70
     0
  9
$PEXTMIN
 10
1.000000000000000E+20
 20
1.000000000000000E+20
 30
1.000000000000000E+20
  9
$PEXTMAX
 10
-1.000000000000000E+20
 20
-1.000000000000000E+20
 30
-1.000000000000000E+20
  9
$PLIMMIN
 10
0.0
 20
0.0
  9
$PLIMMAX
 10
12.0
 20
9.0
  9
$UNITMODE
 70
     0
  9
$VISRETAIN
 70
     1
  9
$PLINEGEN
 70
     0
  9
$PSLTSCALE
 70
     1
  9
$TREEDEPTH
 70
  3020
  9
$CMLSTYLE
  2
Standard
  9
$CMLJUST
 70
     0
  9
$CMLSCALE
 40
1.0
  9
$PROXYGRAPHICS
 70
     1
  9
$MEASUREMENT
 70
     0
  9
$CELWEIGHT
370
    -1
  9
$ENDCAPS
280
     0
  9
$JOINSTYLE
280
     0
  9
$LWDISPLAY
290
     1
  9
$INSUNITS
 70
     1
  9
$HYPERLINKBASE
  1

  9
$STYLESHEET
  1

  9
$XEDIT
290
     1
  9
$CEPSNTYPE
380
     0
  9
$PSTYLEMODE
290
     1
  9
$FINGERPRINTGUID
  2
{0EBEB812-14C1-68CF-21B6-1AE267E120F3}
  9
$VERSIONGUID
  2
{FAEB1C32-E019-11D5-929B-00C0DF256EC4}
  9
$EXTNAMES
290
     1
  9
$PSVPSCALE
 40
0.0
  9
$OLESTARTUP
290
     0
  9
$SORTENTS
280
   127
  9
$INDEXCTL
280
     0
  9
$HIDETEXT
280
     1
  9
$XCLIPFRAME
280
     2
  9
$HALOGAP
280
     0
  9
$OBSCOLOR
 70
   257
  9
$OBSLTYPE
280
     0
  9
$INTERSECTIONDISPLAY
280
     0
  9
$INTERSECTIONCOLOR
 70
   257
  9
$DIMASSOC
280
     2
  9
$PROJECTNAME
  1

  9
$CAMERADISPLAY
290
     0
  9
$LENSLENGTH
 40
50.0
  9
$CAMERAHEIGHT
 40
0.0
  9
$STEPSPERSEC
 40
2.0
  9
$STEPSIZE
 40
6.0
  9
$3DDWFPREC
 40
2.0
  9
$PSOLWIDTH
 40
0.25
  9
$PSOLHEIGHT
 40
4.0
  9
$LOFTANG1
 40
1.570796326794897
  9
$LOFTANG2
 40
1.570796326794897
  9
$LOFTMAG1
 40
0.0
  9
$LOFTMAG2
 40
0.0
  9
$LOFTPARAM
 70
     7
  9
$LOFTNORMALS
280
     1
  9
$LATITUDE
 40
37.795
  9
$LONGITUDE
 40
-122.394
  9
$NORTHDIRECTION
 40
0.0
  9
$TIMEZONE
 70
 -8000
  9
$LIGHTGLYPHDISPLAY
280
     1
  9
$TILEMODELIGHTSYNCH
280
     1
  9
$CMATERIAL
347
3C
  9
$SOLIDHIST
280
     1
  9
$SHOWHIST
280
     1
  9
$DWFFRAME
280
     2
  9
$DGNFRAME
280
     2
  9
$REALWORLDSCALE
290
     1
  9
$INTERFERECOLOR
 62
   256
  9
$CSHADOW
280
     0
  9
$SHADOWPLANELOCATION
 40
0.0
  0
ENDSEC
  0
SECTION
  2
CLASSES
  0
CLASS
  1
ACDBDICTIONARYWDFLT
  2
AcDbDictionaryWithDefault
  3
ObjectDBX Classes
 90
        0
 91
        4
280
     0
281
     0
  0
CLASS
  1
VISUALSTYLE
  2
AcDbVisualStyle
  3
ObjectDBX Classes
 90
     4095
 91
        4
280
     0
281
     0
  0
CLASS
  1
MATERIAL
  2
AcDbMaterial
  3
ObjectDBX Classes
 90
     1153
 91
        4
280
     0
281
     0
  0
CLASS
  1
SUN
  2
AcDbSun
  3
SCENEOE
 90
     1024
 91
        4
280
     0
281
     0
  0
ENDSEC
  0
SECTION
  2
TABLES
  0
TABLE
  2
VPORT
  5
8
330
0
100
AcDbSymbolTable
 70
     1
  0
VPORT
  5
29
330
8
100
AcDbSymbolTableRecord
100
AcDbViewportTableRecord
  2
*Active
 70
     0
 10
0.0
 20
0.0
 11
1.0
 21
1.0
 12
0.0
 22
0.0
 13
0.0
 23
0.0
 14
0.5
 24
0.5
 15
0.5
 25
0.5
 16
0.0
 26
0.0
 36
1.0
 17
91.00082462281999
 27
-128.4993055234307
 37
0.0
 40
256.9986110468615
 41
0.7081814508812795
 42
50.0
 43
0.0
 44
0.0
 50
0.0
 51
0.0
 71
     0
 72
   100
 73
     1
 74
     3
 75
     0
 76
     0
 77
     0
 78
     0
281
     0
 65
     1
110
0.0
120
0.0
130
0.0
111
1.0
121
0.0
131
0.0
112
0.0
122
1.0
132
0.0
 79
     0
146
0.0
 60
     3
 61
     5
292
     1
282
     1
141
0.0
142
0.0
 63
   250
361
3F
  0
ENDTAB
  0
TABLE
  2
LTYPE
  5
5
330
0
100
AcDbSymbolTable
 70
     1
  0
LTYPE
  5
14
330
5
100
AcDbSymbolTableRecord
100
AcDbLinetypeTableRecord
  2
ByBlock
 70
     0
  3

 72
    65
 73
     0
 40
0.0
  0
LTYPE
  5
15
330
5
100
AcDbSymbolTableRecord
100
AcDbLinetypeTableRecord
  2
ByLayer
 70
     0
  3

 72
    65
 73
     0
 40
0.0
  0
LTYPE
  5
16
330
5
100
AcDbSymbolTableRecord
100
AcDbLinetypeTableRecord
  2
Continuous
 70
     0
  3
Solid line
 72
    65
 73
     0
 40
0.0
  0
ENDTAB
  0
TABLE
  2
LAYER
  5
2
330
0
100
AcDbSymbolTable
 70
     2
  0
LAYER
  5
10
330
2
100
AcDbSymbolTableRecord
100
AcDbLayerTableRecord
  2
0
 70
     0
 62
     7
  6
Continuous
370
    -3
390
F
347
3E
  0
LAYER
  5
40
330
2
100
AcDbSymbolTableRecord
100
AcDbLayerTableRecord
  2
_U+30EC_U+30A4_U+30E4_U+30FC 1
 70
     0
 62
     7
  6
Continuous
370
    -3
390
F
347
3E
  0
ENDTAB
  0
TABLE
  2
STYLE
  5
3
330
0
100
AcDbSymbolTable
 70
     1
  0
STYLE
  5
11
330
3
100
AcDbSymbolTableRecord
100
AcDbTextStyleTableRecord
  2
Standard
 70
     0
 40
0.0
 41
1.0
 50
0.0
 71
     0
 42
0.2
  3
txt
  4

  0
ENDTAB
  0
TABLE
  2
VIEW
  5
6
330
0
100
AcDbSymbolTable
 70
     0
  0
ENDTAB
  0
TABLE
  2
UCS
  5
7
330
0
100
AcDbSymbolTable
 70
     0
  0
ENDTAB
  0
TABLE
  2
APPID
  5
9
330
0
100
AcDbSymbolTable
 70
     1
  0
APPID
  5
12
330
9
100
AcDbSymbolTableRecord
100
AcDbRegAppTableRecord
  2
ACAD
 70
     0
  0
ENDTAB
  0
TABLE
  2
DIMSTYLE
  5
A
330
0
100
AcDbSymbolTable
 70
     1
100
AcDbDimStyleTable
  0
DIMSTYLE
105
27
330
A
100
AcDbSymbolTableRecord
100
AcDbDimStyleTableRecord
  2
Standard
 70
     0
178
     0
340
11
  0
ENDTAB
  0
TABLE
  2
BLOCK_RECORD
  5
1
330
0
100
AcDbSymbolTable
 70
     9
  0
BLOCK_RECORD
  5
1F
330
1
100
AcDbSymbolTableRecord
100
AcDbBlockTableRecord
  2
*Model_Space
340
22
 70
     0
280
     1
281
     0
  0
BLOCK_RECORD
  5
1B
330
1
100
AcDbSymbolTableRecord
100
AcDbBlockTableRecord
  2
*Paper_Space
340
1E
 70
     0
280
     1
281
     0
  0
BLOCK_RECORD
  5
23
330
1
100
AcDbSymbolTableRecord
100
AcDbBlockTableRecord
  2
*Paper_Space0
340
26
 70
     0
280
     1
281
     0
  0
BLOCK_RECORD
  5
66
330
1
100
AcDbSymbolTableRecord
100
AcDbBlockTableRecord
  2
block 2
340
0
102
{BLKREFS
331
67
102
}
 70
     0
280
     1
281
     0
  0
BLOCK_RECORD
  5
7A
330
1
100
AcDbSymbolTableRecord
100
AcDbBlockTableRecord
  2
block 3
340
0
102
{BLKREFS
331
7B
102
}
 70
     0
280
     1
281
     0
  0
BLOCK_RECORD
  5
8C
330
1
100
AcDbSymbolTableRecord
100
AcDbBlockTableRecord
  2
block 4
340
0
102
{BLKREFS
331
8D
102
}
 70
     0
280
     1
281
     0
  0
BLOCK_RECORD
  5
A0
330
1
100
AcDbSymbolTableRecord
100
AcDbBlockTableRecord
  2
block 5
340
0
102
{BLKREFS
331
A1
102
}
 70
     0
280
     1
281
     0
  0
BLOCK_RECORD
  5
A8
330
1
100
AcDbSymbolTableRecord
100
AcDbBlockTableRecord
  2
block 6
340
0
102
{BLKREFS
331
A9
102
}
 70
     0
280
     1
281
     0
  0
BLOCK_RECORD
  5
B8
330
1
100
AcDbSymbolTableRecord
100
AcDbBlockTableRecord
  2
block 7
340
0
102
{BLKREFS
331
B9
102
}
 70
     0
280
     1
281
     0
  0
BLOCK_RECORD
  5
C0
330
1
100
AcDbSymbolTableRecord
100
AcDbBlockTableRecord
  2
block 8
340
0
102
{BLKREFS
331
C1
102
}
 70
     0
280
     1
281
     0
  0
BLOCK_RECORD
  5
CC
330
1
100
AcDbSymbolTableRecord
100
AcDbBlockTableRecord
  2
block 9
340
0
102
{BLKREFS
331
CD
102
}
 70
     0
280
     1
281
     0
  0
ENDTAB
  0
ENDSEC
  0
SECTION
  2
BLOCKS
  0
BLOCK
  5
20
330
1F
100
AcDbEntity
  8
0
100
AcDbBlockBegin
  2
*Model_Space
 70
     0
 10
0.0
 20
0.0
 30
0.0
  3
*Model_Space
  1

  0
ENDBLK
  5
21
330
1F
100
AcDbEntity
  8
0
100
AcDbBlockEnd
  0
BLOCK
  5
1C
330
1B
100
AcDbEntity
 67
     1
  8
0
100
AcDbBlockBegin
  2
*Paper_Space
 70
     0
 10
0.0
 20
0.0
 30
0.0
  3
*Paper_Space
  1

  0
ENDBLK
  5
1D
330
1B
100
AcDbEntity
 67
     1
  8
0
100
AcDbBlockEnd
  0
BLOCK
  5
24
330
23
100
AcDbEntity
  8
0
100
AcDbBlockBegin
  2
*Paper_Space0
 70
     0
 10
0.0
 20
0.0
 30
0.0
  3
*Paper_Space0
  1

  0
ENDBLK
  5
25
330
23
100
AcDbEntity
  8
0
100
AcDbBlockEnd
  0
BLOCK
  5
68
330
66
100
AcDbEntity
  8
0
100
AcDbBlockBegin
  2
block 2
 70
     0
 10
0.0
 20
0.0
 30
0.0
  3
block 2
  1

  0
POLYLINE
  5
6A
330
66
100
AcDbEntity
  8
_U+30EC_U+30A4_U+30E4_U+30FC 1
 62
     7
420
 16777215
370
     9
100
AcDb2dPolyline
 66
     1
 10
0.0
 20
0.0
 30
0.0
  0
VERTEX
  5
6B
330
6A
100
AcDbEntity
  8
_U+30EC_U+30A4_U+30E4_U+30FC 1
 62
     7
420
 16777215
370
     9
100
AcDbVertex
100
AcDb2dVertex
 10
109.7586916392271
 20
-123.9080438579117
 30
0.0
  0
VERTEX
  5
6C
330
6A
100
AcDbEntity
  8
_U+30EC_U+30A4_U+30E4_U+30FC 1
 62
     7
420
 16777215
370
     9
100
AcDbVertex
100
AcDb2dVertex
 10
109.7586916392271
 20
-120.1377313588543
 30
0.0
  0
SEQEND
  5
6D
330
6A
100
AcDbEntity
  8
_U+30EC_U+30A4_U+30E4_U+30FC 1
 62
     7
420
 16777215
370
     9
  0
POLYLINE
  5
6E
330
66
100
AcDbEntity
  8
_U+30EC_U+30A4_U+30E4_U+30FC 1
 62
     7
420
 16777215
370
     9
100
AcDb2dPolyline
 66
     1
 10
0.0
 20
0.0
 30
0.0
  0
VERTEX
  5
6F
330
6E
100
AcDbEntity
  8
_U+30EC_U+30A4_U+30E4_U+30FC 1
 62
     7
420
 16777215
370
     9
100
AcDbVertex
100
AcDb2dVertex
 10
109.7586916392271
 20
-124.9081335798842
 30
0.0
  0
VERTEX
  5
70
330
6E
100
AcDbEntity
  8
_U+30EC_U+30A4_U+30E4_U+30FC 1
 62
     7
420
 16777215
370
     9
100
AcDbVertex
100
AcDb2dVertex
 10
109.7586916392271
 20
-123.9080438579117
 30
0.0
  0
SEQEND
  5
71
330
6E
100
AcDbEntity
  8
_U+30EC_U+30A4_U+30E4_U+30FC 1
 62
     7
420
 16777215
370
     9
  0
POLYLINE
  5
72
330
66
100
AcDbEntity
  8
_U+30EC_U+30A4_U+30E4_U+30FC 1
 62
     7
420
 16777215
370
     9
100
AcDb2dPolyline
 66
     1
 10
0.0
 20
0.0
 30
0.0
  0
VERTEX
  5
73
330
72
100
AcDbEntity
  8
_U+30EC_U+30A4_U+30E4_U+30FC 1
 62
     7
420
 16777215
370
     9
100
AcDbVertex
100
AcDb2dVertex
 10
108.2986475148491
 20
-124.9081335798842
 30
0.0
  0
VERTEX
  5
74
330
72
100
AcDbEntity
  8
_U+30EC_U+30A4_U+30E4_U+30FC 1
 62
     7
420
 16777215
370
     9
100
AcDbVertex
100
AcDb2dVertex
 10
110.7591313409658
 20
-124.9081335798842
 30
0.0
  0
SEQEND
  5
75
330
72
100
AcDbEntity
  8
_U+30EC_U+30A4_U+30E4_U+30FC 1
 62
     7
420
 16777215
370
     9
  0
POLYLINE
  5
76
330
66
100
AcDbEntity
  8
_U+30EC_U+30A4_U+30E4_U+30FC 1
 62
     7
420
 16777215
370
     9
100
AcDb2dPolyline
 66
     1
 10
0.0
 20
0.0
 30
0.0
  0
VERTEX
  5
77
330
76
100
AcDbEntity
  8
_U+30EC_U+30A4_U+30E4_U+30FC 1
 62
     7
420
 16777215
370
     9
100
AcDbVertex
100
AcDb2dVertex
 10
108.2986475148491
 20
-123.9080438579117
 30
0.0
  0
VERTEX
  5
78
330
76
100
AcDbEntity
  8
_U+30EC_U+30A4_U+30E4_U+30FC 1
 62
     7
420
 16777215
370
     9
100
AcDbVertex
100
AcDb2dVertex
 10
110.7591313409658
 20
-123.9080438579117
 30
0.0
  0
SEQEND
  5
79
330
76
100
AcDbEntity
  8
_U+30EC_U+30A4_U+30E4_U+30FC 1
 62
     7
420
 16777215
370
     9
  0
INSERT
  5
7B
330
66
100
AcDbEntity
  8
_U+30EC_U+30A4_U+30E4_U+30FC 1
100
AcDbBlockReference
  2
block 3
 10
0.0
 20
0.0
 30
0.0
  0
ENDBLK
  5
69
330
66
100
AcDbEntity
  8
0
100
AcDbBlockEnd
  0
BLOCK
  5
7C
330
7A
100
AcDbEntity
  8
0
100
AcDbBlockBegin
  2
block 3
 70
     0
 10
0.0
 20
0.0
 30
0.0
  3
block 3
  1

  0
SPLINE
  5
7E
330
7A
100
AcDbEntity
  8
_U+30EC_U+30A4_U+30E4_U+30FC 1
370
     0
100
AcDbSpline
210
0.0
220
0.0
230
1.0
 70
    11
 71
     3
 72
    26
 73
    22
 74
     0
 42
0.0000000001
 43
0.0000000001
 12
1.0
 22
0.0
 32
0.0
 13
1.0
 23
0.0
 33
0.0
 40
0.0
 40
0.0
 40
0.0
 40
0.0
 40
1.0
 40
1.0
 40
1.0
 40
2.0
 40
2.0
 40
2.0
 40
3.0
 40
3.0
 40
3.0
 40
4.0
 40
4.0
 40
4.0
 40
5.0
 40
5.0
 40
5.0
 40
6.0
 40
6.0
 40
6.0
 40
7.0
 40
7.0
 40
7.0
 40
7.0
 10
108.6424641655477
 20
-124.6025580200646
 30
0.0
 10
108.6424641655477
 20
-124.6025580200646
 30
0.0
 10
107.5383110625252
 20
-124.6025580200646
 30
0.0
 10
107.5383110625252
 20
-124.6025580200646
 30
0.0
 10
107.5383110625252
 20
-124.6025580200646
 30
0.0
 10
107.5383110625252
 20
-124.9325981675516
 30
0.0
 10
107.5383110625252
 20
-124.9325981675516
 30
0.0
 10
107.5383110625252
 20
-124.9325981675516
 30
0.0
 10
107.3901719566594
 20
-124.9325981675516
 30
0.0
 10
107.3901719566594
 20
-124.9325981675516
 30
0.0
 10
107.3753580460728
 20
-124.6004909627735
 30
0.0
 10
107.2124050296205
 20
-124.5539821737226
 30
0.0
 10
107.0980278595102
 20
-124.5243543525495
 30
0.0
 10
107.0980278595102
 20
-124.5243543525495
 30
0.0
 10
107.0980278595102
 20
-124.3782823039749
 30
0.0
 10
107.0980278595102
 20
-124.3782823039749
 30
0.0
 10
107.0980278595102
 20
-124.3782823039749
 30
0.0
 10
108.6424641655477
 20
-124.3782823039749
 30
0.0
 10
108.6424641655477
 20
-124.3782823039749
 30
0.0
 10
108.6424641655477
 20
-124.3782823039749
 30
0.0
 10
108.6424641655477
 20
-124.6025580200646
 30
0.0
 10
108.6424641655477
 20
-124.6025580200646
 30
0.0
  0
HATCH
  5
7F
330
7A
100
AcDbEntity
  8
_U+30EC_U+30A4_U+30E4_U+30FC 1
 62
     7
420
 16777215
100
AcDbHatch
 10
0.0
 20
0.0
 30
0.0
210
0.0
220
0.0
230
1.0
  2
SOLID
 70
     1
 71
     0
 91
        1
 92
        1
 93
        1
 72
     4
 94
        3
 73
     0
 74
     1
 95
       26
 96
       22
 40
0.0
 40
0.0
 40
0.0
 40
0.0
 40
1.0
 40
1.0
 40
1.0
 40
2.0
 40
2.0
 40
2.0
 40
3.0
 40
3.0
 40
3.0
 40
4.0
 40
4.0
 40
4.0
 40
5.0
 40
5.0
 40
5.0
 40
6.0
 40
6.0
 40
6.0
 40
7.0
 40
7.0
 40
7.0
 40
7.0
 10
108.6424641655477
 20
-124.6025580200646
 10
108.6424641655477
 20
-124.6025580200646
 10
107.5383110625252
 20
-124.6025580200646
 10
107.5383110625252
 20
-124.6025580200646
 10
107.5383110625252
 20
-124.6025580200646
 10
107.5383110625252
 20
-124.9325981675516
 10
107.5383110625252
 20
-124.9325981675516
 10
107.5383110625252
 20
-124.9325981675516
 10
107.3901719566594
 20
-124.9325981675516
 10
107.3901719566594
 20
-124.9325981675516
 10
107.3753580460728
 20
-124.6004909627735
 10
107.2124050296205
 20
-124.5539821737226
 10
107.0980278595102
 20
-124.5243543525495
 10
107.0980278595102
 20
-124.5243543525495
 10
107.0980278595102
 20
-124.3782823039749
 10
107.0980278595102
 20
-124.3782823039749
 10
107.0980278595102
 20
-124.3782823039749
 10
108.6424641655477
 20
-124.3782823039749
 10
108.6424641655477
 20
-124.3782823039749
 10
108.6424641655477
 20
-124.3782823039749
 10
108.6424641655477
 20
-124.6025580200646
 10
108.6424641655477
 20
-124.6025580200646
 97
        0
 97
        0
 75
     2
 76
     1
 98
        0
  0
ENDBLK
  5
7D
330
7A
100
AcDbEntity
  8
0
100
AcDbBlockEnd
  0
BLOCK
  5
8E
330
8C
100
AcDbEntity
  8
0
100
AcDbBlockBegin
  2
block 4
 70
     0
 10
0.0
 20
0.0
 30
0.0
  3
block 4
  1

  0
SPLINE
  5
90
330
8C
100
AcDbEntity
  8
_U+30EC_U+30A4_U+30E4_U+30FC 1
370
     0
100
AcDbSpline
210
0.0
220
0.0
230
1.0
 70
    11
 71
     3
 72
    62
 73
    58
 74
     0
 42
0.0000000001
 43
0.0000000001
 12
1.0
 22
0.0
 32
0.0
 13
1.0
 23
0.0
 33
0.0
 40
0.0
 40
0.0
 40
0.0
 40
0.0
 40
1.0
 40
1.0
 40
1.0
 40
2.0
 40
2.0
 40
2.0
 40
3.0
 40
3.0
 40
3.0
 40
4.0
 40
4.0
 40
4.0
 40
5.0
 40
5.0
 40
5.0
 40
6.0
 40
6.0
 40
6.0
 40
7.0
 40
7.0
 40
7.0
 40
8.0
 40
8.0
 40
8.0
 40
9.0
 40
9.0
 40
9.0
 40
10.0
 40
10.0
 40
10.0
 40
11.0
 40
11.0
 40
11.0
 40
12.0
 40
12.0
 40
12.0
 40
13.0
 40
13.0
 40
13.0
 40
14.0
 40
14.0
 40
14.0
 40
15.0
 40
15.0
 40
15.0
 40
16.0
 40
16.0
 40
16.0
 40
17.0
 40
17.0
 40
17.0
 40
18.0
 40
18.0
 40
18.0
 40
19.0
 40
19.0
 40
19.0
 40
19.0
 10
87.65614825282555
 20
-119.3127861572378
 30
0.0
 10
87.5608913626584
 20
-119.3127861572378
 30
0.0
 10
87.34298907321634
 20
-119.2915988200035
 30
0.0
 10
87.2182766166503
 20
-119.1053914090257
 30
0.0
 10
87.14420706371743
 20
-118.9932535509809
 30
0.0
 10
87.13990069436086
 20
-118.8938625462314
 30
0.0
 10
87.13576657977856
 20
-118.8092854520685
 30
0.0
 10
87.13576657977856
 20
-118.8092854520685
 30
0.0
 10
87.35573592651177
 20
-118.8092854520685
 30
0.0
 10
87.35573592651177
 20
-118.8092854520685
 30
0.0
 10
87.35780298380291
 20
-118.8833550050014
 30
0.0
 10
87.3684827798072
 20
-119.1181382623212
 30
0.0
 10
87.65201413824325
 20
-119.1181382623212
 30
0.0
 10
87.78947344810472
 20
-119.1181382623212
 30
0.0
 10
87.94174666855277
 20
-119.0483750787449
 30
0.0
 10
87.94174666855277
 20
-118.8197929932985
 30
0.0
 10
87.94174666855277
 20
-118.7035210206713
 30
0.0
 10
87.90367836344075
 20
-118.6547729195551
 30
0.0
 10
87.87198348497645
 20
-118.6230780410908
 30
0.0
 10
87.79791393204358
 20
-118.5490084881579
 30
0.0
 10
87.68146970464214
 20
-118.5364338896367
 30
0.0
 10
87.6265204316524
 20
-118.5364338896367
 30
0.0
 10
87.60757240648353
 20
-118.5364338896367
 30
0.0
 10
87.57157115866266
 20
-118.5385009469279
 30
0.0
 10
87.54401039478067
 20
-118.5426350615102
 30
0.0
 10
87.54401039478067
 20
-118.5426350615102
 30
0.0
 10
87.54401039478067
 20
-118.3479871665936
 30
0.0
 10
87.54401039478067
 20
-118.3479871665936
 30
0.0
 10
87.58207869989268
 20
-118.3543605932413
 30
0.0
 10
87.62445337436125
 20
-118.3565999053067
 30
0.0
 10
87.63082680100896
 20
-118.3565999053067
 30
0.0
 10
87.69628361522871
 20
-118.3565999053067
 30
0.0
 10
87.89523787950189
 20
-118.3354125680724
 30
0.0
 10
87.89523787950189
 20
-118.0983899986872
 30
0.0
 10
87.89523787950189
 20
-117.9207953264226
 30
0.0
 10
87.76397974151386
 20
-117.8656737986586
 30
0.0
 10
87.6540811955344
 20
-117.8656737986586
 30
0.0
 10
87.38967011704148
 20
-117.8656737986586
 30
0.0
 10
87.3812296331026
 20
-118.0983899986872
 30
0.0
 10
87.37692326374605
 20
-118.1703924943289
 30
0.0
 10
87.37692326374605
 20
-118.1703924943289
 30
0.0
 10
87.17383488489057
 20
-118.1703924943289
 30
0.0
 10
87.17383488489057
 20
-118.1703924943289
 30
0.0
 10
87.18227536882944
 20
-118.0455077829886
 30
0.0
 10
87.20983613271143
 20
-117.6689588464508
 30
0.0
 10
87.66665579405556
 20
-117.6689588464508
 30
0.0
 10
87.89093151014532
 20
-117.6689588464508
 30
0.0
 10
88.13208819411281
 20
-117.7959106150823
 30
0.0
 10
88.13208819411281
 20
-118.0920165720395
 30
0.0
 10
88.13208819411281
 20
-118.2782239830173
 30
0.0
 10
88.03700355871992
 20
-118.360734019889
 30
0.0
 10
87.9374402991962
 20
-118.4220567195264
 30
0.0
 10
87.99893525360791
 20
-118.4496174834084
 30
0.0
 10
88.1808362952291
 20
-118.530060462989
 30
0.0
 10
88.1808362952291
 20
-118.8072183947774
 30
0.0
 10
88.1808362952291
 20
-119.1456990262032
 30
0.0
 10
87.9333061846139
 20
-119.3127861572378
 30
0.0
 10
87.65614825282555
 20
-119.3127861572378
 30
0.0
  0
HATCH
  5
91
330
8C
100
AcDbEntity
  8
_U+30EC_U+30A4_U+30E4_U+30FC 1
 62
     7
420
 16777215
100
AcDbHatch
 10
0.0
 20
0.0
 30
0.0
210
0.0
220
0.0
230
1.0
  2
SOLID
 70
     1
 71
     0
 91
        1
 92
        1
 93
        1
 72
     4
 94
        3
 73
     0
 74
     1
 95
       62
 96
       58
 40
0.0
 40
0.0
 40
0.0
 40
0.0
 40
1.0
 40
1.0
 40
1.0
 40
2.0
 40
2.0
 40
2.0
 40
3.0
 40
3.0
 40
3.0
 40
4.0
 40
4.0
 40
4.0
 40
5.0
 40
5.0
 40
5.0
 40
6.0
 40
6.0
 40
6.0
 40
7.0
 40
7.0
 40
7.0
 40
8.0
 40
8.0
 40
8.0
 40
9.0
 40
9.0
 40
9.0
 40
10.0
 40
10.0
 40
10.0
 40
11.0
 40
11.0
 40
11.0
 40
12.0
 40
12.0
 40
12.0
 40
13.0
 40
13.0
 40
13.0
 40
14.0
 40
14.0
 40
14.0
 40
15.0
 40
15.0
 40
15.0
 40
16.0
 40
16.0
 40
16.0
 40
17.0
 40
17.0
 40
17.0
 40
18.0
 40
18.0
 40
18.0
 40
19.0
 40
19.0
 40
19.0
 40
19.0
 10
87.65614825282555
 20
-119.3127861572378
 10
87.5608913626584
 20
-119.3127861572378
 10
87.34298907321634
 20
-119.2915988200035
 10
87.2182766166503
 20
-119.1053914090257
 10
87.14420706371743
 20
-118.9932535509809
 10
87.13990069436086
 20
-118.8938625462314
 10
87.13576657977856
 20
-118.8092854520685
 10
87.13576657977856
 20
-118.8092854520685
 10
87.35573592651177
 20
-118.8092854520685
 10
87.35573592651177
 20
-118.8092854520685
 10
87.35780298380291
 20
-118.8833550050014
 10
87.3684827798072
 20
-119.1181382623212
 10
87.65201413824325
 20
-119.1181382623212
 10
87.78947344810472
 20
-119.1181382623212
 10
87.94174666855277
 20
-119.0483750787449
 10
87.94174666855277
 20
-118.8197929932985
 10
87.94174666855277
 20
-118.7035210206713
 10
87.90367836344075
 20
-118.6547729195551
 10
87.87198348497645
 20
-118.6230780410908
 10
87.79791393204358
 20
-118.5490084881579
 10
87.68146970464214
 20
-118.5364338896367
 10
87.6265204316524
 20
-118.5364338896367
 10
87.60757240648353
 20
-118.5364338896367
 10
87.57157115866266
 20
-118.5385009469279
 10
87.54401039478067
 20
-118.5426350615102
 10
87.54401039478067
 20
-118.5426350615102
 10
87.54401039478067
 20
-118.3479871665936
 10
87.54401039478067
 20
-118.3479871665936
 10
87.58207869989268
 20
-118.3543605932413
 10
87.62445337436125
 20
-118.3565999053067
 10
87.63082680100896
 20
-118.3565999053067
 10
87.69628361522871
 20
-118.3565999053067
 10
87.89523787950189
 20
-118.3354125680724
 10
87.89523787950189
 20
-118.0983899986872
 10
87.89523787950189
 20
-117.9207953264226
 10
87.76397974151386
 20
-117.8656737986586
 10
87.6540811955344
 20
-117.8656737986586
 10
87.38967011704148
 20
-117.8656737986586
 10
87.3812296331026
 20
-118.0983899986872
 10
87.37692326374605
 20
-118.1703924943289
 10
87.37692326374605
 20
-118.1703924943289
 10
87.17383488489057
 20
-118.1703924943289
 10
87.17383488489057
 20
-118.1703924943289
 10
87.18227536882944
 20
-118.0455077829886
 10
87.20983613271143
 20
-117.6689588464508
 10
87.66665579405556
 20
-117.6689588464508
 10
87.89093151014532
 20
-117.6689588464508
 10
88.13208819411281
 20
-117.7959106150823
 10
88.13208819411281
 20
-118.0920165720395
 10
88.13208819411281
 20
-118.2782239830173
 10
88.03700355871992
 20
-118.360734019889
 10
87.9374402991962
 20
-118.4220567195264
 10
87.99893525360791
 20
-118.4496174834084
 10
88.1808362952291
 20
-118.530060462989
 10
88.1808362952291
 20
-118.8072183947774
 10
88.1808362952291
 20
-119.1456990262032
 10
87.9333061846139
 20
-119.3127861572378
 10
87.65614825282555
 20
-119.3127861572378
 97
        0
 97
        0
 75
     2
 76
     1
 98
        0
  0
SPLINE
  5
92
330
8C
100
AcDbEntity
  8
_U+30EC_U+30A4_U+30E4_U+30FC 1
370
     0
100
AcDbSpline
210
0.0
220
0.0
230
1.0
 70
    11
 71
     3
 72
    53
 73
    49
 74
     0
 42
0.0000000001
 43
0.0000000001
 12
1.0
 22
0.0
 32
0.0
 13
1.0
 23
0.0
 33
0.0
 40
0.0
 40
0.0
 40
0.0
 40
0.0
 40
1.0
 40
1.0
 40
1.0
 40
2.0
 40
2.0
 40
2.0
 40
3.0
 40
3.0
 40
3.0
 40
4.0
 40
4.0
 40
4.0
 40
5.0
 40
5.0
 40
5.0
 40
6.0
 40
6.0
 40
6.0
 40
7.0
 40
7.0
 40
7.0
 40
8.0
 40
8.0
 40
8.0
 40
9.0
 40
9.0
 40
9.0
 40
10.0
 40
10.0
 40
10.0
 40
11.0
 40
11.0
 40
11.0
 40
12.0
 40
12.0
 40
12.0
 40
13.0
 40
13.0
 40
13.0
 40
14.0
 40
14.0
 40
14.0
 40
15.0
 40
15.0
 40
15.0
 40
16.0
 40
16.0
 40
16.0
 40
16.0
 10
88.82248532935688
 20
-119.3127861572378
 30
0.0
 10
88.74410940706746
 20
-119.3127861572378
 30
0.0
 10
88.64265134502683
 20
-119.2957329345858
 30
0.0
 10
88.54102102821197
 20
-119.2323431776572
 30
0.0
 10
88.36756047052964
 20
-119.1222723769035
 30
0.0
 10
88.34637313329536
 20
-118.9911864936897
 30
0.0
 10
88.32742510812648
 20
-118.8833550050014
 30
0.0
 10
88.32742510812648
 20
-118.8833550050014
 30
0.0
 10
88.54946151215083
 20
-118.8833550050014
 30
0.0
 10
88.54946151215083
 20
-118.8833550050014
 30
0.0
 10
88.60458303991483
 20
-119.0821370145003
 30
0.0
 10
88.73153480854629
 20
-119.1117648356735
 30
0.0
 10
88.82455238664804
 20
-119.1117648356735
 30
0.0
 10
88.96425100857492
 20
-119.1117648356735
 30
0.0
 10
89.11652422902296
 20
-119.012373830924
 30
0.0
 10
89.11652422902296
 20
-118.7796576308954
 30
0.0
 10
89.11652422902296
 20
-118.5236870363413
 30
0.0
 10
88.93669024469291
 20
-118.453923852765
 30
0.0
 10
88.81611190270917
 20
-118.453923852765
 30
0.0
 10
88.78441702424487
 20
-118.453923852765
 30
0.0
 10
88.64265134502683
 20
-118.453923852765
 30
0.0
 10
88.5537678815074
 20
-118.5829426786876
 30
0.0
 10
88.5537678815074
 20
-118.5829426786876
 30
0.0
 10
88.37824026653392
 20
-118.5638223987445
 30
0.0
 10
88.37824026653392
 20
-118.5638223987445
 30
0.0
 10
88.37824026653392
 20
-118.5638223987445
 30
0.0
 10
88.49881860851767
 20
-117.7177069475671
 30
0.0
 10
88.49881860851767
 20
-117.7177069475671
 30
0.0
 10
88.49881860851767
 20
-117.7177069475671
 30
0.0
 10
89.27723793340986
 20
-117.7177069475671
 30
0.0
 10
89.27723793340986
 20
-117.7177069475671
 30
0.0
 10
89.27723793340986
 20
-117.7177069475671
 30
0.0
 10
89.27723793340986
 20
-117.9123548424837
 30
0.0
 10
89.27723793340986
 20
-117.9123548424837
 30
0.0
 10
89.27723793340986
 20
-117.9123548424837
 30
0.0
 10
88.66159937019572
 20
-117.9123548424837
 30
0.0
 10
88.66159937019572
 20
-117.9123548424837
 30
0.0
 10
88.66159937019572
 20
-117.9123548424837
 30
0.0
 10
88.59614255597597
 20
-118.3354125680724
 30
0.0
 10
88.59614255597597
 20
-118.3354125680724
 30
0.0
 10
88.65746525561342
 20
-118.3014783775427
 30
0.0
 10
88.73997529248516
 20
-118.2613430151395
 30
0.0
 10
88.85831432240349
 20
-118.2613430151395
 30
0.0
 10
89.11221785966639
 20
-118.2613430151395
 30
0.0
 10
89.34924042905158
 20
-118.4475504261173
 30
0.0
 10
89.34924042905158
 20
-118.7605373509522
 30
0.0
 10
89.34924042905158
 20
-119.078002899918
 30
0.0
 10
89.12496471296181
 20
-119.3127861572378
 30
0.0
 10
88.82248532935688
 20
-119.3127861572378
 30
0.0
  0
HATCH
  5
93
330
8C
100
AcDbEntity
  8
_U+30EC_U+30A4_U+30E4_U+30FC 1
 62
     7
420
 16777215
100
AcDbHatch
 10
0.0
 20
0.0
 30
0.0
210
0.0
220
0.0
230
1.0
  2
SOLID
 70
     1
 71
     0
 91
        1
 92
        1
 93
        1
 72
     4
 94
        3
 73
     0
 74
     1
 95
       53
 96
       49
 40
0.0
 40
0.0
 40
0.0
 40
0.0
 40
1.0
 40
1.0
 40
1.0
 40
2.0
 40
2.0
 40
2.0
 40
3.0
 40
3.0
 40
3.0
 40
4.0
 40
4.0
 40
4.0
 40
5.0
 40
5.0
 40
5.0
 40
6.0
 40
6.0
 40
6.0
 40
7.0
 40
7.0
 40
7.0
 40
8.0
 40
8.0
 40
8.0
 40
9.0
 40
9.0
 40
9.0
 40
10.0
 40
10.0
 40
10.0
 40
11.0
 40
11.0
 40
11.0
 40
12.0
 40
12.0
 40
12.0
 40
13.0
 40
13.0
 40
13.0
 40
14.0
 40
14.0
 40
14.0
 40
15.0
 40
15.0
 40
15.0
 40
16.0
 40
16.0
 40
16.0
 40
16.0
 10
88.82248532935688
 20
-119.3127861572378
 10
88.74410940706746
 20
-119.3127861572378
 10
88.64265134502683
 20
-119.2957329345858
 10
88.54102102821197
 20
-119.2323431776572
 10
88.36756047052964
 20
-119.1222723769035
 10
88.34637313329536
 20
-118.9911864936897
 10
88.32742510812648
 20
-118.8833550050014
 10
88.32742510812648
 20
-118.8833550050014
 10
88.54946151215083
 20
-118.8833550050014
 10
88.54946151215083
 20
-118.8833550050014
 10
88.60458303991483
 20
-119.0821370145003
 10
88.73153480854629
 20
-119.1117648356735
 10
88.82455238664804
 20
-119.1117648356735
 10
88.96425100857492
 20
-119.1117648356735
 10
89.11652422902296
 20
-119.012373830924
 10
89.11652422902296
 20
-118.7796576308954
 10
89.11652422902296
 20
-118.5236870363413
 10
88.93669024469291
 20
-118.453923852765
 10
88.81611190270917
 20
-118.453923852765
 10
88.78441702424487
 20
-118.453923852765
 10
88.64265134502683
 20
-118.453923852765
 10
88.5537678815074
 20
-118.5829426786876
 10
88.5537678815074
 20
-118.5829426786876
 10
88.37824026653392
 20
-118.5638223987445
 10
88.37824026653392
 20
-118.5638223987445
 10
88.37824026653392
 20
-118.5638223987445
 10
88.49881860851767
 20
-117.7177069475671
 10
88.49881860851767
 20
-117.7177069475671
 10
88.49881860851767
 20
-117.7177069475671
 10
89.27723793340986
 20
-117.7177069475671
 10
89.27723793340986
 20
-117.7177069475671
 10
89.27723793340986
 20
-117.7177069475671
 10
89.27723793340986
 20
-117.9123548424837
 10
89.27723793340986
 20
-117.9123548424837
 10
89.27723793340986
 20
-117.9123548424837
 10
88.66159937019572
 20
-117.9123548424837
 10
88.66159937019572
 20
-117.9123548424837
 10
88.66159937019572
 20
-117.9123548424837
 10
88.59614255597597
 20
-118.3354125680724
 10
88.59614255597597
 20
-118.3354125680724
 10
88.65746525561342
 20
-118.3014783775427
 10
88.73997529248516
 20
-118.2613430151395
 10
88.85831432240349
 20
-118.2613430151395
 10
89.11221785966639
 20
-118.2613430151395
 10
89.34924042905158
 20
-118.4475504261173
 10
89.34924042905158
 20
-118.7605373509522
 10
89.34924042905158
 20
-119.078002899918
 10
89.12496471296181
 20
-119.3127861572378
 10
88.82248532935688
 20
-119.3127861572378
 97
        0
 97
        0
 75
     2
 76
     1
 98
        0
  0
ENDBLK
  5
8F
330
8C
100
AcDbEntity
  8
0
100
AcDbBlockEnd
  0
BLOCK
  5
A2
330
A0
100
AcDbEntity
  8
0
100
AcDbBlockBegin
  2
block 5
 70
     0
 10
0.0
 20
0.0
 30
0.0
  3
block 5
  1

  0
SPLINE
  5
A4
330
A0
100
AcDbEntity
  8
_U+30EC_U+30A4_U+30E4_U+30FC 1
370
     0
100
AcDbSpline
210
0.0
220
0.0
230
1.0
 70
    11
 71
     3
 72
    26
 73
    22
 74
     0
 42
0.0000000001
 43
0.0000000001
 12
1.0
 22
0.0
 32
0.0
 13
1.0
 23
0.0
 33
0.0
 40
0.0
 40
0.0
 40
0.0
 40
0.0
 40
1.0
 40
1.0
 40
1.0
 40
2.0
 40
2.0
 40
2.0
 40
3.0
 40
3.0
 40
3.0
 40
4.0
 40
4.0
 40
4.0
 40
5.0
 40
5.0
 40
5.0
 40
6.0
 40
6.0
 40
6.0
 40
7.0
 40
7.0
 40
7.0
 40
7.0
 10
77.62110186861557
 20
-138.9620605121345
 30
0.0
 10
77.62110186861557
 20
-138.9620605121345
 30
0.0
 10
77.62110186861557
 20
-137.8579074091119
 30
0.0
 10
77.62110186861557
 20
-137.8579074091119
 30
0.0
 10
77.62110186861557
 20
-137.8579074091119
 30
0.0
 10
77.29106172112863
 20
-137.8579074091119
 30
0.0
 10
77.29106172112863
 20
-137.8579074091119
 30
0.0
 10
77.29106172112863
 20
-137.8579074091119
 30
0.0
 10
77.29106172112863
 20
-137.7097683032462
 30
0.0
 10
77.29106172112863
 20
-137.7097683032462
 30
0.0
 10
77.62316892590671
 20
-137.6949543926596
 30
0.0
 10
77.66967771495759
 20
-137.5320013762073
 30
0.0
 10
77.69930553613074
 20
-137.4179687156455
 30
0.0
 10
77.69930553613074
 20
-137.4179687156455
 30
0.0
 10
77.84537758470533
 20
-137.4179687156455
 30
0.0
 10
77.84537758470533
 20
-137.4179687156455
 30
0.0
 10
77.84537758470533
 20
-137.4179687156455
 30
0.0
 10
77.84537758470533
 20
-138.9620605121345
 30
0.0
 10
77.84537758470533
 20
-138.9620605121345
 30
0.0
 10
77.84537758470533
 20
-138.9620605121345
 30
0.0
 10
77.62110186861557
 20
-138.9620605121345
 30
0.0
 10
77.62110186861557
 20
-138.9620605121345
 30
0.0
  0
HATCH
  5
A5
330
A0
100
AcDbEntity
  8
_U+30EC_U+30A4_U+30E4_U+30FC 1
 62
     7
420
 16777215
100
AcDbHatch
 10
0.0
 20
0.0
 30
0.0
210
0.0
220
0.0
230
1.0
  2
SOLID
 70
     1
 71
     0
 91
        1
 92
        1
 93
        1
 72
     4
 94
        3
 73
     0
 74
     1
 95
       26
 96
       22
 40
0.0
 40
0.0
 40
0.0
 40
0.0
 40
1.0
 40
1.0
 40
1.0
 40
2.0
 40
2.0
 40
2.0
 40
3.0
 40
3.0
 40
3.0
 40
4.0
 40
4.0
 40
4.0
 40
5.0
 40
5.0
 40
5.0
 40
6.0
 40
6.0
 40
6.0
 40
7.0
 40
7.0
 40
7.0
 40
7.0
 10
77.62110186861557
 20
-138.9620605121345
 10
77.62110186861557
 20
-138.9620605121345
 10
77.62110186861557
 20
-137.8579074091119
 10
77.62110186861557
 20
-137.8579074091119
 10
77.62110186861557
 20
-137.8579074091119
 10
77.29106172112863
 20
-137.8579074091119
 10
77.29106172112863
 20
-137.8579074091119
 10
77.29106172112863
 20
-137.8579074091119
 10
77.29106172112863
 20
-137.7097683032462
 10
77.29106172112863
 20
-137.7097683032462
 10
77.62316892590671
 20
-137.6949543926596
 10
77.66967771495759
 20
-137.5320013762073
 10
77.69930553613074
 20
-137.4179687156455
 10
77.69930553613074
 20
-137.4179687156455
 10
77.84537758470533
 20
-137.4179687156455
 10
77.84537758470533
 20
-137.4179687156455
 10
77.84537758470533
 20
-137.4179687156455
 10
77.84537758470533
 20
-138.9620605121345
 10
77.84537758470533
 20
-138.9620605121345
 10
77.84537758470533
 20
-138.9620605121345
 10
77.62110186861557
 20
-138.9620605121345
 10
77.62110186861557
 20
-138.9620605121345
 97
        0
 97
        0
 75
     2
 76
     1
 98
        0
  0
SPLINE
  5
A6
330
A0
100
AcDbEntity
  8
_U+30EC_U+30A4_U+30E4_U+30FC 1
370
     0
100
AcDbSpline
210
0.0
220
0.0
230
1.0
 70
    11
 71
     3
 72
    53
 73
    49
 74
     0
 42
0.0000000001
 43
0.0000000001
 12
1.0
 22
0.0
 32
0.0
 13
1.0
 23
0.0
 33
0.0
 40
0.0
 40
0.0
 40
0.0
 40
0.0
 40
1.0
 40
1.0
 40
1.0
 40
2.0
 40
2.0
 40
2.0
 40
3.0
 40
3.0
 40
3.0
 40
4.0
 40
4.0
 40
4.0
 40
5.0
 40
5.0
 40
5.0
 40
6.0
 40
6.0
 40
6.0
 40
7.0
 40
7.0
 40
7.0
 40
8.0
 40
8.0
 40
8.0
 40
9.0
 40
9.0
 40
9.0
 40
10.0
 40
10.0
 40
10.0
 40
11.0
 40
11.0
 40
11.0
 40
12.0
 40
12.0
 40
12.0
 40
13.0
 40
13.0
 40
13.0
 40
14.0
 40
14.0
 40
14.0
 40
15.0
 40
15.0
 40
15.0
 40
16.0
 40
16.0
 40
16.0
 40
16.0
 10
78.82757430755005
 20
-139.0130479253162
 30
0.0
 10
78.74919838526063
 20
-139.0130479253162
 30
0.0
 10
78.64774032322
 20
-138.9958224478899
 30
0.0
 10
78.54611000640514
 20
-138.9324326909613
 30
0.0
 10
78.37264944872281
 20
-138.8225341449819
 30
0.0
 10
78.35146211148853
 20
-138.6912760069939
 30
0.0
 10
78.33251408631965
 20
-138.5834445183055
 30
0.0
 10
78.33251408631965
 20
-138.5834445183055
 30
0.0
 10
78.554550490344
 20
-138.5834445183055
 30
0.0
 10
78.554550490344
 20
-138.5834445183055
 30
0.0
 10
78.609672018108
 20
-138.7822265278045
 30
0.0
 10
78.73662378673946
 20
-138.8118543489776
 30
0.0
 10
78.82964136484121
 20
-138.8118543489776
 30
0.0
 10
78.96933998676809
 20
-138.8118543489776
 30
0.0
 10
79.12161320721613
 20
-138.7126355990024
 30
0.0
 10
79.12161320721613
 20
-138.4797471441995
 30
0.0
 10
79.12161320721613
 20
-138.2237765496455
 30
0.0
 10
78.94177922288608
 20
-138.1541856208434
 30
0.0
 10
78.82120088090234
 20
-138.1541856208434
 30
0.0
 10
78.78950600243805
 20
-138.1541856208434
 30
0.0
 10
78.64774032322
 20
-138.1541856208434
 30
0.0
 10
78.55885685970057
 20
-138.2830321919917
 30
0.0
 10
78.55885685970057
 20
-138.2830321919917
 30
0.0
 10
78.3833292447271
 20
-138.2640841668229
 30
0.0
 10
78.3833292447271
 20
-138.2640841668229
 30
0.0
 10
78.3833292447271
 20
-138.2640841668229
 30
0.0
 10
78.50390758671084
 20
-137.4179687156455
 30
0.0
 10
78.50390758671084
 20
-137.4179687156455
 30
0.0
 10
78.50390758671084
 20
-137.4179687156455
 30
0.0
 10
79.28232691160304
 20
-137.4179687156455
 30
0.0
 10
79.28232691160304
 20
-137.4179687156455
 30
0.0
 10
79.28232691160304
 20
-137.4179687156455
 30
0.0
 10
79.28232691160304
 20
-137.6126166105621
 30
0.0
 10
79.28232691160304
 20
-137.6126166105621
 30
0.0
 10
79.28232691160304
 20
-137.6126166105621
 30
0.0
 10
78.66668834838889
 20
-137.6126166105621
 30
0.0
 10
78.66668834838889
 20
-137.6126166105621
 30
0.0
 10
78.66668834838889
 20
-137.6126166105621
 30
0.0
 10
78.60123153416914
 20
-138.0356743361508
 30
0.0
 10
78.60123153416914
 20
-138.0356743361508
 30
0.0
 10
78.66255423380659
 20
-138.0015678908468
 30
0.0
 10
78.74506427067833
 20
-137.961604783218
 30
0.0
 10
78.86340330059666
 20
-137.961604783218
 30
0.0
 10
79.11730683785956
 20
-137.961604783218
 30
0.0
 10
79.35432940724475
 20
-138.1476399394214
 30
0.0
 10
79.35432940724475
 20
-138.4607991190306
 30
0.0
 10
79.35432940724475
 20
-138.7780924132221
 30
0.0
 10
79.13005369115498
 20
-139.0130479253162
 30
0.0
 10
78.82757430755005
 20
-139.0130479253162
 30
0.0
  0
HATCH
  5
A7
330
A0
100
AcDbEntity
  8
_U+30EC_U+30A4_U+30E4_U+30FC 1
 62
     7
420
 16777215
100
AcDbHatch
 10
0.0
 20
0.0
 30
0.0
210
0.0
220
0.0
230
1.0
  2
SOLID
 70
     1
 71
     0
 91
        1
 92
        1
 93
        1
 72
     4
 94
        3
 73
     0
 74
     1
 95
       53
 96
       49
 40
0.0
 40
0.0
 40
0.0
 40
0.0
 40
1.0
 40
1.0
 40
1.0
 40
2.0
 40
2.0
 40
2.0
 40
3.0
 40
3.0
 40
3.0
 40
4.0
 40
4.0
 40
4.0
 40
5.0
 40
5.0
 40
5.0
 40
6.0
 40
6.0
 40
6.0
 40
7.0
 40
7.0
 40
7.0
 40
8.0
 40
8.0
 40
8.0
 40
9.0
 40
9.0
 40
9.0
 40
10.0
 40
10.0
 40
10.0
 40
11.0
 40
11.0
 40
11.0
 40
12.0
 40
12.0
 40
12.0
 40
13.0
 40
13.0
 40
13.0
 40
14.0
 40
14.0
 40
14.0
 40
15.0
 40
15.0
 40
15.0
 40
16.0
 40
16.0
 40
16.0
 40
16.0
 10
78.82757430755005
 20
-139.0130479253162
 10
78.74919838526063
 20
-139.0130479253162
 10
78.64774032322
 20
-138.9958224478899
 10
78.54611000640514
 20
-138.9324326909613
 10
78.37264944872281
 20
-138.8225341449819
 10
78.35146211148853
 20
-138.6912760069939
 10
78.33251408631965
 20
-138.5834445183055
 10
78.33251408631965
 20
-138.5834445183055
 10
78.554550490344
 20
-138.5834445183055
 10
78.554550490344
 20
-138.5834445183055
 10
78.609672018108
 20
-138.7822265278045
 10
78.73662378673946
 20
-138.8118543489776
 10
78.82964136484121
 20
-138.8118543489776
 10
78.96933998676809
 20
-138.8118543489776
 10
79.12161320721613
 20
-138.7126355990024
 10
79.12161320721613
 20
-138.4797471441995
 10
79.12161320721613
 20
-138.2237765496455
 10
78.94177922288608
 20
-138.1541856208434
 10
78.82120088090234
 20
-138.1541856208434
 10
78.78950600243805
 20
-138.1541856208434
 10
78.64774032322
 20
-138.1541856208434
 10
78.55885685970057
 20
-138.2830321919917
 10
78.55885685970057
 20
-138.2830321919917
 10
78.3833292447271
 20
-138.2640841668229
 10
78.3833292447271
 20
-138.2640841668229
 10
78.3833292447271
 20
-138.2640841668229
 10
78.50390758671084
 20
-137.4179687156455
 10
78.50390758671084
 20
-137.4179687156455
 10
78.50390758671084
 20
-137.4179687156455
 10
79.28232691160304
 20
-137.4179687156455
 10
79.28232691160304
 20
-137.4179687156455
 10
79.28232691160304
 20
-137.4179687156455
 10
79.28232691160304
 20
-137.6126166105621
 10
79.28232691160304
 20
-137.6126166105621
 10
79.28232691160304
 20
-137.6126166105621
 10
78.66668834838889
 20
-137.6126166105621
 10
78.66668834838889
 20
-137.6126166105621
 10
78.66668834838889
 20
-137.6126166105621
 10
78.60123153416914
 20
-138.0356743361508
 10
78.60123153416914
 20
-138.0356743361508
 10
78.66255423380659
 20
-138.0015678908468
 10
78.74506427067833
 20
-137.961604783218
 10
78.86340330059666
 20
-137.961604783218
 10
79.11730683785956
 20
-137.961604783218
 10
79.35432940724475
 20
-138.1476399394214
 10
79.35432940724475
 20
-138.4607991190306
 10
79.35432940724475
 20
-138.7780924132221
 10
79.13005369115498
 20
-139.0130479253162
 10
78.82757430755005
 20
-139.0130479253162
 97
        0
 97
        0
 75
     2
 76
     1
 98
        0
  0
ENDBLK
  5
A3
330
A0
100
AcDbEntity
  8
0
100
AcDbBlockEnd
  0
BLOCK
  5
AA
330
A8
100
AcDbEntity
  8
0
100
AcDbBlockBegin
  2
block 6
 70
     0
 10
0.0
 20
0.0
 30
0.0
  3
block 6
  1

  0
POLYLINE
  5
AC
330
A8
100
AcDbEntity
  8
_U+30EC_U+30A4_U+30E4_U+30FC 1
 62
     7
420
 16777215
370
     9
100
AcDb2dPolyline
 66
     1
 10
0.0
 20
0.0
 30
0.0
  0
VERTEX
  5
AD
330
AC
100
AcDbEntity
  8
_U+30EC_U+30A4_U+30E4_U+30FC 1
 62
     7
420
 16777215
370
     9
100
AcDbVertex
100
AcDb2dVertex
 10
85.75840586767634
 20
-139.6080307984311
 30
0.0
  0
VERTEX
  5
AE
330
AC
100
AcDbEntity
  8
_U+30EC_U+30A4_U+30E4_U+30FC 1
 62
     7
420
 16777215
370
     9
100
AcDbVertex
100
AcDb2dVertex
 10
93.75894705245443
 20
-139.6080307984311
 30
0.0
  0
SEQEND
  5
AF
330
AC
100
AcDbEntity
  8
_U+30EC_U+30A4_U+30E4_U+30FC 1
 62
     7
420
 16777215
370
     9
  0
POLYLINE
  5
B0
330
A8
100
AcDbEntity
  8
_U+30EC_U+30A4_U+30E4_U+30FC 1
 62
     7
420
 16777215
370
     9
100
AcDb2dPolyline
 66
     1
 10
0.0
 20
0.0
 30
0.0
  0
VERTEX
  5
B1
330
B0
100
AcDbEntity
  8
_U+30EC_U+30A4_U+30E4_U+30FC 1
 62
     7
420
 16777215
370
     9
100
AcDbVertex
100
AcDb2dVertex
 10
85.75840586767634
 20
-138.1479894099074
 30
0.0
  0
VERTEX
  5
B2
330
B0
100
AcDbEntity
  8
_U+30EC_U+30A4_U+30E4_U+30FC 1
 62
     7
420
 16777215
370
     9
100
AcDbVertex
100
AcDb2dVertex
 10
85.75840586767634
 20
-140.608473298181
 30
0.0
  0
SEQEND
  5
B3
330
B0
100
AcDbEntity
  8
_U+30EC_U+30A4_U+30E4_U+30FC 1
 62
     7
420
 16777215
370
     9
  0
POLYLINE
  5
B4
330
A8
100
AcDbEntity
  8
_U+30EC_U+30A4_U+30E4_U+30FC 1
 62
     7
420
 16777215
370
     9
100
AcDb2dPolyline
 66
     1
 10
0.0
 20
0.0
 30
0.0
  0
VERTEX
  5
B5
330
B4
100
AcDbEntity
  8
_U+30EC_U+30A4_U+30E4_U+30FC 1
 62
     7
420
 16777215
370
     9
100
AcDbVertex
100
AcDb2dVertex
 10
93.75894705245443
 20
-138.1479894099074
 30
0.0
  0
VERTEX
  5
B6
330
B4
100
AcDbEntity
  8
_U+30EC_U+30A4_U+30E4_U+30FC 1
 62
     7
420
 16777215
370
     9
100
AcDbVertex
100
AcDb2dVertex
 10
93.75894705245443
 20
-140.608473298181
 30
0.0
  0
SEQEND
  5
B7
330
B4
100
AcDbEntity
  8
_U+30EC_U+30A4_U+30E4_U+30FC 1
 62
     7
420
 16777215
370
     9
  0
INSERT
  5
B9
330
A8
100
AcDbEntity
  8
_U+30EC_U+30A4_U+30E4_U+30FC 1
100
AcDbBlockReference
  2
block 7
 10
0.0
 20
0.0
 30
0.0
  0
ENDBLK
  5
AB
330
A8
100
AcDbEntity
  8
0
100
AcDbBlockEnd
  0
BLOCK
  5
BA
330
B8
100
AcDbEntity
  8
0
100
AcDbBlockBegin
  2
block 7
 70
     0
 10
0.0
 20
0.0
 30
0.0
  3
block 7
  1

  0
SPLINE
  5
BC
330
B8
100
AcDbEntity
  8
_U+30EC_U+30A4_U+30E4_U+30FC 1
370
     0
100
AcDbSpline
210
0.0
220
0.0
230
1.0
 70
    11
 71
     3
 72
    29
 73
    25
 74
     0
 42
0.0000000001
 43
0.0000000001
 12
1.0
 22
0.0
 32
0.0
 13
1.0
 23
0.0
 33
0.0
 40
0.0
 40
0.0
 40
0.0
 40
0.0
 40
1.0
 40
1.0
 40
1.0
 40
2.0
 40
2.0
 40
2.0
 40
3.0
 40
3.0
 40
3.0
 40
4.0
 40
4.0
 40
4.0
 40
5.0
 40
5.0
 40
5.0
 40
6.0
 40
6.0
 40
6.0
 40
7.0
 40
7.0
 40
7.0
 40
8.0
 40
8.0
 40
8.0
 40
8.0
 10
89.75765649882796
 20
-139.0130479253162
 30
0.0
 10
89.49117836304387
 20
-139.0130479253162
 30
0.0
 10
89.23727482578096
 20
-138.8752441059062
 30
0.0
 10
89.23727482578096
 20
-138.5262559332504
 30
0.0
 10
89.23727482578096
 20
-138.2702853386963
 30
0.0
 10
89.379040504999
 20
-138.1752007033034
 30
0.0
 10
89.48480493639616
 20
-138.113878003666
 30
0.0
 10
89.35992022505586
 20
-138.0546223613197
 30
0.0
 10
89.28378361483183
 20
-137.9402451912094
 30
0.0
 10
89.28378361483183
 20
-137.7797037415967
 30
0.0
 10
89.28378361483183
 20
-137.5044406123253
 30
0.0
 10
89.48273787910502
 20
-137.369048359755
 30
0.0
 10
89.75765649882796
 20
-137.369048359755
 30
0.0
 10
90.041187857264
 20
-137.369048359755
 30
0.0
 10
90.23152938282406
 20
-137.5130533510384
 30
0.0
 10
90.23152938282406
 20
-137.7797037415967
 30
0.0
 10
90.23152938282406
 20
-137.9402451912094
 30
0.0
 10
90.1533257153089
 20
-138.0546223613197
 30
0.0
 10
90.0284410039686
 20
-138.113878003666
 30
0.0
 10
90.11732446748803
 20
-138.1645209072992
 30
0.0
 10
90.27597111458378
 20
-138.2599500522406
 30
0.0
 10
90.27597111458378
 20
-138.5221218186681
 30
0.0
 10
90.27597111458378
 20
-138.8966036979147
 30
0.0
 10
89.99674612550429
 20
-139.0130479253162
 30
0.0
 10
89.75765649882796
 20
-139.0130479253162
 30
0.0
  0
SPLINE
  5
BD
330
B8
100
AcDbEntity
  8
_U+30EC_U+30A4_U+30E4_U+30FC 1
370
     0
100
AcDbSpline
210
0.0
220
0.0
230
1.0
 70
    11
 71
     3
 72
    17
 73
    13
 74
     0
 42
0.0000000001
 43
0.0000000001
 12
1.0
 22
0.0
 32
0.0
 13
1.0
 23
0.0
 33
0.0
 40
0.0
 40
0.0
 40
0.0
 40
0.0
 40
1.0
 40
1.0
 40
1.0
 40
2.0
 40
2.0
 40
2.0
 40
3.0
 40
3.0
 40
3.0
 40
4.0
 40
4.0
 40
4.0
 40
4.0
 10
89.75765649882796
 20
-138.2217094923543
 30
0.0
 10
89.61382376231877
 20
-138.2217094923543
 30
0.0
 10
89.46155054187072
 20
-138.3085258985826
 30
0.0
 10
89.46155054187072
 20
-138.5114420226638
 30
0.0
 10
89.46155054187072
 20
-138.7167697135847
 30
0.0
 10
89.58850231050218
 20
-138.8184000303996
 30
0.0
 10
89.75765649882796
 20
-138.8184000303996
 30
0.0
 10
89.9438639098057
 20
-138.8184000303996
 30
0.0
 10
90.05393471055943
 20
-138.6957546311247
 30
0.0
 10
90.05393471055943
 20
-138.5179877040858
 30
0.0
 10
90.05393471055943
 20
-138.2957790452872
 30
0.0
 10
89.89098169410713
 20
-138.2217094923543
 30
0.0
 10
89.75765649882796
 20
-138.2217094923543
 30
0.0
  0
SPLINE
  5
BE
330
B8
100
AcDbEntity
  8
_U+30EC_U+30A4_U+30E4_U+30FC 1
370
     0
100
AcDbSpline
210
0.0
220
0.0
230
1.0
 70
    11
 71
     3
 72
    17
 73
    13
 74
     0
 42
0.0000000001
 43
0.0000000001
 12
1.0
 22
0.0
 32
0.0
 13
1.0
 23
0.0
 33
0.0
 40
0.0
 40
0.0
 40
0.0
 40
0.0
 40
1.0
 40
1.0
 40
1.0
 40
2.0
 40
2.0
 40
2.0
 40
3.0
 40
3.0
 40
3.0
 40
4.0
 40
4.0
 40
4.0
 40
4.0
 10
89.75765649882796
 20
-137.5616291973804
 30
0.0
 10
89.59263642508448
 20
-137.5616291973804
 30
0.0
 10
89.5080593309216
 20
-137.6567138327733
 30
0.0
 10
89.5080593309216
 20
-137.7921060853436
 30
0.0
 10
89.5080593309216
 20
-137.9150959941671
 30
0.0
 10
89.58006182656332
 20
-138.0336072788596
 30
0.0
 10
89.75765649882796
 20
-138.0336072788596
 30
0.0
 10
89.93542342586684
 20
-138.0336072788596
 30
0.0
 10
90.0072536667343
 20
-137.9150959941671
 30
0.0
 10
90.0072536667343
 20
-137.7921060853436
 30
0.0
 10
90.0072536667343
 20
-137.6567138327733
 30
0.0
 10
89.92060951528026
 20
-137.5616291973804
 30
0.0
 10
89.75765649882796
 20
-137.5616291973804
 30
0.0
  0
HATCH
  5
BF
330
B8
100
AcDbEntity
  8
_U+30EC_U+30A4_U+30E4_U+30FC 1
 62
     7
420
 16777215
100
AcDbHatch
 10
0.0
 20
0.0
 30
0.0
210
0.0
220
0.0
230
1.0
  2
SOLID
 70
     1
 71
     0
 91
        3
 92
        1
 93
        1
 72
     4
 94
        3
 73
     0
 74
     1
 95
       29
 96
       25
 40
0.0
 40
0.0
 40
0.0
 40
0.0
 40
1.0
 40
1.0
 40
1.0
 40
2.0
 40
2.0
 40
2.0
 40
3.0
 40
3.0
 40
3.0
 40
4.0
 40
4.0
 40
4.0
 40
5.0
 40
5.0
 40
5.0
 40
6.0
 40
6.0
 40
6.0
 40
7.0
 40
7.0
 40
7.0
 40
8.0
 40
8.0
 40
8.0
 40
8.0
 10
89.75765649882796
 20
-139.0130479253162
 10
89.49117836304387
 20
-139.0130479253162
 10
89.23727482578096
 20
-138.8752441059062
 10
89.23727482578096
 20
-138.5262559332504
 10
89.23727482578096
 20
-138.2702853386963
 10
89.379040504999
 20
-138.1752007033034
 10
89.48480493639616
 20
-138.113878003666
 10
89.35992022505586
 20
-138.0546223613197
 10
89.28378361483183
 20
-137.9402451912094
 10
89.28378361483183
 20
-137.7797037415967
 10
89.28378361483183
 20
-137.5044406123253
 10
89.48273787910502
 20
-137.369048359755
 10
89.75765649882796
 20
-137.369048359755
 10
90.041187857264
 20
-137.369048359755
 10
90.23152938282406
 20
-137.5130533510384
 10
90.23152938282406
 20
-137.7797037415967
 10
90.23152938282406
 20
-137.9402451912094
 10
90.1533257153089
 20
-138.0546223613197
 10
90.0284410039686
 20
-138.113878003666
 10
90.11732446748803
 20
-138.1645209072992
 10
90.27597111458378
 20
-138.2599500522406
 10
90.27597111458378
 20
-138.5221218186681
 10
90.27597111458378
 20
-138.8966036979147
 10
89.99674612550429
 20
-139.0130479253162
 10
89.75765649882796
 20
-139.0130479253162
 97
        0
 97
        0
 92
        1
 93
        1
 72
     4
 94
        3
 73
     0
 74
     1
 95
       17
 96
       13
 40
0.0
 40
0.0
 40
0.0
 40
0.0
 40
1.0
 40
1.0
 40
1.0
 40
2.0
 40
2.0
 40
2.0
 40
3.0
 40
3.0
 40
3.0
 40
4.0
 40
4.0
 40
4.0
 40
4.0
 10
89.75765649882796
 20
-138.2217094923543
 10
89.61382376231877
 20
-138.2217094923543
 10
89.46155054187072
 20
-138.3085258985826
 10
89.46155054187072
 20
-138.5114420226638
 10
89.46155054187072
 20
-138.7167697135847
 10
89.58850231050218
 20
-138.8184000303996
 10
89.75765649882796
 20
-138.8184000303996
 10
89.9438639098057
 20
-138.8184000303996
 10
90.05393471055943
 20
-138.6957546311247
 10
90.05393471055943
 20
-138.5179877040858
 10
90.05393471055943
 20
-138.2957790452872
 10
89.89098169410713
 20
-138.2217094923543
 10
89.75765649882796
 20
-138.2217094923543
 97
        0
 97
        0
 92
        1
 93
        1
 72
     4
 94
        3
 73
     0
 74
     1
 95
       17
 96
       13
 40
0.0
 40
0.0
 40
0.0
 40
0.0
 40
1.0
 40
1.0
 40
1.0
 40
2.0
 40
2.0
 40
2.0
 40
3.0
 40
3.0
 40
3.0
 40
4.0
 40
4.0
 40
4.0
 40
4.0
 10
89.75765649882796
 20
-137.5616291973804
 10
89.59263642508448
 20
-137.5616291973804
 10
89.5080593309216
 20
-137.6567138327733
 10
89.5080593309216
 20
-137.7921060853436
 10
89.5080593309216
 20
-137.9150959941671
 10
89.58006182656332
 20
-138.0336072788596
 10
89.75765649882796
 20
-138.0336072788596
 10
89.93542342586684
 20
-138.0336072788596
 10
90.0072536667343
 20
-137.9150959941671
 10
90.0072536667343
 20
-137.7921060853436
 10
90.0072536667343
 20
-137.6567138327733
 10
89.92060951528026
 20
-137.5616291973804
 10
89.75765649882796
 20
-137.5616291973804
 97
        0
 97
        0
 75
     2
 76
     1
 98
        0
  0
ENDBLK
  5
BB
330
B8
100
AcDbEntity
  8
0
100
AcDbBlockEnd
  0
BLOCK
  5
C2
330
C0
100
AcDbEntity
  8
0
100
AcDbBlockBegin
  2
block 8
 70
     0
 10
0.0
 20
0.0
 30
0.0
  3
block 8
  1

  0
POLYLINE
  5
C4
330
C0
100
AcDbEntity
  8
_U+30EC_U+30A4_U+30E4_U+30FC 1
 62
     7
420
 16777215
370
     9
100
AcDb2dPolyline
 66
     1
 10
0.0
 20
0.0
 30
0.0
  0
VERTEX
  5
C5
330
C4
100
AcDbEntity
  8
_U+30EC_U+30A4_U+30E4_U+30FC 1
 62
     7
420
 16777215
370
     9
100
AcDbVertex
100
AcDb2dVertex
 10
109.7586916392271
 20
-134.6077938552368
 30
0.0
  0
VERTEX
  5
C6
330
C4
100
AcDbEntity
  8
_U+30EC_U+30A4_U+30E4_U+30FC 1
 62
     7
420
 16777215
370
     9
100
AcDbVertex
100
AcDb2dVertex
 10
109.7586916392271
 20
-124.9081335798842
 30
0.0
  0
SEQEND
  5
C7
330
C4
100
AcDbEntity
  8
_U+30EC_U+30A4_U+30E4_U+30FC 1
 62
     7
420
 16777215
370
     9
  0
POLYLINE
  5
C8
330
C0
100
AcDbEntity
  8
_U+30EC_U+30A4_U+30E4_U+30FC 1
 62
     7
420
 16777215
370
     9
100
AcDb2dPolyline
 66
     1
 10
0.0
 20
0.0
 30
0.0
  0
VERTEX
  5
C9
330
C8
100
AcDbEntity
  8
_U+30EC_U+30A4_U+30E4_U+30FC 1
 62
     7
420
 16777215
370
     9
100
AcDbVertex
100
AcDb2dVertex
 10
96.29870004321549
 20
-134.6077938552368
 30
0.0
  0
VERTEX
  5
CA
330
C8
100
AcDbEntity
  8
_U+30EC_U+30A4_U+30E4_U+30FC 1
 62
     7
420
 16777215
370
     9
100
AcDbVertex
100
AcDb2dVertex
 10
110.7591313409658
 20
-134.6077938552368
 30
0.0
  0
SEQEND
  5
CB
330
C8
100
AcDbEntity
  8
_U+30EC_U+30A4_U+30E4_U+30FC 1
 62
     7
420
 16777215
370
     9
  0
INSERT
  5
CD
330
C0
100
AcDbEntity
  8
_U+30EC_U+30A4_U+30E4_U+30FC 1
100
AcDbBlockReference
  2
block 9
 10
0.0
 20
0.0
 30
0.0
  0
ENDBLK
  5
C3
330
C0
100
AcDbEntity
  8
0
100
AcDbBlockEnd
  0
BLOCK
  5
CE
330
CC
100
AcDbEntity
  8
0
100
AcDbBlockBegin
  2
block 9
 70
     0
 10
0.0
 20
0.0
 30
0.0
  3
block 9
  1

  0
SPLINE
  5
D0
330
CC
100
AcDbEntity
  8
_U+30EC_U+30A4_U+30E4_U+30FC 1
370
     0
100
AcDbSpline
210
0.0
220
0.0
230
1.0
 70
    11
 71
     3
 72
    32
 73
    28
 74
     0
 42
0.0000000001
 43
0.0000000001
 12
1.0
 22
0.0
 32
0.0
 13
1.0
 23
0.0
 33
0.0
 40
0.0
 40
0.0
 40
0.0
 40
0.0
 40
1.0
 40
1.0
 40
1.0
 40
2.0
 40
2.0
 40
2.0
 40
3.0
 40
3.0
 40
3.0
 40
4.0
 40
4.0
 40
4.0
 40
5.0
 40
5.0
 40
5.0
 40
6.0
 40
6.0
 40
6.0
 40
7.0
 40
7.0
 40
7.0
 40
8.0
 40
8.0
 40
8.0
 40
9.0
 40
9.0
 40
9.0
 40
9.0
 10
109.1633626029175
 20
-130.6642035263617
 30
0.0
 10
109.1633626029175
 20
-130.8374918292698
 30
0.0
 10
109.0937716741154
 20
-131.0831271373681
 30
0.0
 10
108.7616644693374
 20
-131.1210231877059
 30
0.0
 10
108.7616644693374
 20
-131.1210231877059
 30
0.0
 10
108.7616644693374
 20
-130.9074272676204
 30
0.0
 10
108.7616644693374
 20
-130.9074272676204
 30
0.0
 10
108.8209201116837
 20
-130.8967474716161
 30
0.0
 10
108.9687147080009
 20
-130.8650525931518
 30
0.0
 10
108.9687147080009
 20
-130.6621364690706
 30
0.0
 10
108.9687147080009
 20
-130.3699923719214
 30
0.0
 10
108.6386745605139
 20
-130.3320963215836
 30
0.0
 10
108.4336913791416
 20
-130.3193494682882
 30
0.0
 10
108.5139621039479
 20
-130.4102999890988
 30
0.0
 10
108.571150689003
 20
-130.4778238606097
 30
0.0
 10
108.571150689003
 20
-130.6597249022309
 30
0.0
 10
108.571150689003
 20
-130.839558886561
 30
0.0
 10
108.4653862576059
 20
-131.1423827797144
 30
0.0
 10
108.0592094998949
 20
-131.1423827797144
 30
0.0
 10
107.7398491484123
 20
-131.1423827797144
 30
0.0
 10
107.5197075469048
 20
-130.943256260667
 30
0.0
 10
107.5197075469048
 20
-130.6259629664755
 30
0.0
 10
107.5197075469048
 20
-130.1119547200762
 30
0.0
 10
108.0740234104815
 20
-130.1012749240719
 30
0.0
 10
108.287619330567
 20
-130.1012749240719
 30
0.0
 10
108.5180962185302
 20
-130.1012749240719
 30
0.0
 10
109.1633626029175
 20
-130.1205674587893
 30
0.0
 10
109.1633626029175
 20
-130.6642035263617
 30
0.0
  0
SPLINE
  5
D1
330
CC
100
AcDbEntity
  8
_U+30EC_U+30A4_U+30E4_U+30FC 1
370
     0
100
AcDbSpline
210
0.0
220
0.0
230
1.0
 70
    11
 71
     3
 72
    17
 73
    13
 74
     0
 42
0.0000000001
 43
0.0000000001
 12
1.0
 22
0.0
 32
0.0
 13
1.0
 23
0.0
 33
0.0
 40
0.0
 40
0.0
 40
0.0
 40
0.0
 40
1.0
 40
1.0
 40
1.0
 40
2.0
 40
2.0
 40
2.0
 40
3.0
 40
3.0
 40
3.0
 40
4.0
 40
4.0
 40
4.0
 40
4.0
 10
107.7122883845303
 20
-130.6238959091843
 30
0.0
 10
107.7122883845303
 20
-130.7424071938769
 30
0.0
 10
107.7694769695854
 20
-130.9181070636246
 30
0.0
 10
108.0550753853126
 20
-130.9181070636246
 30
0.0
 10
108.2814181586935
 20
-130.9181070636246
 30
0.0
 10
108.3765027940864
 20
-130.7782361869235
 30
0.0
 10
108.3765027940864
 20
-130.6428439343532
 30
0.0
 10
108.3765027940864
 20
-130.3806721679257
 30
0.0
 10
108.1670409885832
 20
-130.3424316080394
 30
0.0
 10
108.0505967611818
 20
-130.3424316080394
 30
0.0
 10
107.8752414009826
 20
-130.3424316080394
 30
0.0
 10
107.7122883845303
 20
-130.4378607529808
 30
0.0
 10
107.7122883845303
 20
-130.6238959091843
 30
0.0
  0
HATCH
  5
D2
330
CC
100
AcDbEntity
  8
_U+30EC_U+30A4_U+30E4_U+30FC 1
 62
     7
420
 16777215
100
AcDbHatch
 10
0.0
 20
0.0
 30
0.0
210
0.0
220
0.0
230
1.0
  2
SOLID
 70
     1
 71
     0
 91
        2
 92
        1
 93
        1
 72
     4
 94
        3
 73
     0
 74
     1
 95
       32
 96
       28
 40
0.0
 40
0.0
 40
0.0
 40
0.0
 40
1.0
 40
1.0
 40
1.0
 40
2.0
 40
2.0
 40
2.0
 40
3.0
 40
3.0
 40
3.0
 40
4.0
 40
4.0
 40
4.0
 40
5.0
 40
5.0
 40
5.0
 40
6.0
 40
6.0
 40
6.0
 40
7.0
 40
7.0
 40
7.0
 40
8.0
 40
8.0
 40
8.0
 40
9.0
 40
9.0
 40
9.0
 40
9.0
 10
109.1633626029175
 20
-130.6642035263617
 10
109.1633626029175
 20
-130.8374918292698
 10
109.0937716741154
 20
-131.0831271373681
 10
108.7616644693374
 20
-131.1210231877059
 10
108.7616644693374
 20
-131.1210231877059
 10
108.7616644693374
 20
-130.9074272676204
 10
108.7616644693374
 20
-130.9074272676204
 10
108.8209201116837
 20
-130.8967474716161
 10
108.9687147080009
 20
-130.8650525931518
 10
108.9687147080009
 20
-130.6621364690706
 10
108.9687147080009
 20
-130.3699923719214
 10
108.6386745605139
 20
-130.3320963215836
 10
108.4336913791416
 20
-130.3193494682882
 10
108.5139621039479
 20
-130.4102999890988
 10
108.571150689003
 20
-130.4778238606097
 10
108.571150689003
 20
-130.6597249022309
 10
108.571150689003
 20
-130.839558886561
 10
108.4653862576059
 20
-131.1423827797144
 10
108.0592094998949
 20
-131.1423827797144
 10
107.7398491484123
 20
-131.1423827797144
 10
107.5197075469048
 20
-130.943256260667
 10
107.5197075469048
 20
-130.6259629664755
 10
107.5197075469048
 20
-130.1119547200762
 10
108.0740234104815
 20
-130.1012749240719
 10
108.287619330567
 20
-130.1012749240719
 10
108.5180962185302
 20
-130.1012749240719
 10
109.1633626029175
 20
-130.1205674587893
 10
109.1633626029175
 20
-130.6642035263617
 97
        0
 97
        0
 92
        1
 93
        1
 72
     4
 94
        3
 73
     0
 74
     1
 95
       17
 96
       13
 40
0.0
 40
0.0
 40
0.0
 40
0.0
 40
1.0
 40
1.0
 40
1.0
 40
2.0
 40
2.0
 40
2.0
 40
3.0
 40
3.0
 40
3.0
 40
4.0
 40
4.0
 40
4.0
 40
4.0
 10
107.7122883845303
 20
-130.6238959091843
 10
107.7122883845303
 20
-130.7424071938769
 10
107.7694769695854
 20
-130.9181070636246
 10
108.0550753853126
 20
-130.9181070636246
 10
108.2814181586935
 20
-130.9181070636246
 10
108.3765027940864
 20
-130.7782361869235
 10
108.3765027940864
 20
-130.6428439343532
 10
108.3765027940864
 20
-130.3806721679257
 10
108.1670409885832
 20
-130.3424316080394
 10
108.0505967611818
 20
-130.3424316080394
 10
107.8752414009826
 20
-130.3424316080394
 10
107.7122883845303
 20
-130.4378607529808
 10
107.7122883845303
 20
-130.6238959091843
 97
        0
 97
        0
 75
     2
 76
     1
 98
        0
  0
POLYLINE
  5
D3
330
CC
100
AcDbEntity
  8
_U+30EC_U+30A4_U+30E4_U+30FC 1
370
     0
100
AcDb2dPolyline
 66
     1
 10
0.0
 20
0.0
 30
0.0
  0
VERTEX
  5
D4
330
D3
100
AcDbEntity
  8
_U+30EC_U+30A4_U+30E4_U+30FC 1
370
     0
100
AcDbVertex
100
AcDb2dVertex
 10
109.1127196992843
 20
-129.8849229275982
 30
0.0
  0
VERTEX
  5
D5
330
D3
100
AcDbEntity
  8
_U+30EC_U+30A4_U+30E4_U+30FC 1
370
     0
100
AcDbVertex
100
AcDb2dVertex
 10
108.8608832193126
 20
-129.8849229275982
 30
0.0
  0
VERTEX
  5
D6
330
D3
100
AcDbEntity
  8
_U+30EC_U+30A4_U+30E4_U+30FC 1
370
     0
100
AcDbVertex
100
AcDb2dVertex
 10
108.8608832193126
 20
-129.6330864476265
 30
0.0
  0
VERTEX
  5
D7
330
D3
100
AcDbEntity
  8
_U+30EC_U+30A4_U+30E4_U+30FC 1
370
     0
100
AcDbVertex
100
AcDb2dVertex
 10
109.1127196992843
 20
-129.6330864476265
 30
0.0
  0
VERTEX
  5
D8
330
D3
100
AcDbEntity
  8
_U+30EC_U+30A4_U+30E4_U+30FC 1
370
     0
100
AcDbVertex
100
AcDb2dVertex
 10
109.1127196992843
 20
-129.8849229275982
 30
0.0
  0
SEQEND
  5
D9
330
D3
100
AcDbEntity
  8
_U+30EC_U+30A4_U+30E4_U+30FC 1
370
     0
  0
HATCH
  5
DA
330
CC
100
AcDbEntity
  8
_U+30EC_U+30A4_U+30E4_U+30FC 1
 62
     7
420
 16777215
100
AcDbHatch
 10
0.0
 20
0.0
 30
0.0
210
0.0
220
0.0
230
1.0
  2
SOLID
 70
     1
 71
     0
 91
        1
 92
        1
 93
        4
 72
     1
 10
109.1127196992843
 20
-129.8849229275982
 11
108.8608832193126
 21
-129.8849229275982
 72
     1
 10
108.8608832193126
 20
-129.8849229275982
 11
108.8608832193126
 21
-129.6330864476265
 72
     1
 10
108.8608832193126
 20
-129.6330864476265
 11
109.1127196992843
 21
-129.6330864476265
 72
     1
 10
109.1127196992843
 20
-129.6330864476265
 11
109.1127196992843
 21
-129.8849229275982
 97
        0
 75
     2
 76
     1
 98
        0
  0
SPLINE
  5
DB
330
CC
100
AcDbEntity
  8
_U+30EC_U+30A4_U+30E4_U+30FC 1
370
     0
100
AcDbSpline
210
0.0
220
0.0
230
1.0
 70
    11
 71
     3
 72
    26
 73
    22
 74
     0
 42
0.0000000001
 43
0.0000000001
 12
1.0
 22
0.0
 32
0.0
 13
1.0
 23
0.0
 33
0.0
 40
0.0
 40
0.0
 40
0.0
 40
0.0
 40
1.0
 40
1.0
 40
1.0
 40
2.0
 40
2.0
 40
2.0
 40
3.0
 40
3.0
 40
3.0
 40
4.0
 40
4.0
 40
4.0
 40
5.0
 40
5.0
 40
5.0
 40
6.0
 40
6.0
 40
6.0
 40
7.0
 40
7.0
 40
7.0
 40
7.0
 10
109.1127196992843
 20
-128.985753005948
 30
0.0
 10
109.1127196992843
 20
-128.985753005948
 30
0.0
 10
109.1127196992843
 20
-129.2227755753332
 30
0.0
 10
109.1127196992843
 20
-129.2227755753332
 30
0.0
 10
108.8036946342574
 20
-129.1972818687424
 30
0.0
 10
108.2855522732758
 20
-129.0047010311169
 30
0.0
 10
107.7798122560412
 20
-128.5985242734059
 30
0.0
 10
107.7798122560412
 20
-128.5985242734059
 30
0.0
 10
107.7798122560412
 20
-129.4363714954187
 30
0.0
 10
107.7798122560412
 20
-129.4363714954187
 30
0.0
 10
107.7798122560412
 20
-129.4363714954187
 30
0.0
 10
107.5682833932468
 20
-129.4363714954187
 30
0.0
 10
107.5682833932468
 20
-129.4363714954187
 30
0.0
 10
107.5682833932468
 20
-129.4363714954187
 30
0.0
 10
107.5682833932468
 20
-128.3615017040208
 30
0.0
 10
107.5682833932468
 20
-128.3615017040208
 30
0.0
 10
107.5682833932468
 20
-128.3615017040208
 30
0.0
 10
107.7798122560412
 20
-128.3615017040208
 30
0.0
 10
107.7798122560412
 20
-128.3615017040208
 30
0.0
 10
108.0698892958992
 20
-128.6853406796342
 30
0.0
 10
108.6621012098136
 20
-128.9519910701926
 30
0.0
 10
109.1127196992843
 20
-128.985753005948
 30
0.0
  0
HATCH
  5
DC
330
CC
100
AcDbEntity
  8
_U+30EC_U+30A4_U+30E4_U+30FC 1
 62
     7
420
 16777215
100
AcDbHatch
 10
0.0
 20
0.0
 30
0.0
210
0.0
220
0.0
230
1.0
  2
SOLID
 70
     1
 71
     0
 91
        1
 92
        1
 93
        1
 72
     4
 94
        3
 73
     0
 74
     1
 95
       26
 96
       22
 40
0.0
 40
0.0
 40
0.0
 40
0.0
 40
1.0
 40
1.0
 40
1.0
 40
2.0
 40
2.0
 40
2.0
 40
3.0
 40
3.0
 40
3.0
 40
4.0
 40
4.0
 40
4.0
 40
5.0
 40
5.0
 40
5.0
 40
6.0
 40
6.0
 40
6.0
 40
7.0
 40
7.0
 40
7.0
 40
7.0
 10
109.1127196992843
 20
-128.985753005948
 10
109.1127196992843
 20
-128.985753005948
 10
109.1127196992843
 20
-129.2227755753332
 10
109.1127196992843
 20
-129.2227755753332
 10
108.8036946342574
 20
-129.1972818687424
 10
108.2855522732758
 20
-129.0047010311169
 10
107.7798122560412
 20
-128.5985242734059
 10
107.7798122560412
 20
-128.5985242734059
 10
107.7798122560412
 20
-129.4363714954187
 10
107.7798122560412
 20
-129.4363714954187
 10
107.7798122560412
 20
-129.4363714954187
 10
107.5682833932468
 20
-129.4363714954187
 10
107.5682833932468
 20
-129.4363714954187
 10
107.5682833932468
 20
-129.4363714954187
 10
107.5682833932468
 20
-128.3615017040208
 10
107.5682833932468
 20
-128.3615017040208
 10
107.5682833932468
 20
-128.3615017040208
 10
107.7798122560412
 20
-128.3615017040208
 10
107.7798122560412
 20
-128.3615017040208
 10
108.0698892958992
 20
-128.6853406796342
 10
108.6621012098136
 20
-128.9519910701926
 10
109.1127196992843
 20
-128.985753005948
 97
        0
 97
        0
 75
     2
 76
     1
 98
        0
  0
ENDBLK
  5
CF
330
CC
100
AcDbEntity
  8
0
100
AcDbBlockEnd
  0
ENDSEC
  0
SECTION
  2
ENTITIES
  0
POLYLINE
  5
41
330
1F
100
AcDbEntity
  8
_U+30EC_U+30A4_U+30E4_U+30FC 1
370
     0
100
AcDb2dPolyline
 66
     1
 10
0.0
 20
0.0
 30
0.0
  0
VERTEX
  5
42
330
41
100
AcDbEntity
  8
_U+30EC_U+30A4_U+30E4_U+30FC 1
370
     0
100
AcDbVertex
100
AcDb2dVertex
 10
70.69405430755553
 20
-124.9081335798842
 30
0.0
  0
VERTEX
  5
43
330
41
100
AcDbEntity
  8
_U+30EC_U+30A4_U+30E4_U+30FC 1
370
     0
100
AcDbVertex
100
AcDb2dVertex
 10
85.75840586767634
 20
-124.9081335798842
 30
0.0
  0
VERTEX
  5
44
330
41
100
AcDbEntity
  8
_U+30EC_U+30A4_U+30E4_U+30FC 1
370
     0
100
AcDbVertex
100
AcDb2dVertex
 10
85.75840586767634
 20
-135.6082716327648
 30
0.0
  0
VERTEX
  5
45
330
41
100
AcDbEntity
  8
_U+30EC_U+30A4_U+30E4_U+30FC 1
370
     0
100
AcDbVertex
100
AcDb2dVertex
 10
93.75894705245443
 20
-135.6082716327648
 30
0.0
  0
VERTEX
  5
46
330
41
100
AcDbEntity
  8
_U+30EC_U+30A4_U+30E4_U+30FC 1
370
     0
100
AcDbVertex
100
AcDb2dVertex
 10
93.75894705245443
 20
-134.6077938552368
 30
0.0
  0
VERTEX
  5
47
330
41
100
AcDbEntity
  8
_U+30EC_U+30A4_U+30E4_U+30FC 1
370
     0
100
AcDbVertex
100
AcDb2dVertex
 10
86.6586241780432
 20
-134.6077938552368
 30
0.0
  0
VERTEX
  5
48
330
41
100
AcDbEntity
  8
_U+30EC_U+30A4_U+30E4_U+30FC 1
370
     0
100
AcDbVertex
100
AcDb2dVertex
 10
86.6586241780432
 20
-124.9081335798842
 30
0.0
  0
VERTEX
  5
49
330
41
100
AcDbEntity
  8
_U+30EC_U+30A4_U+30E4_U+30FC 1
370
     0
100
AcDbVertex
100
AcDb2dVertex
 10
105.7589298018649
 20
-124.9081335798842
 30
0.0
  0
VERTEX
  5
4A
330
41
100
AcDbEntity
  8
_U+30EC_U+30A4_U+30E4_U+30FC 1
370
     0
100
AcDbVertex
100
AcDb2dVertex
 10
105.7589298018649
 20
-123.9080438579117
 30
0.0
  0
VERTEX
  5
4B
330
41
100
AcDbEntity
  8
_U+30EC_U+30A4_U+30E4_U+30FC 1
370
     0
100
AcDbVertex
100
AcDb2dVertex
 10
70.71610291810413
 20
-123.9080438579117
 30
0.0
  0
VERTEX
  5
4C
330
41
100
AcDbEntity
  8
_U+30EC_U+30A4_U+30E4_U+30FC 1
370
     0
100
AcDbVertex
100
AcDb2dVertex
 10
70.69405430755553
 20
-124.9081335798842
 30
0.0
  0
SEQEND
  5
4E
330
41
100
AcDbEntity
  8
_U+30EC_U+30A4_U+30E4_U+30FC 1
370
     0
  0
HATCH
  5
4D
330
1F
100
AcDbEntity
  8
_U+30EC_U+30A4_U+30E4_U+30FC 1
 62
   253
420
 11711154
100
AcDbHatch
 10
0.0
 20
0.0
 30
0.0
210
0.0
220
0.0
230
1.0
  2
SOLID
 70
     1
 71
     0
 91
        1
 92
        1
 93
       10
 72
     1
 10
70.69405430755553
 20
-124.9081335798842
 11
85.75840586767634
 21
-124.9081335798842
 72
     1
 10
85.75840586767634
 20
-124.9081335798842
 11
85.75840586767634
 21
-135.6082716327648
 72
     1
 10
85.75840586767634
 20
-135.6082716327648
 11
93.75894705245443
 21
-135.6082716327648
 72
     1
 10
93.75894705245443
 20
-135.6082716327648
 11
93.75894705245443
 21
-134.6077938552368
 72
     1
 10
93.75894705245443
 20
-134.6077938552368
 11
86.6586241780432
 21
-134.6077938552368
 72
     1
 10
86.6586241780432
 20
-134.6077938552368
 11
86.6586241780432
 21
-124.9081335798842
 72
     1
 10
86.6586241780432
 20
-124.9081335798842
 11
105.7589298018649
 21
-124.9081335798842
 72
     1
 10
105.7589298018649
 20
-124.9081335798842
 11
105.7589298018649
 21
-123.9080438579117
 72
     1
 10
105.7589298018649
 20
-123.9080438579117
 11
70.71610291810413
 21
-123.9080438579117
 72
     1
 10
70.71610291810413
 20
-123.9080438579117
 11
70.69405430755553
 21
-124.9081335798842
 97
        0
 75
     2
 76
     1
 98
        0
  0
POLYLINE
  5
4F
330
1F
100
AcDbEntity
  8
_U+30EC_U+30A4_U+30E4_U+30FC 1
 62
     7
420
 16777215
370
    25
100
AcDb2dPolyline
 66
     1
 10
0.0
 20
0.0
 30
0.0
  0
VERTEX
  5
50
330
4F
100
AcDbEntity
  8
_U+30EC_U+30A4_U+30E4_U+30FC 1
 62
     7
420
 16777215
370
    25
100
AcDbVertex
100
AcDb2dVertex
 10
93.75894705245443
 20
-135.6082716327648
 30
0.0
  0
VERTEX
  5
51
330
4F
100
AcDbEntity
  8
_U+30EC_U+30A4_U+30E4_U+30FC 1
 62
     7
420
 16777215
370
    25
100
AcDbVertex
100
AcDb2dVertex
 10
85.75840586767634
 20
-135.6082716327648
 30
0.0
  0
VERTEX
  5
52
330
4F
100
AcDbEntity
  8
_U+30EC_U+30A4_U+30E4_U+30FC 1
 62
     7
420
 16777215
370
    25
100
AcDbVertex
100
AcDb2dVertex
 10
85.75840586767634
 20
-124.9081335798842
 30
0.0
  0
VERTEX
  5
53
330
4F
100
AcDbEntity
  8
_U+30EC_U+30A4_U+30E4_U+30FC 1
 62
     7
420
 16777215
370
    25
100
AcDbVertex
100
AcDb2dVertex
 10
70.75847152813434
 20
-124.9081335798842
 30
0.0
  0
VERTEX
  5
54
330
4F
100
AcDbEntity
  8
_U+30EC_U+30A4_U+30E4_U+30FC 1
 62
     7
420
 16777215
370
    25
100
AcDbVertex
100
AcDb2dVertex
 10
70.68096625233387
 20
-124.9081335798842
 30
0.0
  0
VERTEX
  5
55
330
4F
100
AcDbEntity
  8
_U+30EC_U+30A4_U+30E4_U+30FC 1
 62
     7
420
 16777215
370
    25
100
AcDbVertex
100
AcDb2dVertex
 10
70.68096625233387
 20
-123.9080438579117
 30
0.0
  0
VERTEX
  5
56
330
4F
100
AcDbEntity
  8
_U+30EC_U+30A4_U+30E4_U+30FC 1
 62
     7
420
 16777215
370
    25
100
AcDbVertex
100
AcDb2dVertex
 10
70.7588243059031
 20
-123.9080438579117
 30
0.0
  0
VERTEX
  5
57
330
4F
100
AcDbEntity
  8
_U+30EC_U+30A4_U+30E4_U+30FC 1
 62
     7
420
 16777215
370
    25
100
AcDbVertex
100
AcDb2dVertex
 10
105.7589298018649
 20
-123.9080438579117
 30
0.0
  0
VERTEX
  5
58
330
4F
100
AcDbEntity
  8
_U+30EC_U+30A4_U+30E4_U+30FC 1
 62
     7
420
 16777215
370
    25
100
AcDbVertex
100
AcDb2dVertex
 10
105.7589298018649
 20
-124.9081335798842
 30
0.0
  0
VERTEX
  5
59
330
4F
100
AcDbEntity
  8
_U+30EC_U+30A4_U+30E4_U+30FC 1
 62
     7
420
 16777215
370
    25
100
AcDbVertex
100
AcDb2dVertex
 10
86.6586241780432
 20
-124.9081335798842
 30
0.0
  0
VERTEX
  5
5A
330
4F
100
AcDbEntity
  8
_U+30EC_U+30A4_U+30E4_U+30FC 1
 62
     7
420
 16777215
370
    25
100
AcDbVertex
100
AcDb2dVertex
 10
86.6586241780432
 20
-134.6077938552368
 30
0.0
  0
VERTEX
  5
5B
330
4F
100
AcDbEntity
  8
_U+30EC_U+30A4_U+30E4_U+30FC 1
 62
     7
420
 16777215
370
    25
100
AcDbVertex
100
AcDb2dVertex
 10
93.75894705245443
 20
-134.6077938552368
 30
0.0
  0
VERTEX
  5
5C
330
4F
100
AcDbEntity
  8
_U+30EC_U+30A4_U+30E4_U+30FC 1
 62
     7
420
 16777215
370
    25
100
AcDbVertex
100
AcDb2dVertex
 10
93.75894705245443
 20
-135.6082716327648
 30
0.0
  0
SEQEND
  5
5D
330
4F
100
AcDbEntity
  8
_U+30EC_U+30A4_U+30E4_U+30FC 1
 62
     7
420
 16777215
370
    25
  0
SPLINE
  5
5E
330
1F
100
AcDbEntity
  8
_U+30EC_U+30A4_U+30E4_U+30FC 1
 62
     7
420
 16777215
370
     9
100
AcDbSpline
210
0.0
220
0.0
230
1.0
 70
    11
 71
     3
 72
    17
 73
    13
 74
     0
 42
0.0000000001
 43
0.0000000001
 12
1.0
 22
0.0
 32
0.0
 13
1.0
 23
0.0
 33
0.0
 40
0.0
 40
0.0
 40
0.0
 40
0.0
 40
1.0
 40
1.0
 40
1.0
 40
2.0
 40
2.0
 40
2.0
 40
3.0
 40
3.0
 40
3.0
 40
4.0
 40
4.0
 40
4.0
 40
4.0
 10
70.84701874809753
 20
-119.9082846922452
 30
0.0
 10
70.84701874809753
 20
-119.8531455255924
 30
0.0
 10
70.80221597146276
 20
-119.8083780256035
 30
0.0
 10
70.74711387120199
 20
-119.8083780256035
 30
0.0
 10
70.69197291871974
 20
-119.8083780256035
 30
0.0
 10
70.64720541986186
 20
-119.8531455255924
 30
0.0
 10
70.64720541986186
 20
-119.9082846922452
 30
0.0
 10
70.64720541986186
 20
-119.9633885811204
 30
0.0
 10
70.69197291871974
 20
-120.0081913588868
 30
0.0
 10
70.74711387120199
 20
-120.0081913588868
 30
0.0
 10
70.80221597146276
 20
-120.0081913588868
 30
0.0
 10
70.84701874809753
 20
-119.9633885811204
 30
0.0
 10
70.84701874809753
 20
-119.9082846922452
 30
0.0
  0
SPLINE
  5
5F
330
1F
100
AcDbEntity
  8
_U+30EC_U+30A4_U+30E4_U+30FC 1
 62
     7
420
 16777215
370
     9
100
AcDbSpline
210
0.0
220
0.0
230
1.0
 70
    11
 71
     3
 72
    17
 73
    13
 74
     0
 42
0.0000000001
 43
0.0000000001
 12
1.0
 22
0.0
 32
0.0
 13
1.0
 23
0.0
 33
0.0
 40
0.0
 40
0.0
 40
0.0
 40
0.0
 40
1.0
 40
1.0
 40
1.0
 40
2.0
 40
2.0
 40
2.0
 40
3.0
 40
3.0
 40
3.0
 40
4.0
 40
4.0
 40
4.0
 40
4.0
 10
105.8588364659827
 20
-119.9082846922452
 30
0.0
 10
105.8588364659827
 20
-119.8531455255924
 30
0.0
 10
105.814033689348
 20
-119.8083780256035
 30
0.0
 10
105.7589298018649
 20
-119.8083780256035
 30
0.0
 10
105.703790636605
 20
-119.8083780256035
 30
0.0
 10
105.6590231377471
 20
-119.8531455255924
 30
0.0
 10
105.6590231377471
 20
-119.9082846922452
 30
0.0
 10
105.6590231377471
 20
-119.9633885811204
 30
0.0
 10
105.703790636605
 20
-120.0081913588868
 30
0.0
 10
105.7589298018649
 20
-120.0081913588868
 30
0.0
 10
105.814033689348
 20
-120.0081913588868
 30
0.0
 10
105.8588364659827
 20
-119.9633885811204
 30
0.0
 10
105.8588364659827
 20
-119.9082846922452
 30
0.0
  0
SPLINE
  5
60
330
1F
100
AcDbEntity
  8
_U+30EC_U+30A4_U+30E4_U+30FC 1
 62
     7
420
 16777215
370
     9
100
AcDbSpline
210
0.0
220
0.0
230
1.0
 70
    11
 71
     3
 72
    17
 73
    13
 74
     0
 42
0.0000000001
 43
0.0000000001
 12
1.0
 22
0.0
 32
0.0
 13
1.0
 23
0.0
 33
0.0
 40
0.0
 40
0.0
 40
0.0
 40
0.0
 40
1.0
 40
1.0
 40
1.0
 40
2.0
 40
2.0
 40
2.0
 40
3.0
 40
3.0
 40
3.0
 40
4.0
 40
4.0
 40
4.0
 40
4.0
 10
109.8585955306071
 20
-124.9081335798842
 30
0.0
 10
109.8585955306071
 20
-124.853029691009
 30
0.0
 10
109.8137927539723
 20
-124.8082269132422
 30
0.0
 10
109.7586916392271
 20
-124.8082269132422
 30
0.0
 10
109.7035497012293
 20
-124.8082269132422
 30
0.0
 10
109.6587822023714
 20
-124.853029691009
 30
0.0
 10
109.6587822023714
 20
-124.9081335798842
 30
0.0
 10
109.6587822023714
 20
-124.9635902465369
 30
0.0
 10
109.7035497012293
 20
-125.0083930243036
 30
0.0
 10
109.7586916392271
 20
-125.0083930243036
 30
0.0
 10
109.8137927539723
 20
-125.0083930243036
 30
0.0
 10
109.8585955306071
 20
-124.9635902465369
 30
0.0
 10
109.8585955306071
 20
-124.9081335798842
 30
0.0
  0
SPLINE
  5
61
330
1F
100
AcDbEntity
  8
_U+30EC_U+30A4_U+30E4_U+30FC 1
 62
     7
420
 16777215
370
     9
100
AcDbSpline
210
0.0
220
0.0
230
1.0
 70
    11
 71
     3
 72
    17
 73
    13
 74
     0
 42
0.0000000001
 43
0.0000000001
 12
1.0
 22
0.0
 32
0.0
 13
1.0
 23
0.0
 33
0.0
 40
0.0
 40
0.0
 40
0.0
 40
0.0
 40
1.0
 40
1.0
 40
1.0
 40
2.0
 40
2.0
 40
2.0
 40
3.0
 40
3.0
 40
3.0
 40
4.0
 40
4.0
 40
4.0
 40
4.0
 10
109.8585955306071
 20
-123.9080438579117
 30
0.0
 10
109.8585955306071
 20
-123.852904691259
 30
0.0
 10
109.8137927539723
 20
-123.8081019134926
 30
0.0
 10
109.7586916392271
 20
-123.8081019134926
 30
0.0
 10
109.7035497012293
 20
-123.8081019134926
 30
0.0
 10
109.6587822023714
 20
-123.852904691259
 30
0.0
 10
109.6587822023714
 20
-123.9080438579117
 30
0.0
 10
109.6587822023714
 20
-123.9635005245647
 30
0.0
 10
109.7035497012293
 20
-124.0079505245537
 30
0.0
 10
109.7586916392271
 20
-124.0079505245537
 30
0.0
 10
109.8137927539723
 20
-124.0079505245537
 30
0.0
 10
109.8585955306071
 20
-123.9635005245647
 30
0.0
 10
109.8585955306071
 20
-123.9080438579117
 30
0.0
  0
SPLINE
  5
62
330
1F
100
AcDbEntity
  8
_U+30EC_U+30A4_U+30E4_U+30FC 1
 62
     7
420
 16777215
370
     9
100
AcDbSpline
210
0.0
220
0.0
230
1.0
 70
    11
 71
     3
 72
    17
 73
    13
 74
     0
 42
0.0000000001
 43
0.0000000001
 12
1.0
 22
0.0
 32
0.0
 13
1.0
 23
0.0
 33
0.0
 40
0.0
 40
0.0
 40
0.0
 40
0.0
 40
1.0
 40
1.0
 40
1.0
 40
2.0
 40
2.0
 40
2.0
 40
3.0
 40
3.0
 40
3.0
 40
4.0
 40
4.0
 40
4.0
 40
4.0
 10
109.8585955306071
 20
-134.6077938552368
 30
0.0
 10
109.8585955306071
 20
-134.5526899663618
 30
0.0
 10
109.8137927539723
 20
-134.5078871885951
 30
0.0
 10
109.7586916392271
 20
-134.5078871885951
 30
0.0
 10
109.7035497012293
 20
-134.5078871885951
 30
0.0
 10
109.6587822023714
 20
-134.5526899663618
 30
0.0
 10
109.6587822023714
 20
-134.6077938552368
 30
0.0
 10
109.6587822023714
 20
-134.6636032996672
 30
0.0
 10
109.7035497012293
 20
-134.7084060774339
 30
0.0
 10
109.7586916392271
 20
-134.7084060774339
 30
0.0
 10
109.8137927539723
 20
-134.7084060774339
 30
0.0
 10
109.8585955306071
 20
-134.6636032996672
 30
0.0
 10
109.8585955306071
 20
-134.6077938552368
 30
0.0
  0
SPLINE
  5
63
330
1F
100
AcDbEntity
  8
_U+30EC_U+30A4_U+30E4_U+30FC 1
 62
     7
420
 16777215
370
     9
100
AcDbSpline
210
0.0
220
0.0
230
1.0
 70
    11
 71
     3
 72
    17
 73
    13
 74
     0
 42
0.0000000001
 43
0.0000000001
 12
1.0
 22
0.0
 32
0.0
 13
1.0
 23
0.0
 33
0.0
 40
0.0
 40
0.0
 40
0.0
 40
0.0
 40
1.0
 40
1.0
 40
1.0
 40
2.0
 40
2.0
 40
2.0
 40
3.0
 40
3.0
 40
3.0
 40
4.0
 40
4.0
 40
4.0
 40
4.0
 10
85.85866530956297
 20
-139.6080307984311
 30
0.0
 10
85.85866530956297
 20
-139.5528916317786
 30
0.0
 10
85.81389997854667
 20
-139.5081241317894
 30
0.0
 10
85.75840586767634
 20
-139.5081241317894
 30
0.0
 10
85.70330198019327
 20
-139.5081241317894
 30
0.0
 10
85.6584992035585
 20
-139.5528916317786
 30
0.0
 10
85.6584992035585
 20
-139.6080307984311
 30
0.0
 10
85.6584992035585
 20
-139.6631346873066
 30
0.0
 10
85.70330198019327
 20
-139.7079374650727
 30
0.0
 10
85.75840586767634
 20
-139.7079374650727
 30
0.0
 10
85.81389997854667
 20
-139.7079374650727
 30
0.0
 10
85.85866530956297
 20
-139.6631346873066
 30
0.0
 10
85.85866530956297
 20
-139.6080307984311
 30
0.0
  0
SPLINE
  5
64
330
1F
100
AcDbEntity
  8
_U+30EC_U+30A4_U+30E4_U+30FC 1
 62
     7
420
 16777215
370
     9
100
AcDbSpline
210
0.0
220
0.0
230
1.0
 70
    11
 71
     3
 72
    17
 73
    13
 74
     0
 42
0.0000000001
 43
0.0000000001
 12
1.0
 22
0.0
 32
0.0
 13
1.0
 23
0.0
 33
0.0
 40
0.0
 40
0.0
 40
0.0
 40
0.0
 40
1.0
 40
1.0
 40
1.0
 40
2.0
 40
2.0
 40
2.0
 40
3.0
 40
3.0
 40
3.0
 40
4.0
 40
4.0
 40
4.0
 40
4.0
 10
93.85885371657226
 20
-139.6080307984311
 30
0.0
 10
93.85885371657226
 20
-139.5528916317786
 30
0.0
 10
93.81408621771438
 20
-139.5081241317894
 30
0.0
 10
93.75894705245443
 20
-139.5081241317894
 30
0.0
 10
93.70384316497136
 20
-139.5081241317894
 30
0.0
 10
93.65904038833659
 20
-139.5528916317786
 30
0.0
 10
93.65904038833659
 20
-139.6080307984311
 30
0.0
 10
93.65904038833659
 20
-139.6631346873066
 30
0.0
 10
93.70384316497136
 20
-139.7079374650727
 30
0.0
 10
93.75894705245443
 20
-139.7079374650727
 30
0.0
 10
93.81408621771438
 20
-139.7079374650727
 30
0.0
 10
93.85885371657226
 20
-139.6631346873066
 30
0.0
 10
93.85885371657226
 20
-139.6080307984311
 30
0.0
  0
SPLINE
  5
65
330
1F
100
AcDbEntity
  8
_U+30EC_U+30A4_U+30E4_U+30FC 1
 62
     7
420
 16777215
370
     9
100
AcDbSpline
210
0.0
220
0.0
230
1.0
 70
    11
 71
     3
 72
    17
 73
    13
 74
     0
 42
0.0000000001
 43
0.0000000001
 12
1.0
 22
0.0
 32
0.0
 13
1.0
 23
0.0
 33
0.0
 40
0.0
 40
0.0
 40
0.0
 40
0.0
 40
1.0
 40
1.0
 40
1.0
 40
2.0
 40
2.0
 40
2.0
 40
3.0
 40
3.0
 40
3.0
 40
4.0
 40
4.0
 40
4.0
 40
4.0
 10
70.86148263661741
 20
-139.6080307984311
 30
0.0
 10
70.86148263661741
 20
-139.5528916317786
 30
0.0
 10
70.81667985998264
 20
-139.5081241317894
 30
0.0
 10
70.76157776008733
 20
-139.5081241317894
 30
0.0
 10
70.70643680723963
 20
-139.5081241317894
 30
0.0
 10
70.66166930838175
 20
-139.5528916317786
 30
0.0
 10
70.66166930838175
 20
-139.6080307984311
 30
0.0
 10
70.66166930838175
 20
-139.6631346873066
 30
0.0
 10
70.70643680723963
 20
-139.7079374650727
 30
0.0
 10
70.76157776008733
 20
-139.7079374650727
 30
0.0
 10
70.81667985998264
 20
-139.7079374650727
 30
0.0
 10
70.86148263661741
 20
-139.6631346873066
 30
0.0
 10
70.86148263661741
 20
-139.6080307984311
 30
0.0
  0
INSERT
  5
67
330
1F
100
AcDbEntity
  8
_U+30EC_U+30A4_U+30E4_U+30FC 1
100
AcDbBlockReference
  2
block 2
 10
0.0
 20
0.0
 30
0.0
  0
POLYLINE
  5
80
330
1F
100
AcDbEntity
  8
_U+30EC_U+30A4_U+30E4_U+30FC 1
 62
     7
420
 16777215
370
     9
100
AcDb2dPolyline
 66
     1
 10
0.0
 20
0.0
 30
0.0
  0
VERTEX
  5
81
330
80
100
AcDbEntity
  8
_U+30EC_U+30A4_U+30E4_U+30FC 1
 62
     7
420
 16777215
370
     9
100
AcDbVertex
100
AcDb2dVertex
 10
70.7588243059031
 20
-119.9082846922452
 30
0.0
  0
VERTEX
  5
82
330
80
100
AcDbEntity
  8
_U+30EC_U+30A4_U+30E4_U+30FC 1
 62
     7
420
 16777215
370
     9
100
AcDbVertex
100
AcDb2dVertex
 10
105.7589298018649
 20
-119.9082846922452
 30
0.0
  0
SEQEND
  5
83
330
80
100
AcDbEntity
  8
_U+30EC_U+30A4_U+30E4_U+30FC 1
 62
     7
420
 16777215
370
     9
  0
POLYLINE
  5
84
330
1F
100
AcDbEntity
  8
_U+30EC_U+30A4_U+30E4_U+30FC 1
 62
     7
420
 16777215
370
     9
100
AcDb2dPolyline
 66
     1
 10
0.0
 20
0.0
 30
0.0
  0
VERTEX
  5
85
330
84
100
AcDbEntity
  8
_U+30EC_U+30A4_U+30E4_U+30FC 1
 62
     7
420
 16777215
370
     9
100
AcDbVertex
100
AcDb2dVertex
 10
70.74711387120199
 20
-121.3682908029914
 30
0.0
  0
VERTEX
  5
86
330
84
100
AcDbEntity
  8
_U+30EC_U+30A4_U+30E4_U+30FC 1
 62
     7
420
 16777215
370
     9
100
AcDbVertex
100
AcDb2dVertex
 10
70.74711387120199
 20
-118.9081596924952
 30
0.0
  0
SEQEND
  5
87
330
84
100
AcDbEntity
  8
_U+30EC_U+30A4_U+30E4_U+30FC 1
 62
     7
420
 16777215
370
     9
  0
POLYLINE
  5
88
330
1F
100
AcDbEntity
  8
_U+30EC_U+30A4_U+30E4_U+30FC 1
 62
     7
420
 16777215
370
     9
100
AcDb2dPolyline
 66
     1
 10
0.0
 20
0.0
 30
0.0
  0
VERTEX
  5
89
330
88
100
AcDbEntity
  8
_U+30EC_U+30A4_U+30E4_U+30FC 1
 62
     7
420
 16777215
370
     9
100
AcDbVertex
100
AcDb2dVertex
 10
105.7589298018649
 20
-121.3682908029914
 30
0.0
  0
VERTEX
  5
8A
330
88
100
AcDbEntity
  8
_U+30EC_U+30A4_U+30E4_U+30FC 1
 62
     7
420
 16777215
370
     9
100
AcDbVertex
100
AcDb2dVertex
 10
105.7589298018649
 20
-118.9081596924952
 30
0.0
  0
SEQEND
  5
8B
330
88
100
AcDbEntity
  8
_U+30EC_U+30A4_U+30E4_U+30FC 1
 62
     7
420
 16777215
370
     9
  0
INSERT
  5
8D
330
1F
100
AcDbEntity
  8
_U+30EC_U+30A4_U+30E4_U+30FC 1
100
AcDbBlockReference
  2
block 4
 10
0.0
 20
0.0
 30
0.0
  0
POLYLINE
  5
94
330
1F
100
AcDbEntity
  8
_U+30EC_U+30A4_U+30E4_U+30FC 1
 62
     7
420
 16777215
370
     9
100
AcDb2dPolyline
 66
     1
 10
0.0
 20
0.0
 30
0.0
  0
VERTEX
  5
95
330
94
100
AcDbEntity
  8
_U+30EC_U+30A4_U+30E4_U+30FC 1
 62
     7
420
 16777215
370
     9
100
AcDbVertex
100
AcDb2dVertex
 10
85.75840586767634
 20
-139.6080307984311
 30
0.0
  0
VERTEX
  5
96
330
94
100
AcDbEntity
  8
_U+30EC_U+30A4_U+30E4_U+30FC 1
 62
     7
420
 16777215
370
     9
100
AcDbVertex
100
AcDb2dVertex
 10
70.75847152813434
 20
-139.6080307984311
 30
0.0
  0
SEQEND
  5
97
330
94
100
AcDbEntity
  8
_U+30EC_U+30A4_U+30E4_U+30FC 1
 62
     7
420
 16777215
370
     9
  0
POLYLINE
  5
98
330
1F
100
AcDbEntity
  8
_U+30EC_U+30A4_U+30E4_U+30FC 1
 62
     7
420
 16777215
370
     9
100
AcDb2dPolyline
 66
     1
 10
0.0
 20
0.0
 30
0.0
  0
VERTEX
  5
99
330
98
100
AcDbEntity
  8
_U+30EC_U+30A4_U+30E4_U+30FC 1
 62
     7
420
 16777215
370
     9
100
AcDbVertex
100
AcDb2dVertex
 10
85.75840586767634
 20
-138.1479894099074
 30
0.0
  0
VERTEX
  5
9A
330
98
100
AcDbEntity
  8
_U+30EC_U+30A4_U+30E4_U+30FC 1
 62
     7
420
 16777215
370
     9
100
AcDbVertex
100
AcDb2dVertex
 10
85.75840586767634
 20
-140.608473298181
 30
0.0
  0
SEQEND
  5
9B
330
98
100
AcDbEntity
  8
_U+30EC_U+30A4_U+30E4_U+30FC 1
 62
     7
420
 16777215
370
     9
  0
POLYLINE
  5
9C
330
1F
100
AcDbEntity
  8
_U+30EC_U+30A4_U+30E4_U+30FC 1
 62
     7
420
 16777215
370
     9
100
AcDb2dPolyline
 66
     1
 10
0.0
 20
0.0
 30
0.0
  0
VERTEX
  5
9D
330
9C
100
AcDbEntity
  8
_U+30EC_U+30A4_U+30E4_U+30FC 1
 62
     7
420
 16777215
370
     9
100
AcDbVertex
100
AcDb2dVertex
 10
70.76157776008733
 20
-127.4482041348045
 30
0.0
  0
VERTEX
  5
9E
330
9C
100
AcDbEntity
  8
_U+30EC_U+30A4_U+30E4_U+30FC 1
 62
     7
420
 16777215
370
     9
100
AcDbVertex
100
AcDb2dVertex
 10
70.76157776008733
 20
-140.608473298181
 30
0.0
  0
SEQEND
  5
9F
330
9C
100
AcDbEntity
  8
_U+30EC_U+30A4_U+30E4_U+30FC 1
 62
     7
420
 16777215
370
     9
  0
INSERT
  5
A1
330
1F
100
AcDbEntity
  8
_U+30EC_U+30A4_U+30E4_U+30FC 1
100
AcDbBlockReference
  2
block 5
 10
0.0
 20
0.0
 30
0.0
  0
INSERT
  5
A9
330
1F
100
AcDbEntity
  8
_U+30EC_U+30A4_U+30E4_U+30FC 1
100
AcDbBlockReference
  2
block 6
 10
0.0
 20
0.0
 30
0.0
  0
INSERT
  5
C1
330
1F
100
AcDbEntity
  8
_U+30EC_U+30A4_U+30E4_U+30FC 1
100
AcDbBlockReference
  2
block 8
 10
0.0
 20
0.0
 30
0.0
  0
ENDSEC
  0
SECTION
  2
OBJECTS
  0
DICTIONARY
  5
C
330
0
100
AcDbDictionary
281
     1
  3
ACAD_GROUP
350
D
  3
ACAD_LAYOUT
350
1A
  3
ACAD_MATERIAL
350
3B
  3
ACAD_MLEADERSTYLE
350
DE
  3
ACAD_MLINESTYLE
350
17
  3
ACAD_PLOTSETTINGS
350
19
  3
ACAD_PLOTSTYLENAME
350
E
  3
ACAD_TABLESTYLE
350
DD
  3
ACAD_VISUALSTYLE
350
2A
  0
SUN
  5
3F
330
29
100
AcDbSun
 90
        1
290
     0
 63
     7
421
 16777215
 40
1.0
291
     1
 91
  2455826
 92
 54000000
292
     0
 70
     2
 71
   256
280
     1
  0
DICTIONARY
  5
D
102
{ACAD_REACTORS
330
C
102
}
330
C
100
AcDbDictionary
281
     1
  0
DICTIONARY
  5
1A
102
{ACAD_REACTORS
330
C
102
}
330
C
100
AcDbDictionary
281
     1
  3
Layout1
350
1E
  3
Layout2
350
26
  3
Model
350
22
  0
DICTIONARY
  5
3B
102
{ACAD_REACTORS
330
C
102
}
330
C
100
AcDbDictionary
281
     1
  3
ByBlock
350
3D
  3
ByLayer
350
3C
  3
Global
350
3E
  0
DICTIONARY
  5
DE
102
{ACAD_REACTORS
330
C
102
}
330
C
100
AcDbDictionary
281
     1
  0
DICTIONARY
  5
17
102
{ACAD_REACTORS
330
C
102
}
330
C
100
AcDbDictionary
281
     1
  3
Standard
350
18
  0
DICTIONARY
  5
19
102
{ACAD_REACTORS
330
C
102
}
330
C
100
AcDbDictionary
281
     1
  0
ACDBDICTIONARYWDFLT
  5
E
102
{ACAD_REACTORS
330
C
102
}
330
C
100
AcDbDictionary
281
     1
  3
Normal
350
F
100
AcDbDictionaryWithDefault
340
F
  0
DICTIONARY
  5
DD
102
{ACAD_REACTORS
330
C
102
}
330
C
100
AcDbDictionary
281
     1
  0
DICTIONARY
  5
2A
102
{ACAD_REACTORS
330
C
102
}
330
C
100
AcDbDictionary
281
     1
  3
2dWireframe
350
2F
  3
3D Hidden
350
31
  3
3dWireframe
350
30
  3
Basic
350
32
  3
Brighten
350
36
  3
ColorChange
350
3A
  3
Conceptual
350
34
  3
Dim
350
35
  3
Facepattern
350
39
  3
Flat
350
2B
  3
FlatWithEdges
350
2C
  3
Gouraud
350
2D
  3
GouraudWithEdges
350
2E
  3
Linepattern
350
38
  3
Realistic
350
33
  3
Thicken
350
37
  0
LAYOUT
  5
1E
102
{ACAD_REACTORS
330
1A
102
}
330
1A
100
AcDbPlotSettings
  1

  2
none_device
  4

  6

 40
0.0
 41
0.0
 42
0.0
 43
0.0
 44
0.0
 45
0.0
 46
0.0
 47
0.0
 48
0.0
 49
0.0
140
0.0
141
0.0
142
1.0
143
1.0
 70
   688
 72
     0
 73
     0
 74
     5
  7

 75
    16
 76
     0
 77
     2
 78
   300
147
1.0
148
0.0
149
0.0
100
AcDbLayout
  1
Layout1
 70
     1
 71
     1
 10
0.0
 20
0.0
 11
12.0
 21
9.0
 12
0.0
 22
0.0
 32
0.0
 14
1.000000000000000E+20
 24
1.000000000000000E+20
 34
1.000000000000000E+20
 15
-1.000000000000000E+20
 25
-1.000000000000000E+20
 35
-1.000000000000000E+20
146
0.0
 13
0.0
 23
0.0
 33
0.0
 16
1.0
 26
0.0
 36
0.0
 17
0.0
 27
1.0
 37
0.0
 76
     0
330
1B
  0
LAYOUT
  5
26
102
{ACAD_REACTORS
330
1A
102
}
330
1A
100
AcDbPlotSettings
  1

  2
none_device
  4

  6

 40
0.0
 41
0.0
 42
0.0
 43
0.0
 44
0.0
 45
0.0
 46
0.0
 47
0.0
 48
0.0
 49
0.0
140
0.0
141
0.0
142
1.0
143
1.0
 70
   688
 72
     0
 73
     0
 74
     5
  7

 75
    16
 76
     0
 77
     2
 78
   300
147
1.0
148
0.0
149
0.0
100
AcDbLayout
  1
Layout2
 70
     1
 71
     2
 10
0.0
 20
0.0
 11
0.0
 21
0.0
 12
0.0
 22
0.0
 32
0.0
 14
0.0
 24
0.0
 34
0.0
 15
0.0
 25
0.0
 35
0.0
146
0.0
 13
0.0
 23
0.0
 33
0.0
 16
1.0
 26
0.0
 36
0.0
 17
0.0
 27
1.0
 37
0.0
 76
     0
330
23
  0
LAYOUT
  5
22
102
{ACAD_REACTORS
330
1A
102
}
330
1A
100
AcDbPlotSettings
  1

  2
none_device
  4

  6

 40
0.0
 41
0.0
 42
0.0
 43
0.0
 44
0.0
 45
0.0
 46
0.0
 47
0.0
 48
0.0
 49
0.0
140
0.0
141
0.0
142
1.0
143
1.0
 70
  1712
 72
     0
 73
     0
 74
     0
  7

 75
     0
 76
     0
 77
     2
 78
   300
147
1.0
148
0.0
149
0.0
100
AcDbLayout
  1
Model
 70
     1
 71
     0
 10
0.0
 20
0.0
 11
12.0
 21
9.0
 12
0.0
 22
0.0
 32
0.0
 14
1.000000000000000E+20
 24
1.000000000000000E+20
 34
1.000000000000000E+20
 15
-1.000000000000000E+20
 25
-1.000000000000000E+20
 35
-1.000000000000000E+20
146
0.0
 13
0.0
 23
0.0
 33
0.0
 16
1.0
 26
0.0
 36
0.0
 17
0.0
 27
1.0
 37
0.0
 76
     0
330
1F
331
29
  0
MATERIAL
  5
3D
102
{ACAD_REACTORS
330
3B
102
}
330
3B
100
AcDbMaterial
  1
ByBlock
 72
     1
 94
      127
  0
MATERIAL
  5
3C
102
{ACAD_REACTORS
330
3B
102
}
330
3B
100
AcDbMaterial
  1
ByLayer
 72
     1
 94
      127
  0
MATERIAL
  5
3E
102
{ACAD_REACTORS
330
3B
102
}
330
3B
100
AcDbMaterial
  1
Global
 72
     1
 94
      127
  0
MLINESTYLE
  5
18
102
{ACAD_REACTORS
330
17
102
}
330
17
100
AcDbMlineStyle
  2
Standard
 70
     0
  3

 62
   256
 51
90.0
 52
90.0
 71
     2
 49
0.5
 62
   256
  6
BYLAYER
 49
-0.5
 62
   256
  6
BYLAYER
  0
ACDBPLACEHOLDER
  5
F
102
{ACAD_REACTORS
330
E
102
}
330
E
  0
VISUALSTYLE
  5
2F
102
{ACAD_REACTORS
330
2A
102
}
330
2A
100
AcDbVisualStyle
  2
2dWireframe
 70
     4
177
     2
291
     0
 71
     0
176
     1
 72
     2
176
     1
 73
     0
176
     1
 90
        0
176
     1
 40
-0.6
176
     1
 41
-30.0
176
     1
 62
     5
 63
     7
421
 16777215
176
     1
 74
     1
176
     1
 91
        4
176
     1
 64
     7
176
     1
 65
   257
176
     1
 75
     1
176
     1
175
     1
176
     1
 42
1.0
176
     1
 92
        0
176
     1
 66
   257
176
     1
 43
1.0
176
     1
 76
     1
176
     1
 77
     6
176
     1
 78
     2
176
     1
 67
     7
176
     1
 79
     5
176
     1
170
     0
176
     1
171
     0
176
     1
290
     0
176
     1
 93
        1
176
     1
 44
0.0
176
     1
173
     0
176
     1
  0
VISUALSTYLE
  5
31
102
{ACAD_REACTORS
330
2A
102
}
330
2A
100
AcDbVisualStyle
  2
3D Hidden
 70
     6
177
     2
291
     0
 71
     1
176
     1
 72
     2
176
     1
 73
     2
176
     1
 90
        0
176
     1
 40
-0.6
176
     1
 41
-30.0
176
     1
 62
     5
 63
     7
421
 16777215
176
     1
 74
     2
176
     1
 91
        2
176
     1
 64
     7
176
     1
 65
   257
176
     1
 75
     2
176
     1
175
     1
176
     1
 42
40.0
176
     1
 92
        0
176
     1
 66
   257
176
     1
 43
1.0
176
     1
 76
     1
176
     1
 77
     6
176
     1
 78
     2
176
     1
 67
     7
176
     1
 79
     3
176
     1
170
     0
176
     1
171
     0
176
     1
290
     0
176
     1
 93
        1
176
     1
 44
0.0
176
     1
173
     0
176
     1
  0
VISUALSTYLE
  5
30
102
{ACAD_REACTORS
330
2A
102
}
330
2A
100
AcDbVisualStyle
  2
3dWireframe
 70
     5
177
     2
291
     0
 71
     0
176
     1
 72
     2
176
     1
 73
     0
176
     1
 90
        0
176
     1
 40
-0.6
176
     1
 41
-30.0
176
     1
 62
     5
 63
     7
421
 16777215
176
     1
 74
     1
176
     1
 91
        4
176
     1
 64
     7
176
     1
 65
   257
176
     1
 75
     1
176
     1
175
     1
176
     1
 42
1.0
176
     1
 92
        0
176
     1
 66
   257
176
     1
 43
1.0
176
     1
 76
     1
176
     1
 77
     6
176
     1
 78
     2
176
     1
 67
     7
176
     1
 79
     5
176
     1
170
     0
176
     1
171
     0
176
     1
290
     0
176
     1
 93
        1
176
     1
 44
0.0
176
     1
173
     0
176
     1
  0
VISUALSTYLE
  5
32
102
{ACAD_REACTORS
330
2A
102
}
330
2A
100
AcDbVisualStyle
  2
Basic
 70
     7
177
     2
291
     1
 71
     1
176
     1
 72
     0
176
     1
 73
     1
176
     1
 90
        0
176
     1
 40
-0.6
176
     1
 41
-30.0
176
     1
 62
     5
 63
     7
421
 16777215
176
     1
 74
     0
176
     1
 91
        4
176
     1
 64
     7
176
     1
 65
   257
176
     1
 75
     1
176
     1
175
     1
176
     1
 42
1.0
176
     1
 92
        8
176
     1
 66
     7
176
     1
 43
1.0
176
     1
 76
     1
176
     1
 77
     6
176
     1
 78
     2
176
     1
 67
     7
176
     1
 79
     5
176
     1
170
     0
176
     1
171
     0
176
     1
290
     0
176
     1
 93
        1
176
     1
 44
0.0
176
     1
173
     0
176
     1
  0
VISUALSTYLE
  5
36
102
{ACAD_REACTORS
330
2A
102
}
330
2A
100
AcDbVisualStyle
  2
Brighten
 70
    12
177
     2
291
     1
 71
     2
176
     1
 72
     2
176
     1
 73
     0
176
     1
 90
        0
176
     1
 40
-0.6
176
     1
 41
-30.0
176
     1
 62
     5
 63
     7
421
 16777215
176
     1
 74
     1
176
     1
 91
        4
176
     1
 64
     7
176
     1
 65
   257
176
     1
 75
     1
176
     1
175
     1
176
     1
 42
1.0
176
     1
 92
        8
176
     1
 66
     7
176
     1
 43
1.0
176
     1
 76
     1
176
     1
 77
     6
176
     1
 78
     2
176
     1
 67
     7
176
     1
 79
     5
176
     1
170
     0
176
     1
171
     0
176
     1
290
     0
176
     1
 93
        1
176
     1
 44
50.0
176
     1
173
     0
176
     1
  0
VISUALSTYLE
  5
3A
102
{ACAD_REACTORS
330
2A
102
}
330
2A
100
AcDbVisualStyle
  2
ColorChange
 70
    16
177
     2
291
     1
 71
     2
176
     1
 72
     2
176
     1
 73
     3
176
     1
 90
        0
176
     1
 40
-0.6
176
     1
 41
-30.0
176
     1
 62
     5
 63
     8
421
  8421504
176
     1
 74
     1
176
     1
 91
        4
176
     1
 64
     7
176
     1
 65
   257
176
     1
 75
     1
176
     1
175
     1
176
     1
 42
1.0
176
     1
 92
        8
176
     1
 66
     8
424
  8421504
176
     1
 43
1.0
176
     1
 76
     1
176
     1
 77
     6
176
     1
 78
     2
176
     1
 67
     7
176
     1
 79
     5
176
     1
170
     0
176
     1
171
     0
176
     1
290
     0
176
     1
 93
        1
176
     1
 44
0.0
176
     1
173
     0
176
     1
  0
VISUALSTYLE
  5
34
102
{ACAD_REACTORS
330
2A
102
}
330
2A
100
AcDbVisualStyle
  2
Conceptual
 70
     9
177
     2
291
     0
 71
     3
176
     1
 72
     2
176
     1
 73
     0
176
     1
 90
        0
176
     1
 40
-0.6
176
     1
 41
-30.0
176
     1
 62
     5
 63
     7
421
 16777215
176
     1
 74
     2
176
     1
 91
        2
176
     1
 64
     7
176
     1
 65
   257
176
     1
 75
     1
176
     1
175
     1
176
     1
 42
40.0
176
     1
 92
        8
176
     1
 66
     7
176
     1
 43
1.0
176
     1
 76
     1
176
     1
 77
     6
176
     1
 78
     2
176
     1
 67
     7
176
     1
 79
     3
176
     1
170
     0
176
     1
171
     0
176
     1
290
     0
176
     1
 93
        1
176
     1
 44
0.0
176
     1
173
     0
176
     1
  0
VISUALSTYLE
  5
35
102
{ACAD_REACTORS
330
2A
102
}
330
2A
100
AcDbVisualStyle
  2
Dim
 70
    11
177
     2
291
     1
 71
     2
176
     1
 72
     2
176
     1
 73
     0
176
     1
 90
        0
176
     1
 40
-0.6
176
     1
 41
-30.0
176
     1
 62
     5
 63
     7
421
 16777215
176
     1
 74
     1
176
     1
 91
        4
176
     1
 64
     7
176
     1
 65
   257
176
     1
 75
     1
176
     1
175
     1
176
     1
 42
1.0
176
     1
 92
        8
176
     1
 66
     7
176
     1
 43
1.0
176
     1
 76
     1
176
     1
 77
     6
176
     1
 78
     2
176
     1
 67
     7
176
     1
 79
     5
176
     1
170
     0
176
     1
171
     0
176
     1
290
     0
176
     1
 93
        1
176
     1
 44
-50.0
176
     1
173
     0
176
     1
  0
VISUALSTYLE
  5
39
102
{ACAD_REACTORS
330
2A
102
}
330
2A
100
AcDbVisualStyle
  2
Facepattern
 70
    15
177
     2
291
     1
 71
     2
176
     1
 72
     2
176
     1
 73
     0
176
     1
 90
        0
176
     1
 40
-0.6
176
     1
 41
-30.0
176
     1
 62
     5
 63
     7
421
 16777215
176
     1
 74
     1
176
     1
 91
        4
176
     1
 64
     7
176
     1
 65
   257
176
     1
 75
     1
176
     1
175
     1
176
     1
 42
1.0
176
     1
 92
        8
176
     1
 66
     7
176
     1
 43
1.0
176
     1
 76
     1
176
     1
 77
     6
176
     1
 78
     2
176
     1
 67
     7
176
     1
 79
     5
176
     1
170
     0
176
     1
171
     0
176
     1
290
     0
176
     1
 93
        1
176
     1
 44
0.0
176
     1
173
     0
176
     1
  0
VISUALSTYLE
  5
2B
102
{ACAD_REACTORS
330
2A
102
}
330
2A
100
AcDbVisualStyle
  2
Flat
 70
     0
177
     2
291
     1
 71
     2
176
     1
 72
     1
176
     1
 73
     1
176
     1
 90
        2
176
     1
 40
-0.6
176
     1
 41
30.0
176
     1
 62
     5
 63
     7
421
 16777215
176
     1
 74
     0
176
     1
 91
        4
176
     1
 64
     7
176
     1
 65
   257
176
     1
 75
     1
176
     1
175
     1
176
     1
 42
1.0
176
     1
 92
        8
176
     1
 66
     7
176
     1
 43
1.0
176
     1
 76
     1
176
     1
 77
     6
176
     1
 78
     2
176
     1
 67
     7
176
     1
 79
     5
176
     1
170
     0
176
     1
171
     0
176
     1
290
     0
176
     1
 93
       13
176
     1
 44
0.0
176
     1
173
     0
176
     1
  0
VISUALSTYLE
  5
2C
102
{ACAD_REACTORS
330
2A
102
}
330
2A
100
AcDbVisualStyle
  2
FlatWithEdges
 70
     1
177
     2
291
     1
 71
     2
176
     1
 72
     1
176
     1
 73
     1
176
     1
 90
        2
176
     1
 40
-0.6
176
     1
 41
30.0
176
     1
 62
     5
 63
     7
421
 16777215
176
     1
 74
     1
176
     1
 91
        4
176
     1
 64
     7
176
     1
 65
   257
176
     1
 75
     1
176
     1
175
     1
176
     1
 42
1.0
176
     1
 92
        0
176
     1
 66
   257
176
     1
 43
1.0
176
     1
 76
     1
176
     1
 77
     6
176
     1
 78
     2
176
     1
 67
     7
176
     1
 79
     5
176
     1
170
     0
176
     1
171
     0
176
     1
290
     0
176
     1
 93
       13
176
     1
 44
0.0
176
     1
173
     0
176
     1
  0
VISUALSTYLE
  5
2D
102
{ACAD_REACTORS
330
2A
102
}
330
2A
100
AcDbVisualStyle
  2
Gouraud
 70
     2
177
     2
291
     1
 71
     2
176
     1
 72
     2
176
     1
 73
     1
176
     1
 90
        2
176
     1
 40
-0.6
176
     1
 41
30.0
176
     1
 62
     5
 63
     7
421
 16777215
176
     1
 74
     0
176
     1
 91
        4
176
     1
 64
     7
176
     1
 65
   257
176
     1
 75
     1
176
     1
175
     1
176
     1
 42
1.0
176
     1
 92
        0
176
     1
 66
     7
176
     1
 43
1.0
176
     1
 76
     1
176
     1
 77
     6
176
     1
 78
     2
176
     1
 67
     7
176
     1
 79
     5
176
     1
170
     0
176
     1
171
     0
176
     1
290
     0
176
     1
 93
       13
176
     1
 44
0.0
176
     1
173
     0
176
     1
  0
VISUALSTYLE
  5
2E
102
{ACAD_REACTORS
330
2A
102
}
330
2A
100
AcDbVisualStyle
  2
GouraudWithEdges
 70
     3
177
     2
291
     1
 71
     2
176
     1
 72
     2
176
     1
 73
     1
176
     1
 90
        2
176
     1
 40
-0.6
176
     1
 41
30.0
176
     1
 62
     5
 63
     7
421
 16777215
176
     1
 74
     1
176
     1
 91
        4
176
     1
 64
     7
176
     1
 65
   257
176
     1
 75
     1
176
     1
175
     1
176
     1
 42
1.0
176
     1
 92
        0
176
     1
 66
   257
176
     1
 43
1.0
176
     1
 76
     1
176
     1
 77
     6
176
     1
 78
     2
176
     1
 67
     7
176
     1
 79
     5
176
     1
170
     0
176
     1
171
     0
176
     1
290
     0
176
     1
 93
       13
176
     1
 44
0.0
176
     1
173
     0
176
     1
  0
VISUALSTYLE
  5
38
102
{ACAD_REACTORS
330
2A
102
}
330
2A
100
AcDbVisualStyle
  2
Linepattern
 70
    14
177
     2
291
     1
 71
     2
176
     1
 72
     2
176
     1
 73
     0
176
     1
 90
        0
176
     1
 40
-0.6
176
     1
 41
-30.0
176
     1
 62
     5
 63
     7
421
 16777215
176
     1
 74
     1
176
     1
 91
        4
176
     1
 64
     7
176
     1
 65
   257
176
     1
 75
     7
176
     1
175
     7
176
     1
 42
1.0
176
     1
 92
        8
176
     1
 66
     7
176
     1
 43
1.0
176
     1
 76
     1
176
     1
 77
     6
176
     1
 78
     2
176
     1
 67
     7
176
     1
 79
     5
176
     1
170
     0
176
     1
171
     0
176
     1
290
     0
176
     1
 93
        1
176
     1
 44
0.0
176
     1
173
     0
176
     1
  0
VISUALSTYLE
  5
33
102
{ACAD_REACTORS
330
2A
102
}
330
2A
100
AcDbVisualStyle
  2
Realistic
 70
     8
177
     2
291
     0
 71
     2
176
     1
 72
     2
176
     1
 73
     0
176
     1
 90
        0
176
     1
 40
-0.6
176
     1
 41
-30.0
176
     1
 62
     5
 63
     7
421
 16777215
176
     1
 74
     1
176
     1
 91
        0
176
     1
 64
     7
176
     1
 65
   257
176
     1
 75
     1
176
     1
175
     1
176
     1
 42
1.0
176
     1
 92
        8
176
     1
 66
     8
424
  7895160
176
     1
 43
1.0
176
     1
 76
     1
176
     1
 77
     6
176
     1
 78
     2
176
     1
 67
     7
176
     1
 79
     5
176
     1
170
     0
176
     1
171
     0
176
     1
290
     0
176
     1
 93
       13
176
     1
 44
0.0
176
     1
173
     0
176
     1
  0
VISUALSTYLE
  5
37
102
{ACAD_REACTORS
330
2A
102
}
330
2A
100
AcDbVisualStyle
  2
Thicken
 70
    13
177
     2
291
     1
 71
     2
176
     1
 72
     2
176
     1
 73
     0
176
     1
 90
        0
176
     1
 40
-0.6
176
     1
 41
-30.0
176
     1
 62
     5
 63
     7
421
 16777215
176
     1
 74
     1
176
     1
 91
        4
176
     1
 64
     7
176
     1
 65
   257
176
     1
 75
     1
176
     1
175
     1
176
     1
 42
1.0
176
     1
 92
       12
176
     1
 66
     7
176
     1
 43
1.0
176
     1
 76
     1
176
     1
 77
     6
176
     1
 78
     2
176
     1
 67
     7
176
     1
 79
     5
176
     1
170
     0
176
     1
171
     0
176
     1
290
     0
176
     1
 93
        1
176
     1
 44
0.0
176
     1
173
     0
176
     1
  0
ENDSEC
  0
EOF
