  0
SECTION
  2
HEADER
  9
$ACADVER
  1
AC1024
  9
$ACADMAINTVER
 70
     6
  9
$DWGCODEPAGE
  3
UNDEFINED
  9
$INSBASE
 10
0.0
 20
0.0
 30
0.0
  9
$EXTMIN
 10
1.000000000000000E+20
 20
1.000000000000000E+20
 30
1.000000000000000E+20
  9
$EXTMAX
 10
-1.000000000000000E+20
 20
-1.000000000000000E+20
 30
-1.000000000000000E+20
  9
$LIMMIN
 10
0.0
 20
0.0
  9
$LIMMAX
 10
12.0
 20
9.0
  9
$ORTHOMODE
 70
     0
  9
$REGENMODE
 70
     1
  9
$FILLMODE
 70
     1
  9
$QTEXTMODE
 70
     0
  9
$MIRRTEXT
 70
     1
  9
$LTSCALE
 40
1.0
  9
$ATTMODE
 70
     1
  9
$TEXTSIZE
 40
0.2
  9
$TRACEWID
 40
0.05
  9
$TEXTSTYLE
  7
Standard
  9
$CLAYER
  8
0
  9
$CELTYPE
  6
ByLayer
  9
$CECOLOR
 62
   256
  9
$CELTSCALE
 40
1.0
  9
$DISPSILH
 70
     0
  9
$DIMSCALE
 40
1.0
  9
$DIMASZ
 40
0.18
  9
$DIMEXO
 40
0.0625
  9
$DIMDLI
 40
0.38
  9
$DIMRND
 40
0.0
  9
$DIMDLE
 40
0.0
  9
$DIMEXE
 40
0.18
  9
$DIMTP
 40
0.0
  9
$DIMTM
 40
0.0
  9
$DIMTXT
 40
0.18
  9
$DIMCEN
 40
0.09
  9
$DIMTSZ
 40
0.0
  9
$DIMTOL
 70
     0
  9
$DIMLIM
 70
     0
  9
$DIMTIH
 70
     1
  9
$DIMTOH
 70
     1
  9
$DIMSE1
 70
     0
  9
$DIMSE2
 70
     0
  9
$DIMTAD
 70
     0
  9
$DIMZIN
 70
     0
  9
$DIMBLK
  1

  9
$DIMASO
 70
     1
  9
$DIMSHO
 70
     1
  9
$DIMPOST
  1

  9
$DIMAPOST
  1

  9
$DIMALT
 70
     0
  9
$DIMALTD
 70
     2
  9
$DIMALTF
 40
25.4
  9
$DIMLFAC
 40
1.0
  9
$DIMTOFL
 70
     0
  9
$DIMTVP
 40
0.0
  9
$DIMTIX
 70
     0
  9
$DIMSOXD
 70
     0
  9
$DIMSAH
 70
     0
  9
$DIMBLK1
  1

  9
$DIMBLK2
  1

  9
$DIMSTYLE
  2
Standard
  9
$DIMCLRD
 70
     0
  9
$DIMCLRE
 70
     0
  9
$DIMCLRT
 70
     0
  9
$DIMTFAC
 40
1.0
  9
$DIMGAP
 40
0.09
  9
$DIMJUST
 70
     0
  9
$DIMSD1
 70
     0
  9
$DIMSD2
 70
     0
  9
$DIMTOLJ
 70
     1
  9
$DIMTZIN
 70
     0
  9
$DIMALTZ
 70
     0
  9
$DIMALTTZ
 70
     0
  9
$DIMUPT
 70
     0
  9
$DIMDEC
 70
     4
  9
$DIMTDEC
 70
     4
  9
$DIMALTU
 70
     2
  9
$DIMALTTD
 70
     2
  9
$DIMTXSTY
  7
Standard
  9
$DIMAUNIT
 70
     0
  9
$DIMADEC
 70
     0
  9
$DIMALTRND
 40
0.0
  9
$DIMAZIN
 70
     0
  9
$DIMDSEP
 70
    46
  9
$DIMATFIT
 70
     3
  9
$DIMFRAC
 70
     0
  9
$DIMLDRBLK
  1

  9
$DIMLUNIT
 70
     2
  9
$DIMLWD
 70
    -2
  9
$DIMLWE
 70
    -2
  9
$DIMTMOVE
 70
     0
  9
$DIMFXL
 40
1.0
  9
$DIMFXLON
 70
     0
  9
$DIMJOGANG
 40
0.7853981633974483
  9
$DIMTFILL
 70
     0
  9
$DIMTFILLCLR
 70
     0
  9
$DIMARCSYM
 70
     0
  9
$DIMLTYPE
  6

  9
$DIMLTEX1
  6

  9
$DIMLTEX2
  6

  9
$DIMTXTDIRECTION
 70
     0
  9
$LUNITS
 70
     2
  9
$LUPREC
 70
     4
  9
$SKETCHINC
 40
0.1
  9
$FILLETRAD
 40
0.5
  9
$AUNITS
 70
     0
  9
$AUPREC
 70
     0
  9
$MENU
  1
.
  9
$ELEVATION
 40
0.0
  9
$PELEVATION
 40
0.0
  9
$THICKNESS
 40
0.0
  9
$LIMCHECK
 70
     0
  9
$CHAMFERA
 40
0.5
  9
$CHAMFERB
 40
0.5
  9
$CHAMFERC
 40
1.0
  9
$CHAMFERD
 40
0.0
  9
$SKPOLY
 70
     0
  9
$TDCREATE
 40
2458263.580613426
  9
$TDUCREATE
 40
2458263.205613426
  9
$TDUPDATE
 40
2458263.580613426
  9
$TDUUPDATE
 40
2458263.205613426
  9
$TDINDWG
 40
0.0000000116
  9
$TDUSRTIMER
 40
0.0000000116
  9
$USRTIMER
 70
     1
  9
$ANGBASE
 50
0.0
  9
$ANGDIR
 70
     0
  9
$PDMODE
 70
     0
  9
$PDSIZE
 40
0.0
  9
$PLINEWID
 40
0.0
  9
$SPLFRAME
 70
     0
  9
$SPLINETYPE
 70
     6
  9
$SPLINESEGS
 70
     8
  9
$HANDSEED
  5
13F
  9
$SURFTAB1
 70
     6
  9
$SURFTAB2
 70
     6
  9
$SURFTYPE
 70
     6
  9
$SURFU
 70
     6
  9
$SURFV
 70
     6
  9
$UCSBASE
  2

  9
$UCSNAME
  2

  9
$UCSORG
 10
0.0
 20
0.0
 30
0.0
  9
$UCSXDIR
 10
1.0
 20
0.0
 30
0.0
  9
$UCSYDIR
 10
0.0
 20
1.0
 30
0.0
  9
$UCSORTHOREF
  2

  9
$UCSORTHOVIEW
 70
     0
  9
$UCSORGTOP
 10
0.0
 20
0.0
 30
0.0
  9
$UCSORGBOTTOM
 10
0.0
 20
0.0
 30
0.0
  9
$UCSORGLEFT
 10
0.0
 20
0.0
 30
0.0
  9
$UCSORGRIGHT
 10
0.0
 20
0.0
 30
0.0
  9
$UCSORGFRONT
 10
0.0
 20
0.0
 30
0.0
  9
$UCSORGBACK
 10
0.0
 20
0.0
 30
0.0
  9
$PUCSBASE
  2

  9
$PUCSNAME
  2

  9
$PUCSORG
 10
0.0
 20
0.0
 30
0.0
  9
$PUCSXDIR
 10
1.0
 20
0.0
 30
0.0
  9
$PUCSYDIR
 10
0.0
 20
1.0
 30
0.0
  9
$PUCSORTHOREF
  2

  9
$PUCSORTHOVIEW
 70
     0
  9
$PUCSORGTOP
 10
0.0
 20
0.0
 30
0.0
  9
$PUCSORGBOTTOM
 10
0.0
 20
0.0
 30
0.0
  9
$PUCSORGLEFT
 10
0.0
 20
0.0
 30
0.0
  9
$PUCSORGRIGHT
 10
0.0
 20
0.0
 30
0.0
  9
$PUCSORGFRONT
 10
0.0
 20
0.0
 30
0.0
  9
$PUCSORGBACK
 10
0.0
 20
0.0
 30
0.0
  9
$USERI1
 70
     0
  9
$USERI2
 70
     0
  9
$USERI3
 70
     0
  9
$USERI4
 70
     0
  9
$USERI5
 70
     0
  9
$USERR1
 40
0.0
  9
$USERR2
 40
0.0
  9
$USERR3
 40
0.0
  9
$USERR4
 40
0.0
  9
$USERR5
 40
0.0
  9
$WORLDVIEW
 70
     1
  9
$SHADEDGE
 70
     3
  9
$SHADEDIF
 70
    70
  9
$TILEMODE
 70
     1
  9
$MAXACTVP
 70
    64
  9
$PINSBASE
 10
0.0
 20
0.0
 30
0.0
  9
$PLIMCHECK
 70
     0
  9
$PEXTMIN
 10
1.000000000000000E+20
 20
1.000000000000000E+20
 30
1.000000000000000E+20
  9
$PEXTMAX
 10
-1.000000000000000E+20
 20
-1.000000000000000E+20
 30
-1.000000000000000E+20
  9
$PLIMMIN
 10
0.0
 20
0.0
  9
$PLIMMAX
 10
12.0
 20
9.0
  9
$UNITMODE
 70
     0
  9
$VISRETAIN
 70
     1
  9
$PLINEGEN
 70
     0
  9
$PSLTSCALE
 70
     1
  9
$TREEDEPTH
 70
  3020
  9
$CMLSTYLE
  2
Standard
  9
$CMLJUST
 70
     0
  9
$CMLSCALE
 40
1.0
  9
$PROXYGRAPHICS
 70
     1
  9
$MEASUREMENT
 70
     0
  9
$CELWEIGHT
370
    -1
  9
$ENDCAPS
280
     0
  9
$JOINSTYLE
280
     0
  9
$LWDISPLAY
290
     1
  9
$INSUNITS
 70
     1
  9
$HYPERLINKBASE
  1

  9
$STYLESHEET
  1

  9
$XEDIT
290
     1
  9
$CEPSNTYPE
380
     0
  9
$PSTYLEMODE
290
     1
  9
$FINGERPRINTGUID
  2
{F6A95C2A-9653-2C8B-DB5D-6620C3CEC6E7}
  9
$VERSIONGUID
  2
{FAEB1C32-E019-11D5-929B-00C0DF256EC4}
  9
$EXTNAMES
290
     1
  9
$PSVPSCALE
 40
0.0
  9
$OLESTARTUP
290
     0
  9
$SORTENTS
280
   127
  9
$INDEXCTL
280
     0
  9
$HIDETEXT
280
     1
  9
$XCLIPFRAME
280
     2
  9
$HALOGAP
280
     0
  9
$OBSCOLOR
 70
   257
  9
$OBSLTYPE
280
     0
  9
$INTERSECTIONDISPLAY
280
     0
  9
$INTERSECTIONCOLOR
 70
   257
  9
$DIMASSOC
280
     2
  9
$PROJECTNAME
  1

  9
$CAMERADISPLAY
290
     0
  9
$LENSLENGTH
 40
50.0
  9
$CAMERAHEIGHT
 40
0.0
  9
$STEPSPERSEC
 40
2.0
  9
$STEPSIZE
 40
6.0
  9
$3DDWFPREC
 40
2.0
  9
$PSOLWIDTH
 40
0.25
  9
$PSOLHEIGHT
 40
4.0
  9
$LOFTANG1
 40
1.570796326794897
  9
$LOFTANG2
 40
1.570796326794897
  9
$LOFTMAG1
 40
0.0
  9
$LOFTMAG2
 40
0.0
  9
$LOFTPARAM
 70
     7
  9
$LOFTNORMALS
280
     1
  9
$LATITUDE
 40
37.795
  9
$LONGITUDE
 40
-122.394
  9
$NORTHDIRECTION
 40
0.0
  9
$TIMEZONE
 70
 -8000
  9
$LIGHTGLYPHDISPLAY
280
     1
  9
$TILEMODELIGHTSYNCH
280
     1
  9
$CMATERIAL
347
3C
  9
$SOLIDHIST
280
     1
  9
$SHOWHIST
280
     1
  9
$DWFFRAME
280
     2
  9
$DGNFRAME
280
     2
  9
$REALWORLDSCALE
290
     1
  9
$INTERFERECOLOR
 62
   256
  9
$CSHADOW
280
     0
  9
$SHADOWPLANELOCATION
 40
0.0
  0
ENDSEC
  0
SECTION
  2
CLASSES
  0
CLASS
  1
ACDBDICTIONARYWDFLT
  2
AcDbDictionaryWithDefault
  3
ObjectDBX Classes
 90
        0
 91
        4
280
     0
281
     0
  0
CLASS
  1
VISUALSTYLE
  2
AcDbVisualStyle
  3
ObjectDBX Classes
 90
     4095
 91
        4
280
     0
281
     0
  0
CLASS
  1
MATERIAL
  2
AcDbMaterial
  3
ObjectDBX Classes
 90
     1153
 91
        4
280
     0
281
     0
  0
CLASS
  1
SUN
  2
AcDbSun
  3
SCENEOE
 90
     1024
 91
        4
280
     0
281
     0
  0
ENDSEC
  0
SECTION
  2
TABLES
  0
TABLE
  2
VPORT
  5
8
330
0
100
AcDbSymbolTable
 70
     1
  0
VPORT
  5
29
330
8
100
AcDbSymbolTableRecord
100
AcDbViewportTableRecord
  2
*Active
 70
     0
 10
0.0
 20
0.0
 11
1.0
 21
1.0
 12
0.0
 22
0.0
 13
0.0
 23
0.0
 14
0.5
 24
0.5
 15
0.5
 25
0.5
 16
0.0
 26
0.0
 36
1.0
 17
105.0007777515277
 27
-148.5000416295416
 37
0.0
 40
297.0000832590831
 41
0.7070757462376333
 42
50.0
 43
0.0
 44
0.0
 50
0.0
 51
0.0
 71
     0
 72
   100
 73
     1
 74
     3
 75
     0
 76
     0
 77
     0
 78
     0
281
     0
 65
     1
110
0.0
120
0.0
130
0.0
111
1.0
121
0.0
131
0.0
112
0.0
122
1.0
132
0.0
 79
     0
146
0.0
 60
     3
 61
     5
292
     1
282
     1
141
0.0
142
0.0
 63
   250
361
3F
  0
ENDTAB
  0
TABLE
  2
LTYPE
  5
5
330
0
100
AcDbSymbolTable
 70
     2
  0
LTYPE
  5
14
330
5
100
AcDbSymbolTableRecord
100
AcDbLinetypeTableRecord
  2
ByBlock
 70
     0
  3

 72
    65
 73
     0
 40
0.0
  0
LTYPE
  5
15
330
5
100
AcDbSymbolTableRecord
100
AcDbLinetypeTableRecord
  2
ByLayer
 70
     0
  3

 72
    65
 73
     0
 40
0.0
  0
LTYPE
  5
16
330
5
100
AcDbSymbolTableRecord
100
AcDbLinetypeTableRecord
  2
Continuous
 70
     0
  3
Solid line
 72
    65
 73
     0
 40
0.0
  0
LTYPE
  5
13B
330
5
100
AcDbSymbolTableRecord
100
AcDbLinetypeTableRecord
  2
AI-Linetype-1
 70
     0
  3
Adobe Illustrator Linetype No. 1
 72
    65
 73
     2
 40
1.380066645462674
 49
0.6900333227313368
 74
     0
 49
-0.6900333227313368
 74
     0
  0
ENDTAB
  0
TABLE
  2
LAYER
  5
2
330
0
100
AcDbSymbolTable
 70
     2
  0
LAYER
  5
10
330
2
100
AcDbSymbolTableRecord
100
AcDbLayerTableRecord
  2
0
 70
     0
 62
     7
  6
Continuous
370
    -3
390
F
347
3E
  0
LAYER
  5
40
330
2
100
AcDbSymbolTableRecord
100
AcDbLayerTableRecord
  2
_U+30EC_U+30A4_U+30E4_U+30FC 1
 70
     0
 62
     7
  6
Continuous
370
    -3
390
F
347
3E
  0
ENDTAB
  0
TABLE
  2
STYLE
  5
3
330
0
100
AcDbSymbolTable
 70
     1
  0
STYLE
  5
11
330
3
100
AcDbSymbolTableRecord
100
AcDbTextStyleTableRecord
  2
Standard
 70
     0
 40
0.0
 41
1.0
 50
0.0
 71
     0
 42
0.2
  3
txt
  4

  0
ENDTAB
  0
TABLE
  2
VIEW
  5
6
330
0
100
AcDbSymbolTable
 70
     0
  0
ENDTAB
  0
TABLE
  2
UCS
  5
7
330
0
100
AcDbSymbolTable
 70
     0
  0
ENDTAB
  0
TABLE
  2
APPID
  5
9
330
0
100
AcDbSymbolTable
 70
     1
  0
APPID
  5
12
330
9
100
AcDbSymbolTableRecord
100
AcDbRegAppTableRecord
  2
ACAD
 70
     0
  0
ENDTAB
  0
TABLE
  2
DIMSTYLE
  5
A
330
0
100
AcDbSymbolTable
 70
     1
100
AcDbDimStyleTable
  0
DIMSTYLE
105
27
330
A
100
AcDbSymbolTableRecord
100
AcDbDimStyleTableRecord
  2
Standard
 70
     0
178
     0
340
11
  0
ENDTAB
  0
TABLE
  2
BLOCK_RECORD
  5
1
330
0
100
AcDbSymbolTable
 70
     8
  0
BLOCK_RECORD
  5
1F
330
1
100
AcDbSymbolTableRecord
100
AcDbBlockTableRecord
  2
*Model_Space
340
22
 70
     0
280
     1
281
     0
  0
BLOCK_RECORD
  5
1B
330
1
100
AcDbSymbolTableRecord
100
AcDbBlockTableRecord
  2
*Paper_Space
340
1E
 70
     0
280
     1
281
     0
  0
BLOCK_RECORD
  5
23
330
1
100
AcDbSymbolTableRecord
100
AcDbBlockTableRecord
  2
*Paper_Space0
340
26
 70
     0
280
     1
281
     0
  0
BLOCK_RECORD
  5
AC
330
1
100
AcDbSymbolTableRecord
100
AcDbBlockTableRecord
  2
block 2
340
0
102
{BLKREFS
331
AD
102
}
 70
     0
280
     1
281
     0
  0
BLOCK_RECORD
  5
BE
330
1
100
AcDbSymbolTableRecord
100
AcDbBlockTableRecord
  2
block 3
340
0
102
{BLKREFS
331
BF
102
}
 70
     0
280
     1
281
     0
  0
BLOCK_RECORD
  5
D0
330
1
100
AcDbSymbolTableRecord
100
AcDbBlockTableRecord
  2
block 4
340
0
102
{BLKREFS
331
D1
102
}
 70
     0
280
     1
281
     0
  0
BLOCK_RECORD
  5
E6
330
1
100
AcDbSymbolTableRecord
100
AcDbBlockTableRecord
  2
block 5
340
0
102
{BLKREFS
331
E7
102
}
 70
     0
280
     1
281
     0
  0
BLOCK_RECORD
  5
F8
330
1
100
AcDbSymbolTableRecord
100
AcDbBlockTableRecord
  2
block 6
340
0
102
{BLKREFS
331
F9
102
}
 70
     0
280
     1
281
     0
  0
BLOCK_RECORD
  5
120
330
1
100
AcDbSymbolTableRecord
100
AcDbBlockTableRecord
  2
block 7
340
0
102
{BLKREFS
331
121
102
}
 70
     0
280
     1
281
     0
  0
BLOCK_RECORD
  5
12E
330
1
100
AcDbSymbolTableRecord
100
AcDbBlockTableRecord
  2
block 8
340
0
102
{BLKREFS
331
12F
102
}
 70
     0
280
     1
281
     0
  0
ENDTAB
  0
ENDSEC
  0
SECTION
  2
BLOCKS
  0
BLOCK
  5
20
330
1F
100
AcDbEntity
  8
0
100
AcDbBlockBegin
  2
*Model_Space
 70
     0
 10
0.0
 20
0.0
 30
0.0
  3
*Model_Space
  1

  0
ENDBLK
  5
21
330
1F
100
AcDbEntity
  8
0
100
AcDbBlockEnd
  0
BLOCK
  5
1C
330
1B
100
AcDbEntity
 67
     1
  8
0
100
AcDbBlockBegin
  2
*Paper_Space
 70
     0
 10
0.0
 20
0.0
 30
0.0
  3
*Paper_Space
  1

  0
ENDBLK
  5
1D
330
1B
100
AcDbEntity
 67
     1
  8
0
100
AcDbBlockEnd
  0
BLOCK
  5
24
330
23
100
AcDbEntity
  8
0
100
AcDbBlockBegin
  2
*Paper_Space0
 70
     0
 10
0.0
 20
0.0
 30
0.0
  3
*Paper_Space0
  1

  0
ENDBLK
  5
25
330
23
100
AcDbEntity
  8
0
100
AcDbBlockEnd
  0
BLOCK
  5
AE
330
AC
100
AcDbEntity
  8
0
100
AcDbBlockBegin
  2
block 2
 70
     0
 10
0.0
 20
0.0
 30
0.0
  3
block 2
  1

  0
SPLINE
  5
B0
330
AC
100
AcDbEntity
  8
_U+30EC_U+30A4_U+30E4_U+30FC 1
370
     0
100
AcDbSpline
210
0.0
220
0.0
230
1.0
 70
    11
 71
     3
 72
    62
 73
    58
 74
     0
 42
0.0000000001
 43
0.0000000001
 12
1.0
 22
0.0
 32
0.0
 13
1.0
 23
0.0
 33
0.0
 40
0.0
 40
0.0
 40
0.0
 40
0.0
 40
1.0
 40
1.0
 40
1.0
 40
2.0
 40
2.0
 40
2.0
 40
3.0
 40
3.0
 40
3.0
 40
4.0
 40
4.0
 40
4.0
 40
5.0
 40
5.0
 40
5.0
 40
6.0
 40
6.0
 40
6.0
 40
7.0
 40
7.0
 40
7.0
 40
8.0
 40
8.0
 40
8.0
 40
9.0
 40
9.0
 40
9.0
 40
10.0
 40
10.0
 40
10.0
 40
11.0
 40
11.0
 40
11.0
 40
12.0
 40
12.0
 40
12.0
 40
13.0
 40
13.0
 40
13.0
 40
14.0
 40
14.0
 40
14.0
 40
15.0
 40
15.0
 40
15.0
 40
16.0
 40
16.0
 40
16.0
 40
17.0
 40
17.0
 40
17.0
 40
18.0
 40
18.0
 40
18.0
 40
19.0
 40
19.0
 40
19.0
 40
19.0
 10
129.220019498945
 20
-159.3425563837755
 30
0.0
 10
129.220019498945
 20
-159.4438421910418
 30
0.0
 10
129.199004416485
 20
-159.6767306458447
 30
0.0
 10
129.0129692602815
 20
-159.8104003506724
 30
0.0
 10
128.9006591474623
 20
-159.8896375468331
 30
0.0
 10
128.8014403974871
 20
-159.8937716614155
 30
0.0
 10
128.71669104855
 20
-159.8985947950948
 30
0.0
 10
128.71669104855
 20
-159.8985947950948
 30
0.0
 10
128.71669104855
 20
-159.6632947734522
 30
0.0
 10
128.71669104855
 20
-159.6632947734522
 30
0.0
 10
128.7907606014829
 20
-159.6608832066126
 30
0.0
 10
129.0253716040284
 20
-159.6498589010598
 30
0.0
 10
129.0253716040284
 20
-159.3466904983578
 30
0.0
 10
129.0253716040284
 20
-159.1999294306861
 30
0.0
 10
128.9557806752264
 20
-159.0373209237823
 30
0.0
 10
128.7273708445543
 20
-159.0373209237823
 30
0.0
 10
128.6109266171528
 20
-159.0373209237823
 30
0.0
 10
128.5623507708108
 20
-159.0779730505083
 30
0.0
 10
128.5306558923465
 20
-159.1117349862637
 30
0.0
 10
128.4565863394136
 20
-159.1909721824245
 30
0.0
 10
128.4438394861182
 20
-159.3149956198935
 30
0.0
 10
128.4438394861182
 20
-159.3739067526913
 30
0.0
 10
128.4438394861182
 20
-159.3942328160542
 30
0.0
 10
128.4459065434094
 20
-159.432817885489
 30
0.0
 10
128.4500406579917
 20
-159.4621011971136
 30
0.0
 10
128.4500406579917
 20
-159.4621011971136
 30
0.0
 10
128.255392763075
 20
-159.4621011971136
 30
0.0
 10
128.255392763075
 20
-159.4621011971136
 30
0.0
 10
128.261938444497
 20
-159.4214490703877
 30
0.0
 10
128.2640055017882
 20
-159.3763183195309
 30
0.0
 10
128.2640055017882
 20
-159.3694281285604
 30
0.0
 10
128.2640055017882
 20
-159.2991481806613
 30
0.0
 10
128.2426459097796
 20
-159.0869302987699
 30
0.0
 10
128.0059678499429
 20
-159.0869302987699
 30
0.0
 10
127.8282009229041
 20
-159.0869302987699
 30
0.0
 10
127.7730793951401
 20
-159.2268011754711
 30
0.0
 10
127.7730793951401
 20
-159.3446234410666
 30
0.0
 10
127.7730793951401
 20
-159.6271212708571
 30
0.0
 10
128.0059678499429
 20
-159.6360785191188
 30
0.0
 10
128.0776258360362
 20
-159.6409016527981
 30
0.0
 10
128.0776258360362
 20
-159.6409016527981
 30
0.0
 10
128.0776258360362
 20
-159.8579426683688
 30
0.0
 10
128.0776258360362
 20
-159.8579426683688
 30
0.0
 10
127.9529133794701
 20
-159.8489854201072
 30
0.0
 10
127.5763644429323
 20
-159.8193575989341
 30
0.0
 10
127.5763644429323
 20
-159.3308430591256
 30
0.0
 10
127.5763644429323
 20
-159.0914089229008
 30
0.0
 10
127.703488466338
 20
-158.8337157806041
 30
0.0
 10
127.999422168521
 20
-158.8337157806041
 30
0.0
 10
128.185801834273
 20
-158.8337157806041
 30
0.0
 10
128.2681396163705
 20
-158.9353460974189
 30
0.0
 10
128.3294623160079
 20
-159.0414550383646
 30
0.0
 10
128.3570230798899
 20
-158.9759982241449
 30
0.0
 10
128.4372938046962
 20
-158.7816948387768
 30
0.0
 10
128.7146239912589
 20
-158.7816948387768
 30
0.0
 10
129.0529323679104
 20
-158.7816948387768
 30
0.0
 10
129.220019498945
 20
-159.046278172044
 30
0.0
 10
129.220019498945
 20
-159.3425563837755
 30
0.0
  0
HATCH
  5
B1
330
AC
100
AcDbEntity
  8
_U+30EC_U+30A4_U+30E4_U+30FC 1
 62
   179
420
  2234388
100
AcDbHatch
 10
0.0
 20
0.0
 30
0.0
210
0.0
220
0.0
230
1.0
  2
SOLID
 70
     1
 71
     0
 91
        1
 92
        1
 93
        1
 72
     4
 94
        3
 73
     0
 74
     1
 95
       62
 96
       58
 40
0.0
 40
0.0
 40
0.0
 40
0.0
 40
1.0
 40
1.0
 40
1.0
 40
2.0
 40
2.0
 40
2.0
 40
3.0
 40
3.0
 40
3.0
 40
4.0
 40
4.0
 40
4.0
 40
5.0
 40
5.0
 40
5.0
 40
6.0
 40
6.0
 40
6.0
 40
7.0
 40
7.0
 40
7.0
 40
8.0
 40
8.0
 40
8.0
 40
9.0
 40
9.0
 40
9.0
 40
10.0
 40
10.0
 40
10.0
 40
11.0
 40
11.0
 40
11.0
 40
12.0
 40
12.0
 40
12.0
 40
13.0
 40
13.0
 40
13.0
 40
14.0
 40
14.0
 40
14.0
 40
15.0
 40
15.0
 40
15.0
 40
16.0
 40
16.0
 40
16.0
 40
17.0
 40
17.0
 40
17.0
 40
18.0
 40
18.0
 40
18.0
 40
19.0
 40
19.0
 40
19.0
 40
19.0
 10
129.220019498945
 20
-159.3425563837755
 10
129.220019498945
 20
-159.4438421910418
 10
129.199004416485
 20
-159.6767306458447
 10
129.0129692602815
 20
-159.8104003506724
 10
128.9006591474623
 20
-159.8896375468331
 10
128.8014403974871
 20
-159.8937716614155
 10
128.71669104855
 20
-159.8985947950948
 10
128.71669104855
 20
-159.8985947950948
 10
128.71669104855
 20
-159.6632947734522
 10
128.71669104855
 20
-159.6632947734522
 10
128.7907606014829
 20
-159.6608832066126
 10
129.0253716040284
 20
-159.6498589010598
 10
129.0253716040284
 20
-159.3466904983578
 10
129.0253716040284
 20
-159.1999294306861
 10
128.9557806752264
 20
-159.0373209237823
 10
128.7273708445543
 20
-159.0373209237823
 10
128.6109266171528
 20
-159.0373209237823
 10
128.5623507708108
 20
-159.0779730505083
 10
128.5306558923465
 20
-159.1117349862637
 10
128.4565863394136
 20
-159.1909721824245
 10
128.4438394861182
 20
-159.3149956198935
 10
128.4438394861182
 20
-159.3739067526913
 10
128.4438394861182
 20
-159.3942328160542
 10
128.4459065434094
 20
-159.432817885489
 10
128.4500406579917
 20
-159.4621011971136
 10
128.4500406579917
 20
-159.4621011971136
 10
128.255392763075
 20
-159.4621011971136
 10
128.255392763075
 20
-159.4621011971136
 10
128.261938444497
 20
-159.4214490703877
 10
128.2640055017882
 20
-159.3763183195309
 10
128.2640055017882
 20
-159.3694281285604
 10
128.2640055017882
 20
-159.2991481806613
 10
128.2426459097796
 20
-159.0869302987699
 10
128.0059678499429
 20
-159.0869302987699
 10
127.8282009229041
 20
-159.0869302987699
 10
127.7730793951401
 20
-159.2268011754711
 10
127.7730793951401
 20
-159.3446234410666
 10
127.7730793951401
 20
-159.6271212708571
 10
128.0059678499429
 20
-159.6360785191188
 10
128.0776258360362
 20
-159.6409016527981
 10
128.0776258360362
 20
-159.6409016527981
 10
128.0776258360362
 20
-159.8579426683688
 10
128.0776258360362
 20
-159.8579426683688
 10
127.9529133794701
 20
-159.8489854201072
 10
127.5763644429323
 20
-159.8193575989341
 10
127.5763644429323
 20
-159.3308430591256
 10
127.5763644429323
 20
-159.0914089229008
 10
127.703488466338
 20
-158.8337157806041
 10
127.999422168521
 20
-158.8337157806041
 10
128.185801834273
 20
-158.8337157806041
 10
128.2681396163705
 20
-158.9353460974189
 10
128.3294623160079
 20
-159.0414550383646
 10
128.3570230798899
 20
-158.9759982241449
 10
128.4372938046962
 20
-158.7816948387768
 10
128.7146239912589
 20
-158.7816948387768
 10
129.0529323679104
 20
-158.7816948387768
 10
129.220019498945
 20
-159.046278172044
 10
129.220019498945
 20
-159.3425563837755
 97
        0
 97
        0
 75
     2
 76
     1
 98
        0
  0
ENDBLK
  5
AF
330
AC
100
AcDbEntity
  8
0
100
AcDbBlockEnd
  0
BLOCK
  5
C0
330
BE
100
AcDbEntity
  8
0
100
AcDbBlockBegin
  2
block 3
 70
     0
 10
0.0
 20
0.0
 30
0.0
  3
block 3
  1

  0
SPLINE
  5
C2
330
BE
100
AcDbEntity
  8
_U+30EC_U+30A4_U+30E4_U+30FC 1
370
     0
100
AcDbSpline
210
0.0
220
0.0
230
1.0
 70
    11
 71
     3
 72
    26
 73
    22
 74
     0
 42
0.0000000001
 43
0.0000000001
 12
1.0
 22
0.0
 32
0.0
 13
1.0
 23
0.0
 33
0.0
 40
0.0
 40
0.0
 40
0.0
 40
0.0
 40
1.0
 40
1.0
 40
1.0
 40
2.0
 40
2.0
 40
2.0
 40
3.0
 40
3.0
 40
3.0
 40
4.0
 40
4.0
 40
4.0
 40
5.0
 40
5.0
 40
5.0
 40
6.0
 40
6.0
 40
6.0
 40
7.0
 40
7.0
 40
7.0
 40
7.0
 10
129.1693765953118
 20
-154.4288166931636
 30
0.0
 10
129.1693765953118
 20
-154.4288166931636
 30
0.0
 10
129.1693765953118
 20
-154.6820312113295
 30
0.0
 10
129.1693765953118
 20
-154.6820312113295
 30
0.0
 10
128.8603515302849
 20
-154.654814956996
 30
0.0
 10
128.3422091693033
 20
-154.4491427565266
 30
0.0
 10
127.8364691520687
 20
-154.0150607253851
 30
0.0
 10
127.8364691520687
 20
-154.0150607253851
 30
0.0
 10
127.8364691520687
 20
-154.910096532453
 30
0.0
 10
127.8364691520687
 20
-154.910096532453
 30
0.0
 10
127.8364691520687
 20
-154.910096532453
 30
0.0
 10
127.6249402892743
 20
-154.910096532453
 30
0.0
 10
127.6249402892743
 20
-154.910096532453
 30
0.0
 10
127.6249402892743
 20
-154.910096532453
 30
0.0
 10
127.6249402892743
 20
-153.7618462072193
 30
0.0
 10
127.6249402892743
 20
-153.7618462072193
 30
0.0
 10
127.6249402892743
 20
-153.7618462072193
 30
0.0
 10
127.8364691520687
 20
-153.7618462072193
 30
0.0
 10
127.8364691520687
 20
-153.7618462072193
 30
0.0
 10
128.1265461919267
 20
-154.1077337939384
 30
0.0
 10
128.7187581058411
 20
-154.3926431905685
 30
0.0
 10
129.1693765953118
 20
-154.4288166931636
 30
0.0
  0
HATCH
  5
C3
330
BE
100
AcDbEntity
  8
_U+30EC_U+30A4_U+30E4_U+30FC 1
 62
   179
420
  2234388
100
AcDbHatch
 10
0.0
 20
0.0
 30
0.0
210
0.0
220
0.0
230
1.0
  2
SOLID
 70
     1
 71
     0
 91
        1
 92
        1
 93
        1
 72
     4
 94
        3
 73
     0
 74
     1
 95
       26
 96
       22
 40
0.0
 40
0.0
 40
0.0
 40
0.0
 40
1.0
 40
1.0
 40
1.0
 40
2.0
 40
2.0
 40
2.0
 40
3.0
 40
3.0
 40
3.0
 40
4.0
 40
4.0
 40
4.0
 40
5.0
 40
5.0
 40
5.0
 40
6.0
 40
6.0
 40
6.0
 40
7.0
 40
7.0
 40
7.0
 40
7.0
 10
129.1693765953118
 20
-154.4288166931636
 10
129.1693765953118
 20
-154.4288166931636
 10
129.1693765953118
 20
-154.6820312113295
 10
129.1693765953118
 20
-154.6820312113295
 10
128.8603515302849
 20
-154.654814956996
 10
128.3422091693033
 20
-154.4491427565266
 10
127.8364691520687
 20
-154.0150607253851
 10
127.8364691520687
 20
-154.0150607253851
 10
127.8364691520687
 20
-154.910096532453
 10
127.8364691520687
 20
-154.910096532453
 10
127.8364691520687
 20
-154.910096532453
 10
127.6249402892743
 20
-154.910096532453
 10
127.6249402892743
 20
-154.910096532453
 10
127.6249402892743
 20
-154.910096532453
 10
127.6249402892743
 20
-153.7618462072193
 10
127.6249402892743
 20
-153.7618462072193
 10
127.6249402892743
 20
-153.7618462072193
 10
127.8364691520687
 20
-153.7618462072193
 10
127.8364691520687
 20
-153.7618462072193
 10
128.1265461919267
 20
-154.1077337939384
 10
128.7187581058411
 20
-154.3926431905685
 10
129.1693765953118
 20
-154.4288166931636
 97
        0
 97
        0
 75
     2
 76
     1
 98
        0
  0
ENDBLK
  5
C1
330
BE
100
AcDbEntity
  8
0
100
AcDbBlockEnd
  0
BLOCK
  5
D2
330
D0
100
AcDbEntity
  8
0
100
AcDbBlockBegin
  2
block 4
 70
     0
 10
0.0
 20
0.0
 30
0.0
  3
block 4
  1

  0
SPLINE
  5
D4
330
D0
100
AcDbEntity
  8
_U+30EC_U+30A4_U+30E4_U+30FC 1
370
     0
100
AcDbSpline
210
0.0
220
0.0
230
1.0
 70
    11
 71
     3
 72
    26
 73
    22
 74
     0
 42
0.0000000001
 43
0.0000000001
 12
1.0
 22
0.0
 32
0.0
 13
1.0
 23
0.0
 33
0.0
 40
0.0
 40
0.0
 40
0.0
 40
0.0
 40
1.0
 40
1.0
 40
1.0
 40
2.0
 40
2.0
 40
2.0
 40
3.0
 40
3.0
 40
3.0
 40
4.0
 40
4.0
 40
4.0
 40
5.0
 40
5.0
 40
5.0
 40
6.0
 40
6.0
 40
6.0
 40
7.0
 40
7.0
 40
7.0
 40
7.0
 10
81.1690334541001
 20
-152.5143771320103
 30
0.0
 10
81.1690334541001
 20
-152.5143771320103
 30
0.0
 10
80.06488035107753
 20
-152.5143771320103
 30
0.0
 10
80.06488035107753
 20
-152.5143771320103
 30
0.0
 10
80.06488035107753
 20
-152.5143771320103
 30
0.0
 10
80.06488035107753
 20
-152.8671549096999
 30
0.0
 10
80.06488035107753
 20
-152.8671549096999
 30
0.0
 10
80.06488035107753
 20
-152.8671549096999
 30
0.0
 10
79.9167412452118
 20
-152.8671549096999
 30
0.0
 10
79.9167412452118
 20
-152.8671549096999
 30
0.0
 10
79.90192733462521
 20
-152.5123100747192
 30
0.0
 10
79.7389743181729
 20
-152.462356190183
 30
0.0
 10
79.6245971480626
 20
-152.4306613117187
 30
0.0
 10
79.6245971480626
 20
-152.4306613117187
 30
0.0
 10
79.6245971480626
 20
-152.2745984862369
 30
0.0
 10
79.6245971480626
 20
-152.2745984862369
 30
0.0
 10
79.6245971480626
 20
-152.2745984862369
 30
0.0
 10
81.1690334541001
 20
-152.2745984862369
 30
0.0
 10
81.1690334541001
 20
-152.2745984862369
 30
0.0
 10
81.1690334541001
 20
-152.2745984862369
 30
0.0
 10
81.1690334541001
 20
-152.5143771320103
 30
0.0
 10
81.1690334541001
 20
-152.5143771320103
 30
0.0
  0
HATCH
  5
D5
330
D0
100
AcDbEntity
  8
_U+30EC_U+30A4_U+30E4_U+30FC 1
 62
   179
420
  2234388
100
AcDbHatch
 10
0.0
 20
0.0
 30
0.0
210
0.0
220
0.0
230
1.0
  2
SOLID
 70
     1
 71
     0
 91
        1
 92
        1
 93
        1
 72
     4
 94
        3
 73
     0
 74
     1
 95
       26
 96
       22
 40
0.0
 40
0.0
 40
0.0
 40
0.0
 40
1.0
 40
1.0
 40
1.0
 40
2.0
 40
2.0
 40
2.0
 40
3.0
 40
3.0
 40
3.0
 40
4.0
 40
4.0
 40
4.0
 40
5.0
 40
5.0
 40
5.0
 40
6.0
 40
6.0
 40
6.0
 40
7.0
 40
7.0
 40
7.0
 40
7.0
 10
81.1690334541001
 20
-152.5143771320103
 10
81.1690334541001
 20
-152.5143771320103
 10
80.06488035107753
 20
-152.5143771320103
 10
80.06488035107753
 20
-152.5143771320103
 10
80.06488035107753
 20
-152.5143771320103
 10
80.06488035107753
 20
-152.8671549096999
 10
80.06488035107753
 20
-152.8671549096999
 10
80.06488035107753
 20
-152.8671549096999
 10
79.9167412452118
 20
-152.8671549096999
 10
79.9167412452118
 20
-152.8671549096999
 10
79.90192733462521
 20
-152.5123100747192
 10
79.7389743181729
 20
-152.462356190183
 10
79.6245971480626
 20
-152.4306613117187
 10
79.6245971480626
 20
-152.4306613117187
 10
79.6245971480626
 20
-152.2745984862369
 10
79.6245971480626
 20
-152.2745984862369
 10
79.6245971480626
 20
-152.2745984862369
 10
81.1690334541001
 20
-152.2745984862369
 10
81.1690334541001
 20
-152.2745984862369
 10
81.1690334541001
 20
-152.2745984862369
 10
81.1690334541001
 20
-152.5143771320103
 10
81.1690334541001
 20
-152.5143771320103
 97
        0
 97
        0
 75
     2
 76
     1
 98
        0
  0
SPLINE
  5
D6
330
D0
100
AcDbEntity
  8
_U+30EC_U+30A4_U+30E4_U+30FC 1
370
     0
100
AcDbSpline
210
0.0
220
0.0
230
1.0
 70
    11
 71
     3
 72
    29
 73
    25
 74
     0
 42
0.0000000001
 43
0.0000000001
 12
1.0
 22
0.0
 32
0.0
 13
1.0
 23
0.0
 33
0.0
 40
0.0
 40
0.0
 40
0.0
 40
0.0
 40
1.0
 40
1.0
 40
1.0
 40
2.0
 40
2.0
 40
2.0
 40
3.0
 40
3.0
 40
3.0
 40
4.0
 40
4.0
 40
4.0
 40
5.0
 40
5.0
 40
5.0
 40
6.0
 40
6.0
 40
6.0
 40
7.0
 40
7.0
 40
7.0
 40
8.0
 40
8.0
 40
8.0
 40
8.0
 10
81.21967635773328
 20
-151.2045518285183
 30
0.0
 10
81.21967635773328
 20
-151.4894612251485
 30
0.0
 10
81.08221704787181
 20
-151.7605902398376
 30
0.0
 10
80.733228875216
 20
-151.7605902398376
 30
0.0
 10
80.47725828066194
 20
-151.7605902398376
 30
0.0
 10
80.38217364526905
 20
-151.6093505480352
 30
0.0
 10
80.32085094563159
 20
-151.4960069065704
 30
0.0
 10
80.2615953032853
 20
-151.6296766113981
 30
0.0
 10
80.147218133175
 20
-151.71098086485
 30
0.0
 10
79.98633217401384
 20
-151.71098086485
 30
0.0
 10
79.7114135542909
 20
-151.71098086485
 30
0.0
 10
79.57602130172059
 20
-151.4984184734101
 30
0.0
 10
79.57602130172059
 20
-151.2045518285183
 30
0.0
 10
79.57602130172059
 20
-150.9017279353648
 30
0.0
 10
79.72002629300403
 20
-150.6981227921866
 30
0.0
 10
79.98633217401384
 20
-150.6981227921866
 30
0.0
 10
80.147218133175
 20
-150.6981227921866
 30
0.0
 10
80.2615953032853
 20
-150.7818386124782
 30
0.0
 10
80.32085094563159
 20
-150.9151638077573
 30
0.0
 10
80.37149384926477
 20
-150.8200791723644
 30
0.0
 10
80.46657848465766
 20
-150.6505804744901
 30
0.0
 10
80.7290947606337
 20
-150.6505804744901
 30
0.0
 10
81.10357663988036
 20
-150.6505804744901
 30
0.0
 10
81.21967635773328
 20
-150.9489257435128
 30
0.0
 10
81.21967635773328
 20
-151.2045518285183
 30
0.0
  0
SPLINE
  5
D7
330
D0
100
AcDbEntity
  8
_U+30EC_U+30A4_U+30E4_U+30FC 1
370
     0
100
AcDbSpline
210
0.0
220
0.0
230
1.0
 70
    11
 71
     3
 72
    17
 73
    13
 74
     0
 42
0.0000000001
 43
0.0000000001
 12
1.0
 22
0.0
 32
0.0
 13
1.0
 23
0.0
 33
0.0
 40
0.0
 40
0.0
 40
0.0
 40
0.0
 40
1.0
 40
1.0
 40
1.0
 40
2.0
 40
2.0
 40
2.0
 40
3.0
 40
3.0
 40
3.0
 40
4.0
 40
4.0
 40
4.0
 40
4.0
 10
79.76860213934604
 20
-151.2045518285183
 30
0.0
 10
79.76860213934604
 20
-151.3809407173631
 30
0.0
 10
79.86368677473894
 20
-151.4712022190766
 30
0.0
 10
79.99907902730926
 20
-151.4712022190766
 30
0.0
 10
80.12172442658415
 20
-151.4712022190766
 30
0.0
 10
80.24023571127675
 20
-151.3947210993041
 30
0.0
 10
80.24023571127675
 20
-151.2045518285183
 30
0.0
 10
80.24023571127675
 20
-151.0147270672811
 30
0.0
 10
80.12172442658415
 20
-150.93790143796
 30
0.0
 10
79.99907902730926
 20
-150.93790143796
 30
0.0
 10
79.86368677473894
 20
-150.93790143796
 30
0.0
 10
79.76860213934604
 20
-151.0305745065132
 30
0.0
 10
79.76860213934604
 20
-151.2045518285183
 30
0.0
  0
SPLINE
  5
D8
330
D0
100
AcDbEntity
  8
_U+30EC_U+30A4_U+30E4_U+30FC 1
370
     0
100
AcDbSpline
210
0.0
220
0.0
230
1.0
 70
    11
 71
     3
 72
    17
 73
    13
 74
     0
 42
0.0000000001
 43
0.0000000001
 12
1.0
 22
0.0
 32
0.0
 13
1.0
 23
0.0
 33
0.0
 40
0.0
 40
0.0
 40
0.0
 40
0.0
 40
1.0
 40
1.0
 40
1.0
 40
2.0
 40
2.0
 40
2.0
 40
3.0
 40
3.0
 40
3.0
 40
4.0
 40
4.0
 40
4.0
 40
4.0
 10
80.42868243431991
 20
-151.2045518285183
 30
0.0
 10
80.42868243431991
 20
-151.3582030871605
 30
0.0
 10
80.51549884054822
 20
-151.5211561036128
 30
0.0
 10
80.71841496462943
 20
-151.5211561036128
 30
0.0
 10
80.92374265555031
 20
-151.5211561036128
 30
0.0
 10
81.02502846281666
 20
-151.3854193414939
 30
0.0
 10
81.02502846281666
 20
-151.2045518285183
 30
0.0
 10
81.02502846281666
 20
-151.0054253094709
 30
0.0
 10
80.90238306354176
 20
-150.8882920629724
 30
0.0
 10
80.72461613650287
 20
-150.8882920629724
 30
0.0
 10
80.5027519872528
 20
-150.8882920629724
 30
0.0
 10
80.42868243431991
 20
-151.061924875429
 30
0.0
 10
80.42868243431991
 20
-151.2045518285183
 30
0.0
  0
HATCH
  5
D9
330
D0
100
AcDbEntity
  8
_U+30EC_U+30A4_U+30E4_U+30FC 1
 62
   179
420
  2234388
100
AcDbHatch
 10
0.0
 20
0.0
 30
0.0
210
0.0
220
0.0
230
1.0
  2
SOLID
 70
     1
 71
     0
 91
        3
 92
        1
 93
        1
 72
     4
 94
        3
 73
     0
 74
     1
 95
       29
 96
       25
 40
0.0
 40
0.0
 40
0.0
 40
0.0
 40
1.0
 40
1.0
 40
1.0
 40
2.0
 40
2.0
 40
2.0
 40
3.0
 40
3.0
 40
3.0
 40
4.0
 40
4.0
 40
4.0
 40
5.0
 40
5.0
 40
5.0
 40
6.0
 40
6.0
 40
6.0
 40
7.0
 40
7.0
 40
7.0
 40
8.0
 40
8.0
 40
8.0
 40
8.0
 10
81.21967635773328
 20
-151.2045518285183
 10
81.21967635773328
 20
-151.4894612251485
 10
81.08221704787181
 20
-151.7605902398376
 10
80.733228875216
 20
-151.7605902398376
 10
80.47725828066194
 20
-151.7605902398376
 10
80.38217364526905
 20
-151.6093505480352
 10
80.32085094563159
 20
-151.4960069065704
 10
80.2615953032853
 20
-151.6296766113981
 10
80.147218133175
 20
-151.71098086485
 10
79.98633217401384
 20
-151.71098086485
 10
79.7114135542909
 20
-151.71098086485
 10
79.57602130172059
 20
-151.4984184734101
 10
79.57602130172059
 20
-151.2045518285183
 10
79.57602130172059
 20
-150.9017279353648
 10
79.72002629300403
 20
-150.6981227921866
 10
79.98633217401384
 20
-150.6981227921866
 10
80.147218133175
 20
-150.6981227921866
 10
80.2615953032853
 20
-150.7818386124782
 10
80.32085094563159
 20
-150.9151638077573
 10
80.37149384926477
 20
-150.8200791723644
 10
80.46657848465766
 20
-150.6505804744901
 10
80.7290947606337
 20
-150.6505804744901
 10
81.10357663988036
 20
-150.6505804744901
 10
81.21967635773328
 20
-150.9489257435128
 10
81.21967635773328
 20
-151.2045518285183
 97
        0
 97
        0
 92
        1
 93
        1
 72
     4
 94
        3
 73
     0
 74
     1
 95
       17
 96
       13
 40
0.0
 40
0.0
 40
0.0
 40
0.0
 40
1.0
 40
1.0
 40
1.0
 40
2.0
 40
2.0
 40
2.0
 40
3.0
 40
3.0
 40
3.0
 40
4.0
 40
4.0
 40
4.0
 40
4.0
 10
79.76860213934604
 20
-151.2045518285183
 10
79.76860213934604
 20
-151.3809407173631
 10
79.86368677473894
 20
-151.4712022190766
 10
79.99907902730926
 20
-151.4712022190766
 10
80.12172442658415
 20
-151.4712022190766
 10
80.24023571127675
 20
-151.3947210993041
 10
80.24023571127675
 20
-151.2045518285183
 10
80.24023571127675
 20
-151.0147270672811
 10
80.12172442658415
 20
-150.93790143796
 10
79.99907902730926
 20
-150.93790143796
 10
79.86368677473894
 20
-150.93790143796
 10
79.76860213934604
 20
-151.0305745065132
 10
79.76860213934604
 20
-151.2045518285183
 97
        0
 97
        0
 92
        1
 93
        1
 72
     4
 94
        3
 73
     0
 74
     1
 95
       17
 96
       13
 40
0.0
 40
0.0
 40
0.0
 40
0.0
 40
1.0
 40
1.0
 40
1.0
 40
2.0
 40
2.0
 40
2.0
 40
3.0
 40
3.0
 40
3.0
 40
4.0
 40
4.0
 40
4.0
 40
4.0
 10
80.42868243431991
 20
-151.2045518285183
 10
80.42868243431991
 20
-151.3582030871605
 10
80.51549884054822
 20
-151.5211561036128
 10
80.71841496462943
 20
-151.5211561036128
 10
80.92374265555031
 20
-151.5211561036128
 10
81.02502846281666
 20
-151.3854193414939
 10
81.02502846281666
 20
-151.2045518285183
 10
81.02502846281666
 20
-151.0054253094709
 10
80.90238306354176
 20
-150.8882920629724
 10
80.72461613650287
 20
-150.8882920629724
 10
80.5027519872528
 20
-150.8882920629724
 10
80.42868243431991
 20
-151.061924875429
 10
80.42868243431991
 20
-151.2045518285183
 97
        0
 97
        0
 75
     2
 76
     1
 98
        0
  0
ENDBLK
  5
D3
330
D0
100
AcDbEntity
  8
0
100
AcDbBlockEnd
  0
BLOCK
  5
E8
330
E6
100
AcDbEntity
  8
0
100
AcDbBlockBegin
  2
block 5
 70
     0
 10
0.0
 20
0.0
 30
0.0
  3
block 5
  1

  0
SPLINE
  5
EA
330
E6
100
AcDbEntity
  8
_U+30EC_U+30A4_U+30E4_U+30FC 1
370
     0
100
AcDbSpline
210
0.0
220
0.0
230
1.0
 70
    11
 71
     3
 72
    62
 73
    58
 74
     0
 42
0.0000000001
 43
0.0000000001
 12
1.0
 22
0.0
 32
0.0
 13
1.0
 23
0.0
 33
0.0
 40
0.0
 40
0.0
 40
0.0
 40
0.0
 40
1.0
 40
1.0
 40
1.0
 40
2.0
 40
2.0
 40
2.0
 40
3.0
 40
3.0
 40
3.0
 40
4.0
 40
4.0
 40
4.0
 40
5.0
 40
5.0
 40
5.0
 40
6.0
 40
6.0
 40
6.0
 40
7.0
 40
7.0
 40
7.0
 40
8.0
 40
8.0
 40
8.0
 40
9.0
 40
9.0
 40
9.0
 40
10.0
 40
10.0
 40
10.0
 40
11.0
 40
11.0
 40
11.0
 40
12.0
 40
12.0
 40
12.0
 40
13.0
 40
13.0
 40
13.0
 40
14.0
 40
14.0
 40
14.0
 40
15.0
 40
15.0
 40
15.0
 40
16.0
 40
16.0
 40
16.0
 40
17.0
 40
17.0
 40
17.0
 40
18.0
 40
18.0
 40
18.0
 40
19.0
 40
19.0
 40
19.0
 40
19.0
 10
87.30612655152417
 20
-138.2380736959092
 30
0.0
 10
87.2044962347093
 20
-138.2380736959092
 30
0.0
 10
86.9716077799064
 20
-138.2170586134492
 30
0.0
 10
86.83811032985298
 20
-138.0310234572457
 30
0.0
 10
86.75904538846649
 20
-137.9187133444266
 30
0.0
 10
86.75456676433566
 20
-137.8194945944514
 30
0.0
 10
86.74991588543058
 20
-137.7347452455142
 30
0.0
 10
86.74991588543058
 20
-137.7347452455142
 30
0.0
 10
86.98521590707314
 20
-137.7347452455142
 30
0.0
 10
86.98521590707314
 20
-137.7347452455142
 30
0.0
 10
86.98745521913855
 20
-137.8088147984471
 30
0.0
 10
86.99865177946562
 20
-138.0434258009926
 30
0.0
 10
87.30164792739335
 20
-138.0434258009926
 30
0.0
 10
87.44858124983925
 20
-138.0434258009926
 30
0.0
 10
87.6113620115173
 20
-137.9738348721906
 30
0.0
 10
87.6113620115173
 20
-137.7454250415185
 30
0.0
 10
87.6113620115173
 20
-137.6289808141171
 30
0.0
 10
87.57070988479136
 20
-137.5804049677751
 30
0.0
 10
87.53677569426165
 20
-137.5487100893108
 30
0.0
 10
87.45771075287516
 20
-137.4746405363779
 30
0.0
 10
87.33334280585764
 20
-137.4618936830825
 30
0.0
 10
87.27460392783414
 20
-137.4618936830825
 30
0.0
 10
87.2541056096969
 20
-137.4618936830825
 30
0.0
 10
87.21569279503636
 20
-137.4639607403736
 30
0.0
 10
87.18640948341174
 20
-137.4680948549559
 30
0.0
 10
87.18640948341174
 20
-137.4680948549559
 30
0.0
 10
87.18640948341174
 20
-137.2734469600393
 30
0.0
 10
87.18640948341174
 20
-137.2734469600393
 30
0.0
 10
87.22706161013768
 20
-137.2799926414613
 30
0.0
 10
87.27219236099445
 20
-137.2820596987524
 30
0.0
 10
87.27908255196496
 20
-137.2820596987524
 30
0.0
 10
87.34919024508979
 20
-137.2820596987524
 30
0.0
 10
87.56158038175545
 20
-137.2607001067439
 30
0.0
 10
87.56158038175545
 20
-137.0240220469072
 30
0.0
 10
87.56158038175545
 20
-136.8462551198683
 30
0.0
 10
87.42153725028004
 20
-136.7911335921043
 30
0.0
 10
87.30388723945876
 20
-136.7911335921043
 30
0.0
 10
87.02138940966827
 20
-136.7911335921043
 30
0.0
 10
87.01225990663235
 20
-137.0240220469072
 30
0.0
 10
87.00778128250153
 20
-137.0956800330004
 30
0.0
 10
87.00778128250153
 20
-137.0956800330004
 30
0.0
 10
86.7907402669308
 20
-137.0956800330004
 30
0.0
 10
86.7907402669308
 20
-137.0956800330004
 30
0.0
 10
86.79969751519243
 20
-136.9709675764344
 30
0.0
 10
86.82915308159133
 20
-136.5944186398965
 30
0.0
 10
87.3174953666255
 20
-136.5944186398965
 30
0.0
 10
87.55710175762462
 20
-136.5944186398965
 30
0.0
 10
87.81479489992131
 20
-136.7215426633023
 30
0.0
 10
87.81479489992131
 20
-137.0174763654852
 30
0.0
 10
87.81479489992131
 20
-137.2038560312372
 30
0.0
 10
87.71316458310643
 20
-137.2861938133347
 30
0.0
 10
87.60688338738647
 20
-137.3475165129722
 30
0.0
 10
87.67251245638049
 20
-137.3750772768541
 30
0.0
 10
87.86681584174858
 20
-137.4553480016605
 30
0.0
 10
87.86681584174858
 20
-137.7326781882231
 30
0.0
 10
87.86681584174858
 20
-138.0709865648746
 30
0.0
 10
87.60240476325565
 20
-138.2380736959092
 30
0.0
 10
87.30612655152417
 20
-138.2380736959092
 30
0.0
  0
HATCH
  5
EB
330
E6
100
AcDbEntity
  8
_U+30EC_U+30A4_U+30E4_U+30FC 1
 62
   179
420
  2234388
100
AcDbHatch
 10
0.0
 20
0.0
 30
0.0
210
0.0
220
0.0
230
1.0
  2
SOLID
 70
     1
 71
     0
 91
        1
 92
        1
 93
        1
 72
     4
 94
        3
 73
     0
 74
     1
 95
       62
 96
       58
 40
0.0
 40
0.0
 40
0.0
 40
0.0
 40
1.0
 40
1.0
 40
1.0
 40
2.0
 40
2.0
 40
2.0
 40
3.0
 40
3.0
 40
3.0
 40
4.0
 40
4.0
 40
4.0
 40
5.0
 40
5.0
 40
5.0
 40
6.0
 40
6.0
 40
6.0
 40
7.0
 40
7.0
 40
7.0
 40
8.0
 40
8.0
 40
8.0
 40
9.0
 40
9.0
 40
9.0
 40
10.0
 40
10.0
 40
10.0
 40
11.0
 40
11.0
 40
11.0
 40
12.0
 40
12.0
 40
12.0
 40
13.0
 40
13.0
 40
13.0
 40
14.0
 40
14.0
 40
14.0
 40
15.0
 40
15.0
 40
15.0
 40
16.0
 40
16.0
 40
16.0
 40
17.0
 40
17.0
 40
17.0
 40
18.0
 40
18.0
 40
18.0
 40
19.0
 40
19.0
 40
19.0
 40
19.0
 10
87.30612655152417
 20
-138.2380736959092
 10
87.2044962347093
 20
-138.2380736959092
 10
86.9716077799064
 20
-138.2170586134492
 10
86.83811032985298
 20
-138.0310234572457
 10
86.75904538846649
 20
-137.9187133444266
 10
86.75456676433566
 20
-137.8194945944514
 10
86.74991588543058
 20
-137.7347452455142
 10
86.74991588543058
 20
-137.7347452455142
 10
86.98521590707314
 20
-137.7347452455142
 10
86.98521590707314
 20
-137.7347452455142
 10
86.98745521913855
 20
-137.8088147984471
 10
86.99865177946562
 20
-138.0434258009926
 10
87.30164792739335
 20
-138.0434258009926
 10
87.44858124983925
 20
-138.0434258009926
 10
87.6113620115173
 20
-137.9738348721906
 10
87.6113620115173
 20
-137.7454250415185
 10
87.6113620115173
 20
-137.6289808141171
 10
87.57070988479136
 20
-137.5804049677751
 10
87.53677569426165
 20
-137.5487100893108
 10
87.45771075287516
 20
-137.4746405363779
 10
87.33334280585764
 20
-137.4618936830825
 10
87.27460392783414
 20
-137.4618936830825
 10
87.2541056096969
 20
-137.4618936830825
 10
87.21569279503636
 20
-137.4639607403736
 10
87.18640948341174
 20
-137.4680948549559
 10
87.18640948341174
 20
-137.4680948549559
 10
87.18640948341174
 20
-137.2734469600393
 10
87.18640948341174
 20
-137.2734469600393
 10
87.22706161013768
 20
-137.2799926414613
 10
87.27219236099445
 20
-137.2820596987524
 10
87.27908255196496
 20
-137.2820596987524
 10
87.34919024508979
 20
-137.2820596987524
 10
87.56158038175545
 20
-137.2607001067439
 10
87.56158038175545
 20
-137.0240220469072
 10
87.56158038175545
 20
-136.8462551198683
 10
87.42153725028004
 20
-136.7911335921043
 10
87.30388723945876
 20
-136.7911335921043
 10
87.02138940966827
 20
-136.7911335921043
 10
87.01225990663235
 20
-137.0240220469072
 10
87.00778128250153
 20
-137.0956800330004
 10
87.00778128250153
 20
-137.0956800330004
 10
86.7907402669308
 20
-137.0956800330004
 10
86.7907402669308
 20
-137.0956800330004
 10
86.79969751519243
 20
-136.9709675764344
 10
86.82915308159133
 20
-136.5944186398965
 10
87.3174953666255
 20
-136.5944186398965
 10
87.55710175762462
 20
-136.5944186398965
 10
87.81479489992131
 20
-136.7215426633023
 10
87.81479489992131
 20
-137.0174763654852
 10
87.81479489992131
 20
-137.2038560312372
 10
87.71316458310643
 20
-137.2861938133347
 10
87.60688338738647
 20
-137.3475165129722
 10
87.67251245638049
 20
-137.3750772768541
 10
87.86681584174858
 20
-137.4553480016605
 10
87.86681584174858
 20
-137.7326781882231
 10
87.86681584174858
 20
-138.0709865648746
 10
87.60240476325565
 20
-138.2380736959092
 10
87.30612655152417
 20
-138.2380736959092
 97
        0
 97
        0
 75
     2
 76
     1
 98
        0
  0
ENDBLK
  5
E9
330
E6
100
AcDbEntity
  8
0
100
AcDbBlockEnd
  0
BLOCK
  5
FA
330
F8
100
AcDbEntity
  8
0
100
AcDbBlockBegin
  2
block 6
 70
     0
 10
0.0
 20
0.0
 30
0.0
  3
block 6
  1

  0
POLYLINE
  5
FC
330
F8
100
AcDbEntity
  8
_U+30EC_U+30A4_U+30E4_U+30FC 1
370
     0
100
AcDb2dPolyline
 66
     1
 10
0.0
 20
0.0
 30
0.0
  0
VERTEX
  5
FD
330
FC
100
AcDbEntity
  8
_U+30EC_U+30A4_U+30E4_U+30FC 1
370
     0
100
AcDbVertex
100
AcDb2dVertex
 10
105.5411892097258
 20
-133.8404093089878
 30
0.0
  0
VERTEX
  5
FE
330
FC
100
AcDbEntity
  8
_U+30EC_U+30A4_U+30E4_U+30FC 1
370
     0
100
AcDbVertex
100
AcDb2dVertex
 10
105.5411892097258
 20
-134.1873304243525
 30
0.0
  0
VERTEX
  5
FF
330
FC
100
AcDbEntity
  8
_U+30EC_U+30A4_U+30E4_U+30FC 1
370
     0
100
AcDbVertex
100
AcDb2dVertex
 10
105.3083007549229
 20
-134.1873304243525
 30
0.0
  0
VERTEX
  5
100
330
FC
100
AcDbEntity
  8
_U+30EC_U+30A4_U+30E4_U+30FC 1
370
     0
100
AcDbVertex
100
AcDb2dVertex
 10
105.3083007549229
 20
-133.8404093089878
 30
0.0
  0
VERTEX
  5
101
330
FC
100
AcDbEntity
  8
_U+30EC_U+30A4_U+30E4_U+30FC 1
370
     0
100
AcDbVertex
100
AcDb2dVertex
 10
104.6073960784488
 20
-133.8404093089878
 30
0.0
  0
VERTEX
  5
102
330
FC
100
AcDbEntity
  8
_U+30EC_U+30A4_U+30E4_U+30FC 1
370
     0
100
AcDbVertex
100
AcDb2dVertex
 10
104.6073960784488
 20
-133.6161335928981
 30
0.0
  0
VERTEX
  5
103
330
FC
100
AcDbEntity
  8
_U+30EC_U+30A4_U+30E4_U+30FC 1
370
     0
100
AcDbVertex
100
AcDb2dVertex
 10
105.3331054424167
 20
-132.642894118315
 30
0.0
  0
VERTEX
  5
104
330
FC
100
AcDbEntity
  8
_U+30EC_U+30A4_U+30E4_U+30FC 1
370
     0
100
AcDbVertex
100
AcDb2dVertex
 10
105.5411892097258
 20
-132.642894118315
 30
0.0
  0
VERTEX
  5
105
330
FC
100
AcDbEntity
  8
_U+30EC_U+30A4_U+30E4_U+30FC 1
370
     0
100
AcDbVertex
100
AcDb2dVertex
 10
105.5411892097258
 20
-133.6416272994889
 30
0.0
  0
VERTEX
  5
106
330
FC
100
AcDbEntity
  8
_U+30EC_U+30A4_U+30E4_U+30FC 1
370
     0
100
AcDbVertex
100
AcDb2dVertex
 10
105.7627088494274
 20
-133.6416272994889
 30
0.0
  0
VERTEX
  5
107
330
FC
100
AcDbEntity
  8
_U+30EC_U+30A4_U+30E4_U+30FC 1
370
     0
100
AcDbVertex
100
AcDb2dVertex
 10
105.7627088494274
 20
-133.8404093089878
 30
0.0
  0
VERTEX
  5
108
330
FC
100
AcDbEntity
  8
_U+30EC_U+30A4_U+30E4_U+30FC 1
370
     0
100
AcDbVertex
100
AcDb2dVertex
 10
105.5411892097258
 20
-133.8404093089878
 30
0.0
  0
SEQEND
  5
109
330
FC
100
AcDbEntity
  8
_U+30EC_U+30A4_U+30E4_U+30FC 1
370
     0
  0
POLYLINE
  5
10A
330
F8
100
AcDbEntity
  8
_U+30EC_U+30A4_U+30E4_U+30FC 1
370
     0
100
AcDb2dPolyline
 66
     1
 10
0.0
 20
0.0
 30
0.0
  0
VERTEX
  5
10B
330
10A
100
AcDbEntity
  8
_U+30EC_U+30A4_U+30E4_U+30FC 1
370
     0
100
AcDbVertex
100
AcDb2dVertex
 10
105.3083007549229
 20
-132.9856811190973
 30
0.0
  0
VERTEX
  5
10C
330
10A
100
AcDbEntity
  8
_U+30EC_U+30A4_U+30E4_U+30FC 1
370
     0
100
AcDbVertex
100
AcDb2dVertex
 10
104.8197862151145
 20
-133.6416272994889
 30
0.0
  0
VERTEX
  5
10D
330
10A
100
AcDbEntity
  8
_U+30EC_U+30A4_U+30E4_U+30FC 1
370
     0
100
AcDbVertex
100
AcDb2dVertex
 10
105.3083007549229
 20
-133.6416272994889
 30
0.0
  0
VERTEX
  5
10E
330
10A
100
AcDbEntity
  8
_U+30EC_U+30A4_U+30E4_U+30FC 1
370
     0
100
AcDbVertex
100
AcDb2dVertex
 10
105.3083007549229
 20
-132.9856811190973
 30
0.0
  0
SEQEND
  5
10F
330
10A
100
AcDbEntity
  8
_U+30EC_U+30A4_U+30E4_U+30FC 1
370
     0
  0
HATCH
  5
110
330
F8
100
AcDbEntity
  8
_U+30EC_U+30A4_U+30E4_U+30FC 1
 62
   179
420
  2234388
100
AcDbHatch
 10
0.0
 20
0.0
 30
0.0
210
0.0
220
0.0
230
1.0
  2
SOLID
 70
     1
 71
     0
 91
        2
 92
        1
 93
       11
 72
     1
 10
105.5411892097258
 20
-133.8404093089878
 11
105.5411892097258
 21
-134.1873304243525
 72
     1
 10
105.5411892097258
 20
-134.1873304243525
 11
105.3083007549229
 21
-134.1873304243525
 72
     1
 10
105.3083007549229
 20
-134.1873304243525
 11
105.3083007549229
 21
-133.8404093089878
 72
     1
 10
105.3083007549229
 20
-133.8404093089878
 11
104.6073960784488
 21
-133.8404093089878
 72
     1
 10
104.6073960784488
 20
-133.8404093089878
 11
104.6073960784488
 21
-133.6161335928981
 72
     1
 10
104.6073960784488
 20
-133.6161335928981
 11
105.3331054424167
 21
-132.642894118315
 72
     1
 10
105.3331054424167
 20
-132.642894118315
 11
105.5411892097258
 21
-132.642894118315
 72
     1
 10
105.5411892097258
 20
-132.642894118315
 11
105.5411892097258
 21
-133.6416272994889
 72
     1
 10
105.5411892097258
 20
-133.6416272994889
 11
105.7627088494274
 21
-133.6416272994889
 72
     1
 10
105.7627088494274
 20
-133.6416272994889
 11
105.7627088494274
 21
-133.8404093089878
 72
     1
 10
105.7627088494274
 20
-133.8404093089878
 11
105.5411892097258
 21
-133.8404093089878
 97
        0
 92
        1
 93
        3
 72
     1
 10
105.3083007549229
 20
-132.9856811190973
 11
104.8197862151145
 21
-133.6416272994889
 72
     1
 10
104.8197862151145
 20
-133.6416272994889
 11
105.3083007549229
 21
-133.6416272994889
 72
     1
 10
105.3083007549229
 20
-133.6416272994889
 11
105.3083007549229
 21
-132.9856811190973
 97
        0
 75
     2
 76
     1
 98
        0
  0
SPLINE
  5
111
330
F8
100
AcDbEntity
  8
_U+30EC_U+30A4_U+30E4_U+30FC 1
370
     0
100
AcDbSpline
210
0.0
220
0.0
230
1.0
 70
    11
 71
     3
 72
    29
 73
    25
 74
     0
 42
0.0000000001
 43
0.0000000001
 12
1.0
 22
0.0
 32
0.0
 13
1.0
 23
0.0
 33
0.0
 40
0.0
 40
0.0
 40
0.0
 40
0.0
 40
1.0
 40
1.0
 40
1.0
 40
2.0
 40
2.0
 40
2.0
 40
3.0
 40
3.0
 40
3.0
 40
4.0
 40
4.0
 40
4.0
 40
5.0
 40
5.0
 40
5.0
 40
6.0
 40
6.0
 40
6.0
 40
7.0
 40
7.0
 40
7.0
 40
8.0
 40
8.0
 40
8.0
 40
8.0
 10
106.8689290097411
 20
-134.0095634973136
 30
0.0
 10
106.7538628205338
 20
-134.2190253028168
 30
0.0
 10
106.5685166834273
 20
-134.2379733279857
 30
0.0
 10
106.4438042268613
 20
-134.2379733279857
 30
0.0
 10
106.2722384716958
 20
-134.2379733279857
 30
0.0
 10
106.1206542703448
 20
-134.1914645389348
 30
0.0
 10
106.0186794439814
 20
-134.0095634973136
 30
0.0
 10
105.9080918789049
 20
-133.814915602397
 30
0.0
 10
105.887765815542
 20
-133.5782375425603
 30
0.0
 10
105.887765815542
 20
-133.415284526108
 30
0.0
 10
105.887765815542
 20
-133.2712795348245
 30
0.0
 10
105.9056803120653
 20
-133.0194430548528
 30
0.0
 10
106.0186794439814
 20
-132.8206610453539
 30
0.0
 10
106.1344346522858
 20
-132.6177449212726
 30
0.0
 10
106.3060004074513
 20
-132.594318271973
 30
0.0
 10
106.4438042268613
 20
-132.594318271973
 30
0.0
 10
106.6133029247356
 20
-132.594318271973
 30
0.0
 10
106.7672986929262
 20
-132.6387600037327
 30
0.0
 10
106.8689290097411
 20
-132.8206610453539
 30
0.0
 10
106.9750379506868
 20
-133.0132418829793
 30
0.0
 10
107.0001871477291
 20
-133.2416517136514
 30
0.0
 10
107.0001871477291
 20
-133.415284526108
 30
0.0
 10
107.0001871477291
 20
-133.5865057717249
 30
0.0
 10
106.9774495175265
 20
-133.8169826596881
 30
0.0
 10
106.8689290097411
 20
-134.0095634973136
 30
0.0
  0
SPLINE
  5
112
330
F8
100
AcDbEntity
  8
_U+30EC_U+30A4_U+30E4_U+30FC 1
370
     0
100
AcDbSpline
210
0.0
220
0.0
230
1.0
 70
    11
 71
     3
 72
    17
 73
    13
 74
     0
 42
0.0000000001
 43
0.0000000001
 12
1.0
 22
0.0
 32
0.0
 13
1.0
 23
0.0
 33
0.0
 40
0.0
 40
0.0
 40
0.0
 40
0.0
 40
1.0
 40
1.0
 40
1.0
 40
2.0
 40
2.0
 40
2.0
 40
3.0
 40
3.0
 40
3.0
 40
4.0
 40
4.0
 40
4.0
 40
4.0
 10
106.4438042268613
 20
-132.7868991095984
 30
0.0
 10
106.1771538363029
 20
-132.7868991095984
 30
0.0
 10
106.1275444613153
 20
-133.0704304680345
 30
0.0
 10
106.1275444613153
 20
-133.415284526108
 30
0.0
 10
106.1275444613153
 20
-133.7346448775907
 30
0.0
 10
106.1657850212016
 20
-134.043325433069
 30
0.0
 10
106.4438042268613
 20
-134.043325433069
 30
0.0
 10
106.7083875601285
 20
-134.043325433069
 30
0.0
 10
106.7604085019557
 20
-133.7622056414727
 30
0.0
 10
106.7604085019557
 20
-133.415284526108
 30
0.0
 10
106.7604085019557
 20
-133.0955796650768
 30
0.0
 10
106.7197563752298
 20
-132.7868991095984
 30
0.0
 10
106.4438042268613
 20
-132.7868991095984
 30
0.0
  0
HATCH
  5
113
330
F8
100
AcDbEntity
  8
_U+30EC_U+30A4_U+30E4_U+30FC 1
 62
   179
420
  2234388
100
AcDbHatch
 10
0.0
 20
0.0
 30
0.0
210
0.0
220
0.0
230
1.0
  2
SOLID
 70
     1
 71
     0
 91
        2
 92
        1
 93
        1
 72
     4
 94
        3
 73
     0
 74
     1
 95
       29
 96
       25
 40
0.0
 40
0.0
 40
0.0
 40
0.0
 40
1.0
 40
1.0
 40
1.0
 40
2.0
 40
2.0
 40
2.0
 40
3.0
 40
3.0
 40
3.0
 40
4.0
 40
4.0
 40
4.0
 40
5.0
 40
5.0
 40
5.0
 40
6.0
 40
6.0
 40
6.0
 40
7.0
 40
7.0
 40
7.0
 40
8.0
 40
8.0
 40
8.0
 40
8.0
 10
106.8689290097411
 20
-134.0095634973136
 10
106.7538628205338
 20
-134.2190253028168
 10
106.5685166834273
 20
-134.2379733279857
 10
106.4438042268613
 20
-134.2379733279857
 10
106.2722384716958
 20
-134.2379733279857
 10
106.1206542703448
 20
-134.1914645389348
 10
106.0186794439814
 20
-134.0095634973136
 10
105.9080918789049
 20
-133.814915602397
 10
105.887765815542
 20
-133.5782375425603
 10
105.887765815542
 20
-133.415284526108
 10
105.887765815542
 20
-133.2712795348245
 10
105.9056803120653
 20
-133.0194430548528
 10
106.0186794439814
 20
-132.8206610453539
 10
106.1344346522858
 20
-132.6177449212726
 10
106.3060004074513
 20
-132.594318271973
 10
106.4438042268613
 20
-132.594318271973
 10
106.6133029247356
 20
-132.594318271973
 10
106.7672986929262
 20
-132.6387600037327
 10
106.8689290097411
 20
-132.8206610453539
 10
106.9750379506868
 20
-133.0132418829793
 10
107.0001871477291
 20
-133.2416517136514
 10
107.0001871477291
 20
-133.415284526108
 10
107.0001871477291
 20
-133.5865057717249
 10
106.9774495175265
 20
-133.8169826596881
 10
106.8689290097411
 20
-134.0095634973136
 97
        0
 97
        0
 92
        1
 93
        1
 72
     4
 94
        3
 73
     0
 74
     1
 95
       17
 96
       13
 40
0.0
 40
0.0
 40
0.0
 40
0.0
 40
1.0
 40
1.0
 40
1.0
 40
2.0
 40
2.0
 40
2.0
 40
3.0
 40
3.0
 40
3.0
 40
4.0
 40
4.0
 40
4.0
 40
4.0
 10
106.4438042268613
 20
-132.7868991095984
 10
106.1771538363029
 20
-132.7868991095984
 10
106.1275444613153
 20
-133.0704304680345
 10
106.1275444613153
 20
-133.415284526108
 10
106.1275444613153
 20
-133.7346448775907
 10
106.1657850212016
 20
-134.043325433069
 10
106.4438042268613
 20
-134.043325433069
 10
106.7083875601285
 20
-134.043325433069
 10
106.7604085019557
 20
-133.7622056414727
 10
106.7604085019557
 20
-133.415284526108
 10
106.7604085019557
 20
-133.0955796650768
 10
106.7197563752298
 20
-132.7868991095984
 10
106.4438042268613
 20
-132.7868991095984
 97
        0
 97
        0
 75
     2
 76
     1
 98
        0
  0
ENDBLK
  5
FB
330
F8
100
AcDbEntity
  8
0
100
AcDbBlockEnd
  0
BLOCK
  5
122
330
120
100
AcDbEntity
  8
0
100
AcDbBlockBegin
  2
block 7
 70
     0
 10
0.0
 20
0.0
 30
0.0
  3
block 7
  1

  0
SPLINE
  5
124
330
120
100
AcDbEntity
  8
_U+30EC_U+30A4_U+30E4_U+30FC 1
370
     0
100
AcDbSpline
210
0.0
220
0.0
230
1.0
 70
    11
 71
     3
 72
    26
 73
    22
 74
     0
 42
0.0000000001
 43
0.0000000001
 12
1.0
 22
0.0
 32
0.0
 13
1.0
 23
0.0
 33
0.0
 40
0.0
 40
0.0
 40
0.0
 40
0.0
 40
1.0
 40
1.0
 40
1.0
 40
2.0
 40
2.0
 40
2.0
 40
3.0
 40
3.0
 40
3.0
 40
4.0
 40
4.0
 40
4.0
 40
5.0
 40
5.0
 40
5.0
 40
6.0
 40
6.0
 40
6.0
 40
7.0
 40
7.0
 40
7.0
 40
7.0
 10
90.13420543536576
 20
-164.1870496551338
 30
0.0
 10
90.13420543536576
 20
-164.1870496551338
 30
0.0
 10
90.13420543536576
 20
-163.0828965521112
 30
0.0
 10
90.13420543536576
 20
-163.0828965521112
 30
0.0
 10
90.13420543536576
 20
-163.0828965521112
 30
0.0
 10
89.78142765767618
 20
-163.0828965521112
 30
0.0
 10
89.78142765767618
 20
-163.0828965521112
 30
0.0
 10
89.78142765767618
 20
-163.0828965521112
 30
0.0
 10
89.78142765767618
 20
-162.9347574462455
 30
0.0
 10
89.78142765767618
 20
-162.9347574462455
 30
0.0
 10
90.13644474743117
 20
-162.9199435356589
 30
0.0
 10
90.18622637719304
 20
-162.7569905192066
 30
0.0
 10
90.21774900088306
 20
-162.6426133490963
 30
0.0
 10
90.21774900088306
 20
-162.6426133490963
 30
0.0
 10
90.37381182636489
 20
-162.6426133490963
 30
0.0
 10
90.37381182636489
 20
-162.6426133490963
 30
0.0
 10
90.37381182636489
 20
-162.6426133490963
 30
0.0
 10
90.37381182636489
 20
-164.1870496551338
 30
0.0
 10
90.37381182636489
 20
-164.1870496551338
 30
0.0
 10
90.37381182636489
 20
-164.1870496551338
 30
0.0
 10
90.13420543536576
 20
-164.1870496551338
 30
0.0
 10
90.13420543536576
 20
-164.1870496551338
 30
0.0
  0
HATCH
  5
125
330
120
100
AcDbEntity
  8
_U+30EC_U+30A4_U+30E4_U+30FC 1
 62
   179
420
  2234388
100
AcDbHatch
 10
0.0
 20
0.0
 30
0.0
210
0.0
220
0.0
230
1.0
  2
SOLID
 70
     1
 71
     0
 91
        1
 92
        1
 93
        1
 72
     4
 94
        3
 73
     0
 74
     1
 95
       26
 96
       22
 40
0.0
 40
0.0
 40
0.0
 40
0.0
 40
1.0
 40
1.0
 40
1.0
 40
2.0
 40
2.0
 40
2.0
 40
3.0
 40
3.0
 40
3.0
 40
4.0
 40
4.0
 40
4.0
 40
5.0
 40
5.0
 40
5.0
 40
6.0
 40
6.0
 40
6.0
 40
7.0
 40
7.0
 40
7.0
 40
7.0
 10
90.13420543536576
 20
-164.1870496551338
 10
90.13420543536576
 20
-164.1870496551338
 10
90.13420543536576
 20
-163.0828965521112
 10
90.13420543536576
 20
-163.0828965521112
 10
90.13420543536576
 20
-163.0828965521112
 10
89.78142765767618
 20
-163.0828965521112
 10
89.78142765767618
 20
-163.0828965521112
 10
89.78142765767618
 20
-163.0828965521112
 10
89.78142765767618
 20
-162.9347574462455
 10
89.78142765767618
 20
-162.9347574462455
 10
90.13644474743117
 20
-162.9199435356589
 10
90.18622637719304
 20
-162.7569905192066
 10
90.21774900088306
 20
-162.6426133490963
 10
90.21774900088306
 20
-162.6426133490963
 10
90.37381182636489
 20
-162.6426133490963
 10
90.37381182636489
 20
-162.6426133490963
 10
90.37381182636489
 20
-162.6426133490963
 10
90.37381182636489
 20
-164.1870496551338
 10
90.37381182636489
 20
-164.1870496551338
 10
90.37381182636489
 20
-164.1870496551338
 10
90.13420543536576
 20
-164.1870496551338
 10
90.13420543536576
 20
-164.1870496551338
 97
        0
 97
        0
 75
     2
 76
     1
 98
        0
  0
SPLINE
  5
126
330
120
100
AcDbEntity
  8
_U+30EC_U+30A4_U+30E4_U+30FC 1
370
     0
100
AcDbSpline
210
0.0
220
0.0
230
1.0
 70
    11
 71
     3
 72
    29
 73
    25
 74
     0
 42
0.0000000001
 43
0.0000000001
 12
1.0
 22
0.0
 32
0.0
 13
1.0
 23
0.0
 33
0.0
 40
0.0
 40
0.0
 40
0.0
 40
0.0
 40
1.0
 40
1.0
 40
1.0
 40
2.0
 40
2.0
 40
2.0
 40
3.0
 40
3.0
 40
3.0
 40
4.0
 40
4.0
 40
4.0
 40
5.0
 40
5.0
 40
5.0
 40
6.0
 40
6.0
 40
6.0
 40
7.0
 40
7.0
 40
7.0
 40
8.0
 40
8.0
 40
8.0
 40
8.0
 10
91.86898326696331
 20
-164.0092827280949
 30
0.0
 10
91.7537448229817
 20
-164.2187445335981
 30
0.0
 10
91.56839868587527
 20
-164.237692558767
 30
0.0
 10
91.44403073885775
 20
-164.237692558767
 30
0.0
 10
91.27212047414378
 20
-164.237692558767
 30
0.0
 10
91.12070852756705
 20
-164.1911837697161
 30
0.0
 10
91.01890595597791
 20
-164.0092827280949
 30
0.0
 10
90.90814613612713
 20
-163.8146348331783
 30
0.0
 10
90.88782007276416
 20
-163.5779567733416
 30
0.0
 10
90.88782007276416
 20
-163.4150037568893
 30
0.0
 10
90.88782007276416
 20
-163.2709987656059
 30
0.0
 10
90.90590682406172
 20
-163.0191622856341
 30
0.0
 10
91.01890595597791
 20
-162.8203802761352
 30
0.0
 10
91.13431665473378
 20
-162.617464152054
 30
0.0
 10
91.3060546646735
 20
-162.5940375027543
 30
0.0
 10
91.44403073885775
 20
-162.5940375027543
 30
0.0
 10
91.61352943673204
 20
-162.5940375027543
 30
0.0
 10
91.76735295014845
 20
-162.638479234514
 30
0.0
 10
91.86898326696331
 20
-162.8203802761352
 30
0.0
 10
91.97526446268327
 20
-163.0129611137607
 30
0.0
 10
92.00024140495134
 20
-163.2413709444327
 30
0.0
 10
92.00024140495134
 20
-163.4150037568893
 30
0.0
 10
92.00024140495134
 20
-163.5862250025062
 30
0.0
 10
91.97750377474868
 20
-163.8167018904694
 30
0.0
 10
91.86898326696331
 20
-164.0092827280949
 30
0.0
  0
SPLINE
  5
127
330
120
100
AcDbEntity
  8
_U+30EC_U+30A4_U+30E4_U+30FC 1
370
     0
100
AcDbSpline
210
0.0
220
0.0
230
1.0
 70
    11
 71
     3
 72
    17
 73
    13
 74
     0
 42
0.0000000001
 43
0.0000000001
 12
1.0
 22
0.0
 32
0.0
 13
1.0
 23
0.0
 33
0.0
 40
0.0
 40
0.0
 40
0.0
 40
0.0
 40
1.0
 40
1.0
 40
1.0
 40
2.0
 40
2.0
 40
2.0
 40
3.0
 40
3.0
 40
3.0
 40
4.0
 40
4.0
 40
4.0
 40
4.0
 10
91.44403073885775
 20
-162.7866183403797
 30
0.0
 10
91.17720809352515
 20
-162.7866183403797
 30
0.0
 10
91.12742646376329
 20
-163.0701496988158
 30
0.0
 10
91.12742646376329
 20
-163.4150037568893
 30
0.0
 10
91.12742646376329
 20
-163.734364108372
 30
0.0
 10
91.16583927842382
 20
-164.0430446638504
 30
0.0
 10
91.44403073885775
 20
-164.0430446638504
 30
0.0
 10
91.70844181735067
 20
-164.0430446638504
 30
0.0
 10
91.76046275917794
 20
-163.761924872254
 30
0.0
 10
91.76046275917794
 20
-163.4150037568893
 30
0.0
 10
91.76046275917794
 20
-163.0952988958581
 30
0.0
 10
91.719810632452
 20
-162.7866183403797
 30
0.0
 10
91.44403073885775
 20
-162.7866183403797
 30
0.0
  0
HATCH
  5
128
330
120
100
AcDbEntity
  8
_U+30EC_U+30A4_U+30E4_U+30FC 1
 62
   179
420
  2234388
100
AcDbHatch
 10
0.0
 20
0.0
 30
0.0
210
0.0
220
0.0
230
1.0
  2
SOLID
 70
     1
 71
     0
 91
        2
 92
        1
 93
        1
 72
     4
 94
        3
 73
     0
 74
     1
 95
       29
 96
       25
 40
0.0
 40
0.0
 40
0.0
 40
0.0
 40
1.0
 40
1.0
 40
1.0
 40
2.0
 40
2.0
 40
2.0
 40
3.0
 40
3.0
 40
3.0
 40
4.0
 40
4.0
 40
4.0
 40
5.0
 40
5.0
 40
5.0
 40
6.0
 40
6.0
 40
6.0
 40
7.0
 40
7.0
 40
7.0
 40
8.0
 40
8.0
 40
8.0
 40
8.0
 10
91.86898326696331
 20
-164.0092827280949
 10
91.7537448229817
 20
-164.2187445335981
 10
91.56839868587527
 20
-164.237692558767
 10
91.44403073885775
 20
-164.237692558767
 10
91.27212047414378
 20
-164.237692558767
 10
91.12070852756705
 20
-164.1911837697161
 10
91.01890595597791
 20
-164.0092827280949
 10
90.90814613612713
 20
-163.8146348331783
 10
90.88782007276416
 20
-163.5779567733416
 10
90.88782007276416
 20
-163.4150037568893
 10
90.88782007276416
 20
-163.2709987656059
 10
90.90590682406172
 20
-163.0191622856341
 10
91.01890595597791
 20
-162.8203802761352
 10
91.13431665473378
 20
-162.617464152054
 10
91.3060546646735
 20
-162.5940375027543
 10
91.44403073885775
 20
-162.5940375027543
 10
91.61352943673204
 20
-162.5940375027543
 10
91.76735295014845
 20
-162.638479234514
 10
91.86898326696331
 20
-162.8203802761352
 10
91.97526446268327
 20
-163.0129611137607
 10
92.00024140495134
 20
-163.2413709444327
 10
92.00024140495134
 20
-163.4150037568893
 10
92.00024140495134
 20
-163.5862250025062
 10
91.97750377474868
 20
-163.8167018904694
 10
91.86898326696331
 20
-164.0092827280949
 97
        0
 97
        0
 92
        1
 93
        1
 72
     4
 94
        3
 73
     0
 74
     1
 95
       17
 96
       13
 40
0.0
 40
0.0
 40
0.0
 40
0.0
 40
1.0
 40
1.0
 40
1.0
 40
2.0
 40
2.0
 40
2.0
 40
3.0
 40
3.0
 40
3.0
 40
4.0
 40
4.0
 40
4.0
 40
4.0
 10
91.44403073885775
 20
-162.7866183403797
 10
91.17720809352515
 20
-162.7866183403797
 10
91.12742646376329
 20
-163.0701496988158
 10
91.12742646376329
 20
-163.4150037568893
 10
91.12742646376329
 20
-163.734364108372
 10
91.16583927842382
 20
-164.0430446638504
 10
91.44403073885775
 20
-164.0430446638504
 10
91.70844181735067
 20
-164.0430446638504
 10
91.76046275917794
 20
-163.761924872254
 10
91.76046275917794
 20
-163.4150037568893
 10
91.76046275917794
 20
-163.0952988958581
 10
91.719810632452
 20
-162.7866183403797
 10
91.44403073885775
 20
-162.7866183403797
 97
        0
 97
        0
 75
     2
 76
     1
 98
        0
  0
ENDBLK
  5
123
330
120
100
AcDbEntity
  8
0
100
AcDbBlockEnd
  0
BLOCK
  5
130
330
12E
100
AcDbEntity
  8
0
100
AcDbBlockBegin
  2
block 8
 70
     0
 10
0.0
 20
0.0
 30
0.0
  3
block 8
  1

  0
SPLINE
  5
132
330
12E
100
AcDbEntity
  8
_U+30EC_U+30A4_U+30E4_U+30FC 1
370
     0
100
AcDbSpline
210
0.0
220
0.0
230
1.0
 70
    11
 71
     3
 72
    26
 73
    22
 74
     0
 42
0.0000000001
 43
0.0000000001
 12
1.0
 22
0.0
 32
0.0
 13
1.0
 23
0.0
 33
0.0
 40
0.0
 40
0.0
 40
0.0
 40
0.0
 40
1.0
 40
1.0
 40
1.0
 40
2.0
 40
2.0
 40
2.0
 40
3.0
 40
3.0
 40
3.0
 40
4.0
 40
4.0
 40
4.0
 40
5.0
 40
5.0
 40
5.0
 40
6.0
 40
6.0
 40
6.0
 40
7.0
 40
7.0
 40
7.0
 40
7.0
 10
129.1149440866449
 20
-148.944913699743
 30
0.0
 10
129.1149440866449
 20
-148.944913699743
 30
0.0
 10
128.0107909836223
 20
-148.944913699743
 30
0.0
 10
128.0107909836223
 20
-148.944913699743
 30
0.0
 10
128.0107909836223
 20
-148.944913699743
 30
0.0
 10
128.0107909836223
 20
-149.2976914774325
 30
0.0
 10
128.0107909836223
 20
-149.2976914774325
 30
0.0
 10
128.0107909836223
 20
-149.2976914774325
 30
0.0
 10
127.8626518777566
 20
-149.2976914774325
 30
0.0
 10
127.8626518777566
 20
-149.2976914774325
 30
0.0
 10
127.84783796717
 20
-148.9425021329033
 30
0.0
 10
127.6848849507177
 20
-148.8928927579157
 30
0.0
 10
127.5705077806074
 20
-148.8611978794514
 30
0.0
 10
127.5705077806074
 20
-148.8611978794514
 30
0.0
 10
127.5705077806074
 20
-148.7053073087438
 30
0.0
 10
127.5705077806074
 20
-148.7053073087438
 30
0.0
 10
127.5705077806074
 20
-148.7053073087438
 30
0.0
 10
129.1149440866449
 20
-148.7053073087438
 30
0.0
 10
129.1149440866449
 20
-148.7053073087438
 30
0.0
 10
129.1149440866449
 20
-148.7053073087438
 30
0.0
 10
129.1149440866449
 20
-148.944913699743
 30
0.0
 10
129.1149440866449
 20
-148.944913699743
 30
0.0
  0
HATCH
  5
133
330
12E
100
AcDbEntity
  8
_U+30EC_U+30A4_U+30E4_U+30FC 1
 62
   179
420
  2234388
100
AcDbHatch
 10
0.0
 20
0.0
 30
0.0
210
0.0
220
0.0
230
1.0
  2
SOLID
 70
     1
 71
     0
 91
        1
 92
        1
 93
        1
 72
     4
 94
        3
 73
     0
 74
     1
 95
       26
 96
       22
 40
0.0
 40
0.0
 40
0.0
 40
0.0
 40
1.0
 40
1.0
 40
1.0
 40
2.0
 40
2.0
 40
2.0
 40
3.0
 40
3.0
 40
3.0
 40
4.0
 40
4.0
 40
4.0
 40
5.0
 40
5.0
 40
5.0
 40
6.0
 40
6.0
 40
6.0
 40
7.0
 40
7.0
 40
7.0
 40
7.0
 10
129.1149440866449
 20
-148.944913699743
 10
129.1149440866449
 20
-148.944913699743
 10
128.0107909836223
 20
-148.944913699743
 10
128.0107909836223
 20
-148.944913699743
 10
128.0107909836223
 20
-148.944913699743
 10
128.0107909836223
 20
-149.2976914774325
 10
128.0107909836223
 20
-149.2976914774325
 10
128.0107909836223
 20
-149.2976914774325
 10
127.8626518777566
 20
-149.2976914774325
 10
127.8626518777566
 20
-149.2976914774325
 10
127.84783796717
 20
-148.9425021329033
 10
127.6848849507177
 20
-148.8928927579157
 10
127.5705077806074
 20
-148.8611978794514
 10
127.5705077806074
 20
-148.8611978794514
 10
127.5705077806074
 20
-148.7053073087438
 10
127.5705077806074
 20
-148.7053073087438
 10
127.5705077806074
 20
-148.7053073087438
 10
129.1149440866449
 20
-148.7053073087438
 10
129.1149440866449
 20
-148.7053073087438
 10
129.1149440866449
 20
-148.7053073087438
 10
129.1149440866449
 20
-148.944913699743
 10
129.1149440866449
 20
-148.944913699743
 97
        0
 97
        0
 75
     2
 76
     1
 98
        0
  0
ENDBLK
  5
131
330
12E
100
AcDbEntity
  8
0
100
AcDbBlockEnd
  0
ENDSEC
  0
SECTION
  2
ENTITIES
  0
POLYLINE
  5
41
330
1F
100
AcDbEntity
  8
_U+30EC_U+30A4_U+30E4_U+30FC 1
370
     0
100
AcDb2dPolyline
 66
     1
 10
0.0
 20
0.0
 30
0.0
  0
VERTEX
  5
42
330
41
100
AcDbEntity
  8
_U+30EC_U+30A4_U+30E4_U+30FC 1
370
     0
100
AcDbVertex
100
AcDb2dVertex
 10
86.71489433663834
 20
-143.8328334024912
 30
0.0
  0
VERTEX
  5
43
330
41
100
AcDbEntity
  8
_U+30EC_U+30A4_U+30E4_U+30FC 1
370
     0
100
AcDbVertex
100
AcDb2dVertex
 10
88.81462620528116
 20
-143.8328334024912
 30
0.0
  0
VERTEX
  5
44
330
41
100
AcDbEntity
  8
_U+30EC_U+30A4_U+30E4_U+30FC 1
370
     0
100
AcDbVertex
100
AcDb2dVertex
 10
88.81462620528116
 20
-142.8330666926717
 30
0.0
  0
VERTEX
  5
45
330
41
100
AcDbEntity
  8
_U+30EC_U+30A4_U+30E4_U+30FC 1
370
     0
100
AcDbVertex
100
AcDb2dVertex
 10
85.81460475895543
 20
-142.8330666926717
 30
0.0
  0
VERTEX
  5
46
330
41
100
AcDbEntity
  8
_U+30EC_U+30A4_U+30E4_U+30FC 1
370
     0
100
AcDbVertex
100
AcDb2dVertex
 10
85.81460475895543
 20
-160.8328508610776
 30
0.0
  0
VERTEX
  5
47
330
41
100
AcDbEntity
  8
_U+30EC_U+30A4_U+30E4_U+30FC 1
370
     0
100
AcDbVertex
100
AcDb2dVertex
 10
95.81514635869596
 20
-160.8328508610776
 30
0.0
  0
VERTEX
  5
48
330
41
100
AcDbEntity
  8
_U+30EC_U+30A4_U+30E4_U+30FC 1
370
     0
100
AcDbVertex
100
AcDb2dVertex
 10
95.81514635869596
 20
-157.8331739243004
 30
0.0
  0
VERTEX
  5
49
330
41
100
AcDbEntity
  8
_U+30EC_U+30A4_U+30E4_U+30FC 1
370
     0
100
AcDbVertex
100
AcDb2dVertex
 10
92.81512491237022
 20
-157.8331739243004
 30
0.0
  0
VERTEX
  5
4A
330
41
100
AcDbEntity
  8
_U+30EC_U+30A4_U+30E4_U+30FC 1
370
     0
100
AcDbVertex
100
AcDb2dVertex
 10
92.81512491237022
 20
-158.8329514000433
 30
0.0
  0
VERTEX
  5
4B
330
41
100
AcDbEntity
  8
_U+30EC_U+30A4_U+30E4_U+30FC 1
370
     0
100
AcDbVertex
100
AcDb2dVertex
 10
94.81466909793295
 20
-158.8329514000433
 30
0.0
  0
VERTEX
  5
4C
330
41
100
AcDbEntity
  8
_U+30EC_U+30A4_U+30E4_U+30FC 1
370
     0
100
AcDbVertex
100
AcDb2dVertex
 10
94.81466909793295
 20
-159.8327181098628
 30
0.0
  0
VERTEX
  5
4D
330
41
100
AcDbEntity
  8
_U+30EC_U+30A4_U+30E4_U+30FC 1
370
     0
100
AcDbVertex
100
AcDb2dVertex
 10
86.71489433663834
 20
-159.8327181098628
 30
0.0
  0
VERTEX
  5
4E
330
41
100
AcDbEntity
  8
_U+30EC_U+30A4_U+30E4_U+30FC 1
370
     0
100
AcDbVertex
100
AcDb2dVertex
 10
86.71489433663834
 20
-150.8330090463575
 30
0.0
  0
VERTEX
  5
4F
330
41
100
AcDbEntity
  8
_U+30EC_U+30A4_U+30E4_U+30FC 1
370
     0
100
AcDbVertex
100
AcDb2dVertex
 10
125.8146664198945
 20
-150.8330090463575
 30
0.0
  0
VERTEX
  5
50
330
41
100
AcDbEntity
  8
_U+30EC_U+30A4_U+30E4_U+30FC 1
370
     0
100
AcDbVertex
100
AcDb2dVertex
 10
125.8146664198945
 20
-149.9327194686746
 30
0.0
  0
VERTEX
  5
51
330
41
100
AcDbEntity
  8
_U+30EC_U+30A4_U+30E4_U+30FC 1
370
     0
100
AcDbVertex
100
AcDb2dVertex
 10
86.71489433663834
 20
-149.9327194686746
 30
0.0
  0
VERTEX
  5
52
330
41
100
AcDbEntity
  8
_U+30EC_U+30A4_U+30E4_U+30FC 1
370
     0
100
AcDbVertex
100
AcDb2dVertex
 10
86.71489433663834
 20
-143.8328334024912
 30
0.0
  0
SEQEND
  5
54
330
41
100
AcDbEntity
  8
_U+30EC_U+30A4_U+30E4_U+30FC 1
370
     0
  0
HATCH
  5
53
330
1F
100
AcDbEntity
  8
_U+30EC_U+30A4_U+30E4_U+30FC 1
 62
     9
420
 13224394
100
AcDbHatch
 10
0.0
 20
0.0
 30
0.0
210
0.0
220
0.0
230
1.0
  2
SOLID
 70
     1
 71
     0
 91
        1
 92
        1
 93
       16
 72
     1
 10
86.71489433663834
 20
-143.8328334024912
 11
88.81462620528116
 21
-143.8328334024912
 72
     1
 10
88.81462620528116
 20
-143.8328334024912
 11
88.81462620528116
 21
-142.8330666926717
 72
     1
 10
88.81462620528116
 20
-142.8330666926717
 11
85.81460475895543
 21
-142.8330666926717
 72
     1
 10
85.81460475895543
 20
-142.8330666926717
 11
85.81460475895543
 21
-160.8328508610776
 72
     1
 10
85.81460475895543
 20
-160.8328508610776
 11
95.81514635869596
 21
-160.8328508610776
 72
     1
 10
95.81514635869596
 20
-160.8328508610776
 11
95.81514635869596
 21
-157.8331739243004
 72
     1
 10
95.81514635869596
 20
-157.8331739243004
 11
92.81512491237022
 21
-157.8331739243004
 72
     1
 10
92.81512491237022
 20
-157.8331739243004
 11
92.81512491237022
 21
-158.8329514000433
 72
     1
 10
92.81512491237022
 20
-158.8329514000433
 11
94.81466909793295
 21
-158.8329514000433
 72
     1
 10
94.81466909793295
 20
-158.8329514000433
 11
94.81466909793295
 21
-159.8327181098628
 72
     1
 10
94.81466909793295
 20
-159.8327181098628
 11
86.71489433663834
 21
-159.8327181098628
 72
     1
 10
86.71489433663834
 20
-159.8327181098628
 11
86.71489433663834
 21
-150.8330090463575
 72
     1
 10
86.71489433663834
 20
-150.8330090463575
 11
125.8146664198945
 21
-150.8330090463575
 72
     1
 10
125.8146664198945
 20
-150.8330090463575
 11
125.8146664198945
 21
-149.9327194686746
 72
     1
 10
125.8146664198945
 20
-149.9327194686746
 11
86.71489433663834
 21
-149.9327194686746
 72
     1
 10
86.71489433663834
 20
-149.9327194686746
 11
86.71489433663834
 21
-143.8328334024912
 97
        0
 75
     2
 76
     1
 98
        0
  0
POLYLINE
  5
55
330
1F
100
AcDbEntity
  8
_U+30EC_U+30A4_U+30E4_U+30FC 1
 62
   179
420
  2234388
370
    25
100
AcDb2dPolyline
 66
     1
 10
0.0
 20
0.0
 30
0.0
  0
VERTEX
  5
56
330
55
100
AcDbEntity
  8
_U+30EC_U+30A4_U+30E4_U+30FC 1
 62
   179
420
  2234388
370
    25
100
AcDbVertex
100
AcDb2dVertex
 10
86.71489433663834
 20
-150.8329336848938
 30
0.0
  0
VERTEX
  5
57
330
55
100
AcDbEntity
  8
_U+30EC_U+30A4_U+30E4_U+30FC 1
 62
   179
420
  2234388
370
    25
100
AcDbVertex
100
AcDb2dVertex
 10
125.8146664198945
 20
-150.8329336848938
 30
0.0
  0
SEQEND
  5
58
330
55
100
AcDbEntity
  8
_U+30EC_U+30A4_U+30E4_U+30FC 1
 62
   179
420
  2234388
370
    25
  0
POLYLINE
  5
59
330
1F
100
AcDbEntity
  8
_U+30EC_U+30A4_U+30E4_U+30FC 1
 62
   179
420
  2234388
370
    25
100
AcDb2dPolyline
 66
     1
 10
0.0
 20
0.0
 30
0.0
  0
VERTEX
  5
5A
330
59
100
AcDbEntity
  8
_U+30EC_U+30A4_U+30E4_U+30FC 1
 62
   179
420
  2234388
370
    25
100
AcDbVertex
100
AcDb2dVertex
 10
92.81513029533193
 20
-157.8330016695261
 30
0.0
  0
VERTEX
  5
5B
330
59
100
AcDbEntity
  8
_U+30EC_U+30A4_U+30E4_U+30FC 1
 62
   179
420
  2234388
370
    25
100
AcDbVertex
100
AcDb2dVertex
 10
95.81515174165766
 20
-157.8330016695261
 30
0.0
  0
SEQEND
  5
5C
330
59
100
AcDbEntity
  8
_U+30EC_U+30A4_U+30E4_U+30FC 1
 62
   179
420
  2234388
370
    25
  0
POLYLINE
  5
5D
330
1F
100
AcDbEntity
  8
_U+30EC_U+30A4_U+30E4_U+30FC 1
 62
   179
420
  2234388
370
    25
100
AcDb2dPolyline
 66
     1
 10
0.0
 20
0.0
 30
0.0
  0
VERTEX
  5
5E
330
5D
100
AcDbEntity
  8
_U+30EC_U+30A4_U+30E4_U+30FC 1
 62
   179
420
  2234388
370
    25
100
AcDbVertex
100
AcDb2dVertex
 10
85.81471241818934
 20
-160.8329800521583
 30
0.0
  0
VERTEX
  5
5F
330
5D
100
AcDbEntity
  8
_U+30EC_U+30A4_U+30E4_U+30FC 1
 62
   179
420
  2234388
370
    25
100
AcDbVertex
100
AcDb2dVertex
 10
95.81525401792987
 20
-160.8329800521583
 30
0.0
  0
SEQEND
  5
60
330
5D
100
AcDbEntity
  8
_U+30EC_U+30A4_U+30E4_U+30FC 1
 62
   179
420
  2234388
370
    25
  0
POLYLINE
  5
61
330
1F
100
AcDbEntity
  8
_U+30EC_U+30A4_U+30E4_U+30FC 1
 62
   179
420
  2234388
370
    25
100
AcDb2dPolyline
 66
     1
 10
0.0
 20
0.0
 30
0.0
  0
VERTEX
  5
62
330
61
100
AcDbEntity
  8
_U+30EC_U+30A4_U+30E4_U+30FC 1
 62
   179
420
  2234388
370
    25
100
AcDbVertex
100
AcDb2dVertex
 10
85.81471241818934
 20
-142.8330666926717
 30
0.0
  0
VERTEX
  5
63
330
61
100
AcDbEntity
  8
_U+30EC_U+30A4_U+30E4_U+30FC 1
 62
   179
420
  2234388
370
    25
100
AcDbVertex
100
AcDb2dVertex
 10
85.81471241818934
 20
-160.8328508610776
 30
0.0
  0
SEQEND
  5
64
330
61
100
AcDbEntity
  8
_U+30EC_U+30A4_U+30E4_U+30FC 1
 62
   179
420
  2234388
370
    25
  0
POLYLINE
  5
65
330
1F
100
AcDbEntity
  8
_U+30EC_U+30A4_U+30E4_U+30FC 1
 62
   179
420
  2234388
370
    25
100
AcDb2dPolyline
 66
     1
 10
0.0
 20
0.0
 30
0.0
  0
VERTEX
  5
66
330
65
100
AcDbEntity
  8
_U+30EC_U+30A4_U+30E4_U+30FC 1
 62
   179
420
  2234388
370
    25
100
AcDbVertex
100
AcDb2dVertex
 10
125.8146664198945
 20
-149.9327194686746
 30
0.0
  0
VERTEX
  5
67
330
65
100
AcDbEntity
  8
_U+30EC_U+30A4_U+30E4_U+30FC 1
 62
   179
420
  2234388
370
    25
100
AcDbVertex
100
AcDb2dVertex
 10
125.8146664198945
 20
-150.8330090463575
 30
0.0
  0
SEQEND
  5
68
330
65
100
AcDbEntity
  8
_U+30EC_U+30A4_U+30E4_U+30FC 1
 62
   179
420
  2234388
370
    25
  0
POLYLINE
  5
69
330
1F
100
AcDbEntity
  8
_U+30EC_U+30A4_U+30E4_U+30FC 1
 62
   179
420
  2234388
370
    25
100
AcDb2dPolyline
 66
     1
 10
0.0
 20
0.0
 30
0.0
  0
VERTEX
  5
6A
330
69
100
AcDbEntity
  8
_U+30EC_U+30A4_U+30E4_U+30FC 1
 62
   179
420
  2234388
370
    25
100
AcDbVertex
100
AcDb2dVertex
 10
85.81471241818934
 20
-142.8330666926717
 30
0.0
  0
VERTEX
  5
6B
330
69
100
AcDbEntity
  8
_U+30EC_U+30A4_U+30E4_U+30FC 1
 62
   179
420
  2234388
370
    25
100
AcDbVertex
100
AcDb2dVertex
 10
88.81473386451508
 20
-142.8330666926717
 30
0.0
  0
SEQEND
  5
6C
330
69
100
AcDbEntity
  8
_U+30EC_U+30A4_U+30E4_U+30FC 1
 62
   179
420
  2234388
370
    25
  0
POLYLINE
  5
6D
330
1F
100
AcDbEntity
  8
_U+30EC_U+30A4_U+30E4_U+30FC 1
 62
   179
420
  2234388
370
    25
100
AcDb2dPolyline
 66
     1
 10
0.0
 20
0.0
 30
0.0
  0
VERTEX
  5
6E
330
6D
100
AcDbEntity
  8
_U+30EC_U+30A4_U+30E4_U+30FC 1
 62
   179
420
  2234388
370
    25
100
AcDbVertex
100
AcDb2dVertex
 10
88.81466388601302
 20
-142.8330666926717
 30
0.0
  0
VERTEX
  5
6F
330
6D
100
AcDbEntity
  8
_U+30EC_U+30A4_U+30E4_U+30FC 1
 62
   179
420
  2234388
370
    25
100
AcDbVertex
100
AcDb2dVertex
 10
88.81466388601302
 20
-143.8328441684146
 30
0.0
  0
SEQEND
  5
70
330
6D
100
AcDbEntity
  8
_U+30EC_U+30A4_U+30E4_U+30FC 1
 62
   179
420
  2234388
370
    25
  0
POLYLINE
  5
71
330
1F
100
AcDbEntity
  8
_U+30EC_U+30A4_U+30E4_U+30FC 1
 62
   179
420
  2234388
370
    25
100
AcDb2dPolyline
 66
     1
 10
0.0
 20
0.0
 30
0.0
  0
VERTEX
  5
72
330
71
100
AcDbEntity
  8
_U+30EC_U+30A4_U+30E4_U+30FC 1
 62
   179
420
  2234388
370
    25
100
AcDbVertex
100
AcDb2dVertex
 10
86.71489433663834
 20
-143.8328334024912
 30
0.0
  0
VERTEX
  5
73
330
71
100
AcDbEntity
  8
_U+30EC_U+30A4_U+30E4_U+30FC 1
 62
   179
420
  2234388
370
    25
100
AcDbVertex
100
AcDb2dVertex
 10
88.81462620528116
 20
-143.8328334024912
 30
0.0
  0
SEQEND
  5
74
330
71
100
AcDbEntity
  8
_U+30EC_U+30A4_U+30E4_U+30FC 1
 62
   179
420
  2234388
370
    25
  0
POLYLINE
  5
75
330
1F
100
AcDbEntity
  8
_U+30EC_U+30A4_U+30E4_U+30FC 1
 62
   179
420
  2234388
370
    25
100
AcDb2dPolyline
 66
     1
 10
0.0
 20
0.0
 30
0.0
  0
VERTEX
  5
76
330
75
100
AcDbEntity
  8
_U+30EC_U+30A4_U+30E4_U+30FC 1
 62
   179
420
  2234388
370
    25
100
AcDbVertex
100
AcDb2dVertex
 10
95.81511406092578
 20
-157.8330016695261
 30
0.0
  0
VERTEX
  5
77
330
75
100
AcDbEntity
  8
_U+30EC_U+30A4_U+30E4_U+30FC 1
 62
   179
420
  2234388
370
    25
100
AcDbVertex
100
AcDb2dVertex
 10
95.81511406092578
 20
-160.8330338817753
 30
0.0
  0
SEQEND
  5
78
330
75
100
AcDbEntity
  8
_U+30EC_U+30A4_U+30E4_U+30FC 1
 62
   179
420
  2234388
370
    25
  0
POLYLINE
  5
79
330
1F
100
AcDbEntity
  8
_U+30EC_U+30A4_U+30E4_U+30FC 1
 62
   179
420
  2234388
370
    25
100
AcDb2dPolyline
 66
     1
 10
0.0
 20
0.0
 30
0.0
  0
VERTEX
  5
7A
330
79
100
AcDbEntity
  8
_U+30EC_U+30A4_U+30E4_U+30FC 1
 62
   179
420
  2234388
370
    25
100
AcDbVertex
100
AcDb2dVertex
 10
92.81513029533193
 20
-157.8330016695261
 30
0.0
  0
VERTEX
  5
7B
330
79
100
AcDbEntity
  8
_U+30EC_U+30A4_U+30E4_U+30FC 1
 62
   179
420
  2234388
370
    25
100
AcDbVertex
100
AcDb2dVertex
 10
92.81513029533193
 20
-158.832779145269
 30
0.0
  0
SEQEND
  5
7C
330
79
100
AcDbEntity
  8
_U+30EC_U+30A4_U+30E4_U+30FC 1
 62
   179
420
  2234388
370
    25
  0
POLYLINE
  5
7D
330
1F
100
AcDbEntity
  8
_U+30EC_U+30A4_U+30E4_U+30FC 1
 62
   179
420
  2234388
370
    25
100
AcDb2dPolyline
 66
     1
 10
0.0
 20
0.0
 30
0.0
  0
VERTEX
  5
7E
330
7D
100
AcDbEntity
  8
_U+30EC_U+30A4_U+30E4_U+30FC 1
 62
   179
420
  2234388
370
    25
100
AcDbVertex
100
AcDb2dVertex
 10
92.81513029533193
 20
-158.8327683793456
 30
0.0
  0
VERTEX
  5
7F
330
7D
100
AcDbEntity
  8
_U+30EC_U+30A4_U+30E4_U+30FC 1
 62
   179
420
  2234388
370
    25
100
AcDbVertex
100
AcDb2dVertex
 10
94.81467448089431
 20
-158.8327683793456
 30
0.0
  0
SEQEND
  5
80
330
7D
100
AcDbEntity
  8
_U+30EC_U+30A4_U+30E4_U+30FC 1
 62
   179
420
  2234388
370
    25
  0
POLYLINE
  5
81
330
1F
100
AcDbEntity
  8
_U+30EC_U+30A4_U+30E4_U+30FC 1
 62
   179
420
  2234388
370
    25
100
AcDb2dPolyline
 66
     1
 10
0.0
 20
0.0
 30
0.0
  0
VERTEX
  5
82
330
81
100
AcDbEntity
  8
_U+30EC_U+30A4_U+30E4_U+30FC 1
 62
   179
420
  2234388
370
    25
100
AcDbVertex
100
AcDb2dVertex
 10
86.71489433663834
 20
-159.8328903646371
 30
0.0
  0
VERTEX
  5
83
330
81
100
AcDbEntity
  8
_U+30EC_U+30A4_U+30E4_U+30FC 1
 62
   179
420
  2234388
370
    25
100
AcDbVertex
100
AcDb2dVertex
 10
94.81466909793295
 20
-159.8328903646371
 30
0.0
  0
SEQEND
  5
84
330
81
100
AcDbEntity
  8
_U+30EC_U+30A4_U+30E4_U+30FC 1
 62
   179
420
  2234388
370
    25
  0
POLYLINE
  5
85
330
1F
100
AcDbEntity
  8
_U+30EC_U+30A4_U+30E4_U+30FC 1
 62
   179
420
  2234388
370
    25
100
AcDb2dPolyline
 66
     1
 10
0.0
 20
0.0
 30
0.0
  0
VERTEX
  5
86
330
85
100
AcDbEntity
  8
_U+30EC_U+30A4_U+30E4_U+30FC 1
 62
   179
420
  2234388
370
    25
100
AcDbVertex
100
AcDb2dVertex
 10
94.81467448089431
 20
-158.8327683793456
 30
0.0
  0
VERTEX
  5
87
330
85
100
AcDbEntity
  8
_U+30EC_U+30A4_U+30E4_U+30FC 1
 62
   179
420
  2234388
370
    25
100
AcDbVertex
100
AcDb2dVertex
 10
94.81467448089431
 20
-159.8329011305605
 30
0.0
  0
SEQEND
  5
88
330
85
100
AcDbEntity
  8
_U+30EC_U+30A4_U+30E4_U+30FC 1
 62
   179
420
  2234388
370
    25
  0
POLYLINE
  5
89
330
1F
100
AcDbEntity
  8
_U+30EC_U+30A4_U+30E4_U+30FC 1
 62
   179
420
  2234388
370
    25
100
AcDb2dPolyline
 66
     1
 10
0.0
 20
0.0
 30
0.0
  0
VERTEX
  5
8A
330
89
100
AcDbEntity
  8
_U+30EC_U+30A4_U+30E4_U+30FC 1
 62
   179
420
  2234388
370
    25
100
AcDbVertex
100
AcDb2dVertex
 10
86.71489433663834
 20
-149.9327194686746
 30
0.0
  0
VERTEX
  5
8B
330
89
100
AcDbEntity
  8
_U+30EC_U+30A4_U+30E4_U+30FC 1
 62
   179
420
  2234388
370
    25
100
AcDbVertex
100
AcDb2dVertex
 10
125.8146664198945
 20
-149.9327194686746
 30
0.0
  0
SEQEND
  5
8C
330
89
100
AcDbEntity
  8
_U+30EC_U+30A4_U+30E4_U+30FC 1
 62
   179
420
  2234388
370
    25
  0
POLYLINE
  5
8D
330
1F
100
AcDbEntity
  8
_U+30EC_U+30A4_U+30E4_U+30FC 1
 62
   179
420
  2234388
370
    25
100
AcDb2dPolyline
 66
     1
 10
0.0
 20
0.0
 30
0.0
  0
VERTEX
  5
8E
330
8D
100
AcDbEntity
  8
_U+30EC_U+30A4_U+30E4_U+30FC 1
 62
   179
420
  2234388
370
    25
100
AcDbVertex
100
AcDb2dVertex
 10
86.71489433663834
 20
-143.8328334024912
 30
0.0
  0
VERTEX
  5
8F
330
8D
100
AcDbEntity
  8
_U+30EC_U+30A4_U+30E4_U+30FC 1
 62
   179
420
  2234388
370
    25
100
AcDbVertex
100
AcDb2dVertex
 10
86.71489433663834
 20
-149.9327194686746
 30
0.0
  0
SEQEND
  5
90
330
8D
100
AcDbEntity
  8
_U+30EC_U+30A4_U+30E4_U+30FC 1
 62
   179
420
  2234388
370
    25
  0
POLYLINE
  5
91
330
1F
100
AcDbEntity
  8
_U+30EC_U+30A4_U+30E4_U+30FC 1
 62
   179
420
  2234388
370
    25
100
AcDb2dPolyline
 66
     1
 10
0.0
 20
0.0
 30
0.0
  0
VERTEX
  5
92
330
91
100
AcDbEntity
  8
_U+30EC_U+30A4_U+30E4_U+30FC 1
 62
   179
420
  2234388
370
    25
100
AcDbVertex
100
AcDb2dVertex
 10
86.71489433663834
 20
-150.8329336848938
 30
0.0
  0
VERTEX
  5
93
330
91
100
AcDbEntity
  8
_U+30EC_U+30A4_U+30E4_U+30FC 1
 62
   179
420
  2234388
370
    25
100
AcDbVertex
100
AcDb2dVertex
 10
86.71489433663834
 20
-159.8330087897943
 30
0.0
  0
SEQEND
  5
94
330
91
100
AcDbEntity
  8
_U+30EC_U+30A4_U+30E4_U+30FC 1
 62
   179
420
  2234388
370
    25
  0
SPLINE
  5
95
330
1F
100
AcDbEntity
  8
_U+30EC_U+30A4_U+30E4_U+30FC 1
 62
   179
420
  2234388
370
     9
100
AcDbSpline
210
0.0
220
0.0
230
1.0
 70
    11
 71
     3
 72
    17
 73
    13
 74
     0
 42
0.0000000001
 43
0.0000000001
 12
1.0
 22
0.0
 32
0.0
 13
1.0
 23
0.0
 33
0.0
 40
0.0
 40
0.0
 40
0.0
 40
0.0
 40
1.0
 40
1.0
 40
1.0
 40
2.0
 40
2.0
 40
2.0
 40
3.0
 40
3.0
 40
3.0
 40
4.0
 40
4.0
 40
4.0
 40
4.0
 10
85.9149700797718
 20
-134.832876722748
 30
0.0
 10
85.9149700797718
 20
-134.7774968128226
 30
0.0
 10
85.87016499809762
 20
-134.7330443151394
 30
0.0
 10
85.81477970521054
 20
-134.7330443151394
 30
0.0
 10
85.75974699631452
 20
-134.7330443151394
 30
0.0
 10
85.71494460612118
 20
-134.7774968128226
 30
0.0
 10
85.71494460612118
 20
-134.832876722748
 30
0.0
 10
85.71494460612118
 20
-134.8882673985967
 30
0.0
 10
85.75974699631452
 20
-134.9330751717518
 30
0.0
 10
85.81477970521054
 20
-134.9330751717518
 30
0.0
 10
85.87016499809762
 20
-134.9330751717518
 30
0.0
 10
85.9149700797718
 20
-134.8882673985967
 30
0.0
 10
85.9149700797718
 20
-134.832876722748
 30
0.0
  0
SPLINE
  5
96
330
1F
100
AcDbEntity
  8
_U+30EC_U+30A4_U+30E4_U+30FC 1
 62
   179
420
  2234388
370
     9
100
AcDbSpline
210
0.0
220
0.0
230
1.0
 70
    11
 71
     3
 72
    17
 73
    13
 74
     0
 42
0.0000000001
 43
0.0000000001
 12
1.0
 22
0.0
 32
0.0
 13
1.0
 23
0.0
 33
0.0
 40
0.0
 40
0.0
 40
0.0
 40
0.0
 40
1.0
 40
1.0
 40
1.0
 40
2.0
 40
2.0
 40
2.0
 40
3.0
 40
3.0
 40
3.0
 40
4.0
 40
4.0
 40
4.0
 40
4.0
 10
85.9149700797718
 20
-138.8329878565949
 30
0.0
 10
85.9149700797718
 20
-138.7776079466695
 30
0.0
 10
85.87016499809762
 20
-138.7328001735145
 30
0.0
 10
85.81477970521054
 20
-138.7328001735145
 30
0.0
 10
85.75974699631452
 20
-138.7328001735145
 30
0.0
 10
85.71494460612118
 20
-138.7776079466695
 30
0.0
 10
85.71494460612118
 20
-138.8329878565949
 30
0.0
 10
85.71494460612118
 20
-138.8880232569718
 30
0.0
 10
85.75974699631452
 20
-138.9328310301268
 30
0.0
 10
85.81477970521054
 20
-138.9328310301268
 30
0.0
 10
85.87016499809762
 20
-138.9328310301268
 30
0.0
 10
85.9149700797718
 20
-138.8880232569718
 30
0.0
 10
85.9149700797718
 20
-138.8329878565949
 30
0.0
  0
SPLINE
  5
97
330
1F
100
AcDbEntity
  8
_U+30EC_U+30A4_U+30E4_U+30FC 1
 62
   179
420
  2234388
370
     9
100
AcDbSpline
210
0.0
220
0.0
230
1.0
 70
    11
 71
     3
 72
    17
 73
    13
 74
     0
 42
0.0000000001
 43
0.0000000001
 12
1.0
 22
0.0
 32
0.0
 13
1.0
 23
0.0
 33
0.0
 40
0.0
 40
0.0
 40
0.0
 40
0.0
 40
1.0
 40
1.0
 40
1.0
 40
2.0
 40
2.0
 40
2.0
 40
3.0
 40
3.0
 40
3.0
 40
4.0
 40
4.0
 40
4.0
 40
4.0
 10
88.91495653684652
 20
-138.8329878565949
 30
0.0
 10
88.91495653684652
 20
-138.7776079466695
 30
0.0
 10
88.87015145517233
 20
-138.7328001735145
 30
0.0
 10
88.81476616228524
 20
-138.7328001735145
 30
0.0
 10
88.75973345338923
 20
-138.7328001735145
 30
0.0
 10
88.71493106319589
 20
-138.7776079466695
 30
0.0
 10
88.71493106319589
 20
-138.8329878565949
 30
0.0
 10
88.71493106319589
 20
-138.8880232569718
 30
0.0
 10
88.75973345338923
 20
-138.9328310301268
 30
0.0
 10
88.81476616228524
 20
-138.9328310301268
 30
0.0
 10
88.87015145517233
 20
-138.9328310301268
 30
0.0
 10
88.91495653684652
 20
-138.8880232569718
 30
0.0
 10
88.91495653684652
 20
-138.8329878565949
 30
0.0
  0
SPLINE
  5
98
330
1F
100
AcDbEntity
  8
_U+30EC_U+30A4_U+30E4_U+30FC 1
 62
   179
420
  2234388
370
     9
100
AcDbSpline
210
0.0
220
0.0
230
1.0
 70
    11
 71
     3
 72
    17
 73
    13
 74
     0
 42
0.0000000001
 43
0.0000000001
 12
1.0
 22
0.0
 32
0.0
 13
1.0
 23
0.0
 33
0.0
 40
0.0
 40
0.0
 40
0.0
 40
0.0
 40
1.0
 40
1.0
 40
1.0
 40
2.0
 40
2.0
 40
2.0
 40
3.0
 40
3.0
 40
3.0
 40
4.0
 40
4.0
 40
4.0
 40
4.0
 10
125.9145741889668
 20
-134.832876722748
 30
0.0
 10
125.9145741889668
 20
-134.7774968128226
 30
0.0
 10
125.8697664158118
 20
-134.7330443151394
 30
0.0
 10
125.8147363983966
 20
-134.7330443151394
 30
0.0
 10
125.7597009980197
 20
-134.7330443151394
 30
0.0
 10
125.7148986078264
 20
-134.7774968128226
 30
0.0
 10
125.7148986078264
 20
-134.832876722748
 30
0.0
 10
125.7148986078264
 20
-134.8882673985967
 30
0.0
 10
125.7597009980197
 20
-134.9330751717518
 30
0.0
 10
125.8147363983966
 20
-134.9330751717518
 30
0.0
 10
125.8697664158118
 20
-134.9330751717518
 30
0.0
 10
125.9145741889668
 20
-134.8882673985967
 30
0.0
 10
125.9145741889668
 20
-134.832876722748
 30
0.0
  0
SPLINE
  5
99
330
1F
100
AcDbEntity
  8
_U+30EC_U+30A4_U+30E4_U+30FC 1
 62
   179
420
  2234388
370
     9
100
AcDbSpline
210
0.0
220
0.0
230
1.0
 70
    11
 71
     3
 72
    17
 73
    13
 74
     0
 42
0.0000000001
 43
0.0000000001
 12
1.0
 22
0.0
 32
0.0
 13
1.0
 23
0.0
 33
0.0
 40
0.0
 40
0.0
 40
0.0
 40
0.0
 40
1.0
 40
1.0
 40
1.0
 40
2.0
 40
2.0
 40
2.0
 40
3.0
 40
3.0
 40
3.0
 40
4.0
 40
4.0
 40
4.0
 40
4.0
 10
129.9146853228138
 20
-150.8329336848938
 30
0.0
 10
129.9146853228138
 20
-150.7775537749684
 30
0.0
 10
129.8698775496587
 20
-150.7327460018134
 30
0.0
 10
129.8148475322436
 20
-150.7327460018134
 30
0.0
 10
129.7598121318667
 20
-150.7327460018134
 30
0.0
 10
129.7150097416734
 20
-150.7775537749684
 30
0.0
 10
129.7150097416734
 20
-150.8329336848938
 30
0.0
 10
129.7150097416734
 20
-150.8879690852706
 30
0.0
 10
129.7598121318667
 20
-150.9327768584257
 30
0.0
 10
129.8148475322436
 20
-150.9327768584257
 30
0.0
 10
129.8698775496587
 20
-150.9327768584257
 30
0.0
 10
129.9146853228138
 20
-150.8879690852706
 30
0.0
 10
129.9146853228138
 20
-150.8329336848938
 30
0.0
  0
SPLINE
  5
9A
330
1F
100
AcDbEntity
  8
_U+30EC_U+30A4_U+30E4_U+30FC 1
 62
   179
420
  2234388
370
     9
100
AcDbSpline
210
0.0
220
0.0
230
1.0
 70
    11
 71
     3
 72
    17
 73
    13
 74
     0
 42
0.0000000001
 43
0.0000000001
 12
1.0
 22
0.0
 32
0.0
 13
1.0
 23
0.0
 33
0.0
 40
0.0
 40
0.0
 40
0.0
 40
0.0
 40
1.0
 40
1.0
 40
1.0
 40
2.0
 40
2.0
 40
2.0
 40
3.0
 40
3.0
 40
3.0
 40
4.0
 40
4.0
 40
4.0
 40
4.0
 10
129.9146853228138
 20
-157.8330016695261
 30
0.0
 10
129.9146853228138
 20
-157.7776217596007
 30
0.0
 10
129.8698775496587
 20
-157.7328139864457
 30
0.0
 10
129.8148475322436
 20
-157.7328139864457
 30
0.0
 10
129.7598121318667
 20
-157.7328139864457
 30
0.0
 10
129.7150097416734
 20
-157.7776217596007
 30
0.0
 10
129.7150097416734
 20
-157.8330016695261
 30
0.0
 10
129.7150097416734
 20
-157.888037069903
 30
0.0
 10
129.7598121318667
 20
-157.932844843058
 30
0.0
 10
129.8148475322436
 20
-157.932844843058
 30
0.0
 10
129.8698775496587
 20
-157.932844843058
 30
0.0
 10
129.9146853228138
 20
-157.888037069903
 30
0.0
 10
129.9146853228138
 20
-157.8330016695261
 30
0.0
  0
SPLINE
  5
9B
330
1F
100
AcDbEntity
  8
_U+30EC_U+30A4_U+30E4_U+30FC 1
 62
   179
420
  2234388
370
     9
100
AcDbSpline
210
0.0
220
0.0
230
1.0
 70
    11
 71
     3
 72
    17
 73
    13
 74
     0
 42
0.0000000001
 43
0.0000000001
 12
1.0
 22
0.0
 32
0.0
 13
1.0
 23
0.0
 33
0.0
 40
0.0
 40
0.0
 40
0.0
 40
0.0
 40
1.0
 40
1.0
 40
1.0
 40
2.0
 40
2.0
 40
2.0
 40
3.0
 40
3.0
 40
3.0
 40
4.0
 40
4.0
 40
4.0
 40
4.0
 10
129.9146853228138
 20
-160.8329800521583
 30
0.0
 10
129.9146853228138
 20
-160.7776001422329
 30
0.0
 10
129.8698775496587
 20
-160.7327923690779
 30
0.0
 10
129.8148475322436
 20
-160.7327923690779
 30
0.0
 10
129.7598121318667
 20
-160.7327923690779
 30
0.0
 10
129.7150097416734
 20
-160.7776001422329
 30
0.0
 10
129.7150097416734
 20
-160.8329800521583
 30
0.0
 10
129.7150097416734
 20
-160.8880154525352
 30
0.0
 10
129.7598121318667
 20
-160.9328232256902
 30
0.0
 10
129.8148475322436
 20
-160.9328232256902
 30
0.0
 10
129.8698775496587
 20
-160.9328232256902
 30
0.0
 10
129.9146853228138
 20
-160.8880154525352
 30
0.0
 10
129.9146853228138
 20
-160.8329800521583
 30
0.0
  0
SPLINE
  5
9C
330
1F
100
AcDbEntity
  8
_U+30EC_U+30A4_U+30E4_U+30FC 1
 62
   179
420
  2234388
370
     9
100
AcDbSpline
210
0.0
220
0.0
230
1.0
 70
    11
 71
     3
 72
    17
 73
    13
 74
     0
 42
0.0000000001
 43
0.0000000001
 12
1.0
 22
0.0
 32
0.0
 13
1.0
 23
0.0
 33
0.0
 40
0.0
 40
0.0
 40
0.0
 40
0.0
 40
1.0
 40
1.0
 40
1.0
 40
2.0
 40
2.0
 40
2.0
 40
3.0
 40
3.0
 40
3.0
 40
4.0
 40
4.0
 40
4.0
 40
4.0
 10
85.9149700797718
 20
-164.8327036127632
 30
0.0
 10
85.9149700797718
 20
-164.7776789783097
 30
0.0
 10
85.87016499809762
 20
-164.7328712051547
 30
0.0
 10
85.81477970521054
 20
-164.7328712051547
 30
0.0
 10
85.75974699631452
 20
-164.7328712051547
 30
0.0
 10
85.71494460612118
 20
-164.7776789783097
 30
0.0
 10
85.71494460612118
 20
-164.8327036127632
 30
0.0
 10
85.71494460612118
 20
-164.888094288612
 30
0.0
 10
85.75974699631452
 20
-164.932902061767
 30
0.0
 10
85.81477970521054
 20
-164.932902061767
 30
0.0
 10
85.87016499809762
 20
-164.932902061767
 30
0.0
 10
85.9149700797718
 20
-164.888094288612
 30
0.0
 10
85.9149700797718
 20
-164.8327036127632
 30
0.0
  0
SPLINE
  5
9D
330
1F
100
AcDbEntity
  8
_U+30EC_U+30A4_U+30E4_U+30FC 1
 62
   179
420
  2234388
370
     9
100
AcDbSpline
210
0.0
220
0.0
230
1.0
 70
    11
 71
     3
 72
    17
 73
    13
 74
     0
 42
0.0000000001
 43
0.0000000001
 12
1.0
 22
0.0
 32
0.0
 13
1.0
 23
0.0
 33
0.0
 40
0.0
 40
0.0
 40
0.0
 40
0.0
 40
1.0
 40
1.0
 40
1.0
 40
2.0
 40
2.0
 40
2.0
 40
3.0
 40
3.0
 40
3.0
 40
4.0
 40
4.0
 40
4.0
 40
4.0
 10
95.9150541277682
 20
-164.8327036127632
 30
0.0
 10
95.9150541277682
 20
-164.7776789783097
 30
0.0
 10
95.8702463546135
 20
-164.7328712051547
 30
0.0
 10
95.815216337198
 20
-164.7328712051547
 30
0.0
 10
95.76018093682113
 20
-164.7328712051547
 30
0.0
 10
95.7153785466278
 20
-164.7776789783097
 30
0.0
 10
95.7153785466278
 20
-164.8327036127632
 30
0.0
 10
95.7153785466278
 20
-164.888094288612
 30
0.0
 10
95.76018093682113
 20
-164.932902061767
 30
0.0
 10
95.815216337198
 20
-164.932902061767
 30
0.0
 10
95.8702463546135
 20
-164.932902061767
 30
0.0
 10
95.9150541277682
 20
-164.888094288612
 30
0.0
 10
95.9150541277682
 20
-164.8327036127632
 30
0.0
  0
SPLINE
  5
9E
330
1F
100
AcDbEntity
  8
_U+30EC_U+30A4_U+30E4_U+30FC 1
 62
   179
420
  2234388
370
     9
100
AcDbSpline
210
0.0
220
0.0
230
1.0
 70
    11
 71
     3
 72
    17
 73
    13
 74
     0
 42
0.0000000001
 43
0.0000000001
 12
1.0
 22
0.0
 32
0.0
 13
1.0
 23
0.0
 33
0.0
 40
0.0
 40
0.0
 40
0.0
 40
0.0
 40
1.0
 40
1.0
 40
1.0
 40
2.0
 40
2.0
 40
2.0
 40
3.0
 40
3.0
 40
3.0
 40
4.0
 40
4.0
 40
4.0
 40
4.0
 10
81.91485894592482
 20
-142.8330666926717
 30
0.0
 10
81.91485894592482
 20
-142.7776867827463
 30
0.0
 10
81.87005386425065
 20
-142.7328790095913
 30
0.0
 10
81.81502115535463
 20
-142.7328790095913
 30
0.0
 10
81.7599884464586
 20
-142.7328790095913
 30
0.0
 10
81.71518605626527
 20
-142.7776867827463
 30
0.0
 10
81.71518605626527
 20
-142.8330666926717
 30
0.0
 10
81.71518605626527
 20
-142.8881020930486
 30
0.0
 10
81.7599884464586
 20
-142.9329098662036
 30
0.0
 10
81.81502115535463
 20
-142.9329098662036
 30
0.0
 10
81.87005386425065
 20
-142.9329098662036
 30
0.0
 10
81.91485894592482
 20
-142.8881020930486
 30
0.0
 10
81.91485894592482
 20
-142.8330666926717
 30
0.0
  0
SPLINE
  5
9F
330
1F
100
AcDbEntity
  8
_U+30EC_U+30A4_U+30E4_U+30FC 1
 62
   179
420
  2234388
370
     9
100
AcDbSpline
210
0.0
220
0.0
230
1.0
 70
    11
 71
     3
 72
    17
 73
    13
 74
     0
 42
0.0000000001
 43
0.0000000001
 12
1.0
 22
0.0
 32
0.0
 13
1.0
 23
0.0
 33
0.0
 40
0.0
 40
0.0
 40
0.0
 40
0.0
 40
1.0
 40
1.0
 40
1.0
 40
2.0
 40
2.0
 40
2.0
 40
3.0
 40
3.0
 40
3.0
 40
4.0
 40
4.0
 40
4.0
 40
4.0
 10
81.91485894592482
 20
-160.8329800521583
 30
0.0
 10
81.91485894592482
 20
-160.7776001422329
 30
0.0
 10
81.87005386425065
 20
-160.7327923690779
 30
0.0
 10
81.81502115535463
 20
-160.7327923690779
 30
0.0
 10
81.7599884464586
 20
-160.7327923690779
 30
0.0
 10
81.71518605626527
 20
-160.7776001422329
 30
0.0
 10
81.71518605626527
 20
-160.8329800521583
 30
0.0
 10
81.71518605626527
 20
-160.8880154525352
 30
0.0
 10
81.7599884464586
 20
-160.9328232256902
 30
0.0
 10
81.81502115535463
 20
-160.9328232256902
 30
0.0
 10
81.87005386425065
 20
-160.9328232256902
 30
0.0
 10
81.91485894592482
 20
-160.8880154525352
 30
0.0
 10
81.91485894592482
 20
-160.8329800521583
 30
0.0
  0
POLYLINE
  5
A0
330
1F
100
AcDbEntity
  8
_U+30EC_U+30A4_U+30E4_U+30FC 1
 62
   179
420
  2234388
370
     9
100
AcDb2dPolyline
 66
     1
 10
0.0
 20
0.0
 30
0.0
  0
VERTEX
  5
A1
330
A0
100
AcDbEntity
  8
_U+30EC_U+30A4_U+30E4_U+30FC 1
 62
   179
420
  2234388
370
     9
100
AcDbVertex
100
AcDb2dVertex
 10
129.8147775537415
 20
-157.8330016695261
 30
0.0
  0
VERTEX
  5
A2
330
A0
100
AcDbEntity
  8
_U+30EC_U+30A4_U+30E4_U+30FC 1
 62
   179
420
  2234388
370
     9
100
AcDbVertex
100
AcDb2dVertex
 10
129.8147775537415
 20
-160.8330338817753
 30
0.0
  0
SEQEND
  5
A3
330
A0
100
AcDbEntity
  8
_U+30EC_U+30A4_U+30E4_U+30FC 1
 62
   179
420
  2234388
370
     9
  0
POLYLINE
  5
A4
330
1F
100
AcDbEntity
  8
_U+30EC_U+30A4_U+30E4_U+30FC 1
 62
   179
420
  2234388
370
     9
100
AcDb2dPolyline
 66
     1
 10
0.0
 20
0.0
 30
0.0
  0
VERTEX
  5
A5
330
A4
100
AcDbEntity
  8
_U+30EC_U+30A4_U+30E4_U+30FC 1
 62
   179
420
  2234388
370
     9
100
AcDbVertex
100
AcDb2dVertex
 10
98.35483306969027
 20
-157.8330016695261
 30
0.0
  0
VERTEX
  5
A6
330
A4
100
AcDbEntity
  8
_U+30EC_U+30A4_U+30E4_U+30FC 1
 62
   179
420
  2234388
370
     9
100
AcDbVertex
100
AcDb2dVertex
 10
130.8153247930069
 20
-157.8330016695261
 30
0.0
  0
SEQEND
  5
A7
330
A4
100
AcDbEntity
  8
_U+30EC_U+30A4_U+30E4_U+30FC 1
 62
   179
420
  2234388
370
     9
  0
POLYLINE
  5
A8
330
1F
100
AcDbEntity
  8
_U+30EC_U+30A4_U+30E4_U+30FC 1
 62
   179
420
  2234388
370
     9
100
AcDb2dPolyline
 66
     1
 10
0.0
 20
0.0
 30
0.0
  0
VERTEX
  5
A9
330
A8
100
AcDbEntity
  8
_U+30EC_U+30A4_U+30E4_U+30FC 1
 62
   179
420
  2234388
370
     9
100
AcDbVertex
100
AcDb2dVertex
 10
98.35483306969027
 20
-160.8329800521583
 30
0.0
  0
VERTEX
  5
AA
330
A8
100
AcDbEntity
  8
_U+30EC_U+30A4_U+30E4_U+30FC 1
 62
   179
420
  2234388
370
     9
100
AcDbVertex
100
AcDb2dVertex
 10
130.8153247930069
 20
-160.8329800521583
 30
0.0
  0
SEQEND
  5
AB
330
A8
100
AcDbEntity
  8
_U+30EC_U+30A4_U+30E4_U+30FC 1
 62
   179
420
  2234388
370
     9
  0
INSERT
  5
AD
330
1F
100
AcDbEntity
  8
_U+30EC_U+30A4_U+30E4_U+30FC 1
100
AcDbBlockReference
  2
block 2
 10
0.0
 20
0.0
 30
0.0
  0
POLYLINE
  5
B2
330
1F
100
AcDbEntity
  8
_U+30EC_U+30A4_U+30E4_U+30FC 1
 62
   179
420
  2234388
370
     9
100
AcDb2dPolyline
 66
     1
 10
0.0
 20
0.0
 30
0.0
  0
VERTEX
  5
B3
330
B2
100
AcDbEntity
  8
_U+30EC_U+30A4_U+30E4_U+30FC 1
 62
   179
420
  2234388
370
     9
100
AcDbVertex
100
AcDb2dVertex
 10
129.8147775537415
 20
-157.8330016695261
 30
0.0
  0
VERTEX
  5
B4
330
B2
100
AcDbEntity
  8
_U+30EC_U+30A4_U+30E4_U+30FC 1
 62
   179
420
  2234388
370
     9
100
AcDbVertex
100
AcDb2dVertex
 10
129.8147775537415
 20
-150.8328367915832
 30
0.0
  0
SEQEND
  5
B5
330
B2
100
AcDbEntity
  8
_U+30EC_U+30A4_U+30E4_U+30FC 1
 62
   179
420
  2234388
370
     9
  0
POLYLINE
  5
B6
330
1F
100
AcDbEntity
  8
_U+30EC_U+30A4_U+30E4_U+30FC 1
 62
   179
420
  2234388
370
     9
100
AcDb2dPolyline
 66
     1
 10
0.0
 20
0.0
 30
0.0
  0
VERTEX
  5
B7
330
B6
100
AcDbEntity
  8
_U+30EC_U+30A4_U+30E4_U+30FC 1
 62
   179
420
  2234388
370
     9
100
AcDbVertex
100
AcDb2dVertex
 10
128.7071632063486
 20
-150.8329336848938
 30
0.0
  0
VERTEX
  5
B8
330
B6
100
AcDbEntity
  8
_U+30EC_U+30A4_U+30E4_U+30FC 1
 62
   179
420
  2234388
370
     9
100
AcDbVertex
100
AcDb2dVertex
 10
130.8153624737388
 20
-150.8329336848938
 30
0.0
  0
SEQEND
  5
B9
330
B6
100
AcDbEntity
  8
_U+30EC_U+30A4_U+30E4_U+30FC 1
 62
   179
420
  2234388
370
     9
  0
POLYLINE
  5
BA
330
1F
100
AcDbEntity
  8
_U+30EC_U+30A4_U+30E4_U+30FC 1
 62
   179
420
  2234388
370
     9
100
AcDb2dPolyline
 66
     1
 10
0.0
 20
0.0
 30
0.0
  0
VERTEX
  5
BB
330
BA
100
AcDbEntity
  8
_U+30EC_U+30A4_U+30E4_U+30FC 1
 62
   179
420
  2234388
370
     9
100
AcDbVertex
100
AcDb2dVertex
 10
128.7071632063486
 20
-149.9327194686746
 30
0.0
  0
VERTEX
  5
BC
330
BA
100
AcDbEntity
  8
_U+30EC_U+30A4_U+30E4_U+30FC 1
 62
   179
420
  2234388
370
     9
100
AcDbVertex
100
AcDb2dVertex
 10
130.8153624737388
 20
-149.9327194686746
 30
0.0
  0
SEQEND
  5
BD
330
BA
100
AcDbEntity
  8
_U+30EC_U+30A4_U+30E4_U+30FC 1
 62
   179
420
  2234388
370
     9
  0
INSERT
  5
BF
330
1F
100
AcDbEntity
  8
_U+30EC_U+30A4_U+30E4_U+30FC 1
100
AcDbBlockReference
  2
block 3
 10
0.0
 20
0.0
 30
0.0
  0
POLYLINE
  5
C4
330
1F
100
AcDbEntity
  8
_U+30EC_U+30A4_U+30E4_U+30FC 1
 62
   179
420
  2234388
370
     9
100
AcDb2dPolyline
 66
     1
 10
0.0
 20
0.0
 30
0.0
  0
VERTEX
  5
C5
330
C4
100
AcDbEntity
  8
_U+30EC_U+30A4_U+30E4_U+30FC 1
 62
   179
420
  2234388
370
     9
100
AcDbVertex
100
AcDb2dVertex
 10
81.81495117685257
 20
-142.8330666926717
 30
0.0
  0
VERTEX
  5
C6
330
C4
100
AcDbEntity
  8
_U+30EC_U+30A4_U+30E4_U+30FC 1
 62
   179
420
  2234388
370
     9
100
AcDbVertex
100
AcDb2dVertex
 10
81.81495117685257
 20
-160.8328508610776
 30
0.0
  0
SEQEND
  5
C7
330
C4
100
AcDbEntity
  8
_U+30EC_U+30A4_U+30E4_U+30FC 1
 62
   179
420
  2234388
370
     9
  0
POLYLINE
  5
C8
330
1F
100
AcDbEntity
  8
_U+30EC_U+30A4_U+30E4_U+30FC 1
 62
   179
420
  2234388
370
     9
100
AcDb2dPolyline
 66
     1
 10
0.0
 20
0.0
 30
0.0
  0
VERTEX
  5
C9
330
C8
100
AcDbEntity
  8
_U+30EC_U+30A4_U+30E4_U+30FC 1
 62
   179
420
  2234388
370
     9
100
AcDbVertex
100
AcDb2dVertex
 10
83.27499340942485
 20
-142.8330666926717
 30
0.0
  0
VERTEX
  5
CA
330
C8
100
AcDbEntity
  8
_U+30EC_U+30A4_U+30E4_U+30FC 1
 62
   179
420
  2234388
370
     9
100
AcDbVertex
100
AcDb2dVertex
 10
80.8147188408464
 20
-142.8330666926717
 30
0.0
  0
SEQEND
  5
CB
330
C8
100
AcDbEntity
  8
_U+30EC_U+30A4_U+30E4_U+30FC 1
 62
   179
420
  2234388
370
     9
  0
POLYLINE
  5
CC
330
1F
100
AcDbEntity
  8
_U+30EC_U+30A4_U+30E4_U+30FC 1
 62
   179
420
  2234388
370
     9
100
AcDb2dPolyline
 66
     1
 10
0.0
 20
0.0
 30
0.0
  0
VERTEX
  5
CD
330
CC
100
AcDbEntity
  8
_U+30EC_U+30A4_U+30E4_U+30FC 1
 62
   179
420
  2234388
370
     9
100
AcDbVertex
100
AcDb2dVertex
 10
83.27499340942485
 20
-160.8329800521583
 30
0.0
  0
VERTEX
  5
CE
330
CC
100
AcDbEntity
  8
_U+30EC_U+30A4_U+30E4_U+30FC 1
 62
   179
420
  2234388
370
     9
100
AcDbVertex
100
AcDb2dVertex
 10
80.8147188408464
 20
-160.8329800521583
 30
0.0
  0
SEQEND
  5
CF
330
CC
100
AcDbEntity
  8
_U+30EC_U+30A4_U+30E4_U+30FC 1
 62
   179
420
  2234388
370
     9
  0
INSERT
  5
D1
330
1F
100
AcDbEntity
  8
_U+30EC_U+30A4_U+30E4_U+30FC 1
100
AcDbBlockReference
  2
block 4
 10
0.0
 20
0.0
 30
0.0
  0
POLYLINE
  5
DA
330
1F
100
AcDbEntity
  8
_U+30EC_U+30A4_U+30E4_U+30FC 1
 62
   179
420
  2234388
370
     9
100
AcDb2dPolyline
 66
     1
 10
0.0
 20
0.0
 30
0.0
  0
VERTEX
  5
DB
330
DA
100
AcDbEntity
  8
_U+30EC_U+30A4_U+30E4_U+30FC 1
 62
   179
420
  2234388
370
     9
100
AcDbVertex
100
AcDb2dVertex
 10
85.81471241818934
 20
-138.8329878565949
 30
0.0
  0
VERTEX
  5
DC
330
DA
100
AcDbEntity
  8
_U+30EC_U+30A4_U+30E4_U+30FC 1
 62
   179
420
  2234388
370
     9
100
AcDbVertex
100
AcDb2dVertex
 10
88.81473386451508
 20
-138.8329878565949
 30
0.0
  0
SEQEND
  5
DD
330
DA
100
AcDbEntity
  8
_U+30EC_U+30A4_U+30E4_U+30FC 1
 62
   179
420
  2234388
370
     9
  0
POLYLINE
  5
DE
330
1F
100
AcDbEntity
  8
_U+30EC_U+30A4_U+30E4_U+30FC 1
 62
   179
420
  2234388
370
     9
100
AcDb2dPolyline
 66
     1
 10
0.0
 20
0.0
 30
0.0
  0
VERTEX
  5
DF
330
DE
100
AcDbEntity
  8
_U+30EC_U+30A4_U+30E4_U+30FC 1
 62
   179
420
  2234388
370
     9
100
AcDbVertex
100
AcDb2dVertex
 10
85.81471241818934
 20
-140.2925994522319
 30
0.0
  0
VERTEX
  5
E0
330
DE
100
AcDbEntity
  8
_U+30EC_U+30A4_U+30E4_U+30FC 1
 62
   179
420
  2234388
370
     9
100
AcDbVertex
100
AcDb2dVertex
 10
85.81471241818934
 20
-137.8326828506059
 30
0.0
  0
SEQEND
  5
E1
330
DE
100
AcDbEntity
  8
_U+30EC_U+30A4_U+30E4_U+30FC 1
 62
   179
420
  2234388
370
     9
  0
POLYLINE
  5
E2
330
1F
100
AcDbEntity
  8
_U+30EC_U+30A4_U+30E4_U+30FC 1
 62
   179
420
  2234388
370
     9
100
AcDb2dPolyline
 66
     1
 10
0.0
 20
0.0
 30
0.0
  0
VERTEX
  5
E3
330
E2
100
AcDbEntity
  8
_U+30EC_U+30A4_U+30E4_U+30FC 1
 62
   179
420
  2234388
370
     9
100
AcDbVertex
100
AcDb2dVertex
 10
88.81466388601302
 20
-140.2925994522319
 30
0.0
  0
VERTEX
  5
E4
330
E2
100
AcDbEntity
  8
_U+30EC_U+30A4_U+30E4_U+30FC 1
 62
   179
420
  2234388
370
     9
100
AcDbVertex
100
AcDb2dVertex
 10
88.81466388601302
 20
-137.8326828506059
 30
0.0
  0
SEQEND
  5
E5
330
E2
100
AcDbEntity
  8
_U+30EC_U+30A4_U+30E4_U+30FC 1
 62
   179
420
  2234388
370
     9
  0
INSERT
  5
E7
330
1F
100
AcDbEntity
  8
_U+30EC_U+30A4_U+30E4_U+30FC 1
100
AcDbBlockReference
  2
block 5
 10
0.0
 20
0.0
 30
0.0
  0
POLYLINE
  5
EC
330
1F
100
AcDbEntity
  8
_U+30EC_U+30A4_U+30E4_U+30FC 1
 62
   179
420
  2234388
370
     9
100
AcDb2dPolyline
 66
     1
 10
0.0
 20
0.0
 30
0.0
  0
VERTEX
  5
ED
330
EC
100
AcDbEntity
  8
_U+30EC_U+30A4_U+30E4_U+30FC 1
 62
   179
420
  2234388
370
     9
100
AcDbVertex
100
AcDb2dVertex
 10
85.81471241818934
 20
-134.832876722748
 30
0.0
  0
VERTEX
  5
EE
330
EC
100
AcDbEntity
  8
_U+30EC_U+30A4_U+30E4_U+30FC 1
 62
   179
420
  2234388
370
     9
100
AcDbVertex
100
AcDb2dVertex
 10
125.8147740791285
 20
-134.832876722748
 30
0.0
  0
SEQEND
  5
EF
330
EC
100
AcDbEntity
  8
_U+30EC_U+30A4_U+30E4_U+30FC 1
 62
   179
420
  2234388
370
     9
  0
POLYLINE
  5
F0
330
1F
100
AcDbEntity
  8
_U+30EC_U+30A4_U+30E4_U+30FC 1
 62
   179
420
  2234388
370
     9
100
AcDb2dPolyline
 66
     1
 10
0.0
 20
0.0
 30
0.0
  0
VERTEX
  5
F1
330
F0
100
AcDbEntity
  8
_U+30EC_U+30A4_U+30E4_U+30FC 1
 62
   179
420
  2234388
370
     9
100
AcDbVertex
100
AcDb2dVertex
 10
85.81471241818934
 20
-140.2925994522319
 30
0.0
  0
VERTEX
  5
F2
330
F0
100
AcDbEntity
  8
_U+30EC_U+30A4_U+30E4_U+30FC 1
 62
   179
420
  2234388
370
     9
100
AcDbVertex
100
AcDb2dVertex
 10
85.81471241818934
 20
-133.8325394189887
 30
0.0
  0
SEQEND
  5
F3
330
F0
100
AcDbEntity
  8
_U+30EC_U+30A4_U+30E4_U+30FC 1
 62
   179
420
  2234388
370
     9
  0
POLYLINE
  5
F4
330
1F
100
AcDbEntity
  8
_U+30EC_U+30A4_U+30E4_U+30FC 1
 62
   179
420
  2234388
370
     9
100
AcDb2dPolyline
 66
     1
 10
0.0
 20
0.0
 30
0.0
  0
VERTEX
  5
F5
330
F4
100
AcDbEntity
  8
_U+30EC_U+30A4_U+30E4_U+30FC 1
 62
   179
420
  2234388
370
     9
100
AcDbVertex
100
AcDb2dVertex
 10
125.8146664198945
 20
-147.3929950769484
 30
0.0
  0
VERTEX
  5
F6
330
F4
100
AcDbEntity
  8
_U+30EC_U+30A4_U+30E4_U+30FC 1
 62
   179
420
  2234388
370
     9
100
AcDbVertex
100
AcDb2dVertex
 10
125.8146664198945
 20
-133.8329269922308
 30
0.0
  0
SEQEND
  5
F7
330
F4
100
AcDbEntity
  8
_U+30EC_U+30A4_U+30E4_U+30FC 1
 62
   179
420
  2234388
370
     9
  0
INSERT
  5
F9
330
1F
100
AcDbEntity
  8
_U+30EC_U+30A4_U+30E4_U+30FC 1
100
AcDbBlockReference
  2
block 6
 10
0.0
 20
0.0
 30
0.0
  0
POLYLINE
  5
114
330
1F
100
AcDbEntity
  8
_U+30EC_U+30A4_U+30E4_U+30FC 1
 62
   179
420
  2234388
370
     9
100
AcDb2dPolyline
 66
     1
 10
0.0
 20
0.0
 30
0.0
  0
VERTEX
  5
115
330
114
100
AcDbEntity
  8
_U+30EC_U+30A4_U+30E4_U+30FC 1
 62
   179
420
  2234388
370
     9
100
AcDbVertex
100
AcDb2dVertex
 10
85.81471241818934
 20
-164.8327036127632
 30
0.0
  0
VERTEX
  5
116
330
114
100
AcDbEntity
  8
_U+30EC_U+30A4_U+30E4_U+30FC 1
 62
   179
420
  2234388
370
     9
100
AcDbVertex
100
AcDb2dVertex
 10
95.81525401792987
 20
-164.8327036127632
 30
0.0
  0
SEQEND
  5
117
330
114
100
AcDbEntity
  8
_U+30EC_U+30A4_U+30E4_U+30FC 1
 62
   179
420
  2234388
370
     9
  0
POLYLINE
  5
118
330
1F
100
AcDbEntity
  8
_U+30EC_U+30A4_U+30E4_U+30FC 1
 62
   179
420
  2234388
370
     9
100
AcDb2dPolyline
 66
     1
 10
0.0
 20
0.0
 30
0.0
  0
VERTEX
  5
119
330
118
100
AcDbEntity
  8
_U+30EC_U+30A4_U+30E4_U+30FC 1
 62
   179
420
  2234388
370
     9
100
AcDbVertex
100
AcDb2dVertex
 10
85.81471241818934
 20
-163.3727367416546
 30
0.0
  0
VERTEX
  5
11A
330
118
100
AcDbEntity
  8
_U+30EC_U+30A4_U+30E4_U+30FC 1
 62
   179
420
  2234388
370
     9
100
AcDbVertex
100
AcDb2dVertex
 10
85.81471241818934
 20
-165.8330193846757
 30
0.0
  0
SEQEND
  5
11B
330
118
100
AcDbEntity
  8
_U+30EC_U+30A4_U+30E4_U+30FC 1
 62
   179
420
  2234388
370
     9
  0
POLYLINE
  5
11C
330
1F
100
AcDbEntity
  8
_U+30EC_U+30A4_U+30E4_U+30FC 1
 62
   179
420
  2234388
370
     9
100
AcDb2dPolyline
 66
     1
 10
0.0
 20
0.0
 30
0.0
  0
VERTEX
  5
11D
330
11C
100
AcDbEntity
  8
_U+30EC_U+30A4_U+30E4_U+30FC 1
 62
   179
420
  2234388
370
     9
100
AcDbVertex
100
AcDb2dVertex
 10
95.81511406092578
 20
-163.3727367416546
 30
0.0
  0
VERTEX
  5
11E
330
11C
100
AcDbEntity
  8
_U+30EC_U+30A4_U+30E4_U+30FC 1
 62
   179
420
  2234388
370
     9
100
AcDbVertex
100
AcDb2dVertex
 10
95.81511406092578
 20
-165.8330193846757
 30
0.0
  0
SEQEND
  5
11F
330
11C
100
AcDbEntity
  8
_U+30EC_U+30A4_U+30E4_U+30FC 1
 62
   179
420
  2234388
370
     9
  0
INSERT
  5
121
330
1F
100
AcDbEntity
  8
_U+30EC_U+30A4_U+30E4_U+30FC 1
100
AcDbBlockReference
  2
block 7
 10
0.0
 20
0.0
 30
0.0
  0
SPLINE
  5
129
330
1F
100
AcDbEntity
  8
_U+30EC_U+30A4_U+30E4_U+30FC 1
 62
   179
420
  2234388
370
     9
100
AcDbSpline
210
0.0
220
0.0
230
1.0
 70
    11
 71
     3
 72
    17
 73
    13
 74
     0
 42
0.0000000001
 43
0.0000000001
 12
1.0
 22
0.0
 32
0.0
 13
1.0
 23
0.0
 33
0.0
 40
0.0
 40
0.0
 40
0.0
 40
0.0
 40
1.0
 40
1.0
 40
1.0
 40
2.0
 40
2.0
 40
2.0
 40
3.0
 40
3.0
 40
3.0
 40
4.0
 40
4.0
 40
4.0
 40
4.0
 10
129.8147775537415
 20
-150.0185131121807
 30
0.0
 10
129.8698075711567
 20
-150.0185131121807
 30
0.0
 10
129.91460996135
 20
-149.9737161049491
 30
0.0
 10
129.91460996135
 20
-149.9186807045722
 30
0.0
 10
129.91460996135
 20
-149.8636453041953
 30
0.0
 10
129.8698075711567
 20
-149.8188482969637
 30
0.0
 10
129.8147775537415
 20
-149.8188482969637
 30
0.0
 10
129.7597421533646
 20
-149.8188482969637
 30
0.0
 10
129.7149397631713
 20
-149.8636453041953
 30
0.0
 10
129.7149397631713
 20
-149.9186807045722
 30
0.0
 10
129.7149397631713
 20
-149.9737161049491
 30
0.0
 10
129.7597421533646
 20
-150.0185131121807
 30
0.0
 10
129.8147775537415
 20
-150.0185131121807
 30
0.0
  0
POLYLINE
  5
12A
330
1F
100
AcDbEntity
  8
_U+30EC_U+30A4_U+30E4_U+30FC 1
 62
   179
420
  2234388
370
     9
100
AcDb2dPolyline
 66
     1
 10
0.0
 20
0.0
 30
0.0
  0
VERTEX
  5
12B
330
12A
100
AcDbEntity
  8
_U+30EC_U+30A4_U+30E4_U+30FC 1
 62
   179
420
  2234388
370
     9
100
AcDbVertex
100
AcDb2dVertex
 10
129.8154827217236
 20
-148.2639044496962
 30
0.0
  0
VERTEX
  5
12C
330
12A
100
AcDbEntity
  8
_U+30EC_U+30A4_U+30E4_U+30FC 1
 62
   179
420
  2234388
370
     9
100
AcDbVertex
100
AcDb2dVertex
 10
129.8154827217236
 20
-150.9182105640771
 30
0.0
  0
SEQEND
  5
12D
330
12A
100
AcDbEntity
  8
_U+30EC_U+30A4_U+30E4_U+30FC 1
 62
   179
420
  2234388
370
     9
  0
INSERT
  5
12F
330
1F
100
AcDbEntity
  8
_U+30EC_U+30A4_U+30E4_U+30FC 1
100
AcDbBlockReference
  2
block 8
 10
0.0
 20
0.0
 30
0.0
  0
POLYLINE
  5
134
330
1F
100
AcDbEntity
  8
_U+30EC_U+30A4_U+30E4_U+30FC 1
  6
AI-Linetype-1
 62
   154
420
    23468
370
    25
100
AcDb2dPolyline
 66
     1
 10
0.0
 20
0.0
 30
0.0
  0
VERTEX
  5
135
330
134
100
AcDbEntity
  8
_U+30EC_U+30A4_U+30E4_U+30FC 1
  6
AI-Linetype-1
 62
   154
420
    23468
370
    25
100
AcDbVertex
100
AcDb2dVertex
 10
89.32044158397957
 20
-143.732925633419
 30
0.0
  0
VERTEX
  5
136
330
134
100
AcDbEntity
  8
_U+30EC_U+30A4_U+30E4_U+30FC 1
  6
AI-Linetype-1
 62
   154
420
    23468
370
    25
100
AcDbVertex
100
AcDb2dVertex
 10
89.32044158397957
 20
-142.2438584713835
 30
0.0
  0
VERTEX
  5
137
330
134
100
AcDbEntity
  8
_U+30EC_U+30A4_U+30E4_U+30FC 1
  6
AI-Linetype-1
 62
   154
420
    23468
370
    25
100
AcDbVertex
100
AcDb2dVertex
 10
85.31500131805385
 20
-142.2438584713835
 30
0.0
  0
VERTEX
  5
138
330
134
100
AcDbEntity
  8
_U+30EC_U+30A4_U+30E4_U+30FC 1
  6
AI-Linetype-1
 62
   154
420
    23468
370
    25
100
AcDbVertex
100
AcDb2dVertex
 10
85.31500131805385
 20
-161.3577111582554
 30
0.0
  0
VERTEX
  5
139
330
134
100
AcDbEntity
  8
_U+30EC_U+30A4_U+30E4_U+30FC 1
  6
AI-Linetype-1
 62
   154
420
    23468
370
    25
100
AcDbVertex
100
AcDb2dVertex
 10
96.36470368413397
 20
-161.3577111582554
 30
0.0
  0
VERTEX
  5
13A
330
134
100
AcDbEntity
  8
_U+30EC_U+30A4_U+30E4_U+30FC 1
  6
AI-Linetype-1
 62
   154
420
    23468
370
    25
100
AcDbVertex
100
AcDb2dVertex
 10
96.36470368413397
 20
-157.7837152722403
 30
0.0
  0
SEQEND
  5
13C
330
134
100
AcDbEntity
  8
_U+30EC_U+30A4_U+30E4_U+30FC 1
  6
AI-Linetype-1
 62
   154
420
    23468
370
    25
  0
ENDSEC
  0
SECTION
  2
OBJECTS
  0
DICTIONARY
  5
C
330
0
100
AcDbDictionary
281
     1
  3
ACAD_GROUP
350
D
  3
ACAD_LAYOUT
350
1A
  3
ACAD_MATERIAL
350
3B
  3
ACAD_MLEADERSTYLE
350
13E
  3
ACAD_MLINESTYLE
350
17
  3
ACAD_PLOTSETTINGS
350
19
  3
ACAD_PLOTSTYLENAME
350
E
  3
ACAD_TABLESTYLE
350
13D
  3
ACAD_VISUALSTYLE
350
2A
  0
SUN
  5
3F
330
29
100
AcDbSun
 90
        1
290
     0
 63
     7
421
 16777215
 40
1.0
291
     1
 91
  2455826
 92
 54000000
292
     0
 70
     2
 71
   256
280
     1
  0
DICTIONARY
  5
D
102
{ACAD_REACTORS
330
C
102
}
330
C
100
AcDbDictionary
281
     1
  0
DICTIONARY
  5
1A
102
{ACAD_REACTORS
330
C
102
}
330
C
100
AcDbDictionary
281
     1
  3
Layout1
350
1E
  3
Layout2
350
26
  3
Model
350
22
  0
DICTIONARY
  5
3B
102
{ACAD_REACTORS
330
C
102
}
330
C
100
AcDbDictionary
281
     1
  3
ByBlock
350
3D
  3
ByLayer
350
3C
  3
Global
350
3E
  0
DICTIONARY
  5
13E
102
{ACAD_REACTORS
330
C
102
}
330
C
100
AcDbDictionary
281
     1
  0
DICTIONARY
  5
17
102
{ACAD_REACTORS
330
C
102
}
330
C
100
AcDbDictionary
281
     1
  3
Standard
350
18
  0
DICTIONARY
  5
19
102
{ACAD_REACTORS
330
C
102
}
330
C
100
AcDbDictionary
281
     1
  0
ACDBDICTIONARYWDFLT
  5
E
102
{ACAD_REACTORS
330
C
102
}
330
C
100
AcDbDictionary
281
     1
  3
Normal
350
F
100
AcDbDictionaryWithDefault
340
F
  0
DICTIONARY
  5
13D
102
{ACAD_REACTORS
330
C
102
}
330
C
100
AcDbDictionary
281
     1
  0
DICTIONARY
  5
2A
102
{ACAD_REACTORS
330
C
102
}
330
C
100
AcDbDictionary
281
     1
  3
2dWireframe
350
2F
  3
3D Hidden
350
31
  3
3dWireframe
350
30
  3
Basic
350
32
  3
Brighten
350
36
  3
ColorChange
350
3A
  3
Conceptual
350
34
  3
Dim
350
35
  3
Facepattern
350
39
  3
Flat
350
2B
  3
FlatWithEdges
350
2C
  3
Gouraud
350
2D
  3
GouraudWithEdges
350
2E
  3
Linepattern
350
38
  3
Realistic
350
33
  3
Thicken
350
37
  0
LAYOUT
  5
1E
102
{ACAD_REACTORS
330
1A
102
}
330
1A
100
AcDbPlotSettings
  1

  2
none_device
  4

  6

 40
0.0
 41
0.0
 42
0.0
 43
0.0
 44
0.0
 45
0.0
 46
0.0
 47
0.0
 48
0.0
 49
0.0
140
0.0
141
0.0
142
1.0
143
1.0
 70
   688
 72
     0
 73
     0
 74
     5
  7

 75
    16
 76
     0
 77
     2
 78
   300
147
1.0
148
0.0
149
0.0
100
AcDbLayout
  1
Layout1
 70
     1
 71
     1
 10
0.0
 20
0.0
 11
12.0
 21
9.0
 12
0.0
 22
0.0
 32
0.0
 14
1.000000000000000E+20
 24
1.000000000000000E+20
 34
1.000000000000000E+20
 15
-1.000000000000000E+20
 25
-1.000000000000000E+20
 35
-1.000000000000000E+20
146
0.0
 13
0.0
 23
0.0
 33
0.0
 16
1.0
 26
0.0
 36
0.0
 17
0.0
 27
1.0
 37
0.0
 76
     0
330
1B
  0
LAYOUT
  5
26
102
{ACAD_REACTORS
330
1A
102
}
330
1A
100
AcDbPlotSettings
  1

  2
none_device
  4

  6

 40
0.0
 41
0.0
 42
0.0
 43
0.0
 44
0.0
 45
0.0
 46
0.0
 47
0.0
 48
0.0
 49
0.0
140
0.0
141
0.0
142
1.0
143
1.0
 70
   688
 72
     0
 73
     0
 74
     5
  7

 75
    16
 76
     0
 77
     2
 78
   300
147
1.0
148
0.0
149
0.0
100
AcDbLayout
  1
Layout2
 70
     1
 71
     2
 10
0.0
 20
0.0
 11
0.0
 21
0.0
 12
0.0
 22
0.0
 32
0.0
 14
0.0
 24
0.0
 34
0.0
 15
0.0
 25
0.0
 35
0.0
146
0.0
 13
0.0
 23
0.0
 33
0.0
 16
1.0
 26
0.0
 36
0.0
 17
0.0
 27
1.0
 37
0.0
 76
     0
330
23
  0
LAYOUT
  5
22
102
{ACAD_REACTORS
330
1A
102
}
330
1A
100
AcDbPlotSettings
  1

  2
none_device
  4

  6

 40
0.0
 41
0.0
 42
0.0
 43
0.0
 44
0.0
 45
0.0
 46
0.0
 47
0.0
 48
0.0
 49
0.0
140
0.0
141
0.0
142
1.0
143
1.0
 70
  1712
 72
     0
 73
     0
 74
     0
  7

 75
     0
 76
     0
 77
     2
 78
   300
147
1.0
148
0.0
149
0.0
100
AcDbLayout
  1
Model
 70
     1
 71
     0
 10
0.0
 20
0.0
 11
12.0
 21
9.0
 12
0.0
 22
0.0
 32
0.0
 14
1.000000000000000E+20
 24
1.000000000000000E+20
 34
1.000000000000000E+20
 15
-1.000000000000000E+20
 25
-1.000000000000000E+20
 35
-1.000000000000000E+20
146
0.0
 13
0.0
 23
0.0
 33
0.0
 16
1.0
 26
0.0
 36
0.0
 17
0.0
 27
1.0
 37
0.0
 76
     0
330
1F
331
29
  0
MATERIAL
  5
3D
102
{ACAD_REACTORS
330
3B
102
}
330
3B
100
AcDbMaterial
  1
ByBlock
 72
     1
 94
      127
  0
MATERIAL
  5
3C
102
{ACAD_REACTORS
330
3B
102
}
330
3B
100
AcDbMaterial
  1
ByLayer
 72
     1
 94
      127
  0
MATERIAL
  5
3E
102
{ACAD_REACTORS
330
3B
102
}
330
3B
100
AcDbMaterial
  1
Global
 72
     1
 94
      127
  0
MLINESTYLE
  5
18
102
{ACAD_REACTORS
330
17
102
}
330
17
100
AcDbMlineStyle
  2
Standard
 70
     0
  3

 62
   256
 51
90.0
 52
90.0
 71
     2
 49
0.5
 62
   256
  6
BYLAYER
 49
-0.5
 62
   256
  6
BYLAYER
  0
ACDBPLACEHOLDER
  5
F
102
{ACAD_REACTORS
330
E
102
}
330
E
  0
VISUALSTYLE
  5
2F
102
{ACAD_REACTORS
330
2A
102
}
330
2A
100
AcDbVisualStyle
  2
2dWireframe
 70
     4
177
     2
291
     0
 71
     0
176
     1
 72
     2
176
     1
 73
     0
176
     1
 90
        0
176
     1
 40
-0.6
176
     1
 41
-30.0
176
     1
 62
     5
 63
     7
421
 16777215
176
     1
 74
     1
176
     1
 91
        4
176
     1
 64
     7
176
     1
 65
   257
176
     1
 75
     1
176
     1
175
     1
176
     1
 42
1.0
176
     1
 92
        0
176
     1
 66
   257
176
     1
 43
1.0
176
     1
 76
     1
176
     1
 77
     6
176
     1
 78
     2
176
     1
 67
     7
176
     1
 79
     5
176
     1
170
     0
176
     1
171
     0
176
     1
290
     0
176
     1
 93
        1
176
     1
 44
0.0
176
     1
173
     0
176
     1
  0
VISUALSTYLE
  5
31
102
{ACAD_REACTORS
330
2A
102
}
330
2A
100
AcDbVisualStyle
  2
3D Hidden
 70
     6
177
     2
291
     0
 71
     1
176
     1
 72
     2
176
     1
 73
     2
176
     1
 90
        0
176
     1
 40
-0.6
176
     1
 41
-30.0
176
     1
 62
     5
 63
     7
421
 16777215
176
     1
 74
     2
176
     1
 91
        2
176
     1
 64
     7
176
     1
 65
   257
176
     1
 75
     2
176
     1
175
     1
176
     1
 42
40.0
176
     1
 92
        0
176
     1
 66
   257
176
     1
 43
1.0
176
     1
 76
     1
176
     1
 77
     6
176
     1
 78
     2
176
     1
 67
     7
176
     1
 79
     3
176
     1
170
     0
176
     1
171
     0
176
     1
290
     0
176
     1
 93
        1
176
     1
 44
0.0
176
     1
173
     0
176
     1
  0
VISUALSTYLE
  5
30
102
{ACAD_REACTORS
330
2A
102
}
330
2A
100
AcDbVisualStyle
  2
3dWireframe
 70
     5
177
     2
291
     0
 71
     0
176
     1
 72
     2
176
     1
 73
     0
176
     1
 90
        0
176
     1
 40
-0.6
176
     1
 41
-30.0
176
     1
 62
     5
 63
     7
421
 16777215
176
     1
 74
     1
176
     1
 91
        4
176
     1
 64
     7
176
     1
 65
   257
176
     1
 75
     1
176
     1
175
     1
176
     1
 42
1.0
176
     1
 92
        0
176
     1
 66
   257
176
     1
 43
1.0
176
     1
 76
     1
176
     1
 77
     6
176
     1
 78
     2
176
     1
 67
     7
176
     1
 79
     5
176
     1
170
     0
176
     1
171
     0
176
     1
290
     0
176
     1
 93
        1
176
     1
 44
0.0
176
     1
173
     0
176
     1
  0
VISUALSTYLE
  5
32
102
{ACAD_REACTORS
330
2A
102
}
330
2A
100
AcDbVisualStyle
  2
Basic
 70
     7
177
     2
291
     1
 71
     1
176
     1
 72
     0
176
     1
 73
     1
176
     1
 90
        0
176
     1
 40
-0.6
176
     1
 41
-30.0
176
     1
 62
     5
 63
     7
421
 16777215
176
     1
 74
     0
176
     1
 91
        4
176
     1
 64
     7
176
     1
 65
   257
176
     1
 75
     1
176
     1
175
     1
176
     1
 42
1.0
176
     1
 92
        8
176
     1
 66
     7
176
     1
 43
1.0
176
     1
 76
     1
176
     1
 77
     6
176
     1
 78
     2
176
     1
 67
     7
176
     1
 79
     5
176
     1
170
     0
176
     1
171
     0
176
     1
290
     0
176
     1
 93
        1
176
     1
 44
0.0
176
     1
173
     0
176
     1
  0
VISUALSTYLE
  5
36
102
{ACAD_REACTORS
330
2A
102
}
330
2A
100
AcDbVisualStyle
  2
Brighten
 70
    12
177
     2
291
     1
 71
     2
176
     1
 72
     2
176
     1
 73
     0
176
     1
 90
        0
176
     1
 40
-0.6
176
     1
 41
-30.0
176
     1
 62
     5
 63
     7
421
 16777215
176
     1
 74
     1
176
     1
 91
        4
176
     1
 64
     7
176
     1
 65
   257
176
     1
 75
     1
176
     1
175
     1
176
     1
 42
1.0
176
     1
 92
        8
176
     1
 66
     7
176
     1
 43
1.0
176
     1
 76
     1
176
     1
 77
     6
176
     1
 78
     2
176
     1
 67
     7
176
     1
 79
     5
176
     1
170
     0
176
     1
171
     0
176
     1
290
     0
176
     1
 93
        1
176
     1
 44
50.0
176
     1
173
     0
176
     1
  0
VISUALSTYLE
  5
3A
102
{ACAD_REACTORS
330
2A
102
}
330
2A
100
AcDbVisualStyle
  2
ColorChange
 70
    16
177
     2
291
     1
 71
     2
176
     1
 72
     2
176
     1
 73
     3
176
     1
 90
        0
176
     1
 40
-0.6
176
     1
 41
-30.0
176
     1
 62
     5
 63
     8
421
  8421504
176
     1
 74
     1
176
     1
 91
        4
176
     1
 64
     7
176
     1
 65
   257
176
     1
 75
     1
176
     1
175
     1
176
     1
 42
1.0
176
     1
 92
        8
176
     1
 66
     8
424
  8421504
176
     1
 43
1.0
176
     1
 76
     1
176
     1
 77
     6
176
     1
 78
     2
176
     1
 67
     7
176
     1
 79
     5
176
     1
170
     0
176
     1
171
     0
176
     1
290
     0
176
     1
 93
        1
176
     1
 44
0.0
176
     1
173
     0
176
     1
  0
VISUALSTYLE
  5
34
102
{ACAD_REACTORS
330
2A
102
}
330
2A
100
AcDbVisualStyle
  2
Conceptual
 70
     9
177
     2
291
     0
 71
     3
176
     1
 72
     2
176
     1
 73
     0
176
     1
 90
        0
176
     1
 40
-0.6
176
     1
 41
-30.0
176
     1
 62
     5
 63
     7
421
 16777215
176
     1
 74
     2
176
     1
 91
        2
176
     1
 64
     7
176
     1
 65
   257
176
     1
 75
     1
176
     1
175
     1
176
     1
 42
40.0
176
     1
 92
        8
176
     1
 66
     7
176
     1
 43
1.0
176
     1
 76
     1
176
     1
 77
     6
176
     1
 78
     2
176
     1
 67
     7
176
     1
 79
     3
176
     1
170
     0
176
     1
171
     0
176
     1
290
     0
176
     1
 93
        1
176
     1
 44
0.0
176
     1
173
     0
176
     1
  0
VISUALSTYLE
  5
35
102
{ACAD_REACTORS
330
2A
102
}
330
2A
100
AcDbVisualStyle
  2
Dim
 70
    11
177
     2
291
     1
 71
     2
176
     1
 72
     2
176
     1
 73
     0
176
     1
 90
        0
176
     1
 40
-0.6
176
     1
 41
-30.0
176
     1
 62
     5
 63
     7
421
 16777215
176
     1
 74
     1
176
     1
 91
        4
176
     1
 64
     7
176
     1
 65
   257
176
     1
 75
     1
176
     1
175
     1
176
     1
 42
1.0
176
     1
 92
        8
176
     1
 66
     7
176
     1
 43
1.0
176
     1
 76
     1
176
     1
 77
     6
176
     1
 78
     2
176
     1
 67
     7
176
     1
 79
     5
176
     1
170
     0
176
     1
171
     0
176
     1
290
     0
176
     1
 93
        1
176
     1
 44
-50.0
176
     1
173
     0
176
     1
  0
VISUALSTYLE
  5
39
102
{ACAD_REACTORS
330
2A
102
}
330
2A
100
AcDbVisualStyle
  2
Facepattern
 70
    15
177
     2
291
     1
 71
     2
176
     1
 72
     2
176
     1
 73
     0
176
     1
 90
        0
176
     1
 40
-0.6
176
     1
 41
-30.0
176
     1
 62
     5
 63
     7
421
 16777215
176
     1
 74
     1
176
     1
 91
        4
176
     1
 64
     7
176
     1
 65
   257
176
     1
 75
     1
176
     1
175
     1
176
     1
 42
1.0
176
     1
 92
        8
176
     1
 66
     7
176
     1
 43
1.0
176
     1
 76
     1
176
     1
 77
     6
176
     1
 78
     2
176
     1
 67
     7
176
     1
 79
     5
176
     1
170
     0
176
     1
171
     0
176
     1
290
     0
176
     1
 93
        1
176
     1
 44
0.0
176
     1
173
     0
176
     1
  0
VISUALSTYLE
  5
2B
102
{ACAD_REACTORS
330
2A
102
}
330
2A
100
AcDbVisualStyle
  2
Flat
 70
     0
177
     2
291
     1
 71
     2
176
     1
 72
     1
176
     1
 73
     1
176
     1
 90
        2
176
     1
 40
-0.6
176
     1
 41
30.0
176
     1
 62
     5
 63
     7
421
 16777215
176
     1
 74
     0
176
     1
 91
        4
176
     1
 64
     7
176
     1
 65
   257
176
     1
 75
     1
176
     1
175
     1
176
     1
 42
1.0
176
     1
 92
        8
176
     1
 66
     7
176
     1
 43
1.0
176
     1
 76
     1
176
     1
 77
     6
176
     1
 78
     2
176
     1
 67
     7
176
     1
 79
     5
176
     1
170
     0
176
     1
171
     0
176
     1
290
     0
176
     1
 93
       13
176
     1
 44
0.0
176
     1
173
     0
176
     1
  0
VISUALSTYLE
  5
2C
102
{ACAD_REACTORS
330
2A
102
}
330
2A
100
AcDbVisualStyle
  2
FlatWithEdges
 70
     1
177
     2
291
     1
 71
     2
176
     1
 72
     1
176
     1
 73
     1
176
     1
 90
        2
176
     1
 40
-0.6
176
     1
 41
30.0
176
     1
 62
     5
 63
     7
421
 16777215
176
     1
 74
     1
176
     1
 91
        4
176
     1
 64
     7
176
     1
 65
   257
176
     1
 75
     1
176
     1
175
     1
176
     1
 42
1.0
176
     1
 92
        0
176
     1
 66
   257
176
     1
 43
1.0
176
     1
 76
     1
176
     1
 77
     6
176
     1
 78
     2
176
     1
 67
     7
176
     1
 79
     5
176
     1
170
     0
176
     1
171
     0
176
     1
290
     0
176
     1
 93
       13
176
     1
 44
0.0
176
     1
173
     0
176
     1
  0
VISUALSTYLE
  5
2D
102
{ACAD_REACTORS
330
2A
102
}
330
2A
100
AcDbVisualStyle
  2
Gouraud
 70
     2
177
     2
291
     1
 71
     2
176
     1
 72
     2
176
     1
 73
     1
176
     1
 90
        2
176
     1
 40
-0.6
176
     1
 41
30.0
176
     1
 62
     5
 63
     7
421
 16777215
176
     1
 74
     0
176
     1
 91
        4
176
     1
 64
     7
176
     1
 65
   257
176
     1
 75
     1
176
     1
175
     1
176
     1
 42
1.0
176
     1
 92
        0
176
     1
 66
     7
176
     1
 43
1.0
176
     1
 76
     1
176
     1
 77
     6
176
     1
 78
     2
176
     1
 67
     7
176
     1
 79
     5
176
     1
170
     0
176
     1
171
     0
176
     1
290
     0
176
     1
 93
       13
176
     1
 44
0.0
176
     1
173
     0
176
     1
  0
VISUALSTYLE
  5
2E
102
{ACAD_REACTORS
330
2A
102
}
330
2A
100
AcDbVisualStyle
  2
GouraudWithEdges
 70
     3
177
     2
291
     1
 71
     2
176
     1
 72
     2
176
     1
 73
     1
176
     1
 90
        2
176
     1
 40
-0.6
176
     1
 41
30.0
176
     1
 62
     5
 63
     7
421
 16777215
176
     1
 74
     1
176
     1
 91
        4
176
     1
 64
     7
176
     1
 65
   257
176
     1
 75
     1
176
     1
175
     1
176
     1
 42
1.0
176
     1
 92
        0
176
     1
 66
   257
176
     1
 43
1.0
176
     1
 76
     1
176
     1
 77
     6
176
     1
 78
     2
176
     1
 67
     7
176
     1
 79
     5
176
     1
170
     0
176
     1
171
     0
176
     1
290
     0
176
     1
 93
       13
176
     1
 44
0.0
176
     1
173
     0
176
     1
  0
VISUALSTYLE
  5
38
102
{ACAD_REACTORS
330
2A
102
}
330
2A
100
AcDbVisualStyle
  2
Linepattern
 70
    14
177
     2
291
     1
 71
     2
176
     1
 72
     2
176
     1
 73
     0
176
     1
 90
        0
176
     1
 40
-0.6
176
     1
 41
-30.0
176
     1
 62
     5
 63
     7
421
 16777215
176
     1
 74
     1
176
     1
 91
        4
176
     1
 64
     7
176
     1
 65
   257
176
     1
 75
     7
176
     1
175
     7
176
     1
 42
1.0
176
     1
 92
        8
176
     1
 66
     7
176
     1
 43
1.0
176
     1
 76
     1
176
     1
 77
     6
176
     1
 78
     2
176
     1
 67
     7
176
     1
 79
     5
176
     1
170
     0
176
     1
171
     0
176
     1
290
     0
176
     1
 93
        1
176
     1
 44
0.0
176
     1
173
     0
176
     1
  0
VISUALSTYLE
  5
33
102
{ACAD_REACTORS
330
2A
102
}
330
2A
100
AcDbVisualStyle
  2
Realistic
 70
     8
177
     2
291
     0
 71
     2
176
     1
 72
     2
176
     1
 73
     0
176
     1
 90
        0
176
     1
 40
-0.6
176
     1
 41
-30.0
176
     1
 62
     5
 63
     7
421
 16777215
176
     1
 74
     1
176
     1
 91
        0
176
     1
 64
     7
176
     1
 65
   257
176
     1
 75
     1
176
     1
175
     1
176
     1
 42
1.0
176
     1
 92
        8
176
     1
 66
     8
424
  7895160
176
     1
 43
1.0
176
     1
 76
     1
176
     1
 77
     6
176
     1
 78
     2
176
     1
 67
     7
176
     1
 79
     5
176
     1
170
     0
176
     1
171
     0
176
     1
290
     0
176
     1
 93
       13
176
     1
 44
0.0
176
     1
173
     0
176
     1
  0
VISUALSTYLE
  5
37
102
{ACAD_REACTORS
330
2A
102
}
330
2A
100
AcDbVisualStyle
  2
Thicken
 70
    13
177
     2
291
     1
 71
     2
176
     1
 72
     2
176
     1
 73
     0
176
     1
 90
        0
176
     1
 40
-0.6
176
     1
 41
-30.0
176
     1
 62
     5
 63
     7
421
 16777215
176
     1
 74
     1
176
     1
 91
        4
176
     1
 64
     7
176
     1
 65
   257
176
     1
 75
     1
176
     1
175
     1
176
     1
 42
1.0
176
     1
 92
       12
176
     1
 66
     7
176
     1
 43
1.0
176
     1
 76
     1
176
     1
 77
     6
176
     1
 78
     2
176
     1
 67
     7
176
     1
 79
     5
176
     1
170
     0
176
     1
171
     0
176
     1
290
     0
176
     1
 93
        1
176
     1
 44
0.0
176
     1
173
     0
176
     1
  0
ENDSEC
  0
EOF
