  0
SECTION
  2
HEADER
  9
$ACADVER
  1
AC1024
  9
$ACADMAINTVER
 70
     6
  9
$DWGCODEPAGE
  3
UNDEFINED
  9
$INSBASE
 10
0.0
 20
0.0
 30
0.0
  9
$EXTMIN
 10
1.000000000000000E+20
 20
1.000000000000000E+20
 30
1.000000000000000E+20
  9
$EXTMAX
 10
-1.000000000000000E+20
 20
-1.000000000000000E+20
 30
-1.000000000000000E+20
  9
$LIMMIN
 10
0.0
 20
0.0
  9
$LIMMAX
 10
12.0
 20
9.0
  9
$ORTHOMODE
 70
     0
  9
$REGENMODE
 70
     1
  9
$FILLMODE
 70
     1
  9
$QTEXTMODE
 70
     0
  9
$MIRRTEXT
 70
     1
  9
$LTSCALE
 40
1.0
  9
$ATTMODE
 70
     1
  9
$TEXTSIZE
 40
0.2
  9
$TRACEWID
 40
0.05
  9
$TEXTSTYLE
  7
Standard
  9
$CLAYER
  8
0
  9
$CELTYPE
  6
ByLayer
  9
$CECOLOR
 62
   256
  9
$CELTSCALE
 40
1.0
  9
$DISPSILH
 70
     0
  9
$DIMSCALE
 40
1.0
  9
$DIMASZ
 40
0.18
  9
$DIMEXO
 40
0.0625
  9
$DIMDLI
 40
0.38
  9
$DIMRND
 40
0.0
  9
$DIMDLE
 40
0.0
  9
$DIMEXE
 40
0.18
  9
$DIMTP
 40
0.0
  9
$DIMTM
 40
0.0
  9
$DIMTXT
 40
0.18
  9
$DIMCEN
 40
0.09
  9
$DIMTSZ
 40
0.0
  9
$DIMTOL
 70
     0
  9
$DIMLIM
 70
     0
  9
$DIMTIH
 70
     1
  9
$DIMTOH
 70
     1
  9
$DIMSE1
 70
     0
  9
$DIMSE2
 70
     0
  9
$DIMTAD
 70
     0
  9
$DIMZIN
 70
     0
  9
$DIMBLK
  1

  9
$DIMASO
 70
     1
  9
$DIMSHO
 70
     1
  9
$DIMPOST
  1

  9
$DIMAPOST
  1

  9
$DIMALT
 70
     0
  9
$DIMALTD
 70
     2
  9
$DIMALTF
 40
25.4
  9
$DIMLFAC
 40
1.0
  9
$DIMTOFL
 70
     0
  9
$DIMTVP
 40
0.0
  9
$DIMTIX
 70
     0
  9
$DIMSOXD
 70
     0
  9
$DIMSAH
 70
     0
  9
$DIMBLK1
  1

  9
$DIMBLK2
  1

  9
$DIMSTYLE
  2
Standard
  9
$DIMCLRD
 70
     0
  9
$DIMCLRE
 70
     0
  9
$DIMCLRT
 70
     0
  9
$DIMTFAC
 40
1.0
  9
$DIMGAP
 40
0.09
  9
$DIMJUST
 70
     0
  9
$DIMSD1
 70
     0
  9
$DIMSD2
 70
     0
  9
$DIMTOLJ
 70
     1
  9
$DIMTZIN
 70
     0
  9
$DIMALTZ
 70
     0
  9
$DIMALTTZ
 70
     0
  9
$DIMUPT
 70
     0
  9
$DIMDEC
 70
     4
  9
$DIMTDEC
 70
     4
  9
$DIMALTU
 70
     2
  9
$DIMALTTD
 70
     2
  9
$DIMTXSTY
  7
Standard
  9
$DIMAUNIT
 70
     0
  9
$DIMADEC
 70
     0
  9
$DIMALTRND
 40
0.0
  9
$DIMAZIN
 70
     0
  9
$DIMDSEP
 70
    46
  9
$DIMATFIT
 70
     3
  9
$DIMFRAC
 70
     0
  9
$DIMLDRBLK
  1

  9
$DIMLUNIT
 70
     2
  9
$DIMLWD
 70
    -2
  9
$DIMLWE
 70
    -2
  9
$DIMTMOVE
 70
     0
  9
$DIMFXL
 40
1.0
  9
$DIMFXLON
 70
     0
  9
$DIMJOGANG
 40
0.7853981633974483
  9
$DIMTFILL
 70
     0
  9
$DIMTFILLCLR
 70
     0
  9
$DIMARCSYM
 70
     0
  9
$DIMLTYPE
  6

  9
$DIMLTEX1
  6

  9
$DIMLTEX2
  6

  9
$DIMTXTDIRECTION
 70
     0
  9
$LUNITS
 70
     2
  9
$LUPREC
 70
     4
  9
$SKETCHINC
 40
0.1
  9
$FILLETRAD
 40
0.5
  9
$AUNITS
 70
     0
  9
$AUPREC
 70
     0
  9
$MENU
  1
.
  9
$ELEVATION
 40
0.0
  9
$PELEVATION
 40
0.0
  9
$THICKNESS
 40
0.0
  9
$LIMCHECK
 70
     0
  9
$CHAMFERA
 40
0.5
  9
$CHAMFERB
 40
0.5
  9
$CHAMFERC
 40
1.0
  9
$CHAMFERD
 40
0.0
  9
$SKPOLY
 70
     0
  9
$TDCREATE
 40
2457917.614201377
  9
$TDUCREATE
 40
2457917.239201389
  9
$TDUPDATE
 40
2457917.614201377
  9
$TDUUPDATE
 40
2457917.239201389
  9
$TDINDWG
 40
0.0000000116
  9
$TDUSRTIMER
 40
0.0000000116
  9
$USRTIMER
 70
     1
  9
$ANGBASE
 50
0.0
  9
$ANGDIR
 70
     0
  9
$PDMODE
 70
     0
  9
$PDSIZE
 40
0.0
  9
$PLINEWID
 40
0.0
  9
$SPLFRAME
 70
     0
  9
$SPLINETYPE
 70
     6
  9
$SPLINESEGS
 70
     8
  9
$HANDSEED
  5
101
  9
$SURFTAB1
 70
     6
  9
$SURFTAB2
 70
     6
  9
$SURFTYPE
 70
     6
  9
$SURFU
 70
     6
  9
$SURFV
 70
     6
  9
$UCSBASE
  2

  9
$UCSNAME
  2

  9
$UCSORG
 10
0.0
 20
0.0
 30
0.0
  9
$UCSXDIR
 10
1.0
 20
0.0
 30
0.0
  9
$UCSYDIR
 10
0.0
 20
1.0
 30
0.0
  9
$UCSORTHOREF
  2

  9
$UCSORTHOVIEW
 70
     0
  9
$UCSORGTOP
 10
0.0
 20
0.0
 30
0.0
  9
$UCSORGBOTTOM
 10
0.0
 20
0.0
 30
0.0
  9
$UCSORGLEFT
 10
0.0
 20
0.0
 30
0.0
  9
$UCSORGRIGHT
 10
0.0
 20
0.0
 30
0.0
  9
$UCSORGFRONT
 10
0.0
 20
0.0
 30
0.0
  9
$UCSORGBACK
 10
0.0
 20
0.0
 30
0.0
  9
$PUCSBASE
  2

  9
$PUCSNAME
  2

  9
$PUCSORG
 10
0.0
 20
0.0
 30
0.0
  9
$PUCSXDIR
 10
1.0
 20
0.0
 30
0.0
  9
$PUCSYDIR
 10
0.0
 20
1.0
 30
0.0
  9
$PUCSORTHOREF
  2

  9
$PUCSORTHOVIEW
 70
     0
  9
$PUCSORGTOP
 10
0.0
 20
0.0
 30
0.0
  9
$PUCSORGBOTTOM
 10
0.0
 20
0.0
 30
0.0
  9
$PUCSORGLEFT
 10
0.0
 20
0.0
 30
0.0
  9
$PUCSORGRIGHT
 10
0.0
 20
0.0
 30
0.0
  9
$PUCSORGFRONT
 10
0.0
 20
0.0
 30
0.0
  9
$PUCSORGBACK
 10
0.0
 20
0.0
 30
0.0
  9
$USERI1
 70
     0
  9
$USERI2
 70
     0
  9
$USERI3
 70
     0
  9
$USERI4
 70
     0
  9
$USERI5
 70
     0
  9
$USERR1
 40
0.0
  9
$USERR2
 40
0.0
  9
$USERR3
 40
0.0
  9
$USERR4
 40
0.0
  9
$USERR5
 40
0.0
  9
$WORLDVIEW
 70
     1
  9
$SHADEDGE
 70
     3
  9
$SHADEDIF
 70
    70
  9
$TILEMODE
 70
     1
  9
$MAXACTVP
 70
    64
  9
$PINSBASE
 10
0.0
 20
0.0
 30
0.0
  9
$PLIMCHECK
 70
     0
  9
$PEXTMIN
 10
1.000000000000000E+20
 20
1.000000000000000E+20
 30
1.000000000000000E+20
  9
$PEXTMAX
 10
-1.000000000000000E+20
 20
-1.000000000000000E+20
 30
-1.000000000000000E+20
  9
$PLIMMIN
 10
0.0
 20
0.0
  9
$PLIMMAX
 10
12.0
 20
9.0
  9
$UNITMODE
 70
     0
  9
$VISRETAIN
 70
     1
  9
$PLINEGEN
 70
     0
  9
$PSLTSCALE
 70
     1
  9
$TREEDEPTH
 70
  3020
  9
$CMLSTYLE
  2
Standard
  9
$CMLJUST
 70
     0
  9
$CMLSCALE
 40
1.0
  9
$PROXYGRAPHICS
 70
     1
  9
$MEASUREMENT
 70
     0
  9
$CELWEIGHT
370
    -1
  9
$ENDCAPS
280
     0
  9
$JOINSTYLE
280
     0
  9
$LWDISPLAY
290
     1
  9
$INSUNITS
 70
     1
  9
$HYPERLINKBASE
  1

  9
$STYLESHEET
  1

  9
$XEDIT
290
     1
  9
$CEPSNTYPE
380
     0
  9
$PSTYLEMODE
290
     1
  9
$FINGERPRINTGUID
  2
{BC1D0C84-F047-AEC7-1624-52765157E2BD}
  9
$VERSIONGUID
  2
{FAEB1C32-E019-11D5-929B-00C0DF256EC4}
  9
$EXTNAMES
290
     1
  9
$PSVPSCALE
 40
0.0
  9
$OLESTARTUP
290
     0
  9
$SORTENTS
280
   127
  9
$INDEXCTL
280
     0
  9
$HIDETEXT
280
     1
  9
$XCLIPFRAME
280
     2
  9
$HALOGAP
280
     0
  9
$OBSCOLOR
 70
   257
  9
$OBSLTYPE
280
     0
  9
$INTERSECTIONDISPLAY
280
     0
  9
$INTERSECTIONCOLOR
 70
   257
  9
$DIMASSOC
280
     2
  9
$PROJECTNAME
  1

  9
$CAMERADISPLAY
290
     0
  9
$LENSLENGTH
 40
50.0
  9
$CAMERAHEIGHT
 40
0.0
  9
$STEPSPERSEC
 40
2.0
  9
$STEPSIZE
 40
6.0
  9
$3DDWFPREC
 40
2.0
  9
$PSOLWIDTH
 40
0.25
  9
$PSOLHEIGHT
 40
4.0
  9
$LOFTANG1
 40
1.570796326794897
  9
$LOFTANG2
 40
1.570796326794897
  9
$LOFTMAG1
 40
0.0
  9
$LOFTMAG2
 40
0.0
  9
$LOFTPARAM
 70
     7
  9
$LOFTNORMALS
280
     1
  9
$LATITUDE
 40
37.795
  9
$LONGITUDE
 40
-122.394
  9
$NORTHDIRECTION
 40
0.0
  9
$TIMEZONE
 70
 -8000
  9
$LIGHTGLYPHDISPLAY
280
     1
  9
$TILEMODELIGHTSYNCH
280
     1
  9
$CMATERIAL
347
3C
  9
$SOLIDHIST
280
     1
  9
$SHOWHIST
280
     1
  9
$DWFFRAME
280
     2
  9
$DGNFRAME
280
     2
  9
$REALWORLDSCALE
290
     1
  9
$INTERFERECOLOR
 62
   256
  9
$CSHADOW
280
     0
  9
$SHADOWPLANELOCATION
 40
0.0
  0
ENDSEC
  0
SECTION
  2
CLASSES
  0
CLASS
  1
ACDBDICTIONARYWDFLT
  2
AcDbDictionaryWithDefault
  3
ObjectDBX Classes
 90
        0
 91
        4
280
     0
281
     0
  0
CLASS
  1
VISUALSTYLE
  2
AcDbVisualStyle
  3
ObjectDBX Classes
 90
     4095
 91
        4
280
     0
281
     0
  0
CLASS
  1
MATERIAL
  2
AcDbMaterial
  3
ObjectDBX Classes
 90
     1153
 91
        4
280
     0
281
     0
  0
CLASS
  1
SUN
  2
AcDbSun
  3
SCENEOE
 90
     1024
 91
        4
280
     0
281
     0
  0
ENDSEC
  0
SECTION
  2
TABLES
  0
TABLE
  2
VPORT
  5
8
330
0
100
AcDbSymbolTable
 70
     1
  0
VPORT
  5
29
330
8
100
AcDbSymbolTableRecord
100
AcDbViewportTableRecord
  2
*Active
 70
     0
 10
0.0
 20
0.0
 11
1.0
 21
1.0
 12
0.0
 22
0.0
 13
0.0
 23
0.0
 14
0.5
 24
0.5
 15
0.5
 25
0.5
 16
0.0
 26
0.0
 36
1.0
 17
91.00082462281999
 27
-128.4993055234307
 37
0.0
 40
256.9986110468615
 41
0.7081814508812795
 42
50.0
 43
0.0
 44
0.0
 50
0.0
 51
0.0
 71
     0
 72
   100
 73
     1
 74
     3
 75
     0
 76
     0
 77
     0
 78
     0
281
     0
 65
     1
110
0.0
120
0.0
130
0.0
111
1.0
121
0.0
131
0.0
112
0.0
122
1.0
132
0.0
 79
     0
146
0.0
 60
     3
 61
     5
292
     1
282
     1
141
0.0
142
0.0
 63
   250
361
3F
  0
ENDTAB
  0
TABLE
  2
LTYPE
  5
5
330
0
100
AcDbSymbolTable
 70
     1
  0
LTYPE
  5
14
330
5
100
AcDbSymbolTableRecord
100
AcDbLinetypeTableRecord
  2
ByBlock
 70
     0
  3

 72
    65
 73
     0
 40
0.0
  0
LTYPE
  5
15
330
5
100
AcDbSymbolTableRecord
100
AcDbLinetypeTableRecord
  2
ByLayer
 70
     0
  3

 72
    65
 73
     0
 40
0.0
  0
LTYPE
  5
16
330
5
100
AcDbSymbolTableRecord
100
AcDbLinetypeTableRecord
  2
Continuous
 70
     0
  3
Solid line
 72
    65
 73
     0
 40
0.0
  0
ENDTAB
  0
TABLE
  2
LAYER
  5
2
330
0
100
AcDbSymbolTable
 70
     2
  0
LAYER
  5
10
330
2
100
AcDbSymbolTableRecord
100
AcDbLayerTableRecord
  2
0
 70
     0
 62
     7
  6
Continuous
370
    -3
390
F
347
3E
  0
LAYER
  5
40
330
2
100
AcDbSymbolTableRecord
100
AcDbLayerTableRecord
  2
_U+30EC_U+30A4_U+30E4_U+30FC 1
 70
     0
 62
     7
  6
Continuous
370
    -3
390
F
347
3E
  0
ENDTAB
  0
TABLE
  2
STYLE
  5
3
330
0
100
AcDbSymbolTable
 70
     1
  0
STYLE
  5
11
330
3
100
AcDbSymbolTableRecord
100
AcDbTextStyleTableRecord
  2
Standard
 70
     0
 40
0.0
 41
1.0
 50
0.0
 71
     0
 42
0.2
  3
txt
  4

  0
ENDTAB
  0
TABLE
  2
VIEW
  5
6
330
0
100
AcDbSymbolTable
 70
     0
  0
ENDTAB
  0
TABLE
  2
UCS
  5
7
330
0
100
AcDbSymbolTable
 70
     0
  0
ENDTAB
  0
TABLE
  2
APPID
  5
9
330
0
100
AcDbSymbolTable
 70
     1
  0
APPID
  5
12
330
9
100
AcDbSymbolTableRecord
100
AcDbRegAppTableRecord
  2
ACAD
 70
     0
  0
ENDTAB
  0
TABLE
  2
DIMSTYLE
  5
A
330
0
100
AcDbSymbolTable
 70
     1
100
AcDbDimStyleTable
  0
DIMSTYLE
105
27
330
A
100
AcDbSymbolTableRecord
100
AcDbDimStyleTableRecord
  2
Standard
 70
     0
178
     0
340
11
  0
ENDTAB
  0
TABLE
  2
BLOCK_RECORD
  5
1
330
0
100
AcDbSymbolTable
 70
    10
  0
BLOCK_RECORD
  5
1F
330
1
100
AcDbSymbolTableRecord
100
AcDbBlockTableRecord
  2
*Model_Space
340
22
 70
     0
280
     1
281
     0
  0
BLOCK_RECORD
  5
1B
330
1
100
AcDbSymbolTableRecord
100
AcDbBlockTableRecord
  2
*Paper_Space
340
1E
 70
     0
280
     1
281
     0
  0
BLOCK_RECORD
  5
23
330
1
100
AcDbSymbolTableRecord
100
AcDbBlockTableRecord
  2
*Paper_Space0
340
26
 70
     0
280
     1
281
     0
  0
BLOCK_RECORD
  5
BB
330
1
100
AcDbSymbolTableRecord
100
AcDbBlockTableRecord
  2
block 2
340
0
102
{BLKREFS
331
BC
102
}
 70
     0
280
     1
281
     0
  0
BLOCK_RECORD
  5
C4
330
1
100
AcDbSymbolTableRecord
100
AcDbBlockTableRecord
  2
block 3
340
0
102
{BLKREFS
331
C5
102
}
 70
     0
280
     1
281
     0
  0
BLOCK_RECORD
  5
CA
330
1
100
AcDbSymbolTableRecord
100
AcDbBlockTableRecord
  2
block 4
340
0
102
{BLKREFS
331
CB
102
}
 70
     0
280
     1
281
     0
  0
BLOCK_RECORD
  5
D2
330
1
100
AcDbSymbolTableRecord
100
AcDbBlockTableRecord
  2
block 5
340
0
102
{BLKREFS
331
D3
102
}
 70
     0
280
     1
281
     0
  0
BLOCK_RECORD
  5
DA
330
1
100
AcDbSymbolTableRecord
100
AcDbBlockTableRecord
  2
block 6
340
0
102
{BLKREFS
331
DB
102
}
 70
     0
280
     1
281
     0
  0
BLOCK_RECORD
  5
E3
330
1
100
AcDbSymbolTableRecord
100
AcDbBlockTableRecord
  2
block 7
340
0
102
{BLKREFS
331
E4
102
}
 70
     0
280
     1
281
     0
  0
BLOCK_RECORD
  5
EB
330
1
100
AcDbSymbolTableRecord
100
AcDbBlockTableRecord
  2
block 8
340
0
102
{BLKREFS
331
EC
102
}
 70
     0
280
     1
281
     0
  0
BLOCK_RECORD
  5
F1
330
1
100
AcDbSymbolTableRecord
100
AcDbBlockTableRecord
  2
block 9
340
0
102
{BLKREFS
331
F2
102
}
 70
     0
280
     1
281
     0
  0
BLOCK_RECORD
  5
F7
330
1
100
AcDbSymbolTableRecord
100
AcDbBlockTableRecord
  2
block 10
340
0
102
{BLKREFS
331
F8
102
}
 70
     0
280
     1
281
     0
  0
ENDTAB
  0
ENDSEC
  0
SECTION
  2
BLOCKS
  0
BLOCK
  5
20
330
1F
100
AcDbEntity
  8
0
100
AcDbBlockBegin
  2
*Model_Space
 70
     0
 10
0.0
 20
0.0
 30
0.0
  3
*Model_Space
  1

  0
ENDBLK
  5
21
330
1F
100
AcDbEntity
  8
0
100
AcDbBlockEnd
  0
BLOCK
  5
1C
330
1B
100
AcDbEntity
 67
     1
  8
0
100
AcDbBlockBegin
  2
*Paper_Space
 70
     0
 10
0.0
 20
0.0
 30
0.0
  3
*Paper_Space
  1

  0
ENDBLK
  5
1D
330
1B
100
AcDbEntity
 67
     1
  8
0
100
AcDbBlockEnd
  0
BLOCK
  5
24
330
23
100
AcDbEntity
  8
0
100
AcDbBlockBegin
  2
*Paper_Space0
 70
     0
 10
0.0
 20
0.0
 30
0.0
  3
*Paper_Space0
  1

  0
ENDBLK
  5
25
330
23
100
AcDbEntity
  8
0
100
AcDbBlockEnd
  0
BLOCK
  5
BD
330
BB
100
AcDbEntity
  8
0
100
AcDbBlockBegin
  2
block 2
 70
     0
 10
0.0
 20
0.0
 30
0.0
  3
block 2
  1

  0
SPLINE
  5
BF
330
BB
100
AcDbEntity
  8
_U+30EC_U+30A4_U+30E4_U+30FC 1
370
     0
100
AcDbSpline
210
0.0
220
0.0
230
1.0
 70
    11
 71
     3
 72
    26
 73
    22
 74
     0
 42
0.0000000001
 43
0.0000000001
 12
1.0
 22
0.0
 32
0.0
 13
1.0
 23
0.0
 33
0.0
 40
0.0
 40
0.0
 40
0.0
 40
0.0
 40
1.0
 40
1.0
 40
1.0
 40
2.0
 40
2.0
 40
2.0
 40
3.0
 40
3.0
 40
3.0
 40
4.0
 40
4.0
 40
4.0
 40
5.0
 40
5.0
 40
5.0
 40
6.0
 40
6.0
 40
6.0
 40
7.0
 40
7.0
 40
7.0
 40
7.0
 10
76.05961233992608
 20
-142.0257839271672
 30
0.0
 10
76.05961233992608
 20
-142.0257839271672
 30
0.0
 10
74.95528698212924
 20
-142.0257839271672
 30
0.0
 10
74.95528698212924
 20
-142.0257839271672
 30
0.0
 10
74.95528698212924
 20
-142.0257839271672
 30
0.0
 10
74.95528698212924
 20
-142.3558240746541
 30
0.0
 10
74.95528698212924
 20
-142.3558240746541
 30
0.0
 10
74.95528698212924
 20
-142.3558240746541
 30
0.0
 10
74.8071478762635
 20
-142.3558240746541
 30
0.0
 10
74.8071478762635
 20
-142.3558240746541
 30
0.0
 10
74.79250622045119
 20
-142.023716869876
 30
0.0
 10
74.62955320399887
 20
-141.9772080808251
 30
0.0
 10
74.51534828866284
 20
-141.947580259652
 30
0.0
 10
74.51534828866284
 20
-141.947580259652
 30
0.0
 10
74.51534828866284
 20
-141.8015082110774
 30
0.0
 10
74.51534828866284
 20
-141.8015082110774
 30
0.0
 10
74.51534828866284
 20
-141.8015082110774
 30
0.0
 10
76.05961233992608
 20
-141.8015082110774
 30
0.0
 10
76.05961233992608
 20
-141.8015082110774
 30
0.0
 10
76.05961233992608
 20
-141.8015082110774
 30
0.0
 10
76.05961233992608
 20
-142.0257839271672
 30
0.0
 10
76.05961233992608
 20
-142.0257839271672
 30
0.0
  0
HATCH
  5
C0
330
BB
100
AcDbEntity
  8
_U+30EC_U+30A4_U+30E4_U+30FC 1
 62
     7
420
 16777215
100
AcDbHatch
 10
0.0
 20
0.0
 30
0.0
210
0.0
220
0.0
230
1.0
  2
SOLID
 70
     1
 71
     0
 91
        1
 92
        1
 93
        1
 72
     4
 94
        3
 73
     0
 74
     1
 95
       26
 96
       22
 40
0.0
 40
0.0
 40
0.0
 40
0.0
 40
1.0
 40
1.0
 40
1.0
 40
2.0
 40
2.0
 40
2.0
 40
3.0
 40
3.0
 40
3.0
 40
4.0
 40
4.0
 40
4.0
 40
5.0
 40
5.0
 40
5.0
 40
6.0
 40
6.0
 40
6.0
 40
7.0
 40
7.0
 40
7.0
 40
7.0
 10
76.05961233992608
 20
-142.0257839271672
 10
76.05961233992608
 20
-142.0257839271672
 10
74.95528698212924
 20
-142.0257839271672
 10
74.95528698212924
 20
-142.0257839271672
 10
74.95528698212924
 20
-142.0257839271672
 10
74.95528698212924
 20
-142.3558240746541
 10
74.95528698212924
 20
-142.3558240746541
 10
74.95528698212924
 20
-142.3558240746541
 10
74.8071478762635
 20
-142.3558240746541
 10
74.8071478762635
 20
-142.3558240746541
 10
74.79250622045119
 20
-142.023716869876
 10
74.62955320399887
 20
-141.9772080808251
 10
74.51534828866284
 20
-141.947580259652
 10
74.51534828866284
 20
-141.947580259652
 10
74.51534828866284
 20
-141.8015082110774
 10
74.51534828866284
 20
-141.8015082110774
 10
74.51534828866284
 20
-141.8015082110774
 10
76.05961233992608
 20
-141.8015082110774
 10
76.05961233992608
 20
-141.8015082110774
 10
76.05961233992608
 20
-141.8015082110774
 10
76.05961233992608
 20
-142.0257839271672
 10
76.05961233992608
 20
-142.0257839271672
 97
        0
 97
        0
 75
     2
 76
     1
 98
        0
  0
SPLINE
  5
C1
330
BB
100
AcDbEntity
  8
_U+30EC_U+30A4_U+30E4_U+30FC 1
370
     0
100
AcDbSpline
210
0.0
220
0.0
230
1.0
 70
    11
 71
     3
 72
    29
 73
    25
 74
     0
 42
0.0000000001
 43
0.0000000001
 12
1.0
 22
0.0
 32
0.0
 13
1.0
 23
0.0
 33
0.0
 40
0.0
 40
0.0
 40
0.0
 40
0.0
 40
1.0
 40
1.0
 40
1.0
 40
2.0
 40
2.0
 40
2.0
 40
3.0
 40
3.0
 40
3.0
 40
4.0
 40
4.0
 40
4.0
 40
5.0
 40
5.0
 40
5.0
 40
6.0
 40
6.0
 40
6.0
 40
7.0
 40
7.0
 40
7.0
 40
8.0
 40
8.0
 40
8.0
 40
8.0
 10
75.88184541288719
 20
-140.4024549345174
 30
0.0
 10
76.09130721839037
 20
-140.5106309327543
 30
0.0
 10
76.11042749833351
 20
-140.6839192356624
 30
0.0
 10
76.11042749833351
 20
-140.8003634630638
 30
0.0
 10
76.11042749833351
 20
-140.961249422225
 30
0.0
 10
76.06391870928263
 20
-141.1028428466688
 30
0.0
 10
75.88184541288719
 20
-141.1979274820616
 30
0.0
 10
75.68736977274483
 20
-141.3016248561676
 30
0.0
 10
75.45034720335964
 20
-141.3209173908851
 30
0.0
 10
75.28739418690732
 20
-141.3209173908851
 30
0.0
 10
75.14356145039814
 20
-141.3209173908851
 30
0.0
 10
74.89189722520064
 20
-141.3036919134588
 30
0.0
 10
74.69294296092747
 20
-141.1979274820616
 30
0.0
 10
74.48985458207198
 20
-141.0900959933733
 30
0.0
 10
74.46660018754655
 20
-140.9292100342122
 30
0.0
 10
74.46660018754655
 20
-140.8003634630638
 30
0.0
 10
74.46660018754655
 20
-140.6415445611938
 30
0.0
 10
74.51104191930627
 20
-140.4978840794589
 30
0.0
 10
74.69294296092747
 20
-140.4024549345174
 30
0.0
 10
74.88552379855292
 20
-140.3032361845422
 30
0.0
 10
75.11393362922499
 20
-140.2798095352425
 30
0.0
 10
75.28739418690732
 20
-140.2798095352425
 30
0.0
 10
75.4587876872985
 20
-140.2798095352425
 30
0.0
 10
75.68943683003597
 20
-140.3011691272511
 30
0.0
 10
75.88184541288719
 20
-140.4024549345174
 30
0.0
  0
SPLINE
  5
C2
330
BB
100
AcDbEntity
  8
_U+30EC_U+30A4_U+30E4_U+30FC 1
370
     0
100
AcDbSpline
210
0.0
220
0.0
230
1.0
 70
    11
 71
     3
 72
    17
 73
    13
 74
     0
 42
0.0000000001
 43
0.0000000001
 12
1.0
 22
0.0
 32
0.0
 13
1.0
 23
0.0
 33
0.0
 40
0.0
 40
0.0
 40
0.0
 40
0.0
 40
1.0
 40
1.0
 40
1.0
 40
2.0
 40
2.0
 40
2.0
 40
3.0
 40
3.0
 40
3.0
 40
4.0
 40
4.0
 40
4.0
 40
4.0
 10
74.65918102517202
 20
-140.8003634630638
 30
0.0
 10
74.65918102517202
 20
-141.0501328857444
 30
0.0
 10
74.94254012883381
 20
-141.0966416747953
 30
0.0
 10
75.28739418690732
 20
-141.0966416747953
 30
0.0
 10
75.60692679316425
 20
-141.0966416747953
 30
0.0
 10
75.9157796034169
 20
-141.0604681722002
 30
0.0
 10
75.9157796034169
 20
-140.8003634630638
 30
0.0
 10
75.9157796034169
 20
-140.5526610976743
 30
0.0
 10
75.63431530227199
 20
-140.5040852513323
 30
0.0
 10
75.28739418690732
 20
-140.5040852513323
 30
0.0
 10
74.96803383542466
 20
-140.5040852513323
 30
0.0
 10
74.65918102517202
 20
-140.5423258112186
 30
0.0
 10
74.65918102517202
 20
-140.8003634630638
 30
0.0
  0
HATCH
  5
C3
330
BB
100
AcDbEntity
  8
_U+30EC_U+30A4_U+30E4_U+30FC 1
 62
     7
420
 16777215
100
AcDbHatch
 10
0.0
 20
0.0
 30
0.0
210
0.0
220
0.0
230
1.0
  2
SOLID
 70
     1
 71
     0
 91
        2
 92
        1
 93
        1
 72
     4
 94
        3
 73
     0
 74
     1
 95
       29
 96
       25
 40
0.0
 40
0.0
 40
0.0
 40
0.0
 40
1.0
 40
1.0
 40
1.0
 40
2.0
 40
2.0
 40
2.0
 40
3.0
 40
3.0
 40
3.0
 40
4.0
 40
4.0
 40
4.0
 40
5.0
 40
5.0
 40
5.0
 40
6.0
 40
6.0
 40
6.0
 40
7.0
 40
7.0
 40
7.0
 40
8.0
 40
8.0
 40
8.0
 40
8.0
 10
75.88184541288719
 20
-140.4024549345174
 10
76.09130721839037
 20
-140.5106309327543
 10
76.11042749833351
 20
-140.6839192356624
 10
76.11042749833351
 20
-140.8003634630638
 10
76.11042749833351
 20
-140.961249422225
 10
76.06391870928263
 20
-141.1028428466688
 10
75.88184541288719
 20
-141.1979274820616
 10
75.68736977274483
 20
-141.3016248561676
 10
75.45034720335964
 20
-141.3209173908851
 10
75.28739418690732
 20
-141.3209173908851
 10
75.14356145039814
 20
-141.3209173908851
 10
74.89189722520064
 20
-141.3036919134588
 10
74.69294296092747
 20
-141.1979274820616
 10
74.48985458207198
 20
-141.0900959933733
 10
74.46660018754655
 20
-140.9292100342122
 10
74.46660018754655
 20
-140.8003634630638
 10
74.46660018754655
 20
-140.6415445611938
 10
74.51104191930627
 20
-140.4978840794589
 10
74.69294296092747
 20
-140.4024549345174
 10
74.88552379855292
 20
-140.3032361845422
 10
75.11393362922499
 20
-140.2798095352425
 10
75.28739418690732
 20
-140.2798095352425
 10
75.4587876872985
 20
-140.2798095352425
 10
75.68943683003597
 20
-140.3011691272511
 10
75.88184541288719
 20
-140.4024549345174
 97
        0
 97
        0
 92
        1
 93
        1
 72
     4
 94
        3
 73
     0
 74
     1
 95
       17
 96
       13
 40
0.0
 40
0.0
 40
0.0
 40
0.0
 40
1.0
 40
1.0
 40
1.0
 40
2.0
 40
2.0
 40
2.0
 40
3.0
 40
3.0
 40
3.0
 40
4.0
 40
4.0
 40
4.0
 40
4.0
 10
74.65918102517202
 20
-140.8003634630638
 10
74.65918102517202
 20
-141.0501328857444
 10
74.94254012883381
 20
-141.0966416747953
 10
75.28739418690732
 20
-141.0966416747953
 10
75.60692679316425
 20
-141.0966416747953
 10
75.9157796034169
 20
-141.0604681722002
 10
75.9157796034169
 20
-140.8003634630638
 10
75.9157796034169
 20
-140.5526610976743
 10
75.63431530227199
 20
-140.5040852513323
 10
75.28739418690732
 20
-140.5040852513323
 10
74.96803383542466
 20
-140.5040852513323
 10
74.65918102517202
 20
-140.5423258112186
 10
74.65918102517202
 20
-140.8003634630638
 97
        0
 97
        0
 75
     2
 76
     1
 98
        0
  0
ENDBLK
  5
BE
330
BB
100
AcDbEntity
  8
0
100
AcDbBlockEnd
  0
BLOCK
  5
C6
330
C4
100
AcDbEntity
  8
0
100
AcDbBlockBegin
  2
block 3
 70
     0
 10
0.0
 20
0.0
 30
0.0
  3
block 3
  1

  0
SPLINE
  5
C8
330
C4
100
AcDbEntity
  8
_U+30EC_U+30A4_U+30E4_U+30FC 1
370
     0
100
AcDbSpline
210
0.0
220
0.0
230
1.0
 70
    11
 71
     3
 72
    62
 73
    58
 74
     0
 42
0.0000000001
 43
0.0000000001
 12
1.0
 22
0.0
 32
0.0
 13
1.0
 23
0.0
 33
0.0
 40
0.0
 40
0.0
 40
0.0
 40
0.0
 40
1.0
 40
1.0
 40
1.0
 40
2.0
 40
2.0
 40
2.0
 40
3.0
 40
3.0
 40
3.0
 40
4.0
 40
4.0
 40
4.0
 40
5.0
 40
5.0
 40
5.0
 40
6.0
 40
6.0
 40
6.0
 40
7.0
 40
7.0
 40
7.0
 40
8.0
 40
8.0
 40
8.0
 40
9.0
 40
9.0
 40
9.0
 40
10.0
 40
10.0
 40
10.0
 40
11.0
 40
11.0
 40
11.0
 40
12.0
 40
12.0
 40
12.0
 40
13.0
 40
13.0
 40
13.0
 40
14.0
 40
14.0
 40
14.0
 40
15.0
 40
15.0
 40
15.0
 40
16.0
 40
16.0
 40
16.0
 40
17.0
 40
17.0
 40
17.0
 40
18.0
 40
18.0
 40
18.0
 40
19.0
 40
19.0
 40
19.0
 40
19.0
 10
106.0644992139353
 20
-156.8720784113028
 30
0.0
 10
106.0644992139353
 20
-156.9675075562442
 30
0.0
 10
106.0431396219267
 20
-157.185237590912
 30
0.0
 10
105.8571044657232
 20
-157.3102945570266
 30
0.0
 10
105.7447943529041
 20
-157.3843641099595
 30
0.0
 10
105.6455756029289
 20
-157.3884982245418
 30
0.0
 10
105.5608262539917
 20
-157.3926323391241
 30
0.0
 10
105.5608262539917
 20
-157.3926323391241
 30
0.0
 10
105.5608262539917
 20
-157.1724907376166
 30
0.0
 10
105.5608262539917
 20
-157.1724907376166
 30
0.0
 10
105.6348958069246
 20
-157.1704236803255
 30
0.0
 10
105.8698513190187
 20
-157.1600883938697
 30
0.0
 10
105.8698513190187
 20
-156.8765570354336
 30
0.0
 10
105.8698513190187
 20
-156.7390977255722
 30
0.0
 10
105.7999158806681
 20
-156.5864799955756
 30
0.0
 10
105.571506049996
 20
-156.5864799955756
 30
0.0
 10
105.4550618225946
 20
-156.5864799955756
 30
0.0
 10
105.4064859762526
 20
-156.6247205554619
 30
0.0
 10
105.3747910977882
 20
-156.6564154339262
 30
0.0
 10
105.3007215448554
 20
-156.730484986859
 30
0.0
 10
105.28797469156
 20
-156.8469292142605
 30
0.0
 10
105.28797469156
 20
-156.901706232476
 30
0.0
 10
105.28797469156
 20
-156.9209987671934
 30
0.0
 10
105.2900417488511
 20
-156.95682776024
 30
0.0
 10
105.2941758634334
 20
-156.984388524122
 30
0.0
 10
105.2941758634334
 20
-156.984388524122
 30
0.0
 10
105.0998724780653
 20
-156.984388524122
 30
0.0
 10
105.0998724780653
 20
-156.984388524122
 30
0.0
 10
105.1060736499388
 20
-156.9461479642357
 30
0.0
 10
105.1081407072299
 20
-156.9041177993157
 30
0.0
 10
105.1081407072299
 20
-156.8975721178937
 30
0.0
 10
105.1081407072299
 20
-156.8321153036739
 30
0.0
 10
105.0871256247699
 20
-156.633333294175
 30
0.0
 10
104.8501030553847
 20
-156.633333294175
 30
0.0
 10
104.6723361283458
 20
-156.633333294175
 30
0.0
 10
104.6172146005818
 20
-156.7642469226145
 30
0.0
 10
104.6172146005818
 20
-156.8744899781425
 30
0.0
 10
104.6172146005818
 20
-157.1387288018612
 30
0.0
 10
104.8501030553847
 20
-157.1473415405743
 30
0.0
 10
104.9221055510264
 20
-157.1514756551566
 30
0.0
 10
104.9221055510264
 20
-157.1514756551566
 30
0.0
 10
104.9221055510264
 20
-157.3547362887863
 30
0.0
 10
104.9221055510264
 20
-157.3547362887863
 30
0.0
 10
104.7970485849118
 20
-157.3461235500732
 30
0.0
 10
104.420499648374
 20
-157.3185627861912
 30
0.0
 10
104.420499648374
 20
-156.8617431248471
 30
0.0
 10
104.420499648374
 20
-156.6374674087573
 30
0.0
 10
104.5476236717798
 20
-156.3963107247898
 30
0.0
 10
104.8435573739627
 20
-156.3963107247898
 30
0.0
 10
105.0299370397147
 20
-156.3963107247898
 30
0.0
 10
105.1122748218122
 20
-156.4913953601827
 30
0.0
 10
105.1735975214497
 20
-156.5909586197064
 30
0.0
 10
105.2011582853317
 20
-156.529635920069
 30
0.0
 10
105.2817735196865
 20
-156.3477348784478
 30
0.0
 10
105.5587591967006
 20
-156.3477348784478
 30
0.0
 10
105.8974120829007
 20
-156.3477348784478
 30
0.0
 10
106.0644992139353
 20
-156.5950927342887
 30
0.0
 10
106.0644992139353
 20
-156.8720784113028
 30
0.0
  0
HATCH
  5
C9
330
C4
100
AcDbEntity
  8
_U+30EC_U+30A4_U+30E4_U+30FC 1
 62
     7
420
 16777215
100
AcDbHatch
 10
0.0
 20
0.0
 30
0.0
210
0.0
220
0.0
230
1.0
  2
SOLID
 70
     1
 71
     0
 91
        1
 92
        1
 93
        1
 72
     4
 94
        3
 73
     0
 74
     1
 95
       62
 96
       58
 40
0.0
 40
0.0
 40
0.0
 40
0.0
 40
1.0
 40
1.0
 40
1.0
 40
2.0
 40
2.0
 40
2.0
 40
3.0
 40
3.0
 40
3.0
 40
4.0
 40
4.0
 40
4.0
 40
5.0
 40
5.0
 40
5.0
 40
6.0
 40
6.0
 40
6.0
 40
7.0
 40
7.0
 40
7.0
 40
8.0
 40
8.0
 40
8.0
 40
9.0
 40
9.0
 40
9.0
 40
10.0
 40
10.0
 40
10.0
 40
11.0
 40
11.0
 40
11.0
 40
12.0
 40
12.0
 40
12.0
 40
13.0
 40
13.0
 40
13.0
 40
14.0
 40
14.0
 40
14.0
 40
15.0
 40
15.0
 40
15.0
 40
16.0
 40
16.0
 40
16.0
 40
17.0
 40
17.0
 40
17.0
 40
18.0
 40
18.0
 40
18.0
 40
19.0
 40
19.0
 40
19.0
 40
19.0
 10
106.0644992139353
 20
-156.8720784113028
 10
106.0644992139353
 20
-156.9675075562442
 10
106.0431396219267
 20
-157.185237590912
 10
105.8571044657232
 20
-157.3102945570266
 10
105.7447943529041
 20
-157.3843641099595
 10
105.6455756029289
 20
-157.3884982245418
 10
105.5608262539917
 20
-157.3926323391241
 10
105.5608262539917
 20
-157.3926323391241
 10
105.5608262539917
 20
-157.1724907376166
 10
105.5608262539917
 20
-157.1724907376166
 10
105.6348958069246
 20
-157.1704236803255
 10
105.8698513190187
 20
-157.1600883938697
 10
105.8698513190187
 20
-156.8765570354336
 10
105.8698513190187
 20
-156.7390977255722
 10
105.7999158806681
 20
-156.5864799955756
 10
105.571506049996
 20
-156.5864799955756
 10
105.4550618225946
 20
-156.5864799955756
 10
105.4064859762526
 20
-156.6247205554619
 10
105.3747910977882
 20
-156.6564154339262
 10
105.3007215448554
 20
-156.730484986859
 10
105.28797469156
 20
-156.8469292142605
 10
105.28797469156
 20
-156.901706232476
 10
105.28797469156
 20
-156.9209987671934
 10
105.2900417488511
 20
-156.95682776024
 10
105.2941758634334
 20
-156.984388524122
 10
105.2941758634334
 20
-156.984388524122
 10
105.0998724780653
 20
-156.984388524122
 10
105.0998724780653
 20
-156.984388524122
 10
105.1060736499388
 20
-156.9461479642357
 10
105.1081407072299
 20
-156.9041177993157
 10
105.1081407072299
 20
-156.8975721178937
 10
105.1081407072299
 20
-156.8321153036739
 10
105.0871256247699
 20
-156.633333294175
 10
104.8501030553847
 20
-156.633333294175
 10
104.6723361283458
 20
-156.633333294175
 10
104.6172146005818
 20
-156.7642469226145
 10
104.6172146005818
 20
-156.8744899781425
 10
104.6172146005818
 20
-157.1387288018612
 10
104.8501030553847
 20
-157.1473415405743
 10
104.9221055510264
 20
-157.1514756551566
 10
104.9221055510264
 20
-157.1514756551566
 10
104.9221055510264
 20
-157.3547362887863
 10
104.9221055510264
 20
-157.3547362887863
 10
104.7970485849118
 20
-157.3461235500732
 10
104.420499648374
 20
-157.3185627861912
 10
104.420499648374
 20
-156.8617431248471
 10
104.420499648374
 20
-156.6374674087573
 10
104.5476236717798
 20
-156.3963107247898
 10
104.8435573739627
 20
-156.3963107247898
 10
105.0299370397147
 20
-156.3963107247898
 10
105.1122748218122
 20
-156.4913953601827
 10
105.1735975214497
 20
-156.5909586197064
 10
105.2011582853317
 20
-156.529635920069
 10
105.2817735196865
 20
-156.3477348784478
 10
105.5587591967006
 20
-156.3477348784478
 10
105.8974120829007
 20
-156.3477348784478
 10
106.0644992139353
 20
-156.5950927342887
 10
106.0644992139353
 20
-156.8720784113028
 97
        0
 97
        0
 75
     2
 76
     1
 98
        0
  0
ENDBLK
  5
C7
330
C4
100
AcDbEntity
  8
0
100
AcDbBlockEnd
  0
BLOCK
  5
CC
330
CA
100
AcDbEntity
  8
0
100
AcDbBlockBegin
  2
block 4
 70
     0
 10
0.0
 20
0.0
 30
0.0
  3
block 4
  1

  0
SPLINE
  5
CE
330
CA
100
AcDbEntity
  8
_U+30EC_U+30A4_U+30E4_U+30FC 1
370
     0
100
AcDbSpline
210
0.0
220
0.0
230
1.0
 70
    11
 71
     3
 72
    53
 73
    49
 74
     0
 42
0.0000000001
 43
0.0000000001
 12
1.0
 22
0.0
 32
0.0
 13
1.0
 23
0.0
 33
0.0
 40
0.0
 40
0.0
 40
0.0
 40
0.0
 40
1.0
 40
1.0
 40
1.0
 40
2.0
 40
2.0
 40
2.0
 40
3.0
 40
3.0
 40
3.0
 40
4.0
 40
4.0
 40
4.0
 40
5.0
 40
5.0
 40
5.0
 40
6.0
 40
6.0
 40
6.0
 40
7.0
 40
7.0
 40
7.0
 40
8.0
 40
8.0
 40
8.0
 40
9.0
 40
9.0
 40
9.0
 40
10.0
 40
10.0
 40
10.0
 40
11.0
 40
11.0
 40
11.0
 40
12.0
 40
12.0
 40
12.0
 40
13.0
 40
13.0
 40
13.0
 40
14.0
 40
14.0
 40
14.0
 40
15.0
 40
15.0
 40
15.0
 40
16.0
 40
16.0
 40
16.0
 40
16.0
 10
106.0641547043867
 20
-127.469221973341
 30
0.0
 10
106.0641547043867
 20
-127.5474256408562
 30
0.0
 10
106.0469292269605
 20
-127.6490559576711
 30
0.0
 10
105.9835394700319
 20
-127.7506862744859
 30
0.0
 10
105.8732964145039
 20
-127.923974577394
 30
0.0
 10
105.7423827860644
 20
-127.9453341694026
 30
0.0
 10
105.6345512973761
 20
-127.9642821945714
 30
0.0
 10
105.6345512973761
 20
-127.9642821945714
 30
0.0
 10
105.6345512973761
 20
-127.7420735357728
 30
0.0
 10
105.6345512973761
 20
-127.7420735357728
 30
0.0
 10
105.833333306875
 20
-127.6872965175573
 30
0.0
 10
105.8629611280482
 20
-127.5601724941516
 30
0.0
 10
105.8629611280482
 20
-127.4671549160499
 30
0.0
 10
105.8629611280482
 20
-127.3276285488973
 30
0.0
 10
105.763742378073
 20
-127.1753553284492
 30
0.0
 10
105.5308539232701
 20
-127.1753553284492
 30
0.0
 10
105.274883328716
 20
-127.1753553284492
 30
0.0
 10
105.2049478903654
 20
-127.3551893127793
 30
0.0
 10
105.2049478903654
 20
-127.475767654763
 30
0.0
 10
105.2049478903654
 20
-127.5074625332273
 30
0.0
 10
105.2049478903654
 20
-127.6490559576711
 30
0.0
 10
105.3341389710623
 20
-127.7379394211905
 30
0.0
 10
105.3341389710623
 20
-127.7379394211905
 30
0.0
 10
105.3151909458934
 20
-127.9136392909383
 30
0.0
 10
105.3151909458934
 20
-127.9136392909383
 30
0.0
 10
105.3151909458934
 20
-127.9136392909383
 30
0.0
 10
104.4690754947161
 20
-127.7930609489545
 30
0.0
 10
104.4690754947161
 20
-127.7930609489545
 30
0.0
 10
104.4690754947161
 20
-127.7930609489545
 30
0.0
 10
104.4690754947161
 20
-127.0144693692881
 30
0.0
 10
104.4690754947161
 20
-127.0144693692881
 30
0.0
 10
104.4690754947161
 20
-127.0144693692881
 30
0.0
 10
104.6633788800842
 20
-127.0144693692881
 30
0.0
 10
104.6633788800842
 20
-127.0144693692881
 30
0.0
 10
104.6633788800842
 20
-127.0144693692881
 30
0.0
 10
104.6633788800842
 20
-127.6301079325022
 30
0.0
 10
104.6633788800842
 20
-127.6301079325022
 30
0.0
 10
104.6633788800842
 20
-127.6301079325022
 30
0.0
 10
105.0864366056728
 20
-127.6955647467219
 30
0.0
 10
105.0864366056728
 20
-127.6955647467219
 30
0.0
 10
105.0526746699174
 20
-127.6342420470845
 30
0.0
 10
105.0127115622885
 20
-127.551904264987
 30
0.0
 10
105.0127115622885
 20
-127.4333929802944
 30
0.0
 10
105.0127115622885
 20
-127.1794894430315
 30
0.0
 10
105.198746718492
 20
-126.9424668736463
 30
0.0
 10
105.5115613885527
 20
-126.9424668736463
 30
0.0
 10
105.8291991922927
 20
-126.9424668736463
 30
0.0
 10
106.0641547043867
 20
-127.1667425897361
 30
0.0
 10
106.0641547043867
 20
-127.469221973341
 30
0.0
  0
HATCH
  5
CF
330
CA
100
AcDbEntity
  8
_U+30EC_U+30A4_U+30E4_U+30FC 1
 62
     7
420
 16777215
100
AcDbHatch
 10
0.0
 20
0.0
 30
0.0
210
0.0
220
0.0
230
1.0
  2
SOLID
 70
     1
 71
     0
 91
        1
 92
        1
 93
        1
 72
     4
 94
        3
 73
     0
 74
     1
 95
       53
 96
       49
 40
0.0
 40
0.0
 40
0.0
 40
0.0
 40
1.0
 40
1.0
 40
1.0
 40
2.0
 40
2.0
 40
2.0
 40
3.0
 40
3.0
 40
3.0
 40
4.0
 40
4.0
 40
4.0
 40
5.0
 40
5.0
 40
5.0
 40
6.0
 40
6.0
 40
6.0
 40
7.0
 40
7.0
 40
7.0
 40
8.0
 40
8.0
 40
8.0
 40
9.0
 40
9.0
 40
9.0
 40
10.0
 40
10.0
 40
10.0
 40
11.0
 40
11.0
 40
11.0
 40
12.0
 40
12.0
 40
12.0
 40
13.0
 40
13.0
 40
13.0
 40
14.0
 40
14.0
 40
14.0
 40
15.0
 40
15.0
 40
15.0
 40
16.0
 40
16.0
 40
16.0
 40
16.0
 10
106.0641547043867
 20
-127.469221973341
 10
106.0641547043867
 20
-127.5474256408562
 10
106.0469292269605
 20
-127.6490559576711
 10
105.9835394700319
 20
-127.7506862744859
 10
105.8732964145039
 20
-127.923974577394
 10
105.7423827860644
 20
-127.9453341694026
 10
105.6345512973761
 20
-127.9642821945714
 10
105.6345512973761
 20
-127.9642821945714
 10
105.6345512973761
 20
-127.7420735357728
 10
105.6345512973761
 20
-127.7420735357728
 10
105.833333306875
 20
-127.6872965175573
 10
105.8629611280482
 20
-127.5601724941516
 10
105.8629611280482
 20
-127.4671549160499
 10
105.8629611280482
 20
-127.3276285488973
 10
105.763742378073
 20
-127.1753553284492
 10
105.5308539232701
 20
-127.1753553284492
 10
105.274883328716
 20
-127.1753553284492
 10
105.2049478903654
 20
-127.3551893127793
 10
105.2049478903654
 20
-127.475767654763
 10
105.2049478903654
 20
-127.5074625332273
 10
105.2049478903654
 20
-127.6490559576711
 10
105.3341389710623
 20
-127.7379394211905
 10
105.3341389710623
 20
-127.7379394211905
 10
105.3151909458934
 20
-127.9136392909383
 10
105.3151909458934
 20
-127.9136392909383
 10
105.3151909458934
 20
-127.9136392909383
 10
104.4690754947161
 20
-127.7930609489545
 10
104.4690754947161
 20
-127.7930609489545
 10
104.4690754947161
 20
-127.7930609489545
 10
104.4690754947161
 20
-127.0144693692881
 10
104.4690754947161
 20
-127.0144693692881
 10
104.4690754947161
 20
-127.0144693692881
 10
104.6633788800842
 20
-127.0144693692881
 10
104.6633788800842
 20
-127.0144693692881
 10
104.6633788800842
 20
-127.0144693692881
 10
104.6633788800842
 20
-127.6301079325022
 10
104.6633788800842
 20
-127.6301079325022
 10
104.6633788800842
 20
-127.6301079325022
 10
105.0864366056728
 20
-127.6955647467219
 10
105.0864366056728
 20
-127.6955647467219
 10
105.0526746699174
 20
-127.6342420470845
 10
105.0127115622885
 20
-127.551904264987
 10
105.0127115622885
 20
-127.4333929802944
 10
105.0127115622885
 20
-127.1794894430315
 10
105.198746718492
 20
-126.9424668736463
 10
105.5115613885527
 20
-126.9424668736463
 10
105.8291991922927
 20
-126.9424668736463
 10
106.0641547043867
 20
-127.1667425897361
 10
106.0641547043867
 20
-127.469221973341
 97
        0
 97
        0
 75
     2
 76
     1
 98
        0
  0
SPLINE
  5
D0
330
CA
100
AcDbEntity
  8
_U+30EC_U+30A4_U+30E4_U+30FC 1
370
     0
100
AcDbSpline
210
0.0
220
0.0
230
1.0
 70
    11
 71
     3
 72
    26
 73
    22
 74
     0
 42
0.0000000001
 43
0.0000000001
 12
1.0
 22
0.0
 32
0.0
 13
1.0
 23
0.0
 33
0.0
 40
0.0
 40
0.0
 40
0.0
 40
0.0
 40
1.0
 40
1.0
 40
1.0
 40
2.0
 40
2.0
 40
2.0
 40
3.0
 40
3.0
 40
3.0
 40
4.0
 40
4.0
 40
4.0
 40
5.0
 40
5.0
 40
5.0
 40
6.0
 40
6.0
 40
6.0
 40
7.0
 40
7.0
 40
7.0
 40
7.0
 10
106.0131672912051
 20
-126.3623127939303
 30
0.0
 10
106.0131672912051
 20
-126.3623127939303
 30
0.0
 10
106.0131672912051
 20
-126.5993353633154
 30
0.0
 10
106.0131672912051
 20
-126.5993353633154
 30
0.0
 10
105.7044867357267
 20
-126.5738416567246
 30
0.0
 10
105.1859998651966
 20
-126.3812608190991
 30
0.0
 10
104.6806043575104
 20
-125.9750840613882
 30
0.0
 10
104.6806043575104
 20
-125.9750840613882
 30
0.0
 10
104.6806043575104
 20
-126.8129312834009
 30
0.0
 10
104.6806043575104
 20
-126.8129312834009
 30
0.0
 10
104.6806043575104
 20
-126.8129312834009
 30
0.0
 10
104.4690754947161
 20
-126.8129312834009
 30
0.0
 10
104.4690754947161
 20
-126.8129312834009
 30
0.0
 10
104.4690754947161
 20
-126.8129312834009
 30
0.0
 10
104.4690754947161
 20
-125.738061492003
 30
0.0
 10
104.4690754947161
 20
-125.738061492003
 30
0.0
 10
104.4690754947161
 20
-125.738061492003
 30
0.0
 10
104.6806043575104
 20
-125.738061492003
 30
0.0
 10
104.6806043575104
 20
-125.738061492003
 30
0.0
 10
104.9699923782714
 20
-126.0619004676165
 30
0.0
 10
105.5625488017344
 20
-126.3285508581748
 30
0.0
 10
106.0131672912051
 20
-126.3623127939303
 30
0.0
  0
HATCH
  5
D1
330
CA
100
AcDbEntity
  8
_U+30EC_U+30A4_U+30E4_U+30FC 1
 62
     7
420
 16777215
100
AcDbHatch
 10
0.0
 20
0.0
 30
0.0
210
0.0
220
0.0
230
1.0
  2
SOLID
 70
     1
 71
     0
 91
        1
 92
        1
 93
        1
 72
     4
 94
        3
 73
     0
 74
     1
 95
       26
 96
       22
 40
0.0
 40
0.0
 40
0.0
 40
0.0
 40
1.0
 40
1.0
 40
1.0
 40
2.0
 40
2.0
 40
2.0
 40
3.0
 40
3.0
 40
3.0
 40
4.0
 40
4.0
 40
4.0
 40
5.0
 40
5.0
 40
5.0
 40
6.0
 40
6.0
 40
6.0
 40
7.0
 40
7.0
 40
7.0
 40
7.0
 10
106.0131672912051
 20
-126.3623127939303
 10
106.0131672912051
 20
-126.3623127939303
 10
106.0131672912051
 20
-126.5993353633154
 10
106.0131672912051
 20
-126.5993353633154
 10
105.7044867357267
 20
-126.5738416567246
 10
105.1859998651966
 20
-126.3812608190991
 10
104.6806043575104
 20
-125.9750840613882
 10
104.6806043575104
 20
-125.9750840613882
 10
104.6806043575104
 20
-126.8129312834009
 10
104.6806043575104
 20
-126.8129312834009
 10
104.6806043575104
 20
-126.8129312834009
 10
104.4690754947161
 20
-126.8129312834009
 10
104.4690754947161
 20
-126.8129312834009
 10
104.4690754947161
 20
-126.8129312834009
 10
104.4690754947161
 20
-125.738061492003
 10
104.4690754947161
 20
-125.738061492003
 10
104.4690754947161
 20
-125.738061492003
 10
104.6806043575104
 20
-125.738061492003
 10
104.6806043575104
 20
-125.738061492003
 10
104.9699923782714
 20
-126.0619004676165
 10
105.5625488017344
 20
-126.3285508581748
 10
106.0131672912051
 20
-126.3623127939303
 97
        0
 97
        0
 75
     2
 76
     1
 98
        0
  0
ENDBLK
  5
CD
330
CA
100
AcDbEntity
  8
0
100
AcDbBlockEnd
  0
BLOCK
  5
D4
330
D2
100
AcDbEntity
  8
0
100
AcDbBlockBegin
  2
block 5
 70
     0
 10
0.0
 20
0.0
 30
0.0
  3
block 5
  1

  0
SPLINE
  5
D6
330
D2
100
AcDbEntity
  8
_U+30EC_U+30A4_U+30E4_U+30FC 1
370
     0
100
AcDbSpline
210
0.0
220
0.0
230
1.0
 70
    11
 71
     3
 72
    26
 73
    22
 74
     0
 42
0.0000000001
 43
0.0000000001
 12
1.0
 22
0.0
 32
0.0
 13
1.0
 23
0.0
 33
0.0
 40
0.0
 40
0.0
 40
0.0
 40
0.0
 40
1.0
 40
1.0
 40
1.0
 40
2.0
 40
2.0
 40
2.0
 40
3.0
 40
3.0
 40
3.0
 40
4.0
 40
4.0
 40
4.0
 40
5.0
 40
5.0
 40
5.0
 40
6.0
 40
6.0
 40
6.0
 40
7.0
 40
7.0
 40
7.0
 40
7.0
 10
76.05961233992608
 20
-153.0008246145276
 30
0.0
 10
76.05961233992608
 20
-153.0008246145276
 30
0.0
 10
74.95528698212924
 20
-153.0008246145276
 30
0.0
 10
74.95528698212924
 20
-153.0008246145276
 30
0.0
 10
74.95528698212924
 20
-153.0008246145276
 30
0.0
 10
74.95528698212924
 20
-153.3308647620145
 30
0.0
 10
74.95528698212924
 20
-153.3308647620145
 30
0.0
 10
74.95528698212924
 20
-153.3308647620145
 30
0.0
 10
74.8071478762635
 20
-153.3308647620145
 30
0.0
 10
74.8071478762635
 20
-153.3308647620145
 30
0.0
 10
74.79250622045119
 20
-152.9987575572364
 30
0.0
 10
74.62955320399887
 20
-152.9522487681856
 30
0.0
 10
74.51534828866284
 20
-152.9226209470124
 30
0.0
 10
74.51534828866284
 20
-152.9226209470124
 30
0.0
 10
74.51534828866284
 20
-152.7765488984378
 30
0.0
 10
74.51534828866284
 20
-152.7765488984378
 30
0.0
 10
74.51534828866284
 20
-152.7765488984378
 30
0.0
 10
76.05961233992608
 20
-152.7765488984378
 30
0.0
 10
76.05961233992608
 20
-152.7765488984378
 30
0.0
 10
76.05961233992608
 20
-152.7765488984378
 30
0.0
 10
76.05961233992608
 20
-153.0008246145276
 30
0.0
 10
76.05961233992608
 20
-153.0008246145276
 30
0.0
  0
HATCH
  5
D7
330
D2
100
AcDbEntity
  8
_U+30EC_U+30A4_U+30E4_U+30FC 1
 62
     7
420
 16777215
100
AcDbHatch
 10
0.0
 20
0.0
 30
0.0
210
0.0
220
0.0
230
1.0
  2
SOLID
 70
     1
 71
     0
 91
        1
 92
        1
 93
        1
 72
     4
 94
        3
 73
     0
 74
     1
 95
       26
 96
       22
 40
0.0
 40
0.0
 40
0.0
 40
0.0
 40
1.0
 40
1.0
 40
1.0
 40
2.0
 40
2.0
 40
2.0
 40
3.0
 40
3.0
 40
3.0
 40
4.0
 40
4.0
 40
4.0
 40
5.0
 40
5.0
 40
5.0
 40
6.0
 40
6.0
 40
6.0
 40
7.0
 40
7.0
 40
7.0
 40
7.0
 10
76.05961233992608
 20
-153.0008246145276
 10
76.05961233992608
 20
-153.0008246145276
 10
74.95528698212924
 20
-153.0008246145276
 10
74.95528698212924
 20
-153.0008246145276
 10
74.95528698212924
 20
-153.0008246145276
 10
74.95528698212924
 20
-153.3308647620145
 10
74.95528698212924
 20
-153.3308647620145
 10
74.95528698212924
 20
-153.3308647620145
 10
74.8071478762635
 20
-153.3308647620145
 10
74.8071478762635
 20
-153.3308647620145
 10
74.79250622045119
 20
-152.9987575572364
 10
74.62955320399887
 20
-152.9522487681856
 10
74.51534828866284
 20
-152.9226209470124
 10
74.51534828866284
 20
-152.9226209470124
 10
74.51534828866284
 20
-152.7765488984378
 10
74.51534828866284
 20
-152.7765488984378
 10
74.51534828866284
 20
-152.7765488984378
 10
76.05961233992608
 20
-152.7765488984378
 10
76.05961233992608
 20
-152.7765488984378
 10
76.05961233992608
 20
-152.7765488984378
 10
76.05961233992608
 20
-153.0008246145276
 10
76.05961233992608
 20
-153.0008246145276
 97
        0
 97
        0
 75
     2
 76
     1
 98
        0
  0
SPLINE
  5
D8
330
D2
100
AcDbEntity
  8
_U+30EC_U+30A4_U+30E4_U+30FC 1
370
     0
100
AcDbSpline
210
0.0
220
0.0
230
1.0
 70
    11
 71
     3
 72
    44
 73
    40
 74
     0
 42
0.0000000001
 43
0.0000000001
 12
1.0
 22
0.0
 32
0.0
 13
1.0
 23
0.0
 33
0.0
 40
0.0
 40
0.0
 40
0.0
 40
0.0
 40
1.0
 40
1.0
 40
1.0
 40
2.0
 40
2.0
 40
2.0
 40
3.0
 40
3.0
 40
3.0
 40
4.0
 40
4.0
 40
4.0
 40
5.0
 40
5.0
 40
5.0
 40
6.0
 40
6.0
 40
6.0
 40
7.0
 40
7.0
 40
7.0
 40
8.0
 40
8.0
 40
8.0
 40
9.0
 40
9.0
 40
9.0
 40
10.0
 40
10.0
 40
10.0
 40
11.0
 40
11.0
 40
11.0
 40
12.0
 40
12.0
 40
12.0
 40
13.0
 40
13.0
 40
13.0
 40
13.0
 10
75.47790796724163
 20
-151.6823865723225
 30
0.0
 10
75.6365546143374
 20
-151.9001166069903
 30
0.0
 10
75.71062416727027
 20
-151.993134185092
 30
0.0
 10
75.85445690377945
 20
-152.0420545409825
 30
0.0
 10
75.85445690377945
 20
-152.0420545409825
 30
0.0
 10
75.85445690377945
 20
-151.2634629613161
 30
0.0
 10
75.85445690377945
 20
-151.2634629613161
 30
0.0
 10
75.85445690377945
 20
-151.2634629613161
 30
0.0
 10
76.05961233992608
 20
-151.2634629613161
 30
0.0
 10
76.05961233992608
 20
-151.2634629613161
 30
0.0
 10
76.05961233992608
 20
-151.2634629613161
 30
0.0
 10
76.05961233992608
 20
-152.2914794541146
 30
0.0
 10
76.05961233992608
 20
-152.2914794541146
 30
0.0
 10
75.70201142855714
 20
-152.2597845756503
 30
0.0
 10
75.62380776104197
 20
-152.1943277614306
 30
0.0
 10
75.32546249201933
 20
-151.8091660861797
 30
0.0
 10
75.12668048252041
 20
-151.5531954916256
 30
0.0
 10
75.05898435623526
 20
-151.4877386774058
 30
0.0
 10
74.92152504637379
 20
-151.4877386774058
 30
0.0
 10
74.8030137616812
 20
-151.4877386774058
 30
0.0
 10
74.67175562369317
 20
-151.5597411730476
 30
0.0
 10
74.67175562369317
 20
-151.7564561252553
 30
0.0
 10
74.67175562369317
 20
-152.0165608343917
 30
0.0
 10
74.90240476643065
 20
-152.0251735731048
 30
0.0
 10
75.0188489938321
 20
-152.0293076876871
 30
0.0
 10
75.0188489938321
 20
-152.0293076876871
 30
0.0
 10
75.0188489938321
 20
-152.2535834037769
 30
0.0
 10
75.0188489938321
 20
-152.2535834037769
 30
0.0
 10
74.89189722520064
 20
-152.2449706650638
 30
0.0
 10
74.77975936715576
 20
-152.2342908690595
 30
0.0
 10
74.66124808246316
 20
-152.1540201442532
 30
0.0
 10
74.50053437807625
 20
-152.0441215982737
 30
0.0
 10
74.46660018754655
 20
-151.8577419325217
 30
0.0
 10
74.46660018754655
 20
-151.7416422146688
 30
0.0
 10
74.46660018754655
 20
-151.4643120281061
 30
0.0
 10
74.65074054123315
 20
-151.2569172798941
 30
0.0
 10
74.92359210366494
 20
-151.2569172798941
 30
0.0
 10
75.15200193433701
 20
-151.2569172798941
 30
0.0
 10
75.25156519386073
 20
-151.3733615072956
 30
0.0
 10
75.47790796724163
 20
-151.6823865723225
 30
0.0
  0
HATCH
  5
D9
330
D2
100
AcDbEntity
  8
_U+30EC_U+30A4_U+30E4_U+30FC 1
 62
     7
420
 16777215
100
AcDbHatch
 10
0.0
 20
0.0
 30
0.0
210
0.0
220
0.0
230
1.0
  2
SOLID
 70
     1
 71
     0
 91
        1
 92
        1
 93
        1
 72
     4
 94
        3
 73
     0
 74
     1
 95
       44
 96
       40
 40
0.0
 40
0.0
 40
0.0
 40
0.0
 40
1.0
 40
1.0
 40
1.0
 40
2.0
 40
2.0
 40
2.0
 40
3.0
 40
3.0
 40
3.0
 40
4.0
 40
4.0
 40
4.0
 40
5.0
 40
5.0
 40
5.0
 40
6.0
 40
6.0
 40
6.0
 40
7.0
 40
7.0
 40
7.0
 40
8.0
 40
8.0
 40
8.0
 40
9.0
 40
9.0
 40
9.0
 40
10.0
 40
10.0
 40
10.0
 40
11.0
 40
11.0
 40
11.0
 40
12.0
 40
12.0
 40
12.0
 40
13.0
 40
13.0
 40
13.0
 40
13.0
 10
75.47790796724163
 20
-151.6823865723225
 10
75.6365546143374
 20
-151.9001166069903
 10
75.71062416727027
 20
-151.993134185092
 10
75.85445690377945
 20
-152.0420545409825
 10
75.85445690377945
 20
-152.0420545409825
 10
75.85445690377945
 20
-151.2634629613161
 10
75.85445690377945
 20
-151.2634629613161
 10
75.85445690377945
 20
-151.2634629613161
 10
76.05961233992608
 20
-151.2634629613161
 10
76.05961233992608
 20
-151.2634629613161
 10
76.05961233992608
 20
-151.2634629613161
 10
76.05961233992608
 20
-152.2914794541146
 10
76.05961233992608
 20
-152.2914794541146
 10
75.70201142855714
 20
-152.2597845756503
 10
75.62380776104197
 20
-152.1943277614306
 10
75.32546249201933
 20
-151.8091660861797
 10
75.12668048252041
 20
-151.5531954916256
 10
75.05898435623526
 20
-151.4877386774058
 10
74.92152504637379
 20
-151.4877386774058
 10
74.8030137616812
 20
-151.4877386774058
 10
74.67175562369317
 20
-151.5597411730476
 10
74.67175562369317
 20
-151.7564561252553
 10
74.67175562369317
 20
-152.0165608343917
 10
74.90240476643065
 20
-152.0251735731048
 10
75.0188489938321
 20
-152.0293076876871
 10
75.0188489938321
 20
-152.0293076876871
 10
75.0188489938321
 20
-152.2535834037769
 10
75.0188489938321
 20
-152.2535834037769
 10
74.89189722520064
 20
-152.2449706650638
 10
74.77975936715576
 20
-152.2342908690595
 10
74.66124808246316
 20
-152.1540201442532
 10
74.50053437807625
 20
-152.0441215982737
 10
74.46660018754655
 20
-151.8577419325217
 10
74.46660018754655
 20
-151.7416422146688
 10
74.46660018754655
 20
-151.4643120281061
 10
74.65074054123315
 20
-151.2569172798941
 10
74.92359210366494
 20
-151.2569172798941
 10
75.15200193433701
 20
-151.2569172798941
 10
75.25156519386073
 20
-151.3733615072956
 10
75.47790796724163
 20
-151.6823865723225
 97
        0
 97
        0
 75
     2
 76
     1
 98
        0
  0
ENDBLK
  5
D5
330
D2
100
AcDbEntity
  8
0
100
AcDbBlockEnd
  0
BLOCK
  5
DC
330
DA
100
AcDbEntity
  8
0
100
AcDbBlockBegin
  2
block 6
 70
     0
 10
0.0
 20
0.0
 30
0.0
  3
block 6
  1

  0
SPLINE
  5
DE
330
DA
100
AcDbEntity
  8
_U+30EC_U+30A4_U+30E4_U+30FC 1
370
     0
100
AcDbSpline
210
0.0
220
0.0
230
1.0
 70
    11
 71
     3
 72
    26
 73
    22
 74
     0
 42
0.0000000001
 43
0.0000000001
 12
1.0
 22
0.0
 32
0.0
 13
1.0
 23
0.0
 33
0.0
 40
0.0
 40
0.0
 40
0.0
 40
0.0
 40
1.0
 40
1.0
 40
1.0
 40
2.0
 40
2.0
 40
2.0
 40
3.0
 40
3.0
 40
3.0
 40
4.0
 40
4.0
 40
4.0
 40
5.0
 40
5.0
 40
5.0
 40
6.0
 40
6.0
 40
6.0
 40
7.0
 40
7.0
 40
7.0
 40
7.0
 10
97.00699867366492
 20
-164.4416422114938
 30
0.0
 10
97.00699867366492
 20
-164.4416422114938
 30
0.0
 10
97.00699867366492
 20
-163.3371445989227
 30
0.0
 10
97.00699867366492
 20
-163.3371445989227
 30
0.0
 10
97.00699867366492
 20
-163.3371445989227
 30
0.0
 10
96.67695852617798
 20
-163.3371445989227
 30
0.0
 10
96.67695852617798
 20
-163.3371445989227
 30
0.0
 10
96.67695852617798
 20
-163.3371445989227
 30
0.0
 10
96.67695852617798
 20
-163.1890054930569
 30
0.0
 10
96.67695852617798
 20
-163.1890054930569
 30
0.0
 10
97.00906573095607
 20
-163.1745360920189
 30
0.0
 10
97.05557452000694
 20
-163.0115830755666
 30
0.0
 10
97.08520234118009
 20
-162.8972059054563
 30
0.0
 10
97.08520234118009
 20
-162.8972059054563
 30
0.0
 10
97.23127438975469
 20
-162.8972059054563
 30
0.0
 10
97.23127438975469
 20
-162.8972059054563
 30
0.0
 10
97.23127438975469
 20
-162.8972059054563
 30
0.0
 10
97.23127438975469
 20
-164.4416422114938
 30
0.0
 10
97.23127438975469
 20
-164.4416422114938
 30
0.0
 10
97.23127438975469
 20
-164.4416422114938
 30
0.0
 10
97.00699867366492
 20
-164.4416422114938
 30
0.0
 10
97.00699867366492
 20
-164.4416422114938
 30
0.0
  0
HATCH
  5
DF
330
DA
100
AcDbEntity
  8
_U+30EC_U+30A4_U+30E4_U+30FC 1
 62
     7
420
 16777215
100
AcDbHatch
 10
0.0
 20
0.0
 30
0.0
210
0.0
220
0.0
230
1.0
  2
SOLID
 70
     1
 71
     0
 91
        1
 92
        1
 93
        1
 72
     4
 94
        3
 73
     0
 74
     1
 95
       26
 96
       22
 40
0.0
 40
0.0
 40
0.0
 40
0.0
 40
1.0
 40
1.0
 40
1.0
 40
2.0
 40
2.0
 40
2.0
 40
3.0
 40
3.0
 40
3.0
 40
4.0
 40
4.0
 40
4.0
 40
5.0
 40
5.0
 40
5.0
 40
6.0
 40
6.0
 40
6.0
 40
7.0
 40
7.0
 40
7.0
 40
7.0
 10
97.00699867366492
 20
-164.4416422114938
 10
97.00699867366492
 20
-164.4416422114938
 10
97.00699867366492
 20
-163.3371445989227
 10
97.00699867366492
 20
-163.3371445989227
 10
97.00699867366492
 20
-163.3371445989227
 10
96.67695852617798
 20
-163.3371445989227
 10
96.67695852617798
 20
-163.3371445989227
 10
96.67695852617798
 20
-163.3371445989227
 10
96.67695852617798
 20
-163.1890054930569
 10
96.67695852617798
 20
-163.1890054930569
 10
97.00906573095607
 20
-163.1745360920189
 10
97.05557452000694
 20
-163.0115830755666
 10
97.08520234118009
 20
-162.8972059054563
 10
97.08520234118009
 20
-162.8972059054563
 10
97.23127438975469
 20
-162.8972059054563
 10
97.23127438975469
 20
-162.8972059054563
 10
97.23127438975469
 20
-162.8972059054563
 10
97.23127438975469
 20
-164.4416422114938
 10
97.23127438975469
 20
-164.4416422114938
 10
97.23127438975469
 20
-164.4416422114938
 10
97.00699867366492
 20
-164.4416422114938
 10
97.00699867366492
 20
-164.4416422114938
 97
        0
 97
        0
 75
     2
 76
     1
 98
        0
  0
SPLINE
  5
E0
330
DA
100
AcDbEntity
  8
_U+30EC_U+30A4_U+30E4_U+30FC 1
370
     0
100
AcDbSpline
210
0.0
220
0.0
230
1.0
 70
    11
 71
     3
 72
    29
 73
    25
 74
     0
 42
0.0000000001
 43
0.0000000001
 12
1.0
 22
0.0
 32
0.0
 13
1.0
 23
0.0
 33
0.0
 40
0.0
 40
0.0
 40
0.0
 40
0.0
 40
1.0
 40
1.0
 40
1.0
 40
2.0
 40
2.0
 40
2.0
 40
3.0
 40
3.0
 40
3.0
 40
4.0
 40
4.0
 40
4.0
 40
5.0
 40
5.0
 40
5.0
 40
6.0
 40
6.0
 40
6.0
 40
7.0
 40
7.0
 40
7.0
 40
8.0
 40
8.0
 40
8.0
 40
8.0
 10
98.63032766631464
 20
-164.2638752844549
 30
0.0
 10
98.5221516680778
 20
-164.4733370899581
 30
0.0
 10
98.34886336516973
 20
-164.4922851151269
 30
0.0
 10
98.23241913776829
 20
-164.4922851151269
 30
0.0
 10
98.07153317860713
 20
-164.4922851151269
 30
0.0
 10
97.92993975416336
 20
-164.4457763260761
 30
0.0
 10
97.83485511877046
 20
-164.2638752844549
 30
0.0
 10
97.73115774466444
 20
-164.0692273895383
 30
0.0
 10
97.71186520994704
 20
-163.8322048201531
 30
0.0
 10
97.71186520994704
 20
-163.6692518037007
 30
0.0
 10
97.71186520994704
 20
-163.5255913219658
 30
0.0
 10
97.72909068737329
 20
-163.2737548419941
 30
0.0
 10
97.83485511877046
 20
-163.0749728324951
 30
0.0
 10
97.94268660745878
 20
-162.8717121988654
 30
0.0
 10
98.10357256661995
 20
-162.8486300591142
 30
0.0
 10
98.23241913776829
 20
-162.8486300591142
 30
0.0
 10
98.39123803963831
 20
-162.8486300591142
 30
0.0
 10
98.53489852137322
 20
-162.893071790874
 30
0.0
 10
98.63032766631464
 20
-163.0749728324951
 30
0.0
 10
98.72954641628984
 20
-163.2675536701206
 30
0.0
 10
98.75297306558954
 20
-163.4959635007927
 30
0.0
 10
98.75297306558954
 20
-163.6692518037007
 30
0.0
 10
98.75297306558954
 20
-163.8408175588662
 30
0.0
 10
98.73161347358099
 20
-164.0712944468294
 30
0.0
 10
98.63032766631464
 20
-164.2638752844549
 30
0.0
  0
SPLINE
  5
E1
330
DA
100
AcDbEntity
  8
_U+30EC_U+30A4_U+30E4_U+30FC 1
370
     0
100
AcDbSpline
210
0.0
220
0.0
230
1.0
 70
    11
 71
     3
 72
    17
 73
    13
 74
     0
 42
0.0000000001
 43
0.0000000001
 12
1.0
 22
0.0
 32
0.0
 13
1.0
 23
0.0
 33
0.0
 40
0.0
 40
0.0
 40
0.0
 40
0.0
 40
1.0
 40
1.0
 40
1.0
 40
2.0
 40
2.0
 40
2.0
 40
3.0
 40
3.0
 40
3.0
 40
4.0
 40
4.0
 40
4.0
 40
4.0
 10
98.23241913776829
 20
-163.0412108967397
 30
0.0
 10
97.98264971508767
 20
-163.0412108967397
 30
0.0
 10
97.9361409260368
 20
-163.3243977456272
 30
0.0
 10
97.9361409260368
 20
-163.6692518037007
 30
0.0
 10
97.9361409260368
 20
-163.9889566647319
 30
0.0
 10
97.97231442863193
 20
-164.2976372202103
 30
0.0
 10
98.23241913776829
 20
-164.2976372202103
 30
0.0
 10
98.48012150315775
 20
-164.2976372202103
 30
0.0
 10
98.52869734949978
 20
-164.0161729190654
 30
0.0
 10
98.52869734949978
 20
-163.6692518037007
 30
0.0
 10
98.52869734949978
 20
-163.3498914522181
 30
0.0
 10
98.4904567896135
 20
-163.0412108967397
 30
0.0
 10
98.23241913776829
 20
-163.0412108967397
 30
0.0
  0
HATCH
  5
E2
330
DA
100
AcDbEntity
  8
_U+30EC_U+30A4_U+30E4_U+30FC 1
 62
     7
420
 16777215
100
AcDbHatch
 10
0.0
 20
0.0
 30
0.0
210
0.0
220
0.0
230
1.0
  2
SOLID
 70
     1
 71
     0
 91
        2
 92
        1
 93
        1
 72
     4
 94
        3
 73
     0
 74
     1
 95
       29
 96
       25
 40
0.0
 40
0.0
 40
0.0
 40
0.0
 40
1.0
 40
1.0
 40
1.0
 40
2.0
 40
2.0
 40
2.0
 40
3.0
 40
3.0
 40
3.0
 40
4.0
 40
4.0
 40
4.0
 40
5.0
 40
5.0
 40
5.0
 40
6.0
 40
6.0
 40
6.0
 40
7.0
 40
7.0
 40
7.0
 40
8.0
 40
8.0
 40
8.0
 40
8.0
 10
98.63032766631464
 20
-164.2638752844549
 10
98.5221516680778
 20
-164.4733370899581
 10
98.34886336516973
 20
-164.4922851151269
 10
98.23241913776829
 20
-164.4922851151269
 10
98.07153317860713
 20
-164.4922851151269
 10
97.92993975416336
 20
-164.4457763260761
 10
97.83485511877046
 20
-164.2638752844549
 10
97.73115774466444
 20
-164.0692273895383
 10
97.71186520994704
 20
-163.8322048201531
 10
97.71186520994704
 20
-163.6692518037007
 10
97.71186520994704
 20
-163.5255913219658
 10
97.72909068737329
 20
-163.2737548419941
 10
97.83485511877046
 20
-163.0749728324951
 10
97.94268660745878
 20
-162.8717121988654
 10
98.10357256661995
 20
-162.8486300591142
 10
98.23241913776829
 20
-162.8486300591142
 10
98.39123803963831
 20
-162.8486300591142
 10
98.53489852137322
 20
-162.893071790874
 10
98.63032766631464
 20
-163.0749728324951
 10
98.72954641628984
 20
-163.2675536701206
 10
98.75297306558954
 20
-163.4959635007927
 10
98.75297306558954
 20
-163.6692518037007
 10
98.75297306558954
 20
-163.8408175588662
 10
98.73161347358099
 20
-164.0712944468294
 10
98.63032766631464
 20
-164.2638752844549
 97
        0
 97
        0
 92
        1
 93
        1
 72
     4
 94
        3
 73
     0
 74
     1
 95
       17
 96
       13
 40
0.0
 40
0.0
 40
0.0
 40
0.0
 40
1.0
 40
1.0
 40
1.0
 40
2.0
 40
2.0
 40
2.0
 40
3.0
 40
3.0
 40
3.0
 40
4.0
 40
4.0
 40
4.0
 40
4.0
 10
98.23241913776829
 20
-163.0412108967397
 10
97.98264971508767
 20
-163.0412108967397
 10
97.9361409260368
 20
-163.3243977456272
 10
97.9361409260368
 20
-163.6692518037007
 10
97.9361409260368
 20
-163.9889566647319
 10
97.97231442863193
 20
-164.2976372202103
 10
98.23241913776829
 20
-164.2976372202103
 10
98.48012150315775
 20
-164.2976372202103
 10
98.52869734949978
 20
-164.0161729190654
 10
98.52869734949978
 20
-163.6692518037007
 10
98.52869734949978
 20
-163.3498914522181
 10
98.4904567896135
 20
-163.0412108967397
 10
98.23241913776829
 20
-163.0412108967397
 97
        0
 97
        0
 75
     2
 76
     1
 98
        0
  0
ENDBLK
  5
DD
330
DA
100
AcDbEntity
  8
0
100
AcDbBlockEnd
  0
BLOCK
  5
E5
330
E3
100
AcDbEntity
  8
0
100
AcDbBlockBegin
  2
block 7
 70
     0
 10
0.0
 20
0.0
 30
0.0
  3
block 7
  1

  0
SPLINE
  5
E7
330
E3
100
AcDbEntity
  8
_U+30EC_U+30A4_U+30E4_U+30FC 1
370
     0
100
AcDbSpline
210
0.0
220
0.0
230
1.0
 70
    11
 71
     3
 72
    26
 73
    22
 74
     0
 42
0.0000000001
 43
0.0000000001
 12
1.0
 22
0.0
 32
0.0
 13
1.0
 23
0.0
 33
0.0
 40
0.0
 40
0.0
 40
0.0
 40
0.0
 40
1.0
 40
1.0
 40
1.0
 40
2.0
 40
2.0
 40
2.0
 40
3.0
 40
3.0
 40
3.0
 40
4.0
 40
4.0
 40
4.0
 40
5.0
 40
5.0
 40
5.0
 40
6.0
 40
6.0
 40
6.0
 40
7.0
 40
7.0
 40
7.0
 40
7.0
 10
86.03230249585305
 20
-164.4416422114938
 30
0.0
 10
86.03230249585305
 20
-164.4416422114938
 30
0.0
 10
86.03230249585305
 20
-163.3371445989227
 30
0.0
 10
86.03230249585305
 20
-163.3371445989227
 30
0.0
 10
86.03230249585305
 20
-163.3371445989227
 30
0.0
 10
85.7022623483661
 20
-163.3371445989227
 30
0.0
 10
85.7022623483661
 20
-163.3371445989227
 30
0.0
 10
85.7022623483661
 20
-163.3371445989227
 30
0.0
 10
85.7022623483661
 20
-163.1890054930569
 30
0.0
 10
85.7022623483661
 20
-163.1890054930569
 30
0.0
 10
86.03436955314419
 20
-163.1745360920189
 30
0.0
 10
86.08087834219506
 20
-163.0115830755666
 30
0.0
 10
86.11050616336821
 20
-162.8972059054563
 30
0.0
 10
86.11050616336821
 20
-162.8972059054563
 30
0.0
 10
86.25657821194281
 20
-162.8972059054563
 30
0.0
 10
86.25657821194281
 20
-162.8972059054563
 30
0.0
 10
86.25657821194281
 20
-162.8972059054563
 30
0.0
 10
86.25657821194281
 20
-164.4416422114938
 30
0.0
 10
86.25657821194281
 20
-164.4416422114938
 30
0.0
 10
86.25657821194281
 20
-164.4416422114938
 30
0.0
 10
86.03230249585305
 20
-164.4416422114938
 30
0.0
 10
86.03230249585305
 20
-164.4416422114938
 30
0.0
  0
HATCH
  5
E8
330
E3
100
AcDbEntity
  8
_U+30EC_U+30A4_U+30E4_U+30FC 1
 62
     7
420
 16777215
100
AcDbHatch
 10
0.0
 20
0.0
 30
0.0
210
0.0
220
0.0
230
1.0
  2
SOLID
 70
     1
 71
     0
 91
        1
 92
        1
 93
        1
 72
     4
 94
        3
 73
     0
 74
     1
 95
       26
 96
       22
 40
0.0
 40
0.0
 40
0.0
 40
0.0
 40
1.0
 40
1.0
 40
1.0
 40
2.0
 40
2.0
 40
2.0
 40
3.0
 40
3.0
 40
3.0
 40
4.0
 40
4.0
 40
4.0
 40
5.0
 40
5.0
 40
5.0
 40
6.0
 40
6.0
 40
6.0
 40
7.0
 40
7.0
 40
7.0
 40
7.0
 10
86.03230249585305
 20
-164.4416422114938
 10
86.03230249585305
 20
-164.4416422114938
 10
86.03230249585305
 20
-163.3371445989227
 10
86.03230249585305
 20
-163.3371445989227
 10
86.03230249585305
 20
-163.3371445989227
 10
85.7022623483661
 20
-163.3371445989227
 10
85.7022623483661
 20
-163.3371445989227
 10
85.7022623483661
 20
-163.3371445989227
 10
85.7022623483661
 20
-163.1890054930569
 10
85.7022623483661
 20
-163.1890054930569
 10
86.03436955314419
 20
-163.1745360920189
 10
86.08087834219506
 20
-163.0115830755666
 10
86.11050616336821
 20
-162.8972059054563
 10
86.11050616336821
 20
-162.8972059054563
 10
86.25657821194281
 20
-162.8972059054563
 10
86.25657821194281
 20
-162.8972059054563
 10
86.25657821194281
 20
-162.8972059054563
 10
86.25657821194281
 20
-164.4416422114938
 10
86.25657821194281
 20
-164.4416422114938
 10
86.25657821194281
 20
-164.4416422114938
 10
86.03230249585305
 20
-164.4416422114938
 10
86.03230249585305
 20
-164.4416422114938
 97
        0
 97
        0
 75
     2
 76
     1
 98
        0
  0
SPLINE
  5
E9
330
E3
100
AcDbEntity
  8
_U+30EC_U+30A4_U+30E4_U+30FC 1
370
     0
100
AcDbSpline
210
0.0
220
0.0
230
1.0
 70
    11
 71
     3
 72
    44
 73
    40
 74
     0
 42
0.0000000001
 43
0.0000000001
 12
1.0
 22
0.0
 32
0.0
 13
1.0
 23
0.0
 33
0.0
 40
0.0
 40
0.0
 40
0.0
 40
0.0
 40
1.0
 40
1.0
 40
1.0
 40
2.0
 40
2.0
 40
2.0
 40
3.0
 40
3.0
 40
3.0
 40
4.0
 40
4.0
 40
4.0
 40
5.0
 40
5.0
 40
5.0
 40
6.0
 40
6.0
 40
6.0
 40
7.0
 40
7.0
 40
7.0
 40
8.0
 40
8.0
 40
8.0
 40
9.0
 40
9.0
 40
9.0
 40
10.0
 40
10.0
 40
10.0
 40
11.0
 40
11.0
 40
11.0
 40
12.0
 40
12.0
 40
12.0
 40
13.0
 40
13.0
 40
13.0
 40
13.0
 10
87.35074053805815
 20
-163.8597655840351
 30
0.0
 10
87.13301050339037
 20
-164.0185844859051
 30
0.0
 10
87.03999292528862
 20
-164.092654038838
 30
0.0
 10
86.99107256939807
 20
-164.2363145205729
 30
0.0
 10
86.99107256939807
 20
-164.2363145205729
 30
0.0
 10
87.76966414906454
 20
-164.2363145205729
 30
0.0
 10
87.76966414906454
 20
-164.2363145205729
 30
0.0
 10
87.76966414906454
 20
-164.2363145205729
 30
0.0
 10
87.76966414906454
 20
-164.4416422114938
 30
0.0
 10
87.76966414906454
 20
-164.4416422114938
 30
0.0
 10
87.76966414906454
 20
-164.4416422114938
 30
0.0
 10
86.74164765626598
 20
-164.4416422114938
 30
0.0
 10
86.74164765626598
 20
-164.4416422114938
 30
0.0
 10
86.77334253473028
 20
-164.0840413001248
 30
0.0
 10
86.83879934895003
 20
-164.0058376326097
 30
0.0
 10
87.22396102420096
 20
-163.707492363587
 30
0.0
 10
87.47993161875502
 20
-163.5087103540881
 30
0.0
 10
87.54538843297476
 20
-163.4408419730287
 30
0.0
 10
87.54538843297476
 20
-163.3033826631672
 30
0.0
 10
87.54538843297476
 20
-163.1848713784746
 30
0.0
 10
87.47338593733305
 20
-163.0536132404866
 30
0.0
 10
87.27667098512528
 20
-163.0536132404866
 30
0.0
 10
87.01656627598892
 20
-163.0536132404866
 30
0.0
 10
87.0079535372758
 20
-163.2844346379983
 30
0.0
 10
87.0038194226935
 20
-163.4008788653998
 30
0.0
 10
87.0038194226935
 20
-163.4008788653998
 30
0.0
 10
86.77954370660373
 20
-163.4008788653998
 30
0.0
 10
86.77954370660373
 20
-163.4008788653998
 30
0.0
 10
86.78815644531686
 20
-163.2737548419941
 30
0.0
 10
86.79883624132113
 20
-163.1617892387235
 30
0.0
 10
86.87910696612745
 20
-163.0432779540309
 30
0.0
 10
86.98900551210691
 20
-162.8823919948697
 30
0.0
 10
87.17538517785894
 20
-162.8486300591142
 30
0.0
 10
87.29148489571186
 20
-162.8486300591142
 30
0.0
 10
87.56881508227447
 20
-162.8486300591142
 30
0.0
 10
87.77620983048651
 20
-163.0325981580266
 30
0.0
 10
87.77620983048651
 20
-163.3054497204584
 30
0.0
 10
87.77620983048651
 20
-163.5338595511304
 30
0.0
 10
87.65976560308506
 20
-163.6334228106541
 30
0.0
 10
87.35074053805815
 20
-163.8597655840351
 30
0.0
  0
HATCH
  5
EA
330
E3
100
AcDbEntity
  8
_U+30EC_U+30A4_U+30E4_U+30FC 1
 62
     7
420
 16777215
100
AcDbHatch
 10
0.0
 20
0.0
 30
0.0
210
0.0
220
0.0
230
1.0
  2
SOLID
 70
     1
 71
     0
 91
        1
 92
        1
 93
        1
 72
     4
 94
        3
 73
     0
 74
     1
 95
       44
 96
       40
 40
0.0
 40
0.0
 40
0.0
 40
0.0
 40
1.0
 40
1.0
 40
1.0
 40
2.0
 40
2.0
 40
2.0
 40
3.0
 40
3.0
 40
3.0
 40
4.0
 40
4.0
 40
4.0
 40
5.0
 40
5.0
 40
5.0
 40
6.0
 40
6.0
 40
6.0
 40
7.0
 40
7.0
 40
7.0
 40
8.0
 40
8.0
 40
8.0
 40
9.0
 40
9.0
 40
9.0
 40
10.0
 40
10.0
 40
10.0
 40
11.0
 40
11.0
 40
11.0
 40
12.0
 40
12.0
 40
12.0
 40
13.0
 40
13.0
 40
13.0
 40
13.0
 10
87.35074053805815
 20
-163.8597655840351
 10
87.13301050339037
 20
-164.0185844859051
 10
87.03999292528862
 20
-164.092654038838
 10
86.99107256939807
 20
-164.2363145205729
 10
86.99107256939807
 20
-164.2363145205729
 10
87.76966414906454
 20
-164.2363145205729
 10
87.76966414906454
 20
-164.2363145205729
 10
87.76966414906454
 20
-164.2363145205729
 10
87.76966414906454
 20
-164.4416422114938
 10
87.76966414906454
 20
-164.4416422114938
 10
87.76966414906454
 20
-164.4416422114938
 10
86.74164765626598
 20
-164.4416422114938
 10
86.74164765626598
 20
-164.4416422114938
 10
86.77334253473028
 20
-164.0840413001248
 10
86.83879934895003
 20
-164.0058376326097
 10
87.22396102420096
 20
-163.707492363587
 10
87.47993161875502
 20
-163.5087103540881
 10
87.54538843297476
 20
-163.4408419730287
 10
87.54538843297476
 20
-163.3033826631672
 10
87.54538843297476
 20
-163.1848713784746
 10
87.47338593733305
 20
-163.0536132404866
 10
87.27667098512528
 20
-163.0536132404866
 10
87.01656627598892
 20
-163.0536132404866
 10
87.0079535372758
 20
-163.2844346379983
 10
87.0038194226935
 20
-163.4008788653998
 10
87.0038194226935
 20
-163.4008788653998
 10
86.77954370660373
 20
-163.4008788653998
 10
86.77954370660373
 20
-163.4008788653998
 10
86.78815644531686
 20
-163.2737548419941
 10
86.79883624132113
 20
-163.1617892387235
 10
86.87910696612745
 20
-163.0432779540309
 10
86.98900551210691
 20
-162.8823919948697
 10
87.17538517785894
 20
-162.8486300591142
 10
87.29148489571186
 20
-162.8486300591142
 10
87.56881508227447
 20
-162.8486300591142
 10
87.77620983048651
 20
-163.0325981580266
 10
87.77620983048651
 20
-163.3054497204584
 10
87.77620983048651
 20
-163.5338595511304
 10
87.65976560308506
 20
-163.6334228106541
 10
87.35074053805815
 20
-163.8597655840351
 97
        0
 97
        0
 75
     2
 76
     1
 98
        0
  0
ENDBLK
  5
E6
330
E3
100
AcDbEntity
  8
0
100
AcDbBlockEnd
  0
BLOCK
  5
ED
330
EB
100
AcDbEntity
  8
0
100
AcDbBlockBegin
  2
block 8
 70
     0
 10
0.0
 20
0.0
 30
0.0
  3
block 8
  1

  0
SPLINE
  5
EF
330
EB
100
AcDbEntity
  8
_U+30EC_U+30A4_U+30E4_U+30FC 1
370
     0
100
AcDbSpline
210
0.0
220
0.0
230
1.0
 70
    11
 71
     3
 72
    62
 73
    58
 74
     0
 42
0.0000000001
 43
0.0000000001
 12
1.0
 22
0.0
 32
0.0
 13
1.0
 23
0.0
 33
0.0
 40
0.0
 40
0.0
 40
0.0
 40
0.0
 40
1.0
 40
1.0
 40
1.0
 40
2.0
 40
2.0
 40
2.0
 40
3.0
 40
3.0
 40
3.0
 40
4.0
 40
4.0
 40
4.0
 40
5.0
 40
5.0
 40
5.0
 40
6.0
 40
6.0
 40
6.0
 40
7.0
 40
7.0
 40
7.0
 40
8.0
 40
8.0
 40
8.0
 40
9.0
 40
9.0
 40
9.0
 40
10.0
 40
10.0
 40
10.0
 40
11.0
 40
11.0
 40
11.0
 40
12.0
 40
12.0
 40
12.0
 40
13.0
 40
13.0
 40
13.0
 40
14.0
 40
14.0
 40
14.0
 40
15.0
 40
15.0
 40
15.0
 40
16.0
 40
16.0
 40
16.0
 40
17.0
 40
17.0
 40
17.0
 40
18.0
 40
18.0
 40
18.0
 40
19.0
 40
19.0
 40
19.0
 40
19.0
 10
82.15622556539844
 20
-121.931919999899
 30
0.0
 10
82.06079642045702
 20
-121.931919999899
 30
0.0
 10
81.84306638578924
 20
-121.9107326626647
 30
0.0
 10
81.71800941967467
 20
-121.7245252516869
 30
0.0
 10
81.6439398667418
 20
-121.6123873936421
 30
0.0
 10
81.6398057521595
 20
-121.5129963888926
 30
0.0
 10
81.6356716375772
 20
-121.4284192947297
 30
0.0
 10
81.6356716375772
 20
-121.4284192947297
 30
0.0
 10
81.85581323908467
 20
-121.4284192947297
 30
0.0
 10
81.85581323908467
 20
-121.4284192947297
 30
0.0
 10
81.85788029637581
 20
-121.5024888476626
 30
0.0
 10
81.86821558283157
 20
-121.7372721049824
 30
0.0
 10
82.15174694126762
 20
-121.7372721049824
 30
0.0
 10
82.28920625112909
 20
-121.7372721049824
 30
0.0
 10
82.44182398112567
 20
-121.667508921406
 30
0.0
 10
82.44182398112567
 20
-121.4389268359597
 30
0.0
 10
82.44182398112567
 20
-121.3226548633325
 30
0.0
 10
82.40358342123939
 20
-121.2739067622163
 30
0.0
 10
82.37188854277508
 20
-121.2422118837519
 30
0.0
 10
82.29781898984221
 20
-121.1681423308191
 30
0.0
 10
82.18137476244077
 20
-121.1555677322979
 30
0.0
 10
82.1265977442253
 20
-121.1555677322979
 30
0.0
 10
82.1073052095079
 20
-121.1555677322979
 30
0.0
 10
82.0714762164613
 20
-121.1576347895891
 30
0.0
 10
82.0439154525793
 20
-121.1617689041714
 30
0.0
 10
82.0439154525793
 20
-121.1617689041714
 30
0.0
 10
82.0439154525793
 20
-120.967293264029
 30
0.0
 10
82.0439154525793
 20
-120.967293264029
 30
0.0
 10
82.08215601246557
 20
-120.9734944359025
 30
0.0
 10
82.12418617738562
 20
-120.9757337479679
 30
0.0
 10
82.1307318588076
 20
-120.9757337479679
 30
0.0
 10
82.19618867302735
 20
-120.9757337479679
 30
0.0
 10
82.39497068252626
 20
-120.9545464107336
 30
0.0
 10
82.39497068252626
 20
-120.7175238413484
 30
0.0
 10
82.39497068252626
 20
-120.5399291690838
 30
0.0
 10
82.26405705408676
 20
-120.4848076413198
 30
0.0
 10
82.15381399855877
 20
-120.4848076413198
 30
0.0
 10
81.8895751748401
 20
-120.4848076413198
 30
0.0
 10
81.88096243612698
 20
-120.7175238413484
 30
0.0
 10
81.87682832154468
 20
-120.7895263369901
 30
0.0
 10
81.87682832154468
 20
-120.7895263369901
 30
0.0
 10
81.67356768791494
 20
-120.7895263369901
 30
0.0
 10
81.67356768791494
 20
-120.7895263369901
 30
0.0
 10
81.68218042662807
 20
-120.6646416256498
 30
0.0
 10
81.70974119051007
 20
-120.288092689112
 30
0.0
 10
82.1665608518542
 20
-120.288092689112
 30
0.0
 10
82.39083656794396
 20
-120.288092689112
 30
0.0
 10
82.63199325191145
 20
-120.4150444577435
 30
0.0
 10
82.63199325191145
 20
-120.7111504147007
 30
0.0
 10
82.63199325191145
 20
-120.8973578256784
 30
0.0
 10
82.53690861651856
 20
-120.9798678625502
 30
0.0
 10
82.43734535699484
 20
-121.0411905621876
 30
0.0
 10
82.49866805663228
 20
-121.0687513260696
 30
0.0
 10
82.68056909825347
 20
-121.1491943056502
 30
0.0
 10
82.68056909825347
 20
-121.4263522374386
 30
0.0
 10
82.68056909825347
 20
-121.7648328688643
 30
0.0
 10
82.43321124241254
 20
-121.931919999899
 30
0.0
 10
82.15622556539844
 20
-121.931919999899
 30
0.0
  0
HATCH
  5
F0
330
EB
100
AcDbEntity
  8
_U+30EC_U+30A4_U+30E4_U+30FC 1
 62
     7
420
 16777215
100
AcDbHatch
 10
0.0
 20
0.0
 30
0.0
210
0.0
220
0.0
230
1.0
  2
SOLID
 70
     1
 71
     0
 91
        1
 92
        1
 93
        1
 72
     4
 94
        3
 73
     0
 74
     1
 95
       62
 96
       58
 40
0.0
 40
0.0
 40
0.0
 40
0.0
 40
1.0
 40
1.0
 40
1.0
 40
2.0
 40
2.0
 40
2.0
 40
3.0
 40
3.0
 40
3.0
 40
4.0
 40
4.0
 40
4.0
 40
5.0
 40
5.0
 40
5.0
 40
6.0
 40
6.0
 40
6.0
 40
7.0
 40
7.0
 40
7.0
 40
8.0
 40
8.0
 40
8.0
 40
9.0
 40
9.0
 40
9.0
 40
10.0
 40
10.0
 40
10.0
 40
11.0
 40
11.0
 40
11.0
 40
12.0
 40
12.0
 40
12.0
 40
13.0
 40
13.0
 40
13.0
 40
14.0
 40
14.0
 40
14.0
 40
15.0
 40
15.0
 40
15.0
 40
16.0
 40
16.0
 40
16.0
 40
17.0
 40
17.0
 40
17.0
 40
18.0
 40
18.0
 40
18.0
 40
19.0
 40
19.0
 40
19.0
 40
19.0
 10
82.15622556539844
 20
-121.931919999899
 10
82.06079642045702
 20
-121.931919999899
 10
81.84306638578924
 20
-121.9107326626647
 10
81.71800941967467
 20
-121.7245252516869
 10
81.6439398667418
 20
-121.6123873936421
 10
81.6398057521595
 20
-121.5129963888926
 10
81.6356716375772
 20
-121.4284192947297
 10
81.6356716375772
 20
-121.4284192947297
 10
81.85581323908467
 20
-121.4284192947297
 10
81.85581323908467
 20
-121.4284192947297
 10
81.85788029637581
 20
-121.5024888476626
 10
81.86821558283157
 20
-121.7372721049824
 10
82.15174694126762
 20
-121.7372721049824
 10
82.28920625112909
 20
-121.7372721049824
 10
82.44182398112567
 20
-121.667508921406
 10
82.44182398112567
 20
-121.4389268359597
 10
82.44182398112567
 20
-121.3226548633325
 10
82.40358342123939
 20
-121.2739067622163
 10
82.37188854277508
 20
-121.2422118837519
 10
82.29781898984221
 20
-121.1681423308191
 10
82.18137476244077
 20
-121.1555677322979
 10
82.1265977442253
 20
-121.1555677322979
 10
82.1073052095079
 20
-121.1555677322979
 10
82.0714762164613
 20
-121.1576347895891
 10
82.0439154525793
 20
-121.1617689041714
 10
82.0439154525793
 20
-121.1617689041714
 10
82.0439154525793
 20
-120.967293264029
 10
82.0439154525793
 20
-120.967293264029
 10
82.08215601246557
 20
-120.9734944359025
 10
82.12418617738562
 20
-120.9757337479679
 10
82.1307318588076
 20
-120.9757337479679
 10
82.19618867302735
 20
-120.9757337479679
 10
82.39497068252626
 20
-120.9545464107336
 10
82.39497068252626
 20
-120.7175238413484
 10
82.39497068252626
 20
-120.5399291690838
 10
82.26405705408676
 20
-120.4848076413198
 10
82.15381399855877
 20
-120.4848076413198
 10
81.8895751748401
 20
-120.4848076413198
 10
81.88096243612698
 20
-120.7175238413484
 10
81.87682832154468
 20
-120.7895263369901
 10
81.87682832154468
 20
-120.7895263369901
 10
81.67356768791494
 20
-120.7895263369901
 10
81.67356768791494
 20
-120.7895263369901
 10
81.68218042662807
 20
-120.6646416256498
 10
81.70974119051007
 20
-120.288092689112
 10
82.1665608518542
 20
-120.288092689112
 10
82.39083656794396
 20
-120.288092689112
 10
82.63199325191145
 20
-120.4150444577435
 10
82.63199325191145
 20
-120.7111504147007
 10
82.63199325191145
 20
-120.8973578256784
 10
82.53690861651856
 20
-120.9798678625502
 10
82.43734535699484
 20
-121.0411905621876
 10
82.49866805663228
 20
-121.0687513260696
 10
82.68056909825347
 20
-121.1491943056502
 10
82.68056909825347
 20
-121.4263522374386
 10
82.68056909825347
 20
-121.7648328688643
 10
82.43321124241254
 20
-121.931919999899
 10
82.15622556539844
 20
-121.931919999899
 97
        0
 97
        0
 75
     2
 76
     1
 98
        0
  0
ENDBLK
  5
EE
330
EB
100
AcDbEntity
  8
0
100
AcDbBlockEnd
  0
BLOCK
  5
F3
330
F1
100
AcDbEntity
  8
0
100
AcDbBlockBegin
  2
block 9
 70
     0
 10
0.0
 20
0.0
 30
0.0
  3
block 9
  1

  0
SPLINE
  5
F5
330
F1
100
AcDbEntity
  8
_U+30EC_U+30A4_U+30E4_U+30FC 1
370
     0
100
AcDbSpline
210
0.0
220
0.0
230
1.0
 70
    11
 71
     3
 72
    26
 73
    22
 74
     0
 42
0.0000000001
 43
0.0000000001
 12
1.0
 22
0.0
 32
0.0
 13
1.0
 23
0.0
 33
0.0
 40
0.0
 40
0.0
 40
0.0
 40
0.0
 40
1.0
 40
1.0
 40
1.0
 40
2.0
 40
2.0
 40
2.0
 40
3.0
 40
3.0
 40
3.0
 40
4.0
 40
4.0
 40
4.0
 40
5.0
 40
5.0
 40
5.0
 40
6.0
 40
6.0
 40
6.0
 40
7.0
 40
7.0
 40
7.0
 40
7.0
 10
97.12826603474572
 20
-93.75086667578104
 30
0.0
 10
97.12826603474572
 20
-93.75086667578104
 30
0.0
 10
97.12826603474572
 20
-92.6465413179842
 30
0.0
 10
97.12826603474572
 20
-92.6465413179842
 30
0.0
 10
97.12826603474572
 20
-92.6465413179842
 30
0.0
 10
96.79822588725878
 20
-92.6465413179842
 30
0.0
 10
96.79822588725878
 20
-92.6465413179842
 30
0.0
 10
96.79822588725878
 20
-92.6465413179842
 30
0.0
 10
96.79822588725878
 20
-92.49840221211846
 30
0.0
 10
96.79822588725878
 20
-92.49840221211846
 30
0.0
 10
97.13033309203686
 20
-92.48376055630615
 30
0.0
 10
97.17684188108774
 20
-92.32080753985383
 30
0.0
 10
97.20646970226089
 20
-92.2066026245178
 30
0.0
 10
97.20646970226089
 20
-92.2066026245178
 30
0.0
 10
97.35254175083548
 20
-92.2066026245178
 30
0.0
 10
97.35254175083548
 20
-92.2066026245178
 30
0.0
 10
97.35254175083548
 20
-92.2066026245178
 30
0.0
 10
97.35254175083548
 20
-93.75086667578104
 30
0.0
 10
97.35254175083548
 20
-93.75086667578104
 30
0.0
 10
97.35254175083548
 20
-93.75086667578104
 30
0.0
 10
97.12826603474572
 20
-93.75086667578104
 30
0.0
 10
97.12826603474572
 20
-93.75086667578104
 30
0.0
  0
HATCH
  5
F6
330
F1
100
AcDbEntity
  8
_U+30EC_U+30A4_U+30E4_U+30FC 1
 62
     7
420
 16777215
100
AcDbHatch
 10
0.0
 20
0.0
 30
0.0
210
0.0
220
0.0
230
1.0
  2
SOLID
 70
     1
 71
     0
 91
        1
 92
        1
 93
        1
 72
     4
 94
        3
 73
     0
 74
     1
 95
       26
 96
       22
 40
0.0
 40
0.0
 40
0.0
 40
0.0
 40
1.0
 40
1.0
 40
1.0
 40
2.0
 40
2.0
 40
2.0
 40
3.0
 40
3.0
 40
3.0
 40
4.0
 40
4.0
 40
4.0
 40
5.0
 40
5.0
 40
5.0
 40
6.0
 40
6.0
 40
6.0
 40
7.0
 40
7.0
 40
7.0
 40
7.0
 10
97.12826603474572
 20
-93.75086667578104
 10
97.12826603474572
 20
-93.75086667578104
 10
97.12826603474572
 20
-92.6465413179842
 10
97.12826603474572
 20
-92.6465413179842
 10
97.12826603474572
 20
-92.6465413179842
 10
96.79822588725878
 20
-92.6465413179842
 10
96.79822588725878
 20
-92.6465413179842
 10
96.79822588725878
 20
-92.6465413179842
 10
96.79822588725878
 20
-92.49840221211846
 10
96.79822588725878
 20
-92.49840221211846
 10
97.13033309203686
 20
-92.48376055630615
 10
97.17684188108774
 20
-92.32080753985383
 10
97.20646970226089
 20
-92.2066026245178
 10
97.20646970226089
 20
-92.2066026245178
 10
97.35254175083548
 20
-92.2066026245178
 10
97.35254175083548
 20
-92.2066026245178
 10
97.35254175083548
 20
-92.2066026245178
 10
97.35254175083548
 20
-93.75086667578104
 10
97.35254175083548
 20
-93.75086667578104
 10
97.35254175083548
 20
-93.75086667578104
 10
97.12826603474572
 20
-93.75086667578104
 10
97.12826603474572
 20
-93.75086667578104
 97
        0
 97
        0
 75
     2
 76
     1
 98
        0
  0
ENDBLK
  5
F4
330
F1
100
AcDbEntity
  8
0
100
AcDbBlockEnd
  0
BLOCK
  5
F9
330
F7
100
AcDbEntity
  8
0
100
AcDbBlockBegin
  2
block 10
 70
     0
 10
0.0
 20
0.0
 30
0.0
  3
block 10
  1

  0
SPLINE
  5
FB
330
F7
100
AcDbEntity
  8
_U+30EC_U+30A4_U+30E4_U+30FC 1
370
     0
100
AcDbSpline
210
0.0
220
0.0
230
1.0
 70
    11
 71
     3
 72
    26
 73
    22
 74
     0
 42
0.0000000001
 43
0.0000000001
 12
1.0
 22
0.0
 32
0.0
 13
1.0
 23
0.0
 33
0.0
 40
0.0
 40
0.0
 40
0.0
 40
0.0
 40
1.0
 40
1.0
 40
1.0
 40
2.0
 40
2.0
 40
2.0
 40
3.0
 40
3.0
 40
3.0
 40
4.0
 40
4.0
 40
4.0
 40
5.0
 40
5.0
 40
5.0
 40
6.0
 40
6.0
 40
6.0
 40
7.0
 40
7.0
 40
7.0
 40
7.0
 10
89.51115991685832
 20
-121.8811048414915
 30
0.0
 10
89.51115991685832
 20
-121.8811048414915
 30
0.0
 10
89.51115991685832
 20
-120.7767794836947
 30
0.0
 10
89.51115991685832
 20
-120.7767794836947
 30
0.0
 10
89.51115991685832
 20
-120.7767794836947
 30
0.0
 10
89.18111976937139
 20
-120.7767794836947
 30
0.0
 10
89.18111976937139
 20
-120.7767794836947
 30
0.0
 10
89.18111976937139
 20
-120.7767794836947
 30
0.0
 10
89.18111976937139
 20
-120.628640377829
 30
0.0
 10
89.18111976937139
 20
-120.628640377829
 30
0.0
 10
89.51322697414948
 20
-120.6139987220166
 30
0.0
 10
89.55973576320035
 20
-120.4510457055643
 30
0.0
 10
89.5893635843735
 20
-120.3368407902283
 30
0.0
 10
89.5893635843735
 20
-120.3368407902283
 30
0.0
 10
89.7354356329481
 20
-120.3368407902283
 30
0.0
 10
89.7354356329481
 20
-120.3368407902283
 30
0.0
 10
89.7354356329481
 20
-120.3368407902283
 30
0.0
 10
89.7354356329481
 20
-121.8811048414915
 30
0.0
 10
89.7354356329481
 20
-121.8811048414915
 30
0.0
 10
89.7354356329481
 20
-121.8811048414915
 30
0.0
 10
89.51115991685832
 20
-121.8811048414915
 30
0.0
 10
89.51115991685832
 20
-121.8811048414915
 30
0.0
  0
HATCH
  5
FC
330
F7
100
AcDbEntity
  8
_U+30EC_U+30A4_U+30E4_U+30FC 1
 62
     7
420
 16777215
100
AcDbHatch
 10
0.0
 20
0.0
 30
0.0
210
0.0
220
0.0
230
1.0
  2
SOLID
 70
     1
 71
     0
 91
        1
 92
        1
 93
        1
 72
     4
 94
        3
 73
     0
 74
     1
 95
       26
 96
       22
 40
0.0
 40
0.0
 40
0.0
 40
0.0
 40
1.0
 40
1.0
 40
1.0
 40
2.0
 40
2.0
 40
2.0
 40
3.0
 40
3.0
 40
3.0
 40
4.0
 40
4.0
 40
4.0
 40
5.0
 40
5.0
 40
5.0
 40
6.0
 40
6.0
 40
6.0
 40
7.0
 40
7.0
 40
7.0
 40
7.0
 10
89.51115991685832
 20
-121.8811048414915
 10
89.51115991685832
 20
-121.8811048414915
 10
89.51115991685832
 20
-120.7767794836947
 10
89.51115991685832
 20
-120.7767794836947
 10
89.51115991685832
 20
-120.7767794836947
 10
89.18111976937139
 20
-120.7767794836947
 10
89.18111976937139
 20
-120.7767794836947
 10
89.18111976937139
 20
-120.7767794836947
 10
89.18111976937139
 20
-120.628640377829
 10
89.18111976937139
 20
-120.628640377829
 10
89.51322697414948
 20
-120.6139987220166
 10
89.55973576320035
 20
-120.4510457055643
 10
89.5893635843735
 20
-120.3368407902283
 10
89.5893635843735
 20
-120.3368407902283
 10
89.7354356329481
 20
-120.3368407902283
 10
89.7354356329481
 20
-120.3368407902283
 10
89.7354356329481
 20
-120.3368407902283
 10
89.7354356329481
 20
-121.8811048414915
 10
89.7354356329481
 20
-121.8811048414915
 10
89.7354356329481
 20
-121.8811048414915
 10
89.51115991685832
 20
-121.8811048414915
 10
89.51115991685832
 20
-121.8811048414915
 97
        0
 97
        0
 75
     2
 76
     1
 98
        0
  0
SPLINE
  5
FD
330
F7
100
AcDbEntity
  8
_U+30EC_U+30A4_U+30E4_U+30FC 1
370
     0
100
AcDbSpline
210
0.0
220
0.0
230
1.0
 70
    11
 71
     3
 72
    62
 73
    58
 74
     0
 42
0.0000000001
 43
0.0000000001
 12
1.0
 22
0.0
 32
0.0
 13
1.0
 23
0.0
 33
0.0
 40
0.0
 40
0.0
 40
0.0
 40
0.0
 40
1.0
 40
1.0
 40
1.0
 40
2.0
 40
2.0
 40
2.0
 40
3.0
 40
3.0
 40
3.0
 40
4.0
 40
4.0
 40
4.0
 40
5.0
 40
5.0
 40
5.0
 40
6.0
 40
6.0
 40
6.0
 40
7.0
 40
7.0
 40
7.0
 40
8.0
 40
8.0
 40
8.0
 40
9.0
 40
9.0
 40
9.0
 40
10.0
 40
10.0
 40
10.0
 40
11.0
 40
11.0
 40
11.0
 40
12.0
 40
12.0
 40
12.0
 40
13.0
 40
13.0
 40
13.0
 40
14.0
 40
14.0
 40
14.0
 40
15.0
 40
15.0
 40
15.0
 40
16.0
 40
16.0
 40
16.0
 40
17.0
 40
17.0
 40
17.0
 40
18.0
 40
18.0
 40
18.0
 40
19.0
 40
19.0
 40
19.0
 40
19.0
 10
90.7283121517971
 20
-121.931919999899
 30
0.0
 10
90.63288300685568
 20
-121.931919999899
 30
0.0
 10
90.41515297218788
 20
-121.9107326626647
 30
0.0
 10
90.29009600607331
 20
-121.7245252516869
 30
0.0
 10
90.21602645314044
 20
-121.6123873936421
 30
0.0
 10
90.21189233855814
 20
-121.5129963888926
 30
0.0
 10
90.20775822397584
 20
-121.4284192947297
 30
0.0
 10
90.20775822397584
 20
-121.4284192947297
 30
0.0
 10
90.42789982548331
 20
-121.4284192947297
 30
0.0
 10
90.42789982548331
 20
-121.4284192947297
 30
0.0
 10
90.42996688277445
 20
-121.5024888476626
 30
0.0
 10
90.44030216923021
 20
-121.7372721049824
 30
0.0
 10
90.72383352766627
 20
-121.7372721049824
 30
0.0
 10
90.86129283752774
 20
-121.7372721049824
 30
0.0
 10
91.0139105675243
 20
-121.667508921406
 30
0.0
 10
91.0139105675243
 20
-121.4389268359597
 30
0.0
 10
91.0139105675243
 20
-121.3226548633325
 30
0.0
 10
90.97567000763803
 20
-121.2739067622163
 30
0.0
 10
90.94397512917374
 20
-121.2422118837519
 30
0.0
 10
90.86990557624087
 20
-121.1681423308191
 30
0.0
 10
90.75346134883942
 20
-121.1555677322979
 30
0.0
 10
90.69868433062395
 20
-121.1555677322979
 30
0.0
 10
90.67939179590654
 20
-121.1555677322979
 30
0.0
 10
90.64356280285995
 20
-121.1576347895891
 30
0.0
 10
90.61600203897795
 20
-121.1617689041714
 30
0.0
 10
90.61600203897795
 20
-121.1617689041714
 30
0.0
 10
90.61600203897795
 20
-120.967293264029
 30
0.0
 10
90.61600203897795
 20
-120.967293264029
 30
0.0
 10
90.65424259886422
 20
-120.9734944359025
 30
0.0
 10
90.69627276378426
 20
-120.9757337479679
 30
0.0
 10
90.70281844520625
 20
-120.9757337479679
 30
0.0
 10
90.76827525942599
 20
-120.9757337479679
 30
0.0
 10
90.9670572689249
 20
-120.9545464107336
 30
0.0
 10
90.9670572689249
 20
-120.7175238413484
 30
0.0
 10
90.9670572689249
 20
-120.5399291690838
 30
0.0
 10
90.83614364048542
 20
-120.4848076413198
 30
0.0
 10
90.72590058495742
 20
-120.4848076413198
 30
0.0
 10
90.46166176123876
 20
-120.4848076413198
 30
0.0
 10
90.45304902252563
 20
-120.7175238413484
 30
0.0
 10
90.44891490794333
 20
-120.7895263369901
 30
0.0
 10
90.44891490794333
 20
-120.7895263369901
 30
0.0
 10
90.2456542743136
 20
-120.7895263369901
 30
0.0
 10
90.2456542743136
 20
-120.7895263369901
 30
0.0
 10
90.25426701302672
 20
-120.6646416256498
 30
0.0
 10
90.28182777690871
 20
-120.288092689112
 30
0.0
 10
90.73864743825284
 20
-120.288092689112
 30
0.0
 10
90.9629231543426
 20
-120.288092689112
 30
0.0
 10
91.2040798383101
 20
-120.4150444577435
 30
0.0
 10
91.2040798383101
 20
-120.7111504147007
 30
0.0
 10
91.2040798383101
 20
-120.8973578256784
 30
0.0
 10
91.1089952029172
 20
-120.9798678625502
 30
0.0
 10
91.00943194339348
 20
-121.0411905621876
 30
0.0
 10
91.07075464303092
 20
-121.0687513260696
 30
0.0
 10
91.25265568465211
 20
-121.1491943056502
 30
0.0
 10
91.25265568465211
 20
-121.4263522374386
 30
0.0
 10
91.25265568465211
 20
-121.7648328688643
 30
0.0
 10
91.00529782881118
 20
-121.931919999899
 30
0.0
 10
90.7283121517971
 20
-121.931919999899
 30
0.0
  0
HATCH
  5
FE
330
F7
100
AcDbEntity
  8
_U+30EC_U+30A4_U+30E4_U+30FC 1
 62
     7
420
 16777215
100
AcDbHatch
 10
0.0
 20
0.0
 30
0.0
210
0.0
220
0.0
230
1.0
  2
SOLID
 70
     1
 71
     0
 91
        1
 92
        1
 93
        1
 72
     4
 94
        3
 73
     0
 74
     1
 95
       62
 96
       58
 40
0.0
 40
0.0
 40
0.0
 40
0.0
 40
1.0
 40
1.0
 40
1.0
 40
2.0
 40
2.0
 40
2.0
 40
3.0
 40
3.0
 40
3.0
 40
4.0
 40
4.0
 40
4.0
 40
5.0
 40
5.0
 40
5.0
 40
6.0
 40
6.0
 40
6.0
 40
7.0
 40
7.0
 40
7.0
 40
8.0
 40
8.0
 40
8.0
 40
9.0
 40
9.0
 40
9.0
 40
10.0
 40
10.0
 40
10.0
 40
11.0
 40
11.0
 40
11.0
 40
12.0
 40
12.0
 40
12.0
 40
13.0
 40
13.0
 40
13.0
 40
14.0
 40
14.0
 40
14.0
 40
15.0
 40
15.0
 40
15.0
 40
16.0
 40
16.0
 40
16.0
 40
17.0
 40
17.0
 40
17.0
 40
18.0
 40
18.0
 40
18.0
 40
19.0
 40
19.0
 40
19.0
 40
19.0
 10
90.7283121517971
 20
-121.931919999899
 10
90.63288300685568
 20
-121.931919999899
 10
90.41515297218788
 20
-121.9107326626647
 10
90.29009600607331
 20
-121.7245252516869
 10
90.21602645314044
 20
-121.6123873936421
 10
90.21189233855814
 20
-121.5129963888926
 10
90.20775822397584
 20
-121.4284192947297
 10
90.20775822397584
 20
-121.4284192947297
 10
90.42789982548331
 20
-121.4284192947297
 10
90.42789982548331
 20
-121.4284192947297
 10
90.42996688277445
 20
-121.5024888476626
 10
90.44030216923021
 20
-121.7372721049824
 10
90.72383352766627
 20
-121.7372721049824
 10
90.86129283752774
 20
-121.7372721049824
 10
91.0139105675243
 20
-121.667508921406
 10
91.0139105675243
 20
-121.4389268359597
 10
91.0139105675243
 20
-121.3226548633325
 10
90.97567000763803
 20
-121.2739067622163
 10
90.94397512917374
 20
-121.2422118837519
 10
90.86990557624087
 20
-121.1681423308191
 10
90.75346134883942
 20
-121.1555677322979
 10
90.69868433062395
 20
-121.1555677322979
 10
90.67939179590654
 20
-121.1555677322979
 10
90.64356280285995
 20
-121.1576347895891
 10
90.61600203897795
 20
-121.1617689041714
 10
90.61600203897795
 20
-121.1617689041714
 10
90.61600203897795
 20
-120.967293264029
 10
90.61600203897795
 20
-120.967293264029
 10
90.65424259886422
 20
-120.9734944359025
 10
90.69627276378426
 20
-120.9757337479679
 10
90.70281844520625
 20
-120.9757337479679
 10
90.76827525942599
 20
-120.9757337479679
 10
90.9670572689249
 20
-120.9545464107336
 10
90.9670572689249
 20
-120.7175238413484
 10
90.9670572689249
 20
-120.5399291690838
 10
90.83614364048542
 20
-120.4848076413198
 10
90.72590058495742
 20
-120.4848076413198
 10
90.46166176123876
 20
-120.4848076413198
 10
90.45304902252563
 20
-120.7175238413484
 10
90.44891490794333
 20
-120.7895263369901
 10
90.44891490794333
 20
-120.7895263369901
 10
90.2456542743136
 20
-120.7895263369901
 10
90.2456542743136
 20
-120.7895263369901
 10
90.25426701302672
 20
-120.6646416256498
 10
90.28182777690871
 20
-120.288092689112
 10
90.73864743825284
 20
-120.288092689112
 10
90.9629231543426
 20
-120.288092689112
 10
91.2040798383101
 20
-120.4150444577435
 10
91.2040798383101
 20
-120.7111504147007
 10
91.2040798383101
 20
-120.8973578256784
 10
91.1089952029172
 20
-120.9798678625502
 10
91.00943194339348
 20
-121.0411905621876
 10
91.07075464303092
 20
-121.0687513260696
 10
91.25265568465211
 20
-121.1491943056502
 10
91.25265568465211
 20
-121.4263522374386
 10
91.25265568465211
 20
-121.7648328688643
 10
91.00529782881118
 20
-121.931919999899
 10
90.7283121517971
 20
-121.931919999899
 97
        0
 97
        0
 75
     2
 76
     1
 98
        0
  0
ENDBLK
  5
FA
330
F7
100
AcDbEntity
  8
0
100
AcDbBlockEnd
  0
ENDSEC
  0
SECTION
  2
ENTITIES
  0
POLYLINE
  5
41
330
1F
100
AcDbEntity
  8
_U+30EC_U+30A4_U+30E4_U+30FC 1
 62
     7
420
 16777215
370
    25
100
AcDb2dPolyline
 66
     1
 10
0.0
 20
0.0
 30
0.0
  0
VERTEX
  5
42
330
41
100
AcDbEntity
  8
_U+30EC_U+30A4_U+30E4_U+30FC 1
 62
     7
420
 16777215
370
    25
100
AcDbVertex
100
AcDb2dVertex
 10
97.6629269528556
 20
-146.3631607967423
 30
0.0
  0
VERTEX
  5
43
330
41
100
AcDbEntity
  8
_U+30EC_U+30A4_U+30E4_U+30FC 1
 62
     7
420
 16777215
370
    25
100
AcDbVertex
100
AcDb2dVertex
 10
97.6629269528556
 20
-98.36298164207594
 30
0.0
  0
VERTEX
  5
44
330
41
100
AcDbEntity
  8
_U+30EC_U+30A4_U+30E4_U+30FC 1
 62
     7
420
 16777215
370
    25
100
AcDbVertex
100
AcDb2dVertex
 10
96.66319003391656
 20
-98.36298164207594
 30
0.0
  0
VERTEX
  5
45
330
41
100
AcDbEntity
  8
_U+30EC_U+30A4_U+30E4_U+30FC 1
 62
     7
420
 16777215
370
    25
100
AcDbVertex
100
AcDb2dVertex
 10
96.66319003391656
 20
-145.3633885747704
 30
0.0
  0
VERTEX
  5
46
330
41
100
AcDbEntity
  8
_U+30EC_U+30A4_U+30E4_U+30FC 1
 62
     7
420
 16777215
370
    25
100
AcDbVertex
100
AcDb2dVertex
 10
81.66322041659768
 20
-145.3633885747704
 30
0.0
  0
VERTEX
  5
47
330
41
100
AcDbEntity
  8
_U+30EC_U+30A4_U+30E4_U+30FC 1
 62
     7
420
 16777215
370
    25
100
AcDbVertex
100
AcDb2dVertex
 10
81.66322041659768
 20
-137.3628471878815
 30
0.0
  0
VERTEX
  5
48
330
41
100
AcDbEntity
  8
_U+30EC_U+30A4_U+30E4_U+30FC 1
 62
     7
420
 16777215
370
    25
100
AcDbVertex
100
AcDb2dVertex
 10
83.66347036556705
 20
-137.3628471878815
 30
0.0
  0
VERTEX
  5
49
330
41
100
AcDbEntity
  8
_U+30EC_U+30A4_U+30E4_U+30FC 1
 62
     7
420
 16777215
370
    25
100
AcDbVertex
100
AcDb2dVertex
 10
83.66347036556705
 20
-136.363074965909
 30
0.0
  0
VERTEX
  5
4A
330
41
100
AcDbEntity
  8
_U+30EC_U+30A4_U+30E4_U+30FC 1
 62
     7
420
 16777215
370
    25
100
AcDbVertex
100
AcDb2dVertex
 10
81.66322041659768
 20
-136.363074965909
 30
0.0
  0
VERTEX
  5
4B
330
41
100
AcDbEntity
  8
_U+30EC_U+30A4_U+30E4_U+30FC 1
 62
     7
420
 16777215
370
    25
100
AcDbVertex
100
AcDb2dVertex
 10
80.66344821988177
 20
-136.363074965909
 30
0.0
  0
VERTEX
  5
4C
330
41
100
AcDbEntity
  8
_U+30EC_U+30A4_U+30E4_U+30FC 1
 62
     7
420
 16777215
370
    25
100
AcDbVertex
100
AcDb2dVertex
 10
80.66344821988177
 20
-137.3628471878815
 30
0.0
  0
VERTEX
  5
4D
330
41
100
AcDbEntity
  8
_U+30EC_U+30A4_U+30E4_U+30FC 1
 62
     7
420
 16777215
370
    25
100
AcDbVertex
100
AcDb2dVertex
 10
80.66344821988177
 20
-145.3633885747704
 30
0.0
  0
VERTEX
  5
4E
330
41
100
AcDbEntity
  8
_U+30EC_U+30A4_U+30E4_U+30FC 1
 62
     7
420
 16777215
370
    25
100
AcDbVertex
100
AcDb2dVertex
 10
80.66344821988177
 20
-146.3631607967423
 30
0.0
  0
VERTEX
  5
4F
330
41
100
AcDbEntity
  8
_U+30EC_U+30A4_U+30E4_U+30FC 1
 62
     7
420
 16777215
370
    25
100
AcDbVertex
100
AcDb2dVertex
 10
81.66322041659768
 20
-146.3631607967423
 30
0.0
  0
VERTEX
  5
50
330
41
100
AcDbEntity
  8
_U+30EC_U+30A4_U+30E4_U+30FC 1
 62
     7
420
 16777215
370
    25
100
AcDbVertex
100
AcDb2dVertex
 10
90.66318331066739
 20
-146.3631607967423
 30
0.0
  0
VERTEX
  5
51
330
41
100
AcDbEntity
  8
_U+30EC_U+30A4_U+30E4_U+30FC 1
 62
     7
420
 16777215
370
    25
100
AcDbVertex
100
AcDb2dVertex
 10
91.66295553263994
 20
-146.3631607967423
 30
0.0
  0
VERTEX
  5
52
330
41
100
AcDbEntity
  8
_U+30EC_U+30A4_U+30E4_U+30FC 1
 62
     7
420
 16777215
370
    25
100
AcDbVertex
100
AcDb2dVertex
 10
92.66343331016736
 20
-146.3631607967423
 30
0.0
  0
VERTEX
  5
53
330
41
100
AcDbEntity
  8
_U+30EC_U+30A4_U+30E4_U+30FC 1
 62
     7
420
 16777215
370
    25
100
AcDbVertex
100
AcDb2dVertex
 10
92.66343331016736
 20
-157.3636891273255
 30
0.0
  0
VERTEX
  5
54
330
41
100
AcDbEntity
  8
_U+30EC_U+30A4_U+30E4_U+30FC 1
 62
     7
420
 16777215
370
    25
100
AcDbVertex
100
AcDb2dVertex
 10
92.66343331016736
 20
-158.3634613492981
 30
0.0
  0
VERTEX
  5
55
330
41
100
AcDbEntity
  8
_U+30EC_U+30A4_U+30E4_U+30FC 1
 62
     7
420
 16777215
370
    25
100
AcDbVertex
100
AcDb2dVertex
 10
93.6632055321399
 20
-158.3634613492981
 30
0.0
  0
VERTEX
  5
56
330
41
100
AcDbEntity
  8
_U+30EC_U+30A4_U+30E4_U+30FC 1
 62
     7
420
 16777215
370
    25
100
AcDbVertex
100
AcDb2dVertex
 10
101.6633915730175
 20
-158.3634613492981
 30
0.0
  0
VERTEX
  5
57
330
41
100
AcDbEntity
  8
_U+30EC_U+30A4_U+30E4_U+30FC 1
 62
     7
420
 16777215
370
    25
100
AcDbVertex
100
AcDb2dVertex
 10
102.6631637697334
 20
-158.3634613492981
 30
0.0
  0
VERTEX
  5
58
330
41
100
AcDbEntity
  8
_U+30EC_U+30A4_U+30E4_U+30FC 1
 62
     7
420
 16777215
370
    25
100
AcDbVertex
100
AcDb2dVertex
 10
102.6631637697334
 20
-157.3636891273255
 30
0.0
  0
VERTEX
  5
59
330
41
100
AcDbEntity
  8
_U+30EC_U+30A4_U+30E4_U+30FC 1
 62
     7
420
 16777215
370
    25
100
AcDbVertex
100
AcDb2dVertex
 10
102.6631637697334
 20
-155.3634744056037
 30
0.0
  0
VERTEX
  5
5A
330
41
100
AcDbEntity
  8
_U+30EC_U+30A4_U+30E4_U+30FC 1
 62
     7
420
 16777215
370
    25
100
AcDbVertex
100
AcDb2dVertex
 10
101.6633915730175
 20
-155.3634744056037
 30
0.0
  0
VERTEX
  5
5B
330
41
100
AcDbEntity
  8
_U+30EC_U+30A4_U+30E4_U+30FC 1
 62
     7
420
 16777215
370
    25
100
AcDbVertex
100
AcDb2dVertex
 10
101.6633915730175
 20
-157.3636891273255
 30
0.0
  0
VERTEX
  5
5C
330
41
100
AcDbEntity
  8
_U+30EC_U+30A4_U+30E4_U+30FC 1
 62
     7
420
 16777215
370
    25
100
AcDbVertex
100
AcDb2dVertex
 10
93.6632055321399
 20
-157.3636891273255
 30
0.0
  0
VERTEX
  5
5D
330
41
100
AcDbEntity
  8
_U+30EC_U+30A4_U+30E4_U+30FC 1
 62
     7
420
 16777215
370
    25
100
AcDbVertex
100
AcDb2dVertex
 10
93.6632055321399
 20
-146.3631607967423
 30
0.0
  0
VERTEX
  5
5E
330
41
100
AcDbEntity
  8
_U+30EC_U+30A4_U+30E4_U+30FC 1
 62
     7
420
 16777215
370
    25
100
AcDbVertex
100
AcDb2dVertex
 10
97.6629269528556
 20
-146.3631607967423
 30
0.0
  0
SEQEND
  5
60
330
41
100
AcDbEntity
  8
_U+30EC_U+30A4_U+30E4_U+30FC 1
 62
     7
420
 16777215
370
    25
  0
HATCH
  5
5F
330
1F
100
AcDbEntity
  8
_U+30EC_U+30A4_U+30E4_U+30FC 1
 62
   253
420
 11711154
100
AcDbHatch
 10
0.0
 20
0.0
 30
0.0
210
0.0
220
0.0
230
1.0
  2
SOLID
 70
     1
 71
     0
 91
        1
 92
        1
 93
       28
 72
     1
 10
97.6629269528556
 20
-146.3631607967423
 11
97.6629269528556
 21
-98.36298164207594
 72
     1
 10
97.6629269528556
 20
-98.36298164207594
 11
96.66319003391656
 21
-98.36298164207594
 72
     1
 10
96.66319003391656
 20
-98.36298164207594
 11
96.66319003391656
 21
-145.3633885747704
 72
     1
 10
96.66319003391656
 20
-145.3633885747704
 11
81.66322041659768
 21
-145.3633885747704
 72
     1
 10
81.66322041659768
 20
-145.3633885747704
 11
81.66322041659768
 21
-137.3628471878815
 72
     1
 10
81.66322041659768
 20
-137.3628471878815
 11
83.66347036556705
 21
-137.3628471878815
 72
     1
 10
83.66347036556705
 20
-137.3628471878815
 11
83.66347036556705
 21
-136.363074965909
 72
     1
 10
83.66347036556705
 20
-136.363074965909
 11
81.66322041659768
 21
-136.363074965909
 72
     1
 10
81.66322041659768
 20
-136.363074965909
 11
80.66344821988177
 21
-136.363074965909
 72
     1
 10
80.66344821988177
 20
-136.363074965909
 11
80.66344821988177
 21
-137.3628471878815
 72
     1
 10
80.66344821988177
 20
-137.3628471878815
 11
80.66344821988177
 21
-145.3633885747704
 72
     1
 10
80.66344821988177
 20
-145.3633885747704
 11
80.66344821988177
 21
-146.3631607967423
 72
     1
 10
80.66344821988177
 20
-146.3631607967423
 11
81.66322041659768
 21
-146.3631607967423
 72
     1
 10
81.66322041659768
 20
-146.3631607967423
 11
90.66318331066739
 21
-146.3631607967423
 72
     1
 10
90.66318331066739
 20
-146.3631607967423
 11
91.66295553263994
 21
-146.3631607967423
 72
     1
 10
91.66295553263994
 20
-146.3631607967423
 11
92.66343331016736
 21
-146.3631607967423
 72
     1
 10
92.66343331016736
 20
-146.3631607967423
 11
92.66343331016736
 21
-157.3636891273255
 72
     1
 10
92.66343331016736
 20
-157.3636891273255
 11
92.66343331016736
 21
-158.3634613492981
 72
     1
 10
92.66343331016736
 20
-158.3634613492981
 11
93.6632055321399
 21
-158.3634613492981
 72
     1
 10
93.6632055321399
 20
-158.3634613492981
 11
101.6633915730175
 21
-158.3634613492981
 72
     1
 10
101.6633915730175
 20
-158.3634613492981
 11
102.6631637697334
 21
-158.3634613492981
 72
     1
 10
102.6631637697334
 20
-158.3634613492981
 11
102.6631637697334
 21
-157.3636891273255
 72
     1
 10
102.6631637697334
 20
-157.3636891273255
 11
102.6631637697334
 21
-155.3634744056037
 72
     1
 10
102.6631637697334
 20
-155.3634744056037
 11
101.6633915730175
 21
-155.3634744056037
 72
     1
 10
101.6633915730175
 20
-155.3634744056037
 11
101.6633915730175
 21
-157.3636891273255
 72
     1
 10
101.6633915730175
 20
-157.3636891273255
 11
93.6632055321399
 21
-157.3636891273255
 72
     1
 10
93.6632055321399
 20
-157.3636891273255
 11
93.6632055321399
 21
-146.3631607967423
 72
     1
 10
93.6632055321399
 20
-146.3631607967423
 11
97.6629269528556
 21
-146.3631607967423
 97
        0
 75
     2
 76
     1
 98
        0
  0
POLYLINE
  5
61
330
1F
100
AcDbEntity
  8
_U+30EC_U+30A4_U+30E4_U+30FC 1
 62
     7
420
 16777215
370
    25
100
AcDb2dPolyline
 66
     1
 10
0.0
 20
0.0
 30
0.0
  0
VERTEX
  5
62
330
61
100
AcDbEntity
  8
_U+30EC_U+30A4_U+30E4_U+30FC 1
 62
     7
420
 16777215
370
    25
100
AcDbVertex
100
AcDb2dVertex
 10
96.66319003391656
 20
-145.3633885747704
 30
0.0
  0
VERTEX
  5
63
330
61
100
AcDbEntity
  8
_U+30EC_U+30A4_U+30E4_U+30FC 1
 62
     7
420
 16777215
370
    25
100
AcDbVertex
100
AcDb2dVertex
 10
95.66341783720067
 20
-145.3633885747704
 30
0.0
  0
SEQEND
  5
64
330
61
100
AcDbEntity
  8
_U+30EC_U+30A4_U+30E4_U+30FC 1
 62
     7
420
 16777215
370
    25
  0
SPLINE
  5
65
330
1F
100
AcDbEntity
  8
_U+30EC_U+30A4_U+30E4_U+30FC 1
 62
     7
420
 16777215
370
     9
100
AcDbSpline
210
0.0
220
0.0
230
1.0
 70
    11
 71
     3
 72
    17
 73
    13
 74
     0
 42
0.0000000001
 43
0.0000000001
 12
1.0
 22
0.0
 32
0.0
 13
1.0
 23
0.0
 33
0.0
 40
0.0
 40
0.0
 40
0.0
 40
0.0
 40
1.0
 40
1.0
 40
1.0
 40
2.0
 40
2.0
 40
2.0
 40
3.0
 40
3.0
 40
3.0
 40
4.0
 40
4.0
 40
4.0
 40
4.0
 10
76.75604637512345
 20
-158.3634613492981
 30
0.0
 10
76.75604637512345
 20
-158.3076519048676
 30
0.0
 10
76.7112435984887
 20
-158.2628491271009
 30
0.0
 10
76.65614164750252
 20
-158.2628491271009
 30
0.0
 10
76.60033026798499
 20
-158.2628491271009
 30
0.0
 10
76.55552749135022
 20
-158.3076519048676
 30
0.0
 10
76.55552749135022
 20
-158.3634613492981
 30
0.0
 10
76.55552749135022
 20
-158.418565238173
 30
0.0
 10
76.60033026798499
 20
-158.4633680159397
 30
0.0
 10
76.65614164750252
 20
-158.4633680159397
 30
0.0
 10
76.7112435984887
 20
-158.4633680159397
 30
0.0
 10
76.75604637512345
 20
-158.418565238173
 30
0.0
 10
76.75604637512345
 20
-158.3634613492981
 30
0.0
  0
SPLINE
  5
66
330
1F
100
AcDbEntity
  8
_U+30EC_U+30A4_U+30E4_U+30FC 1
 62
     7
420
 16777215
370
     9
100
AcDbSpline
210
0.0
220
0.0
230
1.0
 70
    11
 71
     3
 72
    17
 73
    13
 74
     0
 42
0.0000000001
 43
0.0000000001
 12
1.0
 22
0.0
 32
0.0
 13
1.0
 23
0.0
 33
0.0
 40
0.0
 40
0.0
 40
0.0
 40
0.0
 40
1.0
 40
1.0
 40
1.0
 40
2.0
 40
2.0
 40
2.0
 40
3.0
 40
3.0
 40
3.0
 40
4.0
 40
4.0
 40
4.0
 40
4.0
 10
76.75604637512345
 20
-136.4133810770079
 30
0.0
 10
76.75604637512345
 20
-136.3582419103548
 30
0.0
 10
76.7112435984887
 20
-136.3134744103662
 30
0.0
 10
76.65614164750252
 20
-136.3134744103662
 30
0.0
 10
76.60033026798499
 20
-136.3134744103662
 30
0.0
 10
76.55552749135022
 20
-136.3582419103548
 30
0.0
 10
76.55552749135022
 20
-136.4133810770079
 30
0.0
 10
76.55552749135022
 20
-136.4688377436605
 30
0.0
 10
76.60033026798499
 20
-136.5136405214273
 30
0.0
 10
76.65614164750252
 20
-136.5136405214273
 30
0.0
 10
76.7112435984887
 20
-136.5136405214273
 30
0.0
 10
76.75604637512345
 20
-136.4688377436605
 30
0.0
 10
76.75604637512345
 20
-136.4133810770079
 30
0.0
  0
POLYLINE
  5
67
330
1F
100
AcDbEntity
  8
_U+30EC_U+30A4_U+30E4_U+30FC 1
 62
     7
420
 16777215
370
     9
100
AcDb2dPolyline
 66
     1
 10
0.0
 20
0.0
 30
0.0
  0
VERTEX
  5
68
330
67
100
AcDbEntity
  8
_U+30EC_U+30A4_U+30E4_U+30FC 1
 62
     7
420
 16777215
370
     9
100
AcDbVertex
100
AcDb2dVertex
 10
76.65614164750252
 20
-158.3634613492981
 30
0.0
  0
VERTEX
  5
69
330
67
100
AcDbEntity
  8
_U+30EC_U+30A4_U+30E4_U+30FC 1
 62
     7
420
 16777215
370
     9
100
AcDbVertex
100
AcDb2dVertex
 10
76.65614164750252
 20
-136.4133810770079
 30
0.0
  0
SEQEND
  5
6A
330
67
100
AcDbEntity
  8
_U+30EC_U+30A4_U+30E4_U+30FC 1
 62
     7
420
 16777215
370
     9
  0
POLYLINE
  5
6B
330
1F
100
AcDbEntity
  8
_U+30EC_U+30A4_U+30E4_U+30FC 1
 62
     7
420
 16777215
370
     9
100
AcDb2dPolyline
 66
     1
 10
0.0
 20
0.0
 30
0.0
  0
VERTEX
  5
6C
330
6B
100
AcDbEntity
  8
_U+30EC_U+30A4_U+30E4_U+30FC 1
 62
     7
420
 16777215
370
     9
100
AcDbVertex
100
AcDb2dVertex
 10
91.16754739634432
 20
-158.3634613492981
 30
0.0
  0
VERTEX
  5
6D
330
6B
100
AcDbEntity
  8
_U+30EC_U+30A4_U+30E4_U+30FC 1
 62
     7
420
 16777215
370
     9
100
AcDbVertex
100
AcDb2dVertex
 10
75.6556638699751
 20
-158.3634613492981
 30
0.0
  0
SEQEND
  5
6E
330
6B
100
AcDbEntity
  8
_U+30EC_U+30A4_U+30E4_U+30FC 1
 62
     7
420
 16777215
370
     9
  0
POLYLINE
  5
6F
330
1F
100
AcDbEntity
  8
_U+30EC_U+30A4_U+30E4_U+30FC 1
 62
     7
420
 16777215
370
     9
100
AcDb2dPolyline
 66
     1
 10
0.0
 20
0.0
 30
0.0
  0
VERTEX
  5
70
330
6F
100
AcDbEntity
  8
_U+30EC_U+30A4_U+30E4_U+30FC 1
 62
     7
420
 16777215
370
     9
100
AcDbVertex
100
AcDb2dVertex
 10
79.11591798158477
 20
-136.4133810770079
 30
0.0
  0
VERTEX
  5
71
330
6F
100
AcDbEntity
  8
_U+30EC_U+30A4_U+30E4_U+30FC 1
 62
     7
420
 16777215
370
     9
100
AcDbVertex
100
AcDb2dVertex
 10
75.6556638699751
 20
-136.4133810770079
 30
0.0
  0
SEQEND
  5
72
330
6F
100
AcDbEntity
  8
_U+30EC_U+30A4_U+30E4_U+30FC 1
 62
     7
420
 16777215
370
     9
  0
SPLINE
  5
73
330
1F
100
AcDbEntity
  8
_U+30EC_U+30A4_U+30E4_U+30FC 1
 62
     7
420
 16777215
370
     9
100
AcDbSpline
210
0.0
220
0.0
230
1.0
 70
    11
 71
     3
 72
    17
 73
    13
 74
     0
 42
0.0000000001
 43
0.0000000001
 12
1.0
 22
0.0
 32
0.0
 13
1.0
 23
0.0
 33
0.0
 40
0.0
 40
0.0
 40
0.0
 40
0.0
 40
1.0
 40
1.0
 40
1.0
 40
2.0
 40
2.0
 40
2.0
 40
3.0
 40
3.0
 40
3.0
 40
4.0
 40
4.0
 40
4.0
 40
4.0
 10
76.75604637512345
 20
-146.3631607967423
 30
0.0
 10
76.75604637512345
 20
-146.3080216300899
 30
0.0
 10
76.7112435984887
 20
-146.2632541301007
 30
0.0
 10
76.65614164750252
 20
-146.2632541301007
 30
0.0
 10
76.60033026798499
 20
-146.2632541301007
 30
0.0
 10
76.55552749135022
 20
-146.3080216300899
 30
0.0
 10
76.55552749135022
 20
-146.3631607967423
 30
0.0
 10
76.55552749135022
 20
-146.4186174633956
 30
0.0
 10
76.60033026798499
 20
-146.4634202411617
 30
0.0
 10
76.65614164750252
 20
-146.4634202411617
 30
0.0
 10
76.7112435984887
 20
-146.4634202411617
 30
0.0
 10
76.75604637512345
 20
-146.4186174633956
 30
0.0
 10
76.75604637512345
 20
-146.3631607967423
 30
0.0
  0
POLYLINE
  5
74
330
1F
100
AcDbEntity
  8
_U+30EC_U+30A4_U+30E4_U+30FC 1
 62
     7
420
 16777215
370
     9
100
AcDb2dPolyline
 66
     1
 10
0.0
 20
0.0
 30
0.0
  0
VERTEX
  5
75
330
74
100
AcDbEntity
  8
_U+30EC_U+30A4_U+30E4_U+30FC 1
 62
     7
420
 16777215
370
     9
100
AcDbVertex
100
AcDb2dVertex
 10
79.11591798158477
 20
-146.3631607967423
 30
0.0
  0
VERTEX
  5
76
330
74
100
AcDbEntity
  8
_U+30EC_U+30A4_U+30E4_U+30FC 1
 62
     7
420
 16777215
370
     9
100
AcDbVertex
100
AcDb2dVertex
 10
75.6556638699751
 20
-146.3631607967423
 30
0.0
  0
SEQEND
  5
77
330
74
100
AcDbEntity
  8
_U+30EC_U+30A4_U+30E4_U+30FC 1
 62
     7
420
 16777215
370
     9
  0
SPLINE
  5
78
330
1F
100
AcDbEntity
  8
_U+30EC_U+30A4_U+30E4_U+30FC 1
 62
     7
420
 16777215
370
     9
100
AcDbSpline
210
0.0
220
0.0
230
1.0
 70
    11
 71
     3
 72
    17
 73
    13
 74
     0
 42
0.0000000001
 43
0.0000000001
 12
1.0
 22
0.0
 32
0.0
 13
1.0
 23
0.0
 33
0.0
 40
0.0
 40
0.0
 40
0.0
 40
0.0
 40
1.0
 40
1.0
 40
1.0
 40
2.0
 40
2.0
 40
2.0
 40
3.0
 40
3.0
 40
3.0
 40
4.0
 40
4.0
 40
4.0
 40
4.0
 10
106.5250925600963
 20
-98.35885414207696
 30
0.0
 10
106.5250925600963
 20
-98.4146635865074
 30
0.0
 10
106.569895336731
 20
-98.45946636427412
 30
0.0
 10
106.6249992242141
 20
-98.45946636427412
 30
0.0
 10
106.6808086672347
 20
-98.45946636427412
 30
0.0
 10
106.7256114438695
 20
-98.4146635865074
 30
0.0
 10
106.7256114438695
 20
-98.35885414207696
 30
0.0
 10
106.7256114438695
 20
-98.30375025320171
 30
0.0
 10
106.6808086672347
 20
-98.25894747543532
 30
0.0
 10
106.6249992242141
 20
-98.25894747543532
 30
0.0
 10
106.569895336731
 20
-98.25894747543532
 30
0.0
 10
106.5250925600963
 20
-98.30375025320171
 30
0.0
 10
106.5250925600963
 20
-98.35885414207696
 30
0.0
  0
SPLINE
  5
79
330
1F
100
AcDbEntity
  8
_U+30EC_U+30A4_U+30E4_U+30FC 1
 62
     7
420
 16777215
370
     9
100
AcDbSpline
210
0.0
220
0.0
230
1.0
 70
    11
 71
     3
 72
    17
 73
    13
 74
     0
 42
0.0000000001
 43
0.0000000001
 12
1.0
 22
0.0
 32
0.0
 13
1.0
 23
0.0
 33
0.0
 40
0.0
 40
0.0
 40
0.0
 40
0.0
 40
1.0
 40
1.0
 40
1.0
 40
2.0
 40
2.0
 40
2.0
 40
3.0
 40
3.0
 40
3.0
 40
4.0
 40
4.0
 40
4.0
 40
4.0
 10
106.5250925600963
 20
-158.3634613492981
 30
0.0
 10
106.5250925600963
 20
-158.418565238173
 30
0.0
 10
106.569895336731
 20
-158.4633680159397
 30
0.0
 10
106.6249992242141
 20
-158.4633680159397
 30
0.0
 10
106.6808086672347
 20
-158.4633680159397
 30
0.0
 10
106.7256114438695
 20
-158.418565238173
 30
0.0
 10
106.7256114438695
 20
-158.3634613492981
 30
0.0
 10
106.7256114438695
 20
-158.3080046826454
 30
0.0
 10
106.6808086672347
 20
-158.2632019048787
 30
0.0
 10
106.6249992242141
 20
-158.2632019048787
 30
0.0
 10
106.569895336731
 20
-158.2632019048787
 30
0.0
 10
106.5250925600963
 20
-158.3080046826454
 30
0.0
 10
106.5250925600963
 20
-158.3634613492981
 30
0.0
  0
POLYLINE
  5
7A
330
1F
100
AcDbEntity
  8
_U+30EC_U+30A4_U+30E4_U+30FC 1
 62
     7
420
 16777215
370
     9
100
AcDb2dPolyline
 66
     1
 10
0.0
 20
0.0
 30
0.0
  0
VERTEX
  5
7B
330
7A
100
AcDbEntity
  8
_U+30EC_U+30A4_U+30E4_U+30FC 1
 62
     7
420
 16777215
370
     9
100
AcDbVertex
100
AcDb2dVertex
 10
106.6249992242141
 20
-98.35885414207696
 30
0.0
  0
VERTEX
  5
7C
330
7A
100
AcDbEntity
  8
_U+30EC_U+30A4_U+30E4_U+30FC 1
 62
     7
420
 16777215
370
     9
100
AcDbVertex
100
AcDb2dVertex
 10
106.6249992242141
 20
-158.3634613492981
 30
0.0
  0
SEQEND
  5
7D
330
7A
100
AcDbEntity
  8
_U+30EC_U+30A4_U+30E4_U+30FC 1
 62
     7
420
 16777215
370
     9
  0
POLYLINE
  5
7E
330
1F
100
AcDbEntity
  8
_U+30EC_U+30A4_U+30E4_U+30FC 1
 62
     7
420
 16777215
370
     9
100
AcDb2dPolyline
 66
     1
 10
0.0
 20
0.0
 30
0.0
  0
VERTEX
  5
7F
330
7E
100
AcDbEntity
  8
_U+30EC_U+30A4_U+30E4_U+30FC 1
 62
     7
420
 16777215
370
     9
100
AcDbVertex
100
AcDb2dVertex
 10
99.16293802569824
 20
-98.35885414207696
 30
0.0
  0
VERTEX
  5
80
330
7E
100
AcDbEntity
  8
_U+30EC_U+30A4_U+30E4_U+30FC 1
 62
     7
420
 16777215
370
     9
100
AcDbVertex
100
AcDb2dVertex
 10
107.6254769764676
 20
-98.35885414207696
 30
0.0
  0
SEQEND
  5
81
330
7E
100
AcDbEntity
  8
_U+30EC_U+30A4_U+30E4_U+30FC 1
 62
     7
420
 16777215
370
     9
  0
POLYLINE
  5
82
330
1F
100
AcDbEntity
  8
_U+30EC_U+30A4_U+30E4_U+30FC 1
 62
     7
420
 16777215
370
     9
100
AcDb2dPolyline
 66
     1
 10
0.0
 20
0.0
 30
0.0
  0
VERTEX
  5
83
330
82
100
AcDbEntity
  8
_U+30EC_U+30A4_U+30E4_U+30FC 1
 62
     7
420
 16777215
370
     9
100
AcDbVertex
100
AcDb2dVertex
 10
104.1652209536349
 20
-158.3634613492981
 30
0.0
  0
VERTEX
  5
84
330
82
100
AcDbEntity
  8
_U+30EC_U+30A4_U+30E4_U+30FC 1
 62
     7
420
 16777215
370
     9
100
AcDbVertex
100
AcDb2dVertex
 10
107.6254769764676
 20
-158.3634613492981
 30
0.0
  0
SEQEND
  5
85
330
82
100
AcDbEntity
  8
_U+30EC_U+30A4_U+30E4_U+30FC 1
 62
     7
420
 16777215
370
     9
  0
SPLINE
  5
86
330
1F
100
AcDbEntity
  8
_U+30EC_U+30A4_U+30E4_U+30FC 1
 62
     7
420
 16777215
370
     9
100
AcDbSpline
210
0.0
220
0.0
230
1.0
 70
    11
 71
     3
 72
    17
 73
    13
 74
     0
 42
0.0000000001
 43
0.0000000001
 12
1.0
 22
0.0
 32
0.0
 13
1.0
 23
0.0
 33
0.0
 40
0.0
 40
0.0
 40
0.0
 40
0.0
 40
1.0
 40
1.0
 40
1.0
 40
2.0
 40
2.0
 40
2.0
 40
3.0
 40
3.0
 40
3.0
 40
4.0
 40
4.0
 40
4.0
 40
4.0
 10
106.5250925600963
 20
-155.3634744056037
 30
0.0
 10
106.5250925600963
 20
-155.4185782944787
 30
0.0
 10
106.569895336731
 20
-155.4633810722454
 30
0.0
 10
106.6249992242141
 20
-155.4633810722454
 30
0.0
 10
106.6808086672347
 20
-155.4633810722454
 30
0.0
 10
106.7256114438695
 20
-155.4185782944787
 30
0.0
 10
106.7256114438695
 20
-155.3634744056037
 30
0.0
 10
106.7256114438695
 20
-155.3080177389511
 30
0.0
 10
106.6808086672347
 20
-155.2632149611843
 30
0.0
 10
106.6249992242141
 20
-155.2632149611843
 30
0.0
 10
106.569895336731
 20
-155.2632149611843
 30
0.0
 10
106.5250925600963
 20
-155.3080177389511
 30
0.0
 10
106.5250925600963
 20
-155.3634744056037
 30
0.0
  0
POLYLINE
  5
87
330
1F
100
AcDbEntity
  8
_U+30EC_U+30A4_U+30E4_U+30FC 1
 62
     7
420
 16777215
370
     9
100
AcDb2dPolyline
 66
     1
 10
0.0
 20
0.0
 30
0.0
  0
VERTEX
  5
88
330
87
100
AcDbEntity
  8
_U+30EC_U+30A4_U+30E4_U+30FC 1
 62
     7
420
 16777215
370
     9
100
AcDbVertex
100
AcDb2dVertex
 10
104.1652209536349
 20
-155.3634744056037
 30
0.0
  0
VERTEX
  5
89
330
87
100
AcDbEntity
  8
_U+30EC_U+30A4_U+30E4_U+30FC 1
 62
     7
420
 16777215
370
     9
100
AcDbVertex
100
AcDb2dVertex
 10
107.6254769764676
 20
-155.3634744056037
 30
0.0
  0
SEQEND
  5
8A
330
87
100
AcDbEntity
  8
_U+30EC_U+30A4_U+30E4_U+30FC 1
 62
     7
420
 16777215
370
     9
  0
SPLINE
  5
8B
330
1F
100
AcDbEntity
  8
_U+30EC_U+30A4_U+30E4_U+30FC 1
 62
     7
420
 16777215
370
     9
100
AcDbSpline
210
0.0
220
0.0
230
1.0
 70
    11
 71
     3
 72
    17
 73
    13
 74
     0
 42
0.0000000001
 43
0.0000000001
 12
1.0
 22
0.0
 32
0.0
 13
1.0
 23
0.0
 33
0.0
 40
0.0
 40
0.0
 40
0.0
 40
0.0
 40
1.0
 40
1.0
 40
1.0
 40
2.0
 40
2.0
 40
2.0
 40
3.0
 40
3.0
 40
3.0
 40
4.0
 40
4.0
 40
4.0
 40
4.0
 10
80.66761099755334
 20
-162.2233441261108
 30
0.0
 10
80.72342044057397
 20
-162.2233441261108
 30
0.0
 10
80.76818793943185
 20
-162.2681469038775
 30
0.0
 10
80.76818793943185
 20
-162.3232507927524
 30
0.0
 10
80.76818793943185
 20
-162.3790602371829
 30
0.0
 10
80.72342044057397
 20
-162.4238630149496
 30
0.0
 10
80.66761099755334
 20
-162.4238630149496
 30
0.0
 10
80.6124718322934
 20
-162.4238630149496
 30
0.0
 10
80.56770433343551
 20
-162.3790602371829
 30
0.0
 10
80.56770433343551
 20
-162.3232507927524
 30
0.0
 10
80.56770433343551
 20
-162.2681469038775
 30
0.0
 10
80.6124718322934
 20
-162.2233441261108
 30
0.0
 10
80.66761099755334
 20
-162.2233441261108
 30
0.0
  0
SPLINE
  5
8C
330
1F
100
AcDbEntity
  8
_U+30EC_U+30A4_U+30E4_U+30FC 1
 62
     7
420
 16777215
370
     9
100
AcDbSpline
210
0.0
220
0.0
230
1.0
 70
    11
 71
     3
 72
    17
 73
    13
 74
     0
 42
0.0000000001
 43
0.0000000001
 12
1.0
 22
0.0
 32
0.0
 13
1.0
 23
0.0
 33
0.0
 40
0.0
 40
0.0
 40
0.0
 40
0.0
 40
1.0
 40
1.0
 40
1.0
 40
2.0
 40
2.0
 40
2.0
 40
3.0
 40
3.0
 40
3.0
 40
4.0
 40
4.0
 40
4.0
 40
4.0
 10
102.6176907153379
 20
-162.2233441261108
 30
0.0
 10
102.6727971965538
 20
-162.2233441261108
 30
0.0
 10
102.7175999743205
 20
-162.2681469038775
 30
0.0
 10
102.7175999743205
 20
-162.3232507927524
 30
0.0
 10
102.7175999743205
 20
-162.3790602371829
 30
0.0
 10
102.6727971965538
 20
-162.4238630149496
 30
0.0
 10
102.6176907153379
 20
-162.4238630149496
 30
0.0
 10
102.562551550078
 20
-162.4238630149496
 30
0.0
 10
102.5177840512201
 20
-162.3790602371829
 30
0.0
 10
102.5177840512201
 20
-162.3232507927524
 30
0.0
 10
102.5177840512201
 20
-162.2681469038775
 30
0.0
 10
102.562551550078
 20
-162.2233441261108
 30
0.0
 10
102.6176907153379
 20
-162.2233441261108
 30
0.0
  0
POLYLINE
  5
8D
330
1F
100
AcDbEntity
  8
_U+30EC_U+30A4_U+30E4_U+30FC 1
 62
     7
420
 16777215
370
     9
100
AcDb2dPolyline
 66
     1
 10
0.0
 20
0.0
 30
0.0
  0
VERTEX
  5
8E
330
8D
100
AcDbEntity
  8
_U+30EC_U+30A4_U+30E4_U+30FC 1
 62
     7
420
 16777215
370
     9
100
AcDbVertex
100
AcDb2dVertex
 10
80.66761099755334
 20
-162.3232507927524
 30
0.0
  0
VERTEX
  5
8F
330
8D
100
AcDbEntity
  8
_U+30EC_U+30A4_U+30E4_U+30FC 1
 62
     7
420
 16777215
370
     9
100
AcDbVertex
100
AcDb2dVertex
 10
102.6176907153379
 20
-162.3232507927524
 30
0.0
  0
SEQEND
  5
90
330
8D
100
AcDbEntity
  8
_U+30EC_U+30A4_U+30E4_U+30FC 1
 62
     7
420
 16777215
370
     9
  0
POLYLINE
  5
91
330
1F
100
AcDbEntity
  8
_U+30EC_U+30A4_U+30E4_U+30FC 1
 62
     7
420
 16777215
370
     9
100
AcDb2dPolyline
 66
     1
 10
0.0
 20
0.0
 30
0.0
  0
VERTEX
  5
92
330
91
100
AcDbEntity
  8
_U+30EC_U+30A4_U+30E4_U+30FC 1
 62
     7
420
 16777215
370
     9
100
AcDbVertex
100
AcDb2dVertex
 10
80.66761099755334
 20
-147.8628191297008
 30
0.0
  0
VERTEX
  5
93
330
91
100
AcDbEntity
  8
_U+30EC_U+30A4_U+30E4_U+30FC 1
 62
     7
420
 16777215
370
     9
100
AcDbVertex
100
AcDb2dVertex
 10
80.66761099755334
 20
-163.3236932925023
 30
0.0
  0
SEQEND
  5
94
330
91
100
AcDbEntity
  8
_U+30EC_U+30A4_U+30E4_U+30FC 1
 62
     7
420
 16777215
370
     9
  0
POLYLINE
  5
95
330
1F
100
AcDbEntity
  8
_U+30EC_U+30A4_U+30E4_U+30FC 1
 62
     7
420
 16777215
370
     9
100
AcDb2dPolyline
 66
     1
 10
0.0
 20
0.0
 30
0.0
  0
VERTEX
  5
96
330
95
100
AcDbEntity
  8
_U+30EC_U+30A4_U+30E4_U+30FC 1
 62
     7
420
 16777215
370
     9
100
AcDbVertex
100
AcDb2dVertex
 10
102.6176907153379
 20
-159.8634724600343
 30
0.0
  0
VERTEX
  5
97
330
95
100
AcDbEntity
  8
_U+30EC_U+30A4_U+30E4_U+30FC 1
 62
     7
420
 16777215
370
     9
100
AcDbVertex
100
AcDb2dVertex
 10
102.6176907153379
 20
-163.3236932925023
 30
0.0
  0
SEQEND
  5
98
330
95
100
AcDbEntity
  8
_U+30EC_U+30A4_U+30E4_U+30FC 1
 62
     7
420
 16777215
370
     9
  0
SPLINE
  5
99
330
1F
100
AcDbEntity
  8
_U+30EC_U+30A4_U+30E4_U+30FC 1
 62
     7
420
 16777215
370
     9
100
AcDbSpline
210
0.0
220
0.0
230
1.0
 70
    11
 71
     3
 72
    17
 73
    13
 74
     0
 42
0.0000000001
 43
0.0000000001
 12
1.0
 22
0.0
 32
0.0
 13
1.0
 23
0.0
 33
0.0
 40
0.0
 40
0.0
 40
0.0
 40
0.0
 40
1.0
 40
1.0
 40
1.0
 40
2.0
 40
2.0
 40
2.0
 40
3.0
 40
3.0
 40
3.0
 40
4.0
 40
4.0
 40
4.0
 40
4.0
 10
92.66822874694763
 20
-162.2233441261108
 30
0.0
 10
92.72336791220758
 20
-162.2233441261108
 30
0.0
 10
92.76813541106547
 20
-162.2681469038775
 30
0.0
 10
92.76813541106547
 20
-162.3232507927524
 30
0.0
 10
92.76813541106547
 20
-162.3790602371829
 30
0.0
 10
92.72336791220758
 20
-162.4238630149496
 30
0.0
 10
92.66822874694763
 20
-162.4238630149496
 30
0.0
 10
92.61241930392701
 20
-162.4238630149496
 30
0.0
 10
92.56765180506912
 20
-162.3790602371829
 30
0.0
 10
92.56765180506912
 20
-162.3232507927524
 30
0.0
 10
92.56765180506912
 20
-162.2681469038775
 30
0.0
 10
92.61241930392701
 20
-162.2233441261108
 30
0.0
 10
92.66822874694763
 20
-162.2233441261108
 30
0.0
  0
POLYLINE
  5
9A
330
1F
100
AcDbEntity
  8
_U+30EC_U+30A4_U+30E4_U+30FC 1
 62
     7
420
 16777215
370
     9
100
AcDb2dPolyline
 66
     1
 10
0.0
 20
0.0
 30
0.0
  0
VERTEX
  5
9B
330
9A
100
AcDbEntity
  8
_U+30EC_U+30A4_U+30E4_U+30FC 1
 62
     7
420
 16777215
370
     9
100
AcDbVertex
100
AcDb2dVertex
 10
92.66822874694763
 20
-159.8634724600343
 30
0.0
  0
VERTEX
  5
9C
330
9A
100
AcDbEntity
  8
_U+30EC_U+30A4_U+30E4_U+30FC 1
 62
     7
420
 16777215
370
     9
100
AcDbVertex
100
AcDb2dVertex
 10
92.66822874694763
 20
-163.3236932925023
 30
0.0
  0
SEQEND
  5
9D
330
9A
100
AcDbEntity
  8
_U+30EC_U+30A4_U+30E4_U+30FC 1
 62
     7
420
 16777215
370
     9
  0
SPLINE
  5
9E
330
1F
100
AcDbEntity
  8
_U+30EC_U+30A4_U+30E4_U+30FC 1
 62
     7
420
 16777215
370
     9
100
AcDbSpline
210
0.0
220
0.0
230
1.0
 70
    11
 71
     3
 72
    17
 73
    13
 74
     0
 42
0.0000000001
 43
0.0000000001
 12
1.0
 22
0.0
 32
0.0
 13
1.0
 23
0.0
 33
0.0
 40
0.0
 40
0.0
 40
0.0
 40
0.0
 40
1.0
 40
1.0
 40
1.0
 40
2.0
 40
2.0
 40
2.0
 40
3.0
 40
3.0
 40
3.0
 40
4.0
 40
4.0
 40
4.0
 40
4.0
 10
96.66111108694584
 20
-122.5534124693615
 30
0.0
 10
96.60529920206015
 20
-122.5534124693615
 30
0.0
 10
96.5604964254254
 20
-122.508644969373
 30
0.0
 10
96.5604964254254
 20
-122.4535058027199
 30
0.0
 10
96.5604964254254
 20
-122.3976963582895
 30
0.0
 10
96.60529920206015
 20
-122.352893580523
 30
0.0
 10
96.66111108694584
 20
-122.352893580523
 30
0.0
 10
96.71624781034073
 20
-122.352893580523
 30
0.0
 10
96.76101530919861
 20
-122.3976963582895
 30
0.0
 10
96.76101530919861
 20
-122.4535058027199
 30
0.0
 10
96.76101530919861
 20
-122.508644969373
 30
0.0
 10
96.71624781034073
 20
-122.5534124693615
 30
0.0
 10
96.66111108694584
 20
-122.5534124693615
 30
0.0
  0
SPLINE
  5
9F
330
1F
100
AcDbEntity
  8
_U+30EC_U+30A4_U+30E4_U+30FC 1
 62
     7
420
 16777215
370
     9
100
AcDbSpline
210
0.0
220
0.0
230
1.0
 70
    11
 71
     3
 72
    17
 73
    13
 74
     0
 42
0.0000000001
 43
0.0000000001
 12
1.0
 22
0.0
 32
0.0
 13
1.0
 23
0.0
 33
0.0
 40
0.0
 40
0.0
 40
0.0
 40
0.0
 40
1.0
 40
1.0
 40
1.0
 40
2.0
 40
2.0
 40
2.0
 40
3.0
 40
3.0
 40
3.0
 40
4.0
 40
4.0
 40
4.0
 40
4.0
 10
80.66344821988177
 20
-122.5534124693615
 30
0.0
 10
80.6083443323987
 20
-122.5534124693615
 30
0.0
 10
80.56354155576393
 20
-122.508644969373
 30
0.0
 10
80.56354155576393
 20
-122.4535058027199
 30
0.0
 10
80.56354155576393
 20
-122.3976963582895
 30
0.0
 10
80.6083443323987
 20
-122.352893580523
 30
0.0
 10
80.66344821988177
 20
-122.352893580523
 30
0.0
 10
80.71858738514172
 20
-122.352893580523
 30
0.0
 10
80.76335488399961
 20
-122.3976963582895
 30
0.0
 10
80.76335488399961
 20
-122.4535058027199
 30
0.0
 10
80.76335488399961
 20
-122.508644969373
 30
0.0
 10
80.71858738514172
 20
-122.5534124693615
 30
0.0
 10
80.66344821988177
 20
-122.5534124693615
 30
0.0
  0
POLYLINE
  5
A0
330
1F
100
AcDbEntity
  8
_U+30EC_U+30A4_U+30E4_U+30FC 1
 62
     7
420
 16777215
370
     9
100
AcDb2dPolyline
 66
     1
 10
0.0
 20
0.0
 30
0.0
  0
VERTEX
  5
A1
330
A0
100
AcDbEntity
  8
_U+30EC_U+30A4_U+30E4_U+30FC 1
 62
     7
420
 16777215
370
     9
100
AcDbVertex
100
AcDb2dVertex
 10
96.66111108694584
 20
-122.4535058027199
 30
0.0
  0
VERTEX
  5
A2
330
A0
100
AcDbEntity
  8
_U+30EC_U+30A4_U+30E4_U+30FC 1
 62
     7
420
 16777215
370
     9
100
AcDbVertex
100
AcDb2dVertex
 10
80.66344821988177
 20
-122.4535058027199
 30
0.0
  0
SEQEND
  5
A3
330
A0
100
AcDbEntity
  8
_U+30EC_U+30A4_U+30E4_U+30FC 1
 62
     7
420
 16777215
370
     9
  0
POLYLINE
  5
A4
330
1F
100
AcDbEntity
  8
_U+30EC_U+30A4_U+30E4_U+30FC 1
 62
     7
420
 16777215
370
     9
100
AcDb2dPolyline
 66
     1
 10
0.0
 20
0.0
 30
0.0
  0
VERTEX
  5
A5
330
A4
100
AcDbEntity
  8
_U+30EC_U+30A4_U+30E4_U+30FC 1
 62
     7
420
 16777215
370
     9
100
AcDbVertex
100
AcDb2dVertex
 10
80.66344821988177
 20
-134.9137227440494
 30
0.0
  0
VERTEX
  5
A6
330
A4
100
AcDbEntity
  8
_U+30EC_U+30A4_U+30E4_U+30FC 1
 62
     7
420
 16777215
370
     9
100
AcDbVertex
100
AcDb2dVertex
 10
80.66344821988177
 20
-121.45306330297
 30
0.0
  0
SEQEND
  5
A7
330
A4
100
AcDbEntity
  8
_U+30EC_U+30A4_U+30E4_U+30FC 1
 62
     7
420
 16777215
370
     9
  0
SPLINE
  5
A8
330
1F
100
AcDbEntity
  8
_U+30EC_U+30A4_U+30E4_U+30FC 1
 62
     7
420
 16777215
370
     9
100
AcDbSpline
210
0.0
220
0.0
230
1.0
 70
    11
 71
     3
 72
    17
 73
    13
 74
     0
 42
0.0000000001
 43
0.0000000001
 12
1.0
 22
0.0
 32
0.0
 13
1.0
 23
0.0
 33
0.0
 40
0.0
 40
0.0
 40
0.0
 40
0.0
 40
1.0
 40
1.0
 40
1.0
 40
2.0
 40
2.0
 40
2.0
 40
3.0
 40
3.0
 40
3.0
 40
4.0
 40
4.0
 40
4.0
 40
4.0
 10
83.66347036556705
 20
-122.5534124693615
 30
0.0
 10
83.60833331243126
 20
-122.5534124693615
 30
0.0
 10
83.56353053466454
 20
-122.508644969373
 30
0.0
 10
83.56353053466454
 20
-122.4535058027199
 30
0.0
 10
83.56353053466454
 20
-122.3976963582895
 30
0.0
 10
83.60833331243126
 20
-122.352893580523
 30
0.0
 10
83.66347036556705
 20
-122.352893580523
 30
0.0
 10
83.71857425305012
 20
-122.352893580523
 30
0.0
 10
83.76337702968489
 20
-122.3976963582895
 30
0.0
 10
83.76337702968489
 20
-122.4535058027199
 30
0.0
 10
83.76337702968489
 20
-122.508644969373
 30
0.0
 10
83.71857425305012
 20
-122.5534124693615
 30
0.0
 10
83.66347036556705
 20
-122.5534124693615
 30
0.0
  0
POLYLINE
  5
A9
330
1F
100
AcDbEntity
  8
_U+30EC_U+30A4_U+30E4_U+30FC 1
 62
     7
420
 16777215
370
     9
100
AcDb2dPolyline
 66
     1
 10
0.0
 20
0.0
 30
0.0
  0
VERTEX
  5
AA
330
A9
100
AcDbEntity
  8
_U+30EC_U+30A4_U+30E4_U+30FC 1
 62
     7
420
 16777215
370
     9
100
AcDbVertex
100
AcDb2dVertex
 10
83.66347036556705
 20
-134.9137227440494
 30
0.0
  0
VERTEX
  5
AB
330
A9
100
AcDbEntity
  8
_U+30EC_U+30A4_U+30E4_U+30FC 1
 62
     7
420
 16777215
370
     9
100
AcDbVertex
100
AcDb2dVertex
 10
83.66347036556705
 20
-121.45306330297
 30
0.0
  0
SEQEND
  5
AC
330
A9
100
AcDbEntity
  8
_U+30EC_U+30A4_U+30E4_U+30FC 1
 62
     7
420
 16777215
370
     9
  0
SPLINE
  5
AD
330
1F
100
AcDbEntity
  8
_U+30EC_U+30A4_U+30E4_U+30FC 1
 62
     7
420
 16777215
370
     9
100
AcDbSpline
210
0.0
220
0.0
230
1.0
 70
    11
 71
     3
 72
    17
 73
    13
 74
     0
 42
0.0000000001
 43
0.0000000001
 12
1.0
 22
0.0
 32
0.0
 13
1.0
 23
0.0
 33
0.0
 40
0.0
 40
0.0
 40
0.0
 40
0.0
 40
1.0
 40
1.0
 40
1.0
 40
2.0
 40
2.0
 40
2.0
 40
3.0
 40
3.0
 40
3.0
 40
4.0
 40
4.0
 40
4.0
 40
4.0
 10
96.68866058882232
 20
-94.4638346986062
 30
0.0
 10
96.63355670133924
 20
-94.4638346986062
 30
0.0
 10
96.58875392470448
 20
-94.41903192083981
 30
0.0
 10
96.58875392470448
 20
-94.36392803196458
 30
0.0
 10
96.58875392470448
 20
-94.30811858753412
 30
0.0
 10
96.63355670133924
 20
-94.2633158097674
 30
0.0
 10
96.68866058882232
 20
-94.2633158097674
 30
0.0
 10
96.74379975408226
 20
-94.2633158097674
 30
0.0
 10
96.78856725294015
 20
-94.30811858753412
 30
0.0
 10
96.78856725294015
 20
-94.36392803196458
 30
0.0
 10
96.78856725294015
 20
-94.41903192083981
 30
0.0
 10
96.74379975408226
 20
-94.4638346986062
 30
0.0
 10
96.68866058882232
 20
-94.4638346986062
 30
0.0
  0
POLYLINE
  5
AE
330
1F
100
AcDbEntity
  8
_U+30EC_U+30A4_U+30E4_U+30FC 1
 62
     7
420
 16777215
370
     9
100
AcDb2dPolyline
 66
     1
 10
0.0
 20
0.0
 30
0.0
  0
VERTEX
  5
AF
330
AE
100
AcDbEntity
  8
_U+30EC_U+30A4_U+30E4_U+30FC 1
 62
     7
420
 16777215
370
     9
100
AcDbVertex
100
AcDb2dVertex
 10
102.9208326520486
 20
-94.36392803196458
 30
0.0
  0
VERTEX
  5
B0
330
AE
100
AcDbEntity
  8
_U+30EC_U+30A4_U+30E4_U+30FC 1
 62
     7
420
 16777215
370
     9
100
AcDbVertex
100
AcDb2dVertex
 10
95.46289895342744
 20
-94.36392803196458
 30
0.0
  0
SEQEND
  5
B1
330
AE
100
AcDbEntity
  8
_U+30EC_U+30A4_U+30E4_U+30FC 1
 62
     7
420
 16777215
370
     9
  0
POLYLINE
  5
B2
330
1F
100
AcDbEntity
  8
_U+30EC_U+30A4_U+30E4_U+30FC 1
 62
     7
420
 16777215
370
     9
100
AcDb2dPolyline
 66
     1
 10
0.0
 20
0.0
 30
0.0
  0
VERTEX
  5
B3
330
B2
100
AcDbEntity
  8
_U+30EC_U+30A4_U+30E4_U+30FC 1
 62
     7
420
 16777215
370
     9
100
AcDbVertex
100
AcDb2dVertex
 10
96.68866058882232
 20
-96.8636760868952
 30
0.0
  0
VERTEX
  5
B4
330
B2
100
AcDbEntity
  8
_U+30EC_U+30A4_U+30E4_U+30FC 1
 62
     7
420
 16777215
370
     9
100
AcDbVertex
100
AcDb2dVertex
 10
96.68866058882232
 20
-93.36345025443683
 30
0.0
  0
SEQEND
  5
B5
330
B2
100
AcDbEntity
  8
_U+30EC_U+30A4_U+30E4_U+30FC 1
 62
     7
420
 16777215
370
     9
  0
SPLINE
  5
B6
330
1F
100
AcDbEntity
  8
_U+30EC_U+30A4_U+30E4_U+30FC 1
 62
     7
420
 16777215
370
     9
100
AcDbSpline
210
0.0
220
0.0
230
1.0
 70
    11
 71
     3
 72
    17
 73
    13
 74
     0
 42
0.0000000001
 43
0.0000000001
 12
1.0
 22
0.0
 32
0.0
 13
1.0
 23
0.0
 33
0.0
 40
0.0
 40
0.0
 40
0.0
 40
0.0
 40
1.0
 40
1.0
 40
1.0
 40
2.0
 40
2.0
 40
2.0
 40
3.0
 40
3.0
 40
3.0
 40
4.0
 40
4.0
 40
4.0
 40
4.0
 10
97.6629269528556
 20
-94.4638346986062
 30
0.0
 10
97.60782306537253
 20
-94.4638346986062
 30
0.0
 10
97.56302028873776
 20
-94.41903192083981
 30
0.0
 10
97.56302028873776
 20
-94.36392803196458
 30
0.0
 10
97.56302028873776
 20
-94.30811858753412
 30
0.0
 10
97.60782306537253
 20
-94.2633158097674
 30
0.0
 10
97.6629269528556
 20
-94.2633158097674
 30
0.0
 10
97.71806611811554
 20
-94.2633158097674
 30
0.0
 10
97.76283608667026
 20
-94.30811858753412
 30
0.0
 10
97.76283608667026
 20
-94.36392803196458
 30
0.0
 10
97.76283608667026
 20
-94.41903192083981
 30
0.0
 10
97.71806611811554
 20
-94.4638346986062
 30
0.0
 10
97.6629269528556
 20
-94.4638346986062
 30
0.0
  0
POLYLINE
  5
B7
330
1F
100
AcDbEntity
  8
_U+30EC_U+30A4_U+30E4_U+30FC 1
 62
     7
420
 16777215
370
     9
100
AcDb2dPolyline
 66
     1
 10
0.0
 20
0.0
 30
0.0
  0
VERTEX
  5
B8
330
B7
100
AcDbEntity
  8
_U+30EC_U+30A4_U+30E4_U+30FC 1
 62
     7
420
 16777215
370
     9
100
AcDbVertex
100
AcDb2dVertex
 10
97.6629269528556
 20
-96.8636760868952
 30
0.0
  0
VERTEX
  5
B9
330
B7
100
AcDbEntity
  8
_U+30EC_U+30A4_U+30E4_U+30FC 1
 62
     7
420
 16777215
370
     9
100
AcDbVertex
100
AcDb2dVertex
 10
97.6629269528556
 20
-93.36345025443683
 30
0.0
  0
SEQEND
  5
BA
330
B7
100
AcDbEntity
  8
_U+30EC_U+30A4_U+30E4_U+30FC 1
 62
     7
420
 16777215
370
     9
  0
INSERT
  5
BC
330
1F
100
AcDbEntity
  8
_U+30EC_U+30A4_U+30E4_U+30FC 1
100
AcDbBlockReference
  2
block 2
 10
0.0
 20
0.0
 30
0.0
  0
INSERT
  5
C5
330
1F
100
AcDbEntity
  8
_U+30EC_U+30A4_U+30E4_U+30FC 1
100
AcDbBlockReference
  2
block 3
 10
0.0
 20
0.0
 30
0.0
  0
INSERT
  5
CB
330
1F
100
AcDbEntity
  8
_U+30EC_U+30A4_U+30E4_U+30FC 1
100
AcDbBlockReference
  2
block 4
 10
0.0
 20
0.0
 30
0.0
  0
INSERT
  5
D3
330
1F
100
AcDbEntity
  8
_U+30EC_U+30A4_U+30E4_U+30FC 1
100
AcDbBlockReference
  2
block 5
 10
0.0
 20
0.0
 30
0.0
  0
INSERT
  5
DB
330
1F
100
AcDbEntity
  8
_U+30EC_U+30A4_U+30E4_U+30FC 1
100
AcDbBlockReference
  2
block 6
 10
0.0
 20
0.0
 30
0.0
  0
INSERT
  5
E4
330
1F
100
AcDbEntity
  8
_U+30EC_U+30A4_U+30E4_U+30FC 1
100
AcDbBlockReference
  2
block 7
 10
0.0
 20
0.0
 30
0.0
  0
INSERT
  5
EC
330
1F
100
AcDbEntity
  8
_U+30EC_U+30A4_U+30E4_U+30FC 1
100
AcDbBlockReference
  2
block 8
 10
0.0
 20
0.0
 30
0.0
  0
INSERT
  5
F2
330
1F
100
AcDbEntity
  8
_U+30EC_U+30A4_U+30E4_U+30FC 1
100
AcDbBlockReference
  2
block 9
 10
0.0
 20
0.0
 30
0.0
  0
INSERT
  5
F8
330
1F
100
AcDbEntity
  8
_U+30EC_U+30A4_U+30E4_U+30FC 1
100
AcDbBlockReference
  2
block 10
 10
0.0
 20
0.0
 30
0.0
  0
ENDSEC
  0
SECTION
  2
OBJECTS
  0
DICTIONARY
  5
C
330
0
100
AcDbDictionary
281
     1
  3
ACAD_GROUP
350
D
  3
ACAD_LAYOUT
350
1A
  3
ACAD_MATERIAL
350
3B
  3
ACAD_MLEADERSTYLE
350
100
  3
ACAD_MLINESTYLE
350
17
  3
ACAD_PLOTSETTINGS
350
19
  3
ACAD_PLOTSTYLENAME
350
E
  3
ACAD_TABLESTYLE
350
FF
  3
ACAD_VISUALSTYLE
350
2A
  0
SUN
  5
3F
330
29
100
AcDbSun
 90
        1
290
     0
 63
     7
421
 16777215
 40
1.0
291
     1
 91
  2455826
 92
 54000000
292
     0
 70
     2
 71
   256
280
     1
  0
DICTIONARY
  5
D
102
{ACAD_REACTORS
330
C
102
}
330
C
100
AcDbDictionary
281
     1
  0
DICTIONARY
  5
1A
102
{ACAD_REACTORS
330
C
102
}
330
C
100
AcDbDictionary
281
     1
  3
Layout1
350
1E
  3
Layout2
350
26
  3
Model
350
22
  0
DICTIONARY
  5
3B
102
{ACAD_REACTORS
330
C
102
}
330
C
100
AcDbDictionary
281
     1
  3
ByBlock
350
3D
  3
ByLayer
350
3C
  3
Global
350
3E
  0
DICTIONARY
  5
100
102
{ACAD_REACTORS
330
C
102
}
330
C
100
AcDbDictionary
281
     1
  0
DICTIONARY
  5
17
102
{ACAD_REACTORS
330
C
102
}
330
C
100
AcDbDictionary
281
     1
  3
Standard
350
18
  0
DICTIONARY
  5
19
102
{ACAD_REACTORS
330
C
102
}
330
C
100
AcDbDictionary
281
     1
  0
ACDBDICTIONARYWDFLT
  5
E
102
{ACAD_REACTORS
330
C
102
}
330
C
100
AcDbDictionary
281
     1
  3
Normal
350
F
100
AcDbDictionaryWithDefault
340
F
  0
DICTIONARY
  5
FF
102
{ACAD_REACTORS
330
C
102
}
330
C
100
AcDbDictionary
281
     1
  0
DICTIONARY
  5
2A
102
{ACAD_REACTORS
330
C
102
}
330
C
100
AcDbDictionary
281
     1
  3
2dWireframe
350
2F
  3
3D Hidden
350
31
  3
3dWireframe
350
30
  3
Basic
350
32
  3
Brighten
350
36
  3
ColorChange
350
3A
  3
Conceptual
350
34
  3
Dim
350
35
  3
Facepattern
350
39
  3
Flat
350
2B
  3
FlatWithEdges
350
2C
  3
Gouraud
350
2D
  3
GouraudWithEdges
350
2E
  3
Linepattern
350
38
  3
Realistic
350
33
  3
Thicken
350
37
  0
LAYOUT
  5
1E
102
{ACAD_REACTORS
330
1A
102
}
330
1A
100
AcDbPlotSettings
  1

  2
none_device
  4

  6

 40
0.0
 41
0.0
 42
0.0
 43
0.0
 44
0.0
 45
0.0
 46
0.0
 47
0.0
 48
0.0
 49
0.0
140
0.0
141
0.0
142
1.0
143
1.0
 70
   688
 72
     0
 73
     0
 74
     5
  7

 75
    16
 76
     0
 77
     2
 78
   300
147
1.0
148
0.0
149
0.0
100
AcDbLayout
  1
Layout1
 70
     1
 71
     1
 10
0.0
 20
0.0
 11
12.0
 21
9.0
 12
0.0
 22
0.0
 32
0.0
 14
1.000000000000000E+20
 24
1.000000000000000E+20
 34
1.000000000000000E+20
 15
-1.000000000000000E+20
 25
-1.000000000000000E+20
 35
-1.000000000000000E+20
146
0.0
 13
0.0
 23
0.0
 33
0.0
 16
1.0
 26
0.0
 36
0.0
 17
0.0
 27
1.0
 37
0.0
 76
     0
330
1B
  0
LAYOUT
  5
26
102
{ACAD_REACTORS
330
1A
102
}
330
1A
100
AcDbPlotSettings
  1

  2
none_device
  4

  6

 40
0.0
 41
0.0
 42
0.0
 43
0.0
 44
0.0
 45
0.0
 46
0.0
 47
0.0
 48
0.0
 49
0.0
140
0.0
141
0.0
142
1.0
143
1.0
 70
   688
 72
     0
 73
     0
 74
     5
  7

 75
    16
 76
     0
 77
     2
 78
   300
147
1.0
148
0.0
149
0.0
100
AcDbLayout
  1
Layout2
 70
     1
 71
     2
 10
0.0
 20
0.0
 11
0.0
 21
0.0
 12
0.0
 22
0.0
 32
0.0
 14
0.0
 24
0.0
 34
0.0
 15
0.0
 25
0.0
 35
0.0
146
0.0
 13
0.0
 23
0.0
 33
0.0
 16
1.0
 26
0.0
 36
0.0
 17
0.0
 27
1.0
 37
0.0
 76
     0
330
23
  0
LAYOUT
  5
22
102
{ACAD_REACTORS
330
1A
102
}
330
1A
100
AcDbPlotSettings
  1

  2
none_device
  4

  6

 40
0.0
 41
0.0
 42
0.0
 43
0.0
 44
0.0
 45
0.0
 46
0.0
 47
0.0
 48
0.0
 49
0.0
140
0.0
141
0.0
142
1.0
143
1.0
 70
  1712
 72
     0
 73
     0
 74
     0
  7

 75
     0
 76
     0
 77
     2
 78
   300
147
1.0
148
0.0
149
0.0
100
AcDbLayout
  1
Model
 70
     1
 71
     0
 10
0.0
 20
0.0
 11
12.0
 21
9.0
 12
0.0
 22
0.0
 32
0.0
 14
1.000000000000000E+20
 24
1.000000000000000E+20
 34
1.000000000000000E+20
 15
-1.000000000000000E+20
 25
-1.000000000000000E+20
 35
-1.000000000000000E+20
146
0.0
 13
0.0
 23
0.0
 33
0.0
 16
1.0
 26
0.0
 36
0.0
 17
0.0
 27
1.0
 37
0.0
 76
     0
330
1F
331
29
  0
MATERIAL
  5
3D
102
{ACAD_REACTORS
330
3B
102
}
330
3B
100
AcDbMaterial
  1
ByBlock
 72
     1
 94
      127
  0
MATERIAL
  5
3C
102
{ACAD_REACTORS
330
3B
102
}
330
3B
100
AcDbMaterial
  1
ByLayer
 72
     1
 94
      127
  0
MATERIAL
  5
3E
102
{ACAD_REACTORS
330
3B
102
}
330
3B
100
AcDbMaterial
  1
Global
 72
     1
 94
      127
  0
MLINESTYLE
  5
18
102
{ACAD_REACTORS
330
17
102
}
330
17
100
AcDbMlineStyle
  2
Standard
 70
     0
  3

 62
   256
 51
90.0
 52
90.0
 71
     2
 49
0.5
 62
   256
  6
BYLAYER
 49
-0.5
 62
   256
  6
BYLAYER
  0
ACDBPLACEHOLDER
  5
F
102
{ACAD_REACTORS
330
E
102
}
330
E
  0
VISUALSTYLE
  5
2F
102
{ACAD_REACTORS
330
2A
102
}
330
2A
100
AcDbVisualStyle
  2
2dWireframe
 70
     4
177
     2
291
     0
 71
     0
176
     1
 72
     2
176
     1
 73
     0
176
     1
 90
        0
176
     1
 40
-0.6
176
     1
 41
-30.0
176
     1
 62
     5
 63
     7
421
 16777215
176
     1
 74
     1
176
     1
 91
        4
176
     1
 64
     7
176
     1
 65
   257
176
     1
 75
     1
176
     1
175
     1
176
     1
 42
1.0
176
     1
 92
        0
176
     1
 66
   257
176
     1
 43
1.0
176
     1
 76
     1
176
     1
 77
     6
176
     1
 78
     2
176
     1
 67
     7
176
     1
 79
     5
176
     1
170
     0
176
     1
171
     0
176
     1
290
     0
176
     1
 93
        1
176
     1
 44
0.0
176
     1
173
     0
176
     1
  0
VISUALSTYLE
  5
31
102
{ACAD_REACTORS
330
2A
102
}
330
2A
100
AcDbVisualStyle
  2
3D Hidden
 70
     6
177
     2
291
     0
 71
     1
176
     1
 72
     2
176
     1
 73
     2
176
     1
 90
        0
176
     1
 40
-0.6
176
     1
 41
-30.0
176
     1
 62
     5
 63
     7
421
 16777215
176
     1
 74
     2
176
     1
 91
        2
176
     1
 64
     7
176
     1
 65
   257
176
     1
 75
     2
176
     1
175
     1
176
     1
 42
40.0
176
     1
 92
        0
176
     1
 66
   257
176
     1
 43
1.0
176
     1
 76
     1
176
     1
 77
     6
176
     1
 78
     2
176
     1
 67
     7
176
     1
 79
     3
176
     1
170
     0
176
     1
171
     0
176
     1
290
     0
176
     1
 93
        1
176
     1
 44
0.0
176
     1
173
     0
176
     1
  0
VISUALSTYLE
  5
30
102
{ACAD_REACTORS
330
2A
102
}
330
2A
100
AcDbVisualStyle
  2
3dWireframe
 70
     5
177
     2
291
     0
 71
     0
176
     1
 72
     2
176
     1
 73
     0
176
     1
 90
        0
176
     1
 40
-0.6
176
     1
 41
-30.0
176
     1
 62
     5
 63
     7
421
 16777215
176
     1
 74
     1
176
     1
 91
        4
176
     1
 64
     7
176
     1
 65
   257
176
     1
 75
     1
176
     1
175
     1
176
     1
 42
1.0
176
     1
 92
        0
176
     1
 66
   257
176
     1
 43
1.0
176
     1
 76
     1
176
     1
 77
     6
176
     1
 78
     2
176
     1
 67
     7
176
     1
 79
     5
176
     1
170
     0
176
     1
171
     0
176
     1
290
     0
176
     1
 93
        1
176
     1
 44
0.0
176
     1
173
     0
176
     1
  0
VISUALSTYLE
  5
32
102
{ACAD_REACTORS
330
2A
102
}
330
2A
100
AcDbVisualStyle
  2
Basic
 70
     7
177
     2
291
     1
 71
     1
176
     1
 72
     0
176
     1
 73
     1
176
     1
 90
        0
176
     1
 40
-0.6
176
     1
 41
-30.0
176
     1
 62
     5
 63
     7
421
 16777215
176
     1
 74
     0
176
     1
 91
        4
176
     1
 64
     7
176
     1
 65
   257
176
     1
 75
     1
176
     1
175
     1
176
     1
 42
1.0
176
     1
 92
        8
176
     1
 66
     7
176
     1
 43
1.0
176
     1
 76
     1
176
     1
 77
     6
176
     1
 78
     2
176
     1
 67
     7
176
     1
 79
     5
176
     1
170
     0
176
     1
171
     0
176
     1
290
     0
176
     1
 93
        1
176
     1
 44
0.0
176
     1
173
     0
176
     1
  0
VISUALSTYLE
  5
36
102
{ACAD_REACTORS
330
2A
102
}
330
2A
100
AcDbVisualStyle
  2
Brighten
 70
    12
177
     2
291
     1
 71
     2
176
     1
 72
     2
176
     1
 73
     0
176
     1
 90
        0
176
     1
 40
-0.6
176
     1
 41
-30.0
176
     1
 62
     5
 63
     7
421
 16777215
176
     1
 74
     1
176
     1
 91
        4
176
     1
 64
     7
176
     1
 65
   257
176
     1
 75
     1
176
     1
175
     1
176
     1
 42
1.0
176
     1
 92
        8
176
     1
 66
     7
176
     1
 43
1.0
176
     1
 76
     1
176
     1
 77
     6
176
     1
 78
     2
176
     1
 67
     7
176
     1
 79
     5
176
     1
170
     0
176
     1
171
     0
176
     1
290
     0
176
     1
 93
        1
176
     1
 44
50.0
176
     1
173
     0
176
     1
  0
VISUALSTYLE
  5
3A
102
{ACAD_REACTORS
330
2A
102
}
330
2A
100
AcDbVisualStyle
  2
ColorChange
 70
    16
177
     2
291
     1
 71
     2
176
     1
 72
     2
176
     1
 73
     3
176
     1
 90
        0
176
     1
 40
-0.6
176
     1
 41
-30.0
176
     1
 62
     5
 63
     8
421
  8421504
176
     1
 74
     1
176
     1
 91
        4
176
     1
 64
     7
176
     1
 65
   257
176
     1
 75
     1
176
     1
175
     1
176
     1
 42
1.0
176
     1
 92
        8
176
     1
 66
     8
424
  8421504
176
     1
 43
1.0
176
     1
 76
     1
176
     1
 77
     6
176
     1
 78
     2
176
     1
 67
     7
176
     1
 79
     5
176
     1
170
     0
176
     1
171
     0
176
     1
290
     0
176
     1
 93
        1
176
     1
 44
0.0
176
     1
173
     0
176
     1
  0
VISUALSTYLE
  5
34
102
{ACAD_REACTORS
330
2A
102
}
330
2A
100
AcDbVisualStyle
  2
Conceptual
 70
     9
177
     2
291
     0
 71
     3
176
     1
 72
     2
176
     1
 73
     0
176
     1
 90
        0
176
     1
 40
-0.6
176
     1
 41
-30.0
176
     1
 62
     5
 63
     7
421
 16777215
176
     1
 74
     2
176
     1
 91
        2
176
     1
 64
     7
176
     1
 65
   257
176
     1
 75
     1
176
     1
175
     1
176
     1
 42
40.0
176
     1
 92
        8
176
     1
 66
     7
176
     1
 43
1.0
176
     1
 76
     1
176
     1
 77
     6
176
     1
 78
     2
176
     1
 67
     7
176
     1
 79
     3
176
     1
170
     0
176
     1
171
     0
176
     1
290
     0
176
     1
 93
        1
176
     1
 44
0.0
176
     1
173
     0
176
     1
  0
VISUALSTYLE
  5
35
102
{ACAD_REACTORS
330
2A
102
}
330
2A
100
AcDbVisualStyle
  2
Dim
 70
    11
177
     2
291
     1
 71
     2
176
     1
 72
     2
176
     1
 73
     0
176
     1
 90
        0
176
     1
 40
-0.6
176
     1
 41
-30.0
176
     1
 62
     5
 63
     7
421
 16777215
176
     1
 74
     1
176
     1
 91
        4
176
     1
 64
     7
176
     1
 65
   257
176
     1
 75
     1
176
     1
175
     1
176
     1
 42
1.0
176
     1
 92
        8
176
     1
 66
     7
176
     1
 43
1.0
176
     1
 76
     1
176
     1
 77
     6
176
     1
 78
     2
176
     1
 67
     7
176
     1
 79
     5
176
     1
170
     0
176
     1
171
     0
176
     1
290
     0
176
     1
 93
        1
176
     1
 44
-50.0
176
     1
173
     0
176
     1
  0
VISUALSTYLE
  5
39
102
{ACAD_REACTORS
330
2A
102
}
330
2A
100
AcDbVisualStyle
  2
Facepattern
 70
    15
177
     2
291
     1
 71
     2
176
     1
 72
     2
176
     1
 73
     0
176
     1
 90
        0
176
     1
 40
-0.6
176
     1
 41
-30.0
176
     1
 62
     5
 63
     7
421
 16777215
176
     1
 74
     1
176
     1
 91
        4
176
     1
 64
     7
176
     1
 65
   257
176
     1
 75
     1
176
     1
175
     1
176
     1
 42
1.0
176
     1
 92
        8
176
     1
 66
     7
176
     1
 43
1.0
176
     1
 76
     1
176
     1
 77
     6
176
     1
 78
     2
176
     1
 67
     7
176
     1
 79
     5
176
     1
170
     0
176
     1
171
     0
176
     1
290
     0
176
     1
 93
        1
176
     1
 44
0.0
176
     1
173
     0
176
     1
  0
VISUALSTYLE
  5
2B
102
{ACAD_REACTORS
330
2A
102
}
330
2A
100
AcDbVisualStyle
  2
Flat
 70
     0
177
     2
291
     1
 71
     2
176
     1
 72
     1
176
     1
 73
     1
176
     1
 90
        2
176
     1
 40
-0.6
176
     1
 41
30.0
176
     1
 62
     5
 63
     7
421
 16777215
176
     1
 74
     0
176
     1
 91
        4
176
     1
 64
     7
176
     1
 65
   257
176
     1
 75
     1
176
     1
175
     1
176
     1
 42
1.0
176
     1
 92
        8
176
     1
 66
     7
176
     1
 43
1.0
176
     1
 76
     1
176
     1
 77
     6
176
     1
 78
     2
176
     1
 67
     7
176
     1
 79
     5
176
     1
170
     0
176
     1
171
     0
176
     1
290
     0
176
     1
 93
       13
176
     1
 44
0.0
176
     1
173
     0
176
     1
  0
VISUALSTYLE
  5
2C
102
{ACAD_REACTORS
330
2A
102
}
330
2A
100
AcDbVisualStyle
  2
FlatWithEdges
 70
     1
177
     2
291
     1
 71
     2
176
     1
 72
     1
176
     1
 73
     1
176
     1
 90
        2
176
     1
 40
-0.6
176
     1
 41
30.0
176
     1
 62
     5
 63
     7
421
 16777215
176
     1
 74
     1
176
     1
 91
        4
176
     1
 64
     7
176
     1
 65
   257
176
     1
 75
     1
176
     1
175
     1
176
     1
 42
1.0
176
     1
 92
        0
176
     1
 66
   257
176
     1
 43
1.0
176
     1
 76
     1
176
     1
 77
     6
176
     1
 78
     2
176
     1
 67
     7
176
     1
 79
     5
176
     1
170
     0
176
     1
171
     0
176
     1
290
     0
176
     1
 93
       13
176
     1
 44
0.0
176
     1
173
     0
176
     1
  0
VISUALSTYLE
  5
2D
102
{ACAD_REACTORS
330
2A
102
}
330
2A
100
AcDbVisualStyle
  2
Gouraud
 70
     2
177
     2
291
     1
 71
     2
176
     1
 72
     2
176
     1
 73
     1
176
     1
 90
        2
176
     1
 40
-0.6
176
     1
 41
30.0
176
     1
 62
     5
 63
     7
421
 16777215
176
     1
 74
     0
176
     1
 91
        4
176
     1
 64
     7
176
     1
 65
   257
176
     1
 75
     1
176
     1
175
     1
176
     1
 42
1.0
176
     1
 92
        0
176
     1
 66
     7
176
     1
 43
1.0
176
     1
 76
     1
176
     1
 77
     6
176
     1
 78
     2
176
     1
 67
     7
176
     1
 79
     5
176
     1
170
     0
176
     1
171
     0
176
     1
290
     0
176
     1
 93
       13
176
     1
 44
0.0
176
     1
173
     0
176
     1
  0
VISUALSTYLE
  5
2E
102
{ACAD_REACTORS
330
2A
102
}
330
2A
100
AcDbVisualStyle
  2
GouraudWithEdges
 70
     3
177
     2
291
     1
 71
     2
176
     1
 72
     2
176
     1
 73
     1
176
     1
 90
        2
176
     1
 40
-0.6
176
     1
 41
30.0
176
     1
 62
     5
 63
     7
421
 16777215
176
     1
 74
     1
176
     1
 91
        4
176
     1
 64
     7
176
     1
 65
   257
176
     1
 75
     1
176
     1
175
     1
176
     1
 42
1.0
176
     1
 92
        0
176
     1
 66
   257
176
     1
 43
1.0
176
     1
 76
     1
176
     1
 77
     6
176
     1
 78
     2
176
     1
 67
     7
176
     1
 79
     5
176
     1
170
     0
176
     1
171
     0
176
     1
290
     0
176
     1
 93
       13
176
     1
 44
0.0
176
     1
173
     0
176
     1
  0
VISUALSTYLE
  5
38
102
{ACAD_REACTORS
330
2A
102
}
330
2A
100
AcDbVisualStyle
  2
Linepattern
 70
    14
177
     2
291
     1
 71
     2
176
     1
 72
     2
176
     1
 73
     0
176
     1
 90
        0
176
     1
 40
-0.6
176
     1
 41
-30.0
176
     1
 62
     5
 63
     7
421
 16777215
176
     1
 74
     1
176
     1
 91
        4
176
     1
 64
     7
176
     1
 65
   257
176
     1
 75
     7
176
     1
175
     7
176
     1
 42
1.0
176
     1
 92
        8
176
     1
 66
     7
176
     1
 43
1.0
176
     1
 76
     1
176
     1
 77
     6
176
     1
 78
     2
176
     1
 67
     7
176
     1
 79
     5
176
     1
170
     0
176
     1
171
     0
176
     1
290
     0
176
     1
 93
        1
176
     1
 44
0.0
176
     1
173
     0
176
     1
  0
VISUALSTYLE
  5
33
102
{ACAD_REACTORS
330
2A
102
}
330
2A
100
AcDbVisualStyle
  2
Realistic
 70
     8
177
     2
291
     0
 71
     2
176
     1
 72
     2
176
     1
 73
     0
176
     1
 90
        0
176
     1
 40
-0.6
176
     1
 41
-30.0
176
     1
 62
     5
 63
     7
421
 16777215
176
     1
 74
     1
176
     1
 91
        0
176
     1
 64
     7
176
     1
 65
   257
176
     1
 75
     1
176
     1
175
     1
176
     1
 42
1.0
176
     1
 92
        8
176
     1
 66
     8
424
  7895160
176
     1
 43
1.0
176
     1
 76
     1
176
     1
 77
     6
176
     1
 78
     2
176
     1
 67
     7
176
     1
 79
     5
176
     1
170
     0
176
     1
171
     0
176
     1
290
     0
176
     1
 93
       13
176
     1
 44
0.0
176
     1
173
     0
176
     1
  0
VISUALSTYLE
  5
37
102
{ACAD_REACTORS
330
2A
102
}
330
2A
100
AcDbVisualStyle
  2
Thicken
 70
    13
177
     2
291
     1
 71
     2
176
     1
 72
     2
176
     1
 73
     0
176
     1
 90
        0
176
     1
 40
-0.6
176
     1
 41
-30.0
176
     1
 62
     5
 63
     7
421
 16777215
176
     1
 74
     1
176
     1
 91
        4
176
     1
 64
     7
176
     1
 65
   257
176
     1
 75
     1
176
     1
175
     1
176
     1
 42
1.0
176
     1
 92
       12
176
     1
 66
     7
176
     1
 43
1.0
176
     1
 76
     1
176
     1
 77
     6
176
     1
 78
     2
176
     1
 67
     7
176
     1
 79
     5
176
     1
170
     0
176
     1
171
     0
176
     1
290
     0
176
     1
 93
        1
176
     1
 44
0.0
176
     1
173
     0
176
     1
  0
ENDSEC
  0
EOF
