  0
SECTION
  2
HEADER
  9
$ACADVER
  1
AC1024
  9
$ACADMAINTVER
 70
     6
  9
$DWGCODEPAGE
  3
UNDEFINED
  9
$INSBASE
 10
0.0
 20
0.0
 30
0.0
  9
$EXTMIN
 10
1.000000000000000E+20
 20
1.000000000000000E+20
 30
1.000000000000000E+20
  9
$EXTMAX
 10
-1.000000000000000E+20
 20
-1.000000000000000E+20
 30
-1.000000000000000E+20
  9
$LIMMIN
 10
0.0
 20
0.0
  9
$LIMMAX
 10
12.0
 20
9.0
  9
$ORTHOMODE
 70
     0
  9
$REGENMODE
 70
     1
  9
$FILLMODE
 70
     1
  9
$QTEXTMODE
 70
     0
  9
$MIRRTEXT
 70
     1
  9
$LTSCALE
 40
1.0
  9
$ATTMODE
 70
     1
  9
$TEXTSIZE
 40
0.2
  9
$TRACEWID
 40
0.05
  9
$TEXTSTYLE
  7
Standard
  9
$CLAYER
  8
0
  9
$CELTYPE
  6
ByLayer
  9
$CECOLOR
 62
   256
  9
$CELTSCALE
 40
1.0
  9
$DISPSILH
 70
     0
  9
$DIMSCALE
 40
1.0
  9
$DIMASZ
 40
0.18
  9
$DIMEXO
 40
0.0625
  9
$DIMDLI
 40
0.38
  9
$DIMRND
 40
0.0
  9
$DIMDLE
 40
0.0
  9
$DIMEXE
 40
0.18
  9
$DIMTP
 40
0.0
  9
$DIMTM
 40
0.0
  9
$DIMTXT
 40
0.18
  9
$DIMCEN
 40
0.09
  9
$DIMTSZ
 40
0.0
  9
$DIMTOL
 70
     0
  9
$DIMLIM
 70
     0
  9
$DIMTIH
 70
     1
  9
$DIMTOH
 70
     1
  9
$DIMSE1
 70
     0
  9
$DIMSE2
 70
     0
  9
$DIMTAD
 70
     0
  9
$DIMZIN
 70
     0
  9
$DIMBLK
  1

  9
$DIMASO
 70
     1
  9
$DIMSHO
 70
     1
  9
$DIMPOST
  1

  9
$DIMAPOST
  1

  9
$DIMALT
 70
     0
  9
$DIMALTD
 70
     2
  9
$DIMALTF
 40
25.4
  9
$DIMLFAC
 40
1.0
  9
$DIMTOFL
 70
     0
  9
$DIMTVP
 40
0.0
  9
$DIMTIX
 70
     0
  9
$DIMSOXD
 70
     0
  9
$DIMSAH
 70
     0
  9
$DIMBLK1
  1

  9
$DIMBLK2
  1

  9
$DIMSTYLE
  2
Standard
  9
$DIMCLRD
 70
     0
  9
$DIMCLRE
 70
     0
  9
$DIMCLRT
 70
     0
  9
$DIMTFAC
 40
1.0
  9
$DIMGAP
 40
0.09
  9
$DIMJUST
 70
     0
  9
$DIMSD1
 70
     0
  9
$DIMSD2
 70
     0
  9
$DIMTOLJ
 70
     1
  9
$DIMTZIN
 70
     0
  9
$DIMALTZ
 70
     0
  9
$DIMALTTZ
 70
     0
  9
$DIMUPT
 70
     0
  9
$DIMDEC
 70
     4
  9
$DIMTDEC
 70
     4
  9
$DIMALTU
 70
     2
  9
$DIMALTTD
 70
     2
  9
$DIMTXSTY
  7
Standard
  9
$DIMAUNIT
 70
     0
  9
$DIMADEC
 70
     0
  9
$DIMALTRND
 40
0.0
  9
$DIMAZIN
 70
     0
  9
$DIMDSEP
 70
    46
  9
$DIMATFIT
 70
     3
  9
$DIMFRAC
 70
     0
  9
$DIMLDRBLK
  1

  9
$DIMLUNIT
 70
     2
  9
$DIMLWD
 70
    -2
  9
$DIMLWE
 70
    -2
  9
$DIMTMOVE
 70
     0
  9
$DIMFXL
 40
1.0
  9
$DIMFXLON
 70
     0
  9
$DIMJOGANG
 40
0.7853981633974483
  9
$DIMTFILL
 70
     0
  9
$DIMTFILLCLR
 70
     0
  9
$DIMARCSYM
 70
     0
  9
$DIMLTYPE
  6

  9
$DIMLTEX1
  6

  9
$DIMLTEX2
  6

  9
$DIMTXTDIRECTION
 70
     0
  9
$LUNITS
 70
     2
  9
$LUPREC
 70
     4
  9
$SKETCHINC
 40
0.1
  9
$FILLETRAD
 40
0.5
  9
$AUNITS
 70
     0
  9
$AUPREC
 70
     0
  9
$MENU
  1
.
  9
$ELEVATION
 40
0.0
  9
$PELEVATION
 40
0.0
  9
$THICKNESS
 40
0.0
  9
$LIMCHECK
 70
     0
  9
$CHAMFERA
 40
0.5
  9
$CHAMFERB
 40
0.5
  9
$CHAMFERC
 40
1.0
  9
$CHAMFERD
 40
0.0
  9
$SKPOLY
 70
     0
  9
$TDCREATE
 40
2457917.614178241
  9
$TDUCREATE
 40
2457917.239178241
  9
$TDUPDATE
 40
2457917.614189803
  9
$TDUUPDATE
 40
2457917.239189815
  9
$TDINDWG
 40
0.0000000116
  9
$TDUSRTIMER
 40
0.0000000116
  9
$USRTIMER
 70
     1
  9
$ANGBASE
 50
0.0
  9
$ANGDIR
 70
     0
  9
$PDMODE
 70
     0
  9
$PDSIZE
 40
0.0
  9
$PLINEWID
 40
0.0
  9
$SPLFRAME
 70
     0
  9
$SPLINETYPE
 70
     6
  9
$SPLINESEGS
 70
     8
  9
$HANDSEED
  5
102
  9
$SURFTAB1
 70
     6
  9
$SURFTAB2
 70
     6
  9
$SURFTYPE
 70
     6
  9
$SURFU
 70
     6
  9
$SURFV
 70
     6
  9
$UCSBASE
  2

  9
$UCSNAME
  2

  9
$UCSORG
 10
0.0
 20
0.0
 30
0.0
  9
$UCSXDIR
 10
1.0
 20
0.0
 30
0.0
  9
$UCSYDIR
 10
0.0
 20
1.0
 30
0.0
  9
$UCSORTHOREF
  2

  9
$UCSORTHOVIEW
 70
     0
  9
$UCSORGTOP
 10
0.0
 20
0.0
 30
0.0
  9
$UCSORGBOTTOM
 10
0.0
 20
0.0
 30
0.0
  9
$UCSORGLEFT
 10
0.0
 20
0.0
 30
0.0
  9
$UCSORGRIGHT
 10
0.0
 20
0.0
 30
0.0
  9
$UCSORGFRONT
 10
0.0
 20
0.0
 30
0.0
  9
$UCSORGBACK
 10
0.0
 20
0.0
 30
0.0
  9
$PUCSBASE
  2

  9
$PUCSNAME
  2

  9
$PUCSORG
 10
0.0
 20
0.0
 30
0.0
  9
$PUCSXDIR
 10
1.0
 20
0.0
 30
0.0
  9
$PUCSYDIR
 10
0.0
 20
1.0
 30
0.0
  9
$PUCSORTHOREF
  2

  9
$PUCSORTHOVIEW
 70
     0
  9
$PUCSORGTOP
 10
0.0
 20
0.0
 30
0.0
  9
$PUCSORGBOTTOM
 10
0.0
 20
0.0
 30
0.0
  9
$PUCSORGLEFT
 10
0.0
 20
0.0
 30
0.0
  9
$PUCSORGRIGHT
 10
0.0
 20
0.0
 30
0.0
  9
$PUCSORGFRONT
 10
0.0
 20
0.0
 30
0.0
  9
$PUCSORGBACK
 10
0.0
 20
0.0
 30
0.0
  9
$USERI1
 70
     0
  9
$USERI2
 70
     0
  9
$USERI3
 70
     0
  9
$USERI4
 70
     0
  9
$USERI5
 70
     0
  9
$USERR1
 40
0.0
  9
$USERR2
 40
0.0
  9
$USERR3
 40
0.0
  9
$USERR4
 40
0.0
  9
$USERR5
 40
0.0
  9
$WORLDVIEW
 70
     1
  9
$SHADEDGE
 70
     3
  9
$SHADEDIF
 70
    70
  9
$TILEMODE
 70
     1
  9
$MAXACTVP
 70
    64
  9
$PINSBASE
 10
0.0
 20
0.0
 30
0.0
  9
$PLIMCHECK
 70
     0
  9
$PEXTMIN
 10
1.000000000000000E+20
 20
1.000000000000000E+20
 30
1.000000000000000E+20
  9
$PEXTMAX
 10
-1.000000000000000E+20
 20
-1.000000000000000E+20
 30
-1.000000000000000E+20
  9
$PLIMMIN
 10
0.0
 20
0.0
  9
$PLIMMAX
 10
12.0
 20
9.0
  9
$UNITMODE
 70
     0
  9
$VISRETAIN
 70
     1
  9
$PLINEGEN
 70
     0
  9
$PSLTSCALE
 70
     1
  9
$TREEDEPTH
 70
  3020
  9
$CMLSTYLE
  2
Standard
  9
$CMLJUST
 70
     0
  9
$CMLSCALE
 40
1.0
  9
$PROXYGRAPHICS
 70
     1
  9
$MEASUREMENT
 70
     0
  9
$CELWEIGHT
370
    -1
  9
$ENDCAPS
280
     0
  9
$JOINSTYLE
280
     0
  9
$LWDISPLAY
290
     1
  9
$INSUNITS
 70
     1
  9
$HYPERLINKBASE
  1

  9
$STYLESHEET
  1

  9
$XEDIT
290
     1
  9
$CEPSNTYPE
380
     0
  9
$PSTYLEMODE
290
     1
  9
$FINGERPRINTGUID
  2
{589E3260-5BA6-B7B2-4900-BB08C203097C}
  9
$VERSIONGUID
  2
{FAEB1C32-E019-11D5-929B-00C0DF256EC4}
  9
$EXTNAMES
290
     1
  9
$PSVPSCALE
 40
0.0
  9
$OLESTARTUP
290
     0
  9
$SORTENTS
280
   127
  9
$INDEXCTL
280
     0
  9
$HIDETEXT
280
     1
  9
$XCLIPFRAME
280
     2
  9
$HALOGAP
280
     0
  9
$OBSCOLOR
 70
   257
  9
$OBSLTYPE
280
     0
  9
$INTERSECTIONDISPLAY
280
     0
  9
$INTERSECTIONCOLOR
 70
   257
  9
$DIMASSOC
280
     2
  9
$PROJECTNAME
  1

  9
$CAMERADISPLAY
290
     0
  9
$LENSLENGTH
 40
50.0
  9
$CAMERAHEIGHT
 40
0.0
  9
$STEPSPERSEC
 40
2.0
  9
$STEPSIZE
 40
6.0
  9
$3DDWFPREC
 40
2.0
  9
$PSOLWIDTH
 40
0.25
  9
$PSOLHEIGHT
 40
4.0
  9
$LOFTANG1
 40
1.570796326794897
  9
$LOFTANG2
 40
1.570796326794897
  9
$LOFTMAG1
 40
0.0
  9
$LOFTMAG2
 40
0.0
  9
$LOFTPARAM
 70
     7
  9
$LOFTNORMALS
280
     1
  9
$LATITUDE
 40
37.795
  9
$LONGITUDE
 40
-122.394
  9
$NORTHDIRECTION
 40
0.0
  9
$TIMEZONE
 70
 -8000
  9
$LIGHTGLYPHDISPLAY
280
     1
  9
$TILEMODELIGHTSYNCH
280
     1
  9
$CMATERIAL
347
3C
  9
$SOLIDHIST
280
     1
  9
$SHOWHIST
280
     1
  9
$DWFFRAME
280
     2
  9
$DGNFRAME
280
     2
  9
$REALWORLDSCALE
290
     1
  9
$INTERFERECOLOR
 62
   256
  9
$CSHADOW
280
     0
  9
$SHADOWPLANELOCATION
 40
0.0
  0
ENDSEC
  0
SECTION
  2
CLASSES
  0
CLASS
  1
ACDBDICTIONARYWDFLT
  2
AcDbDictionaryWithDefault
  3
ObjectDBX Classes
 90
        0
 91
        4
280
     0
281
     0
  0
CLASS
  1
VISUALSTYLE
  2
AcDbVisualStyle
  3
ObjectDBX Classes
 90
     4095
 91
        4
280
     0
281
     0
  0
CLASS
  1
MATERIAL
  2
AcDbMaterial
  3
ObjectDBX Classes
 90
     1153
 91
        4
280
     0
281
     0
  0
CLASS
  1
SUN
  2
AcDbSun
  3
SCENEOE
 90
     1024
 91
        4
280
     0
281
     0
  0
ENDSEC
  0
SECTION
  2
TABLES
  0
TABLE
  2
VPORT
  5
8
330
0
100
AcDbSymbolTable
 70
     1
  0
VPORT
  5
29
330
8
100
AcDbSymbolTableRecord
100
AcDbViewportTableRecord
  2
*Active
 70
     0
 10
0.0
 20
0.0
 11
1.0
 21
1.0
 12
0.0
 22
0.0
 13
0.0
 23
0.0
 14
0.5
 24
0.5
 15
0.5
 25
0.5
 16
0.0
 26
0.0
 36
1.0
 17
91.00082462281999
 27
-128.4993055234307
 37
0.0
 40
256.9986110468615
 41
0.7081814508812795
 42
50.0
 43
0.0
 44
0.0
 50
0.0
 51
0.0
 71
     0
 72
   100
 73
     1
 74
     3
 75
     0
 76
     0
 77
     0
 78
     0
281
     0
 65
     1
110
0.0
120
0.0
130
0.0
111
1.0
121
0.0
131
0.0
112
0.0
122
1.0
132
0.0
 79
     0
146
0.0
 60
     3
 61
     5
292
     1
282
     1
141
0.0
142
0.0
 63
   250
361
3F
  0
ENDTAB
  0
TABLE
  2
LTYPE
  5
5
330
0
100
AcDbSymbolTable
 70
     1
  0
LTYPE
  5
14
330
5
100
AcDbSymbolTableRecord
100
AcDbLinetypeTableRecord
  2
ByBlock
 70
     0
  3

 72
    65
 73
     0
 40
0.0
  0
LTYPE
  5
15
330
5
100
AcDbSymbolTableRecord
100
AcDbLinetypeTableRecord
  2
ByLayer
 70
     0
  3

 72
    65
 73
     0
 40
0.0
  0
LTYPE
  5
16
330
5
100
AcDbSymbolTableRecord
100
AcDbLinetypeTableRecord
  2
Continuous
 70
     0
  3
Solid line
 72
    65
 73
     0
 40
0.0
  0
ENDTAB
  0
TABLE
  2
LAYER
  5
2
330
0
100
AcDbSymbolTable
 70
     2
  0
LAYER
  5
10
330
2
100
AcDbSymbolTableRecord
100
AcDbLayerTableRecord
  2
0
 70
     0
 62
     7
  6
Continuous
370
    -3
390
F
347
3E
  0
LAYER
  5
40
330
2
100
AcDbSymbolTableRecord
100
AcDbLayerTableRecord
  2
_U+30EC_U+30A4_U+30E4_U+30FC 1
 70
     0
 62
     7
  6
Continuous
370
    -3
390
F
347
3E
  0
ENDTAB
  0
TABLE
  2
STYLE
  5
3
330
0
100
AcDbSymbolTable
 70
     1
  0
STYLE
  5
11
330
3
100
AcDbSymbolTableRecord
100
AcDbTextStyleTableRecord
  2
Standard
 70
     0
 40
0.0
 41
1.0
 50
0.0
 71
     0
 42
0.2
  3
txt
  4

  0
ENDTAB
  0
TABLE
  2
VIEW
  5
6
330
0
100
AcDbSymbolTable
 70
     0
  0
ENDTAB
  0
TABLE
  2
UCS
  5
7
330
0
100
AcDbSymbolTable
 70
     0
  0
ENDTAB
  0
TABLE
  2
APPID
  5
9
330
0
100
AcDbSymbolTable
 70
     1
  0
APPID
  5
12
330
9
100
AcDbSymbolTableRecord
100
AcDbRegAppTableRecord
  2
ACAD
 70
     0
  0
ENDTAB
  0
TABLE
  2
DIMSTYLE
  5
A
330
0
100
AcDbSymbolTable
 70
     1
100
AcDbDimStyleTable
  0
DIMSTYLE
105
27
330
A
100
AcDbSymbolTableRecord
100
AcDbDimStyleTableRecord
  2
Standard
 70
     0
178
     0
340
11
  0
ENDTAB
  0
TABLE
  2
BLOCK_RECORD
  5
1
330
0
100
AcDbSymbolTable
 70
    10
  0
BLOCK_RECORD
  5
1F
330
1
100
AcDbSymbolTableRecord
100
AcDbBlockTableRecord
  2
*Model_Space
340
22
 70
     0
280
     1
281
     0
  0
BLOCK_RECORD
  5
1B
330
1
100
AcDbSymbolTableRecord
100
AcDbBlockTableRecord
  2
*Paper_Space
340
1E
 70
     0
280
     1
281
     0
  0
BLOCK_RECORD
  5
23
330
1
100
AcDbSymbolTableRecord
100
AcDbBlockTableRecord
  2
*Paper_Space0
340
26
 70
     0
280
     1
281
     0
  0
BLOCK_RECORD
  5
BB
330
1
100
AcDbSymbolTableRecord
100
AcDbBlockTableRecord
  2
block 2
340
0
102
{BLKREFS
331
BC
102
}
 70
     0
280
     1
281
     0
  0
BLOCK_RECORD
  5
C4
330
1
100
AcDbSymbolTableRecord
100
AcDbBlockTableRecord
  2
block 3
340
0
102
{BLKREFS
331
C5
102
}
 70
     0
280
     1
281
     0
  0
BLOCK_RECORD
  5
CA
330
1
100
AcDbSymbolTableRecord
100
AcDbBlockTableRecord
  2
block 4
340
0
102
{BLKREFS
331
CB
102
}
 70
     0
280
     1
281
     0
  0
BLOCK_RECORD
  5
D2
330
1
100
AcDbSymbolTableRecord
100
AcDbBlockTableRecord
  2
block 5
340
0
102
{BLKREFS
331
D3
102
}
 70
     0
280
     1
281
     0
  0
BLOCK_RECORD
  5
DA
330
1
100
AcDbSymbolTableRecord
100
AcDbBlockTableRecord
  2
block 6
340
0
102
{BLKREFS
331
DB
102
}
 70
     0
280
     1
281
     0
  0
BLOCK_RECORD
  5
E3
330
1
100
AcDbSymbolTableRecord
100
AcDbBlockTableRecord
  2
block 7
340
0
102
{BLKREFS
331
E4
102
}
 70
     0
280
     1
281
     0
  0
BLOCK_RECORD
  5
EB
330
1
100
AcDbSymbolTableRecord
100
AcDbBlockTableRecord
  2
block 8
340
0
102
{BLKREFS
331
EC
102
}
 70
     0
280
     1
281
     0
  0
BLOCK_RECORD
  5
F1
330
1
100
AcDbSymbolTableRecord
100
AcDbBlockTableRecord
  2
block 9
340
0
102
{BLKREFS
331
F2
102
}
 70
     0
280
     1
281
     0
  0
BLOCK_RECORD
  5
F7
330
1
100
AcDbSymbolTableRecord
100
AcDbBlockTableRecord
  2
block 10
340
0
102
{BLKREFS
331
F8
102
}
 70
     0
280
     1
281
     0
  0
ENDTAB
  0
ENDSEC
  0
SECTION
  2
BLOCKS
  0
BLOCK
  5
20
330
1F
100
AcDbEntity
  8
0
100
AcDbBlockBegin
  2
*Model_Space
 70
     0
 10
0.0
 20
0.0
 30
0.0
  3
*Model_Space
  1

  0
ENDBLK
  5
21
330
1F
100
AcDbEntity
  8
0
100
AcDbBlockEnd
  0
BLOCK
  5
1C
330
1B
100
AcDbEntity
 67
     1
  8
0
100
AcDbBlockBegin
  2
*Paper_Space
 70
     0
 10
0.0
 20
0.0
 30
0.0
  3
*Paper_Space
  1

  0
ENDBLK
  5
1D
330
1B
100
AcDbEntity
 67
     1
  8
0
100
AcDbBlockEnd
  0
BLOCK
  5
24
330
23
100
AcDbEntity
  8
0
100
AcDbBlockBegin
  2
*Paper_Space0
 70
     0
 10
0.0
 20
0.0
 30
0.0
  3
*Paper_Space0
  1

  0
ENDBLK
  5
25
330
23
100
AcDbEntity
  8
0
100
AcDbBlockEnd
  0
BLOCK
  5
BD
330
BB
100
AcDbEntity
  8
0
100
AcDbBlockBegin
  2
block 2
 70
     0
 10
0.0
 20
0.0
 30
0.0
  3
block 2
  1

  0
SPLINE
  5
BF
330
BB
100
AcDbEntity
  8
_U+30EC_U+30A4_U+30E4_U+30FC 1
370
     0
100
AcDbSpline
210
0.0
220
0.0
230
1.0
 70
    11
 71
     3
 72
    26
 73
    22
 74
     0
 42
0.0000000001
 43
0.0000000001
 12
1.0
 22
0.0
 32
0.0
 13
1.0
 23
0.0
 33
0.0
 40
0.0
 40
0.0
 40
0.0
 40
0.0
 40
1.0
 40
1.0
 40
1.0
 40
2.0
 40
2.0
 40
2.0
 40
3.0
 40
3.0
 40
3.0
 40
4.0
 40
4.0
 40
4.0
 40
5.0
 40
5.0
 40
5.0
 40
6.0
 40
6.0
 40
6.0
 40
7.0
 40
7.0
 40
7.0
 40
7.0
 10
76.1302367973737
 20
-141.9934000296058
 30
0.0
 10
76.1302367973737
 20
-141.9934000296058
 30
0.0
 10
75.02591143957686
 20
-141.9934000296058
 30
0.0
 10
75.02591143957686
 20
-141.9934000296058
 30
0.0
 10
75.02591143957686
 20
-141.9934000296058
 30
0.0
 10
75.02591143957686
 20
-142.3234401770927
 30
0.0
 10
75.02591143957686
 20
-142.3234401770927
 30
0.0
 10
75.02591143957686
 20
-142.3234401770927
 30
0.0
 10
74.87777233371112
 20
-142.3234401770927
 30
0.0
 10
74.87777233371112
 20
-142.3234401770927
 30
0.0
 10
74.86313067789881
 20
-141.9913329723147
 30
0.0
 10
74.70017766144649
 20
-141.9448241832638
 30
0.0
 10
74.58597274611046
 20
-141.9151963620907
 30
0.0
 10
74.58597274611046
 20
-141.9151963620907
 30
0.0
 10
74.58597274611046
 20
-141.769124313516
 30
0.0
 10
74.58597274611046
 20
-141.769124313516
 30
0.0
 10
74.58597274611046
 20
-141.769124313516
 30
0.0
 10
76.1302367973737
 20
-141.769124313516
 30
0.0
 10
76.1302367973737
 20
-141.769124313516
 30
0.0
 10
76.1302367973737
 20
-141.769124313516
 30
0.0
 10
76.1302367973737
 20
-141.9934000296058
 30
0.0
 10
76.1302367973737
 20
-141.9934000296058
 30
0.0
  0
HATCH
  5
C0
330
BB
100
AcDbEntity
  8
_U+30EC_U+30A4_U+30E4_U+30FC 1
 62
     7
420
 16777215
100
AcDbHatch
 10
0.0
 20
0.0
 30
0.0
210
0.0
220
0.0
230
1.0
  2
SOLID
 70
     1
 71
     0
 91
        1
 92
        1
 93
        1
 72
     4
 94
        3
 73
     0
 74
     1
 95
       26
 96
       22
 40
0.0
 40
0.0
 40
0.0
 40
0.0
 40
1.0
 40
1.0
 40
1.0
 40
2.0
 40
2.0
 40
2.0
 40
3.0
 40
3.0
 40
3.0
 40
4.0
 40
4.0
 40
4.0
 40
5.0
 40
5.0
 40
5.0
 40
6.0
 40
6.0
 40
6.0
 40
7.0
 40
7.0
 40
7.0
 40
7.0
 10
76.1302367973737
 20
-141.9934000296058
 10
76.1302367973737
 20
-141.9934000296058
 10
75.02591143957686
 20
-141.9934000296058
 10
75.02591143957686
 20
-141.9934000296058
 10
75.02591143957686
 20
-141.9934000296058
 10
75.02591143957686
 20
-142.3234401770927
 10
75.02591143957686
 20
-142.3234401770927
 10
75.02591143957686
 20
-142.3234401770927
 10
74.87777233371112
 20
-142.3234401770927
 10
74.87777233371112
 20
-142.3234401770927
 10
74.86313067789881
 20
-141.9913329723147
 10
74.70017766144649
 20
-141.9448241832638
 10
74.58597274611046
 20
-141.9151963620907
 10
74.58597274611046
 20
-141.9151963620907
 10
74.58597274611046
 20
-141.769124313516
 10
74.58597274611046
 20
-141.769124313516
 10
74.58597274611046
 20
-141.769124313516
 10
76.1302367973737
 20
-141.769124313516
 10
76.1302367973737
 20
-141.769124313516
 10
76.1302367973737
 20
-141.769124313516
 10
76.1302367973737
 20
-141.9934000296058
 10
76.1302367973737
 20
-141.9934000296058
 97
        0
 97
        0
 75
     2
 76
     1
 98
        0
  0
SPLINE
  5
C1
330
BB
100
AcDbEntity
  8
_U+30EC_U+30A4_U+30E4_U+30FC 1
370
     0
100
AcDbSpline
210
0.0
220
0.0
230
1.0
 70
    11
 71
     3
 72
    29
 73
    25
 74
     0
 42
0.0000000001
 43
0.0000000001
 12
1.0
 22
0.0
 32
0.0
 13
1.0
 23
0.0
 33
0.0
 40
0.0
 40
0.0
 40
0.0
 40
0.0
 40
1.0
 40
1.0
 40
1.0
 40
2.0
 40
2.0
 40
2.0
 40
3.0
 40
3.0
 40
3.0
 40
4.0
 40
4.0
 40
4.0
 40
5.0
 40
5.0
 40
5.0
 40
6.0
 40
6.0
 40
6.0
 40
7.0
 40
7.0
 40
7.0
 40
8.0
 40
8.0
 40
8.0
 40
8.0
 10
75.95246987033481
 20
-140.3700710369561
 30
0.0
 10
76.16193167583799
 20
-140.4782470351929
 30
0.0
 10
76.18105195578113
 20
-140.651535338101
 30
0.0
 10
76.18105195578113
 20
-140.7679795655025
 30
0.0
 10
76.18105195578113
 20
-140.9288655246636
 30
0.0
 10
76.13454316673025
 20
-141.0704589491074
 30
0.0
 10
75.95246987033481
 20
-141.1655435845003
 30
0.0
 10
75.75799423019245
 20
-141.2692409586063
 30
0.0
 10
75.52097166080726
 20
-141.2885334933237
 30
0.0
 10
75.35801864435494
 20
-141.2885334933237
 30
0.0
 10
75.21418590784576
 20
-141.2885334933237
 30
0.0
 10
74.96252168264826
 20
-141.2713080158975
 30
0.0
 10
74.76356741837509
 20
-141.1655435845003
 30
0.0
 10
74.5604790395196
 20
-141.057712095812
 30
0.0
 10
74.53722464499417
 20
-140.8968261366508
 30
0.0
 10
74.53722464499417
 20
-140.7679795655025
 30
0.0
 10
74.53722464499417
 20
-140.6091606636325
 30
0.0
 10
74.58166637675389
 20
-140.4655001818975
 30
0.0
 10
74.76356741837509
 20
-140.3700710369561
 30
0.0
 10
74.95614825600055
 20
-140.2708522869809
 30
0.0
 10
75.18455808667261
 20
-140.2474256376812
 30
0.0
 10
75.35801864435494
 20
-140.2474256376812
 30
0.0
 10
75.52941214474612
 20
-140.2474256376812
 30
0.0
 10
75.7600612874836
 20
-140.2687852296897
 30
0.0
 10
75.95246987033481
 20
-140.3700710369561
 30
0.0
  0
SPLINE
  5
C2
330
BB
100
AcDbEntity
  8
_U+30EC_U+30A4_U+30E4_U+30FC 1
370
     0
100
AcDbSpline
210
0.0
220
0.0
230
1.0
 70
    11
 71
     3
 72
    17
 73
    13
 74
     0
 42
0.0000000001
 43
0.0000000001
 12
1.0
 22
0.0
 32
0.0
 13
1.0
 23
0.0
 33
0.0
 40
0.0
 40
0.0
 40
0.0
 40
0.0
 40
1.0
 40
1.0
 40
1.0
 40
2.0
 40
2.0
 40
2.0
 40
3.0
 40
3.0
 40
3.0
 40
4.0
 40
4.0
 40
4.0
 40
4.0
 10
74.72980548261964
 20
-140.7679795655025
 30
0.0
 10
74.72980548261964
 20
-141.0177489881831
 30
0.0
 10
75.01316458628143
 20
-141.0642577772339
 30
0.0
 10
75.35801864435494
 20
-141.0642577772339
 30
0.0
 10
75.67755125061187
 20
-141.0642577772339
 30
0.0
 10
75.98640406086452
 20
-141.0280842746388
 30
0.0
 10
75.98640406086452
 20
-140.7679795655025
 30
0.0
 10
75.98640406086452
 20
-140.520277200113
 30
0.0
 10
75.70493975971961
 20
-140.471701353771
 30
0.0
 10
75.35801864435494
 20
-140.471701353771
 30
0.0
 10
75.03865829287228
 20
-140.471701353771
 30
0.0
 10
74.72980548261964
 20
-140.5099419136572
 30
0.0
 10
74.72980548261964
 20
-140.7679795655025
 30
0.0
  0
HATCH
  5
C3
330
BB
100
AcDbEntity
  8
_U+30EC_U+30A4_U+30E4_U+30FC 1
 62
     7
420
 16777215
100
AcDbHatch
 10
0.0
 20
0.0
 30
0.0
210
0.0
220
0.0
230
1.0
  2
SOLID
 70
     1
 71
     0
 91
        2
 92
        1
 93
        1
 72
     4
 94
        3
 73
     0
 74
     1
 95
       29
 96
       25
 40
0.0
 40
0.0
 40
0.0
 40
0.0
 40
1.0
 40
1.0
 40
1.0
 40
2.0
 40
2.0
 40
2.0
 40
3.0
 40
3.0
 40
3.0
 40
4.0
 40
4.0
 40
4.0
 40
5.0
 40
5.0
 40
5.0
 40
6.0
 40
6.0
 40
6.0
 40
7.0
 40
7.0
 40
7.0
 40
8.0
 40
8.0
 40
8.0
 40
8.0
 10
75.95246987033481
 20
-140.3700710369561
 10
76.16193167583799
 20
-140.4782470351929
 10
76.18105195578113
 20
-140.651535338101
 10
76.18105195578113
 20
-140.7679795655025
 10
76.18105195578113
 20
-140.9288655246636
 10
76.13454316673025
 20
-141.0704589491074
 10
75.95246987033481
 20
-141.1655435845003
 10
75.75799423019245
 20
-141.2692409586063
 10
75.52097166080726
 20
-141.2885334933237
 10
75.35801864435494
 20
-141.2885334933237
 10
75.21418590784576
 20
-141.2885334933237
 10
74.96252168264826
 20
-141.2713080158975
 10
74.76356741837509
 20
-141.1655435845003
 10
74.5604790395196
 20
-141.057712095812
 10
74.53722464499417
 20
-140.8968261366508
 10
74.53722464499417
 20
-140.7679795655025
 10
74.53722464499417
 20
-140.6091606636325
 10
74.58166637675389
 20
-140.4655001818975
 10
74.76356741837509
 20
-140.3700710369561
 10
74.95614825600055
 20
-140.2708522869809
 10
75.18455808667261
 20
-140.2474256376812
 10
75.35801864435494
 20
-140.2474256376812
 10
75.52941214474612
 20
-140.2474256376812
 10
75.7600612874836
 20
-140.2687852296897
 10
75.95246987033481
 20
-140.3700710369561
 97
        0
 97
        0
 92
        1
 93
        1
 72
     4
 94
        3
 73
     0
 74
     1
 95
       17
 96
       13
 40
0.0
 40
0.0
 40
0.0
 40
0.0
 40
1.0
 40
1.0
 40
1.0
 40
2.0
 40
2.0
 40
2.0
 40
3.0
 40
3.0
 40
3.0
 40
4.0
 40
4.0
 40
4.0
 40
4.0
 10
74.72980548261964
 20
-140.7679795655025
 10
74.72980548261964
 20
-141.0177489881831
 10
75.01316458628143
 20
-141.0642577772339
 10
75.35801864435494
 20
-141.0642577772339
 10
75.67755125061187
 20
-141.0642577772339
 10
75.98640406086452
 20
-141.0280842746388
 10
75.98640406086452
 20
-140.7679795655025
 10
75.98640406086452
 20
-140.520277200113
 10
75.70493975971961
 20
-140.471701353771
 10
75.35801864435494
 20
-140.471701353771
 10
75.03865829287228
 20
-140.471701353771
 10
74.72980548261964
 20
-140.5099419136572
 10
74.72980548261964
 20
-140.7679795655025
 97
        0
 97
        0
 75
     2
 76
     1
 98
        0
  0
ENDBLK
  5
BE
330
BB
100
AcDbEntity
  8
0
100
AcDbBlockEnd
  0
BLOCK
  5
C6
330
C4
100
AcDbEntity
  8
0
100
AcDbBlockBegin
  2
block 3
 70
     0
 10
0.0
 20
0.0
 30
0.0
  3
block 3
  1

  0
SPLINE
  5
C8
330
C4
100
AcDbEntity
  8
_U+30EC_U+30A4_U+30E4_U+30FC 1
370
     0
100
AcDbSpline
210
0.0
220
0.0
230
1.0
 70
    11
 71
     3
 72
    62
 73
    58
 74
     0
 42
0.0000000001
 43
0.0000000001
 12
1.0
 22
0.0
 32
0.0
 13
1.0
 23
0.0
 33
0.0
 40
0.0
 40
0.0
 40
0.0
 40
0.0
 40
1.0
 40
1.0
 40
1.0
 40
2.0
 40
2.0
 40
2.0
 40
3.0
 40
3.0
 40
3.0
 40
4.0
 40
4.0
 40
4.0
 40
5.0
 40
5.0
 40
5.0
 40
6.0
 40
6.0
 40
6.0
 40
7.0
 40
7.0
 40
7.0
 40
8.0
 40
8.0
 40
8.0
 40
9.0
 40
9.0
 40
9.0
 40
10.0
 40
10.0
 40
10.0
 40
11.0
 40
11.0
 40
11.0
 40
12.0
 40
12.0
 40
12.0
 40
13.0
 40
13.0
 40
13.0
 40
14.0
 40
14.0
 40
14.0
 40
15.0
 40
15.0
 40
15.0
 40
16.0
 40
16.0
 40
16.0
 40
17.0
 40
17.0
 40
17.0
 40
18.0
 40
18.0
 40
18.0
 40
19.0
 40
19.0
 40
19.0
 40
19.0
 10
106.0989501687878
 20
-156.8396945137415
 30
0.0
 10
106.0989501687878
 20
-156.9351236586829
 30
0.0
 10
106.0779350863277
 20
-157.1528536933507
 30
0.0
 10
105.8915554205757
 20
-157.2779106594652
 30
0.0
 10
105.7795898173051
 20
-157.3519802123981
 30
0.0
 10
105.6800265577814
 20
-157.3561143269804
 30
0.0
 10
105.5956217183928
 20
-157.3602484415627
 30
0.0
 10
105.5956217183928
 20
-157.3602484415627
 30
0.0
 10
105.5956217183928
 20
-157.1401068400553
 30
0.0
 10
105.5956217183928
 20
-157.1401068400553
 30
0.0
 10
105.6693467617771
 20
-157.1380397827641
 30
0.0
 10
105.9043022738712
 20
-157.1277044963084
 30
0.0
 10
105.9043022738712
 20
-156.8441731378723
 30
0.0
 10
105.9043022738712
 20
-156.7067138280108
 30
0.0
 10
105.8347113450691
 20
-156.5540960980143
 30
0.0
 10
105.6059570048485
 20
-156.5540960980143
 30
0.0
 10
105.4895127774471
 20
-156.5540960980143
 30
0.0
 10
105.440936931105
 20
-156.5923366579005
 30
0.0
 10
105.4092420526407
 20
-156.6240315363648
 30
0.0
 10
105.3351724997079
 20
-156.6981010892977
 30
0.0
 10
105.322770155961
 20
-156.8145453166991
 30
0.0
 10
105.322770155961
 20
-156.8693223349146
 30
0.0
 10
105.322770155961
 20
-156.888614869632
 30
0.0
 10
105.3248372132521
 20
-156.9244438626786
 30
0.0
 10
105.3289713278344
 20
-156.9520046265606
 30
0.0
 10
105.3289713278344
 20
-156.9520046265606
 30
0.0
 10
105.1343234329178
 20
-156.9520046265606
 30
0.0
 10
105.1343234329178
 20
-156.9520046265606
 30
0.0
 10
105.1405246047913
 20
-156.9137640666743
 30
0.0
 10
105.1429361716309
 20
-156.8717339017543
 30
0.0
 10
105.1429361716309
 20
-156.8651882203323
 30
0.0
 10
105.1429361716309
 20
-156.7997314061126
 30
0.0
 10
105.1215765796224
 20
-156.6009493966137
 30
0.0
 10
104.8845540102372
 20
-156.6009493966137
 30
0.0
 10
104.7067870831983
 20
-156.6009493966137
 30
0.0
 10
104.6516655554343
 20
-156.7318630250531
 30
0.0
 10
104.6516655554343
 20
-156.8421060805811
 30
0.0
 10
104.6516655554343
 20
-157.1063449042998
 30
0.0
 10
104.8845540102372
 20
-157.1149576430129
 30
0.0
 10
104.9565565058789
 20
-157.1190917575952
 30
0.0
 10
104.9565565058789
 20
-157.1190917575952
 30
0.0
 10
104.9565565058789
 20
-157.322352391225
 30
0.0
 10
104.9565565058789
 20
-157.322352391225
 30
0.0
 10
104.8314995397644
 20
-157.3137396525119
 30
0.0
 10
104.4552951127751
 20
-157.2861788886298
 30
0.0
 10
104.4552951127751
 20
-156.8293592272857
 30
0.0
 10
104.4552951127751
 20
-156.605083511196
 30
0.0
 10
104.5820746266323
 20
-156.3639268272285
 30
0.0
 10
104.8783528383638
 20
-156.3639268272285
 30
0.0
 10
105.0643879945672
 20
-156.3639268272285
 30
0.0
 10
105.1470702862132
 20
-156.4590114626214
 30
0.0
 10
105.2083929858507
 20
-156.5585747221451
 30
0.0
 10
105.2359537497327
 20
-156.4972520225076
 30
0.0
 10
105.316224474539
 20
-156.3153509808864
 30
0.0
 10
105.5935546611016
 20
-156.3153509808864
 30
0.0
 10
105.9318630377531
 20
-156.3153509808864
 30
0.0
 10
106.0989501687878
 20
-156.5627088367274
 30
0.0
 10
106.0989501687878
 20
-156.8396945137415
 30
0.0
  0
HATCH
  5
C9
330
C4
100
AcDbEntity
  8
_U+30EC_U+30A4_U+30E4_U+30FC 1
 62
     7
420
 16777215
100
AcDbHatch
 10
0.0
 20
0.0
 30
0.0
210
0.0
220
0.0
230
1.0
  2
SOLID
 70
     1
 71
     0
 91
        1
 92
        1
 93
        1
 72
     4
 94
        3
 73
     0
 74
     1
 95
       62
 96
       58
 40
0.0
 40
0.0
 40
0.0
 40
0.0
 40
1.0
 40
1.0
 40
1.0
 40
2.0
 40
2.0
 40
2.0
 40
3.0
 40
3.0
 40
3.0
 40
4.0
 40
4.0
 40
4.0
 40
5.0
 40
5.0
 40
5.0
 40
6.0
 40
6.0
 40
6.0
 40
7.0
 40
7.0
 40
7.0
 40
8.0
 40
8.0
 40
8.0
 40
9.0
 40
9.0
 40
9.0
 40
10.0
 40
10.0
 40
10.0
 40
11.0
 40
11.0
 40
11.0
 40
12.0
 40
12.0
 40
12.0
 40
13.0
 40
13.0
 40
13.0
 40
14.0
 40
14.0
 40
14.0
 40
15.0
 40
15.0
 40
15.0
 40
16.0
 40
16.0
 40
16.0
 40
17.0
 40
17.0
 40
17.0
 40
18.0
 40
18.0
 40
18.0
 40
19.0
 40
19.0
 40
19.0
 40
19.0
 10
106.0989501687878
 20
-156.8396945137415
 10
106.0989501687878
 20
-156.9351236586829
 10
106.0779350863277
 20
-157.1528536933507
 10
105.8915554205757
 20
-157.2779106594652
 10
105.7795898173051
 20
-157.3519802123981
 10
105.6800265577814
 20
-157.3561143269804
 10
105.5956217183928
 20
-157.3602484415627
 10
105.5956217183928
 20
-157.3602484415627
 10
105.5956217183928
 20
-157.1401068400553
 10
105.5956217183928
 20
-157.1401068400553
 10
105.6693467617771
 20
-157.1380397827641
 10
105.9043022738712
 20
-157.1277044963084
 10
105.9043022738712
 20
-156.8441731378723
 10
105.9043022738712
 20
-156.7067138280108
 10
105.8347113450691
 20
-156.5540960980143
 10
105.6059570048485
 20
-156.5540960980143
 10
105.4895127774471
 20
-156.5540960980143
 10
105.440936931105
 20
-156.5923366579005
 10
105.4092420526407
 20
-156.6240315363648
 10
105.3351724997079
 20
-156.6981010892977
 10
105.322770155961
 20
-156.8145453166991
 10
105.322770155961
 20
-156.8693223349146
 10
105.322770155961
 20
-156.888614869632
 10
105.3248372132521
 20
-156.9244438626786
 10
105.3289713278344
 20
-156.9520046265606
 10
105.3289713278344
 20
-156.9520046265606
 10
105.1343234329178
 20
-156.9520046265606
 10
105.1343234329178
 20
-156.9520046265606
 10
105.1405246047913
 20
-156.9137640666743
 10
105.1429361716309
 20
-156.8717339017543
 10
105.1429361716309
 20
-156.8651882203323
 10
105.1429361716309
 20
-156.7997314061126
 10
105.1215765796224
 20
-156.6009493966137
 10
104.8845540102372
 20
-156.6009493966137
 10
104.7067870831983
 20
-156.6009493966137
 10
104.6516655554343
 20
-156.7318630250531
 10
104.6516655554343
 20
-156.8421060805811
 10
104.6516655554343
 20
-157.1063449042998
 10
104.8845540102372
 20
-157.1149576430129
 10
104.9565565058789
 20
-157.1190917575952
 10
104.9565565058789
 20
-157.1190917575952
 10
104.9565565058789
 20
-157.322352391225
 10
104.9565565058789
 20
-157.322352391225
 10
104.8314995397644
 20
-157.3137396525119
 10
104.4552951127751
 20
-157.2861788886298
 10
104.4552951127751
 20
-156.8293592272857
 10
104.4552951127751
 20
-156.605083511196
 10
104.5820746266323
 20
-156.3639268272285
 10
104.8783528383638
 20
-156.3639268272285
 10
105.0643879945672
 20
-156.3639268272285
 10
105.1470702862132
 20
-156.4590114626214
 10
105.2083929858507
 20
-156.5585747221451
 10
105.2359537497327
 20
-156.4972520225076
 10
105.316224474539
 20
-156.3153509808864
 10
105.5935546611016
 20
-156.3153509808864
 10
105.9318630377531
 20
-156.3153509808864
 10
106.0989501687878
 20
-156.5627088367274
 10
106.0989501687878
 20
-156.8396945137415
 97
        0
 97
        0
 75
     2
 76
     1
 98
        0
  0
ENDBLK
  5
C7
330
C4
100
AcDbEntity
  8
0
100
AcDbBlockEnd
  0
BLOCK
  5
CC
330
CA
100
AcDbEntity
  8
0
100
AcDbBlockBegin
  2
block 4
 70
     0
 10
0.0
 20
0.0
 30
0.0
  3
block 4
  1

  0
SPLINE
  5
CE
330
CA
100
AcDbEntity
  8
_U+30EC_U+30A4_U+30E4_U+30FC 1
370
     0
100
AcDbSpline
210
0.0
220
0.0
230
1.0
 70
    11
 71
     3
 72
    53
 73
    49
 74
     0
 42
0.0000000001
 43
0.0000000001
 12
1.0
 22
0.0
 32
0.0
 13
1.0
 23
0.0
 33
0.0
 40
0.0
 40
0.0
 40
0.0
 40
0.0
 40
1.0
 40
1.0
 40
1.0
 40
2.0
 40
2.0
 40
2.0
 40
3.0
 40
3.0
 40
3.0
 40
4.0
 40
4.0
 40
4.0
 40
5.0
 40
5.0
 40
5.0
 40
6.0
 40
6.0
 40
6.0
 40
7.0
 40
7.0
 40
7.0
 40
8.0
 40
8.0
 40
8.0
 40
9.0
 40
9.0
 40
9.0
 40
10.0
 40
10.0
 40
10.0
 40
11.0
 40
11.0
 40
11.0
 40
12.0
 40
12.0
 40
12.0
 40
13.0
 40
13.0
 40
13.0
 40
14.0
 40
14.0
 40
14.0
 40
15.0
 40
15.0
 40
15.0
 40
16.0
 40
16.0
 40
16.0
 40
16.0
 10
106.0986056592392
 20
-127.4368380757797
 30
0.0
 10
106.0986056592392
 20
-127.5150417432949
 30
0.0
 10
106.0817246913615
 20
-127.6166720601097
 30
0.0
 10
106.0183349344329
 20
-127.7183023769246
 30
0.0
 10
105.9080918789049
 20
-127.8915906798327
 30
0.0
 10
105.7771782504654
 20
-127.9129502718412
 30
0.0
 10
105.6693467617771
 20
-127.9318982970101
 30
0.0
 10
105.6693467617771
 20
-127.9318982970101
 30
0.0
 10
105.6693467617771
 20
-127.7096896382115
 30
0.0
 10
105.6693467617771
 20
-127.7096896382115
 30
0.0
 10
105.868128771276
 20
-127.654912619996
 30
0.0
 10
105.8977565924492
 20
-127.5277885965903
 30
0.0
 10
105.8977565924492
 20
-127.4347710184885
 30
0.0
 10
105.8977565924492
 20
-127.2952446513359
 30
0.0
 10
105.7981933329255
 20
-127.1429714308879
 30
0.0
 10
105.5656493876711
 20
-127.1429714308879
 30
0.0
 10
105.309678793117
 20
-127.1429714308879
 30
0.0
 10
105.2397433547665
 20
-127.3228054152179
 30
0.0
 10
105.2397433547665
 20
-127.4433837572017
 30
0.0
 10
105.2397433547665
 20
-127.475078635666
 30
0.0
 10
105.2397433547665
 20
-127.6166720601097
 30
0.0
 10
105.3689344354633
 20
-127.7055555236292
 30
0.0
 10
105.3689344354633
 20
-127.7055555236292
 30
0.0
 10
105.3496419007459
 20
-127.8812553933769
 30
0.0
 10
105.3496419007459
 20
-127.8812553933769
 30
0.0
 10
105.3496419007459
 20
-127.8812553933769
 30
0.0
 10
104.5035264495686
 20
-127.7606770513932
 30
0.0
 10
104.5035264495686
 20
-127.7606770513932
 30
0.0
 10
104.5035264495686
 20
-127.7606770513932
 30
0.0
 10
104.5035264495686
 20
-126.9820854717267
 30
0.0
 10
104.5035264495686
 20
-126.9820854717267
 30
0.0
 10
104.5035264495686
 20
-126.9820854717267
 30
0.0
 10
104.6981743444852
 20
-126.9820854717267
 30
0.0
 10
104.6981743444852
 20
-126.9820854717267
 30
0.0
 10
104.6981743444852
 20
-126.9820854717267
 30
0.0
 10
104.6981743444852
 20
-127.5977240349409
 30
0.0
 10
104.6981743444852
 20
-127.5977240349409
 30
0.0
 10
104.6981743444852
 20
-127.5977240349409
 30
0.0
 10
105.1212320700739
 20
-127.6631808491606
 30
0.0
 10
105.1212320700739
 20
-127.6631808491606
 30
0.0
 10
105.0874701343184
 20
-127.6018581495232
 30
0.0
 10
105.047162517141
 20
-127.5195203674257
 30
0.0
 10
105.047162517141
 20
-127.4010090827331
 30
0.0
 10
105.047162517141
 20
-127.1471055454702
 30
0.0
 10
105.233542182893
 20
-126.910082976085
 30
0.0
 10
105.5463568529537
 20
-126.910082976085
 30
0.0
 10
105.8639946566937
 20
-126.910082976085
 30
0.0
 10
106.0986056592392
 20
-127.1343586921747
 30
0.0
 10
106.0986056592392
 20
-127.4368380757797
 30
0.0
  0
HATCH
  5
CF
330
CA
100
AcDbEntity
  8
_U+30EC_U+30A4_U+30E4_U+30FC 1
 62
     7
420
 16777215
100
AcDbHatch
 10
0.0
 20
0.0
 30
0.0
210
0.0
220
0.0
230
1.0
  2
SOLID
 70
     1
 71
     0
 91
        1
 92
        1
 93
        1
 72
     4
 94
        3
 73
     0
 74
     1
 95
       53
 96
       49
 40
0.0
 40
0.0
 40
0.0
 40
0.0
 40
1.0
 40
1.0
 40
1.0
 40
2.0
 40
2.0
 40
2.0
 40
3.0
 40
3.0
 40
3.0
 40
4.0
 40
4.0
 40
4.0
 40
5.0
 40
5.0
 40
5.0
 40
6.0
 40
6.0
 40
6.0
 40
7.0
 40
7.0
 40
7.0
 40
8.0
 40
8.0
 40
8.0
 40
9.0
 40
9.0
 40
9.0
 40
10.0
 40
10.0
 40
10.0
 40
11.0
 40
11.0
 40
11.0
 40
12.0
 40
12.0
 40
12.0
 40
13.0
 40
13.0
 40
13.0
 40
14.0
 40
14.0
 40
14.0
 40
15.0
 40
15.0
 40
15.0
 40
16.0
 40
16.0
 40
16.0
 40
16.0
 10
106.0986056592392
 20
-127.4368380757797
 10
106.0986056592392
 20
-127.5150417432949
 10
106.0817246913615
 20
-127.6166720601097
 10
106.0183349344329
 20
-127.7183023769246
 10
105.9080918789049
 20
-127.8915906798327
 10
105.7771782504654
 20
-127.9129502718412
 10
105.6693467617771
 20
-127.9318982970101
 10
105.6693467617771
 20
-127.9318982970101
 10
105.6693467617771
 20
-127.7096896382115
 10
105.6693467617771
 20
-127.7096896382115
 10
105.868128771276
 20
-127.654912619996
 10
105.8977565924492
 20
-127.5277885965903
 10
105.8977565924492
 20
-127.4347710184885
 10
105.8977565924492
 20
-127.2952446513359
 10
105.7981933329255
 20
-127.1429714308879
 10
105.5656493876711
 20
-127.1429714308879
 10
105.309678793117
 20
-127.1429714308879
 10
105.2397433547665
 20
-127.3228054152179
 10
105.2397433547665
 20
-127.4433837572017
 10
105.2397433547665
 20
-127.475078635666
 10
105.2397433547665
 20
-127.6166720601097
 10
105.3689344354633
 20
-127.7055555236292
 10
105.3689344354633
 20
-127.7055555236292
 10
105.3496419007459
 20
-127.8812553933769
 10
105.3496419007459
 20
-127.8812553933769
 10
105.3496419007459
 20
-127.8812553933769
 10
104.5035264495686
 20
-127.7606770513932
 10
104.5035264495686
 20
-127.7606770513932
 10
104.5035264495686
 20
-127.7606770513932
 10
104.5035264495686
 20
-126.9820854717267
 10
104.5035264495686
 20
-126.9820854717267
 10
104.5035264495686
 20
-126.9820854717267
 10
104.6981743444852
 20
-126.9820854717267
 10
104.6981743444852
 20
-126.9820854717267
 10
104.6981743444852
 20
-126.9820854717267
 10
104.6981743444852
 20
-127.5977240349409
 10
104.6981743444852
 20
-127.5977240349409
 10
104.6981743444852
 20
-127.5977240349409
 10
105.1212320700739
 20
-127.6631808491606
 10
105.1212320700739
 20
-127.6631808491606
 10
105.0874701343184
 20
-127.6018581495232
 10
105.047162517141
 20
-127.5195203674257
 10
105.047162517141
 20
-127.4010090827331
 10
105.047162517141
 20
-127.1471055454702
 10
105.233542182893
 20
-126.910082976085
 10
105.5463568529537
 20
-126.910082976085
 10
105.8639946566937
 20
-126.910082976085
 10
106.0986056592392
 20
-127.1343586921747
 10
106.0986056592392
 20
-127.4368380757797
 97
        0
 97
        0
 75
     2
 76
     1
 98
        0
  0
SPLINE
  5
D0
330
CA
100
AcDbEntity
  8
_U+30EC_U+30A4_U+30E4_U+30FC 1
370
     0
100
AcDbSpline
210
0.0
220
0.0
230
1.0
 70
    11
 71
     3
 72
    26
 73
    22
 74
     0
 42
0.0000000001
 43
0.0000000001
 12
1.0
 22
0.0
 32
0.0
 13
1.0
 23
0.0
 33
0.0
 40
0.0
 40
0.0
 40
0.0
 40
0.0
 40
1.0
 40
1.0
 40
1.0
 40
2.0
 40
2.0
 40
2.0
 40
3.0
 40
3.0
 40
3.0
 40
4.0
 40
4.0
 40
4.0
 40
5.0
 40
5.0
 40
5.0
 40
6.0
 40
6.0
 40
6.0
 40
7.0
 40
7.0
 40
7.0
 40
7.0
 10
106.0479627556061
 20
-126.3299288963689
 30
0.0
 10
106.0479627556061
 20
-126.3299288963689
 30
0.0
 10
106.0479627556061
 20
-126.5669514657541
 30
0.0
 10
106.0479627556061
 20
-126.5669514657541
 30
0.0
 10
105.7389376905792
 20
-126.5414577591633
 30
0.0
 10
105.2207953295976
 20
-126.3488769215378
 30
0.0
 10
104.7150553123629
 20
-125.9427001638268
 30
0.0
 10
104.7150553123629
 20
-125.9427001638268
 30
0.0
 10
104.7150553123629
 20
-126.7805473858396
 30
0.0
 10
104.7150553123629
 20
-126.7805473858396
 30
0.0
 10
104.7150553123629
 20
-126.7805473858396
 30
0.0
 10
104.5035264495686
 20
-126.7805473858396
 30
0.0
 10
104.5035264495686
 20
-126.7805473858396
 30
0.0
 10
104.5035264495686
 20
-126.7805473858396
 30
0.0
 10
104.5035264495686
 20
-125.7056775944416
 30
0.0
 10
104.5035264495686
 20
-125.7056775944416
 30
0.0
 10
104.5035264495686
 20
-125.7056775944416
 30
0.0
 10
104.7150553123629
 20
-125.7056775944416
 30
0.0
 10
104.7150553123629
 20
-125.7056775944416
 30
0.0
 10
105.0047878426724
 20
-126.0295165700551
 30
0.0
 10
105.5973442661354
 20
-126.2961669606135
 30
0.0
 10
106.0479627556061
 20
-126.3299288963689
 30
0.0
  0
HATCH
  5
D1
330
CA
100
AcDbEntity
  8
_U+30EC_U+30A4_U+30E4_U+30FC 1
 62
     7
420
 16777215
100
AcDbHatch
 10
0.0
 20
0.0
 30
0.0
210
0.0
220
0.0
230
1.0
  2
SOLID
 70
     1
 71
     0
 91
        1
 92
        1
 93
        1
 72
     4
 94
        3
 73
     0
 74
     1
 95
       26
 96
       22
 40
0.0
 40
0.0
 40
0.0
 40
0.0
 40
1.0
 40
1.0
 40
1.0
 40
2.0
 40
2.0
 40
2.0
 40
3.0
 40
3.0
 40
3.0
 40
4.0
 40
4.0
 40
4.0
 40
5.0
 40
5.0
 40
5.0
 40
6.0
 40
6.0
 40
6.0
 40
7.0
 40
7.0
 40
7.0
 40
7.0
 10
106.0479627556061
 20
-126.3299288963689
 10
106.0479627556061
 20
-126.3299288963689
 10
106.0479627556061
 20
-126.5669514657541
 10
106.0479627556061
 20
-126.5669514657541
 10
105.7389376905792
 20
-126.5414577591633
 10
105.2207953295976
 20
-126.3488769215378
 10
104.7150553123629
 20
-125.9427001638268
 10
104.7150553123629
 20
-125.9427001638268
 10
104.7150553123629
 20
-126.7805473858396
 10
104.7150553123629
 20
-126.7805473858396
 10
104.7150553123629
 20
-126.7805473858396
 10
104.5035264495686
 20
-126.7805473858396
 10
104.5035264495686
 20
-126.7805473858396
 10
104.5035264495686
 20
-126.7805473858396
 10
104.5035264495686
 20
-125.7056775944416
 10
104.5035264495686
 20
-125.7056775944416
 10
104.5035264495686
 20
-125.7056775944416
 10
104.7150553123629
 20
-125.7056775944416
 10
104.7150553123629
 20
-125.7056775944416
 10
105.0047878426724
 20
-126.0295165700551
 10
105.5973442661354
 20
-126.2961669606135
 10
106.0479627556061
 20
-126.3299288963689
 97
        0
 97
        0
 75
     2
 76
     1
 98
        0
  0
ENDBLK
  5
CD
330
CA
100
AcDbEntity
  8
0
100
AcDbBlockEnd
  0
BLOCK
  5
D4
330
D2
100
AcDbEntity
  8
0
100
AcDbBlockBegin
  2
block 5
 70
     0
 10
0.0
 20
0.0
 30
0.0
  3
block 5
  1

  0
SPLINE
  5
D6
330
D2
100
AcDbEntity
  8
_U+30EC_U+30A4_U+30E4_U+30FC 1
370
     0
100
AcDbSpline
210
0.0
220
0.0
230
1.0
 70
    11
 71
     3
 72
    26
 73
    22
 74
     0
 42
0.0000000001
 43
0.0000000001
 12
1.0
 22
0.0
 32
0.0
 13
1.0
 23
0.0
 33
0.0
 40
0.0
 40
0.0
 40
0.0
 40
0.0
 40
1.0
 40
1.0
 40
1.0
 40
2.0
 40
2.0
 40
2.0
 40
3.0
 40
3.0
 40
3.0
 40
4.0
 40
4.0
 40
4.0
 40
5.0
 40
5.0
 40
5.0
 40
6.0
 40
6.0
 40
6.0
 40
7.0
 40
7.0
 40
7.0
 40
7.0
 10
76.1302367973737
 20
-152.9684407169662
 30
0.0
 10
76.1302367973737
 20
-152.9684407169662
 30
0.0
 10
75.02591143957686
 20
-152.9684407169662
 30
0.0
 10
75.02591143957686
 20
-152.9684407169662
 30
0.0
 10
75.02591143957686
 20
-152.9684407169662
 30
0.0
 10
75.02591143957686
 20
-153.2984808644532
 30
0.0
 10
75.02591143957686
 20
-153.2984808644532
 30
0.0
 10
75.02591143957686
 20
-153.2984808644532
 30
0.0
 10
74.87777233371112
 20
-153.2984808644532
 30
0.0
 10
74.87777233371112
 20
-153.2984808644532
 30
0.0
 10
74.86313067789881
 20
-152.9663736596751
 30
0.0
 10
74.70017766144649
 20
-152.9198648706242
 30
0.0
 10
74.58597274611046
 20
-152.8902370494511
 30
0.0
 10
74.58597274611046
 20
-152.8902370494511
 30
0.0
 10
74.58597274611046
 20
-152.7441650008765
 30
0.0
 10
74.58597274611046
 20
-152.7441650008765
 30
0.0
 10
74.58597274611046
 20
-152.7441650008765
 30
0.0
 10
76.1302367973737
 20
-152.7441650008765
 30
0.0
 10
76.1302367973737
 20
-152.7441650008765
 30
0.0
 10
76.1302367973737
 20
-152.7441650008765
 30
0.0
 10
76.1302367973737
 20
-152.9684407169662
 30
0.0
 10
76.1302367973737
 20
-152.9684407169662
 30
0.0
  0
HATCH
  5
D7
330
D2
100
AcDbEntity
  8
_U+30EC_U+30A4_U+30E4_U+30FC 1
 62
     7
420
 16777215
100
AcDbHatch
 10
0.0
 20
0.0
 30
0.0
210
0.0
220
0.0
230
1.0
  2
SOLID
 70
     1
 71
     0
 91
        1
 92
        1
 93
        1
 72
     4
 94
        3
 73
     0
 74
     1
 95
       26
 96
       22
 40
0.0
 40
0.0
 40
0.0
 40
0.0
 40
1.0
 40
1.0
 40
1.0
 40
2.0
 40
2.0
 40
2.0
 40
3.0
 40
3.0
 40
3.0
 40
4.0
 40
4.0
 40
4.0
 40
5.0
 40
5.0
 40
5.0
 40
6.0
 40
6.0
 40
6.0
 40
7.0
 40
7.0
 40
7.0
 40
7.0
 10
76.1302367973737
 20
-152.9684407169662
 10
76.1302367973737
 20
-152.9684407169662
 10
75.02591143957686
 20
-152.9684407169662
 10
75.02591143957686
 20
-152.9684407169662
 10
75.02591143957686
 20
-152.9684407169662
 10
75.02591143957686
 20
-153.2984808644532
 10
75.02591143957686
 20
-153.2984808644532
 10
75.02591143957686
 20
-153.2984808644532
 10
74.87777233371112
 20
-153.2984808644532
 10
74.87777233371112
 20
-153.2984808644532
 10
74.86313067789881
 20
-152.9663736596751
 10
74.70017766144649
 20
-152.9198648706242
 10
74.58597274611046
 20
-152.8902370494511
 10
74.58597274611046
 20
-152.8902370494511
 10
74.58597274611046
 20
-152.7441650008765
 10
74.58597274611046
 20
-152.7441650008765
 10
74.58597274611046
 20
-152.7441650008765
 10
76.1302367973737
 20
-152.7441650008765
 10
76.1302367973737
 20
-152.7441650008765
 10
76.1302367973737
 20
-152.7441650008765
 10
76.1302367973737
 20
-152.9684407169662
 10
76.1302367973737
 20
-152.9684407169662
 97
        0
 97
        0
 75
     2
 76
     1
 98
        0
  0
SPLINE
  5
D8
330
D2
100
AcDbEntity
  8
_U+30EC_U+30A4_U+30E4_U+30FC 1
370
     0
100
AcDbSpline
210
0.0
220
0.0
230
1.0
 70
    11
 71
     3
 72
    44
 73
    40
 74
     0
 42
0.0000000001
 43
0.0000000001
 12
1.0
 22
0.0
 32
0.0
 13
1.0
 23
0.0
 33
0.0
 40
0.0
 40
0.0
 40
0.0
 40
0.0
 40
1.0
 40
1.0
 40
1.0
 40
2.0
 40
2.0
 40
2.0
 40
3.0
 40
3.0
 40
3.0
 40
4.0
 40
4.0
 40
4.0
 40
5.0
 40
5.0
 40
5.0
 40
6.0
 40
6.0
 40
6.0
 40
7.0
 40
7.0
 40
7.0
 40
8.0
 40
8.0
 40
8.0
 40
9.0
 40
9.0
 40
9.0
 40
10.0
 40
10.0
 40
10.0
 40
11.0
 40
11.0
 40
11.0
 40
12.0
 40
12.0
 40
12.0
 40
13.0
 40
13.0
 40
13.0
 40
13.0
 10
75.54853242468926
 20
-151.6500026747611
 30
0.0
 10
75.70717907178502
 20
-151.8677327094289
 30
0.0
 10
75.78124862471789
 20
-151.9607502875307
 30
0.0
 10
75.92508136122707
 20
-152.0096706434212
 30
0.0
 10
75.92508136122707
 20
-152.0096706434212
 30
0.0
 10
75.92508136122707
 20
-151.2310790637547
 30
0.0
 10
75.92508136122707
 20
-151.2310790637547
 30
0.0
 10
75.92508136122707
 20
-151.2310790637547
 30
0.0
 10
76.1302367973737
 20
-151.2310790637547
 30
0.0
 10
76.1302367973737
 20
-151.2310790637547
 30
0.0
 10
76.1302367973737
 20
-151.2310790637547
 30
0.0
 10
76.1302367973737
 20
-152.2590955565533
 30
0.0
 10
76.1302367973737
 20
-152.2590955565533
 30
0.0
 10
75.77263588600476
 20
-152.227400678089
 30
0.0
 10
75.6944322184896
 20
-152.1619438638693
 30
0.0
 10
75.39608694946695
 20
-151.7767821886183
 30
0.0
 10
75.19730493996803
 20
-151.5208115940642
 30
0.0
 10
75.12960881368288
 20
-151.4553547798445
 30
0.0
 10
74.99214950382141
 20
-151.4553547798445
 30
0.0
 10
74.87363821912882
 20
-151.4553547798445
 30
0.0
 10
74.7423800811408
 20
-151.5273572754862
 30
0.0
 10
74.7423800811408
 20
-151.724072227694
 30
0.0
 10
74.7423800811408
 20
-151.9841769368304
 30
0.0
 10
74.97302922387827
 20
-151.9927896755435
 30
0.0
 10
75.08947345127972
 20
-151.9969237901258
 30
0.0
 10
75.08947345127972
 20
-151.9969237901258
 30
0.0
 10
75.08947345127972
 20
-152.2211995062155
 30
0.0
 10
75.08947345127972
 20
-152.2211995062155
 30
0.0
 10
74.96252168264826
 20
-152.2125867675024
 30
0.0
 10
74.85038382460338
 20
-152.2019069714981
 30
0.0
 10
74.73187253991078
 20
-152.1216362466918
 30
0.0
 10
74.57115883552387
 20
-152.0117377007124
 30
0.0
 10
74.53722464499417
 20
-151.8253580349603
 30
0.0
 10
74.53722464499417
 20
-151.7092583171074
 30
0.0
 10
74.53722464499417
 20
-151.4319281305448
 30
0.0
 10
74.72136499868077
 20
-151.2245333823328
 30
0.0
 10
74.99421656111257
 20
-151.2245333823328
 30
0.0
 10
75.22262639178463
 20
-151.2245333823328
 30
0.0
 10
75.32218965130835
 20
-151.3409776097342
 30
0.0
 10
75.54853242468926
 20
-151.6500026747611
 30
0.0
  0
HATCH
  5
D9
330
D2
100
AcDbEntity
  8
_U+30EC_U+30A4_U+30E4_U+30FC 1
 62
     7
420
 16777215
100
AcDbHatch
 10
0.0
 20
0.0
 30
0.0
210
0.0
220
0.0
230
1.0
  2
SOLID
 70
     1
 71
     0
 91
        1
 92
        1
 93
        1
 72
     4
 94
        3
 73
     0
 74
     1
 95
       44
 96
       40
 40
0.0
 40
0.0
 40
0.0
 40
0.0
 40
1.0
 40
1.0
 40
1.0
 40
2.0
 40
2.0
 40
2.0
 40
3.0
 40
3.0
 40
3.0
 40
4.0
 40
4.0
 40
4.0
 40
5.0
 40
5.0
 40
5.0
 40
6.0
 40
6.0
 40
6.0
 40
7.0
 40
7.0
 40
7.0
 40
8.0
 40
8.0
 40
8.0
 40
9.0
 40
9.0
 40
9.0
 40
10.0
 40
10.0
 40
10.0
 40
11.0
 40
11.0
 40
11.0
 40
12.0
 40
12.0
 40
12.0
 40
13.0
 40
13.0
 40
13.0
 40
13.0
 10
75.54853242468926
 20
-151.6500026747611
 10
75.70717907178502
 20
-151.8677327094289
 10
75.78124862471789
 20
-151.9607502875307
 10
75.92508136122707
 20
-152.0096706434212
 10
75.92508136122707
 20
-152.0096706434212
 10
75.92508136122707
 20
-151.2310790637547
 10
75.92508136122707
 20
-151.2310790637547
 10
75.92508136122707
 20
-151.2310790637547
 10
76.1302367973737
 20
-151.2310790637547
 10
76.1302367973737
 20
-151.2310790637547
 10
76.1302367973737
 20
-151.2310790637547
 10
76.1302367973737
 20
-152.2590955565533
 10
76.1302367973737
 20
-152.2590955565533
 10
75.77263588600476
 20
-152.227400678089
 10
75.6944322184896
 20
-152.1619438638693
 10
75.39608694946695
 20
-151.7767821886183
 10
75.19730493996803
 20
-151.5208115940642
 10
75.12960881368288
 20
-151.4553547798445
 10
74.99214950382141
 20
-151.4553547798445
 10
74.87363821912882
 20
-151.4553547798445
 10
74.7423800811408
 20
-151.5273572754862
 10
74.7423800811408
 20
-151.724072227694
 10
74.7423800811408
 20
-151.9841769368304
 10
74.97302922387827
 20
-151.9927896755435
 10
75.08947345127972
 20
-151.9969237901258
 10
75.08947345127972
 20
-151.9969237901258
 10
75.08947345127972
 20
-152.2211995062155
 10
75.08947345127972
 20
-152.2211995062155
 10
74.96252168264826
 20
-152.2125867675024
 10
74.85038382460338
 20
-152.2019069714981
 10
74.73187253991078
 20
-152.1216362466918
 10
74.57115883552387
 20
-152.0117377007124
 10
74.53722464499417
 20
-151.8253580349603
 10
74.53722464499417
 20
-151.7092583171074
 10
74.53722464499417
 20
-151.4319281305448
 10
74.72136499868077
 20
-151.2245333823328
 10
74.99421656111257
 20
-151.2245333823328
 10
75.22262639178463
 20
-151.2245333823328
 10
75.32218965130835
 20
-151.3409776097342
 10
75.54853242468926
 20
-151.6500026747611
 97
        0
 97
        0
 75
     2
 76
     1
 98
        0
  0
ENDBLK
  5
D5
330
D2
100
AcDbEntity
  8
0
100
AcDbBlockEnd
  0
BLOCK
  5
DC
330
DA
100
AcDbEntity
  8
0
100
AcDbBlockBegin
  2
block 6
 70
     0
 10
0.0
 20
0.0
 30
0.0
  3
block 6
  1

  0
SPLINE
  5
DE
330
DA
100
AcDbEntity
  8
_U+30EC_U+30A4_U+30E4_U+30FC 1
370
     0
100
AcDbSpline
210
0.0
220
0.0
230
1.0
 70
    11
 71
     3
 72
    26
 73
    22
 74
     0
 42
0.0000000001
 43
0.0000000001
 12
1.0
 22
0.0
 32
0.0
 13
1.0
 23
0.0
 33
0.0
 40
0.0
 40
0.0
 40
0.0
 40
0.0
 40
1.0
 40
1.0
 40
1.0
 40
2.0
 40
2.0
 40
2.0
 40
3.0
 40
3.0
 40
3.0
 40
4.0
 40
4.0
 40
4.0
 40
5.0
 40
5.0
 40
5.0
 40
6.0
 40
6.0
 40
6.0
 40
7.0
 40
7.0
 40
7.0
 40
7.0
 10
97.07658960246697
 20
-164.4089138043839
 30
0.0
 10
97.07658960246697
 20
-164.4089138043839
 30
0.0
 10
97.07658960246697
 20
-163.3047607013613
 30
0.0
 10
97.07658960246697
 20
-163.3047607013613
 30
0.0
 10
97.07658960246697
 20
-163.3047607013613
 30
0.0
 10
96.74654945498003
 20
-163.3047607013613
 30
0.0
 10
96.74654945498003
 20
-163.3047607013613
 30
0.0
 10
96.74654945498003
 20
-163.3047607013613
 30
0.0
 10
96.74654945498003
 20
-163.1566215954956
 30
0.0
 10
96.74654945498003
 20
-163.1566215954956
 30
0.0
 10
97.07865665975812
 20
-163.141807684909
 30
0.0
 10
97.12516544880899
 20
-162.9791991780052
 30
0.0
 10
97.15479326998214
 20
-162.8648220078949
 30
0.0
 10
97.15479326998214
 20
-162.8648220078949
 30
0.0
 10
97.30086531855673
 20
-162.8648220078949
 30
0.0
 10
97.30086531855673
 20
-162.8648220078949
 30
0.0
 10
97.30086531855673
 20
-162.8648220078949
 30
0.0
 10
97.30086531855673
 20
-164.4089138043839
 30
0.0
 10
97.30086531855673
 20
-164.4089138043839
 30
0.0
 10
97.30086531855673
 20
-164.4089138043839
 30
0.0
 10
97.07658960246697
 20
-164.4089138043839
 30
0.0
 10
97.07658960246697
 20
-164.4089138043839
 30
0.0
  0
HATCH
  5
DF
330
DA
100
AcDbEntity
  8
_U+30EC_U+30A4_U+30E4_U+30FC 1
 62
     7
420
 16777215
100
AcDbHatch
 10
0.0
 20
0.0
 30
0.0
210
0.0
220
0.0
230
1.0
  2
SOLID
 70
     1
 71
     0
 91
        1
 92
        1
 93
        1
 72
     4
 94
        3
 73
     0
 74
     1
 95
       26
 96
       22
 40
0.0
 40
0.0
 40
0.0
 40
0.0
 40
1.0
 40
1.0
 40
1.0
 40
2.0
 40
2.0
 40
2.0
 40
3.0
 40
3.0
 40
3.0
 40
4.0
 40
4.0
 40
4.0
 40
5.0
 40
5.0
 40
5.0
 40
6.0
 40
6.0
 40
6.0
 40
7.0
 40
7.0
 40
7.0
 40
7.0
 10
97.07658960246697
 20
-164.4089138043839
 10
97.07658960246697
 20
-164.4089138043839
 10
97.07658960246697
 20
-163.3047607013613
 10
97.07658960246697
 20
-163.3047607013613
 10
97.07658960246697
 20
-163.3047607013613
 10
96.74654945498003
 20
-163.3047607013613
 10
96.74654945498003
 20
-163.3047607013613
 10
96.74654945498003
 20
-163.3047607013613
 10
96.74654945498003
 20
-163.1566215954956
 10
96.74654945498003
 20
-163.1566215954956
 10
97.07865665975812
 20
-163.141807684909
 10
97.12516544880899
 20
-162.9791991780052
 10
97.15479326998214
 20
-162.8648220078949
 10
97.15479326998214
 20
-162.8648220078949
 10
97.30086531855673
 20
-162.8648220078949
 10
97.30086531855673
 20
-162.8648220078949
 10
97.30086531855673
 20
-162.8648220078949
 10
97.30086531855673
 20
-164.4089138043839
 10
97.30086531855673
 20
-164.4089138043839
 10
97.30086531855673
 20
-164.4089138043839
 10
97.07658960246697
 20
-164.4089138043839
 10
97.07658960246697
 20
-164.4089138043839
 97
        0
 97
        0
 75
     2
 76
     1
 98
        0
  0
SPLINE
  5
E0
330
DA
100
AcDbEntity
  8
_U+30EC_U+30A4_U+30E4_U+30FC 1
370
     0
100
AcDbSpline
210
0.0
220
0.0
230
1.0
 70
    11
 71
     3
 72
    29
 73
    25
 74
     0
 42
0.0000000001
 43
0.0000000001
 12
1.0
 22
0.0
 32
0.0
 13
1.0
 23
0.0
 33
0.0
 40
0.0
 40
0.0
 40
0.0
 40
0.0
 40
1.0
 40
1.0
 40
1.0
 40
2.0
 40
2.0
 40
2.0
 40
3.0
 40
3.0
 40
3.0
 40
4.0
 40
4.0
 40
4.0
 40
5.0
 40
5.0
 40
5.0
 40
6.0
 40
6.0
 40
6.0
 40
7.0
 40
7.0
 40
7.0
 40
8.0
 40
8.0
 40
8.0
 40
8.0
 10
98.69991859511669
 20
-164.231146877345
 30
0.0
 10
98.59174259687984
 20
-164.4406086828482
 30
0.0
 10
98.41845429397178
 20
-164.4599012175656
 30
0.0
 10
98.30201006657033
 20
-164.4599012175656
 30
0.0
 10
98.14112410740917
 20
-164.4599012175656
 30
0.0
 10
97.9995306829654
 20
-164.4133924285147
 30
0.0
 10
97.9044460475725
 20
-164.231146877345
 30
0.0
 10
97.80074867346649
 20
-164.0368434919769
 30
0.0
 10
97.78145613874908
 20
-163.7998209225917
 30
0.0
 10
97.78145613874908
 20
-163.6368679061394
 30
0.0
 10
97.78145613874908
 20
-163.4932074244045
 30
0.0
 10
97.79868161617533
 20
-163.2413709444327
 30
0.0
 10
97.9044460475725
 20
-163.0425889349338
 30
0.0
 10
98.01227753626083
 20
-162.8393283013041
 30
0.0
 10
98.17316349542199
 20
-162.8159016520044
 30
0.0
 10
98.30201006657033
 20
-162.8159016520044
 30
0.0
 10
98.46082896844035
 20
-162.8159016520044
 30
0.0
 10
98.60448945017527
 20
-162.8606878933126
 30
0.0
 10
98.69991859511669
 20
-163.0425889349338
 30
0.0
 10
98.79913734509189
 20
-163.2348252630107
 30
0.0
 10
98.82256399439159
 20
-163.4635796032313
 30
0.0
 10
98.82256399439159
 20
-163.6368679061394
 30
0.0
 10
98.82256399439159
 20
-163.8080891517563
 30
0.0
 10
98.80120440238304
 20
-164.0389105492681
 30
0.0
 10
98.69991859511669
 20
-164.231146877345
 30
0.0
  0
SPLINE
  5
E1
330
DA
100
AcDbEntity
  8
_U+30EC_U+30A4_U+30E4_U+30FC 1
370
     0
100
AcDbSpline
210
0.0
220
0.0
230
1.0
 70
    11
 71
     3
 72
    17
 73
    13
 74
     0
 42
0.0000000001
 43
0.0000000001
 12
1.0
 22
0.0
 32
0.0
 13
1.0
 23
0.0
 33
0.0
 40
0.0
 40
0.0
 40
0.0
 40
0.0
 40
1.0
 40
1.0
 40
1.0
 40
2.0
 40
2.0
 40
2.0
 40
3.0
 40
3.0
 40
3.0
 40
4.0
 40
4.0
 40
4.0
 40
4.0
 10
98.30201006657033
 20
-163.0088269991784
 30
0.0
 10
98.05224064388972
 20
-163.0088269991784
 30
0.0
 10
98.00573185483884
 20
-163.2920138480659
 30
0.0
 10
98.00573185483884
 20
-163.6368679061394
 30
0.0
 10
98.00573185483884
 20
-163.9562282576221
 30
0.0
 10
98.04190535743398
 20
-164.265253322649
 30
0.0
 10
98.30201006657033
 20
-164.265253322649
 30
0.0
 10
98.5497124319598
 20
-164.265253322649
 30
0.0
 10
98.59828827830182
 20
-163.9837890215041
 30
0.0
 10
98.59828827830182
 20
-163.6368679061394
 30
0.0
 10
98.59828827830182
 20
-163.3175075546567
 30
0.0
 10
98.56004771841555
 20
-163.0088269991784
 30
0.0
 10
98.30201006657033
 20
-163.0088269991784
 30
0.0
  0
HATCH
  5
E2
330
DA
100
AcDbEntity
  8
_U+30EC_U+30A4_U+30E4_U+30FC 1
 62
     7
420
 16777215
100
AcDbHatch
 10
0.0
 20
0.0
 30
0.0
210
0.0
220
0.0
230
1.0
  2
SOLID
 70
     1
 71
     0
 91
        2
 92
        1
 93
        1
 72
     4
 94
        3
 73
     0
 74
     1
 95
       29
 96
       25
 40
0.0
 40
0.0
 40
0.0
 40
0.0
 40
1.0
 40
1.0
 40
1.0
 40
2.0
 40
2.0
 40
2.0
 40
3.0
 40
3.0
 40
3.0
 40
4.0
 40
4.0
 40
4.0
 40
5.0
 40
5.0
 40
5.0
 40
6.0
 40
6.0
 40
6.0
 40
7.0
 40
7.0
 40
7.0
 40
8.0
 40
8.0
 40
8.0
 40
8.0
 10
98.69991859511669
 20
-164.231146877345
 10
98.59174259687984
 20
-164.4406086828482
 10
98.41845429397178
 20
-164.4599012175656
 10
98.30201006657033
 20
-164.4599012175656
 10
98.14112410740917
 20
-164.4599012175656
 10
97.9995306829654
 20
-164.4133924285147
 10
97.9044460475725
 20
-164.231146877345
 10
97.80074867346649
 20
-164.0368434919769
 10
97.78145613874908
 20
-163.7998209225917
 10
97.78145613874908
 20
-163.6368679061394
 10
97.78145613874908
 20
-163.4932074244045
 10
97.79868161617533
 20
-163.2413709444327
 10
97.9044460475725
 20
-163.0425889349338
 10
98.01227753626083
 20
-162.8393283013041
 10
98.17316349542199
 20
-162.8159016520044
 10
98.30201006657033
 20
-162.8159016520044
 10
98.46082896844035
 20
-162.8159016520044
 10
98.60448945017527
 20
-162.8606878933126
 10
98.69991859511669
 20
-163.0425889349338
 10
98.79913734509189
 20
-163.2348252630107
 10
98.82256399439159
 20
-163.4635796032313
 10
98.82256399439159
 20
-163.6368679061394
 10
98.82256399439159
 20
-163.8080891517563
 10
98.80120440238304
 20
-164.0389105492681
 10
98.69991859511669
 20
-164.231146877345
 97
        0
 97
        0
 92
        1
 93
        1
 72
     4
 94
        3
 73
     0
 74
     1
 95
       17
 96
       13
 40
0.0
 40
0.0
 40
0.0
 40
0.0
 40
1.0
 40
1.0
 40
1.0
 40
2.0
 40
2.0
 40
2.0
 40
3.0
 40
3.0
 40
3.0
 40
4.0
 40
4.0
 40
4.0
 40
4.0
 10
98.30201006657033
 20
-163.0088269991784
 10
98.05224064388972
 20
-163.0088269991784
 10
98.00573185483884
 20
-163.2920138480659
 10
98.00573185483884
 20
-163.6368679061394
 10
98.00573185483884
 20
-163.9562282576221
 10
98.04190535743398
 20
-164.265253322649
 10
98.30201006657033
 20
-164.265253322649
 10
98.5497124319598
 20
-164.265253322649
 10
98.59828827830182
 20
-163.9837890215041
 10
98.59828827830182
 20
-163.6368679061394
 10
98.59828827830182
 20
-163.3175075546567
 10
98.56004771841555
 20
-163.0088269991784
 10
98.30201006657033
 20
-163.0088269991784
 97
        0
 97
        0
 75
     2
 76
     1
 98
        0
  0
ENDBLK
  5
DD
330
DA
100
AcDbEntity
  8
0
100
AcDbBlockEnd
  0
BLOCK
  5
E5
330
E3
100
AcDbEntity
  8
0
100
AcDbBlockBegin
  2
block 7
 70
     0
 10
0.0
 20
0.0
 30
0.0
  3
block 7
  1

  0
SPLINE
  5
E7
330
E3
100
AcDbEntity
  8
_U+30EC_U+30A4_U+30E4_U+30FC 1
370
     0
100
AcDbSpline
210
0.0
220
0.0
230
1.0
 70
    11
 71
     3
 72
    26
 73
    22
 74
     0
 42
0.0000000001
 43
0.0000000001
 12
1.0
 22
0.0
 32
0.0
 13
1.0
 23
0.0
 33
0.0
 40
0.0
 40
0.0
 40
0.0
 40
0.0
 40
1.0
 40
1.0
 40
1.0
 40
2.0
 40
2.0
 40
2.0
 40
3.0
 40
3.0
 40
3.0
 40
4.0
 40
4.0
 40
4.0
 40
5.0
 40
5.0
 40
5.0
 40
6.0
 40
6.0
 40
6.0
 40
7.0
 40
7.0
 40
7.0
 40
7.0
 10
86.10189342465509
 20
-164.4089138043839
 30
0.0
 10
86.10189342465509
 20
-164.4089138043839
 30
0.0
 10
86.10189342465509
 20
-163.3047607013613
 30
0.0
 10
86.10189342465509
 20
-163.3047607013613
 30
0.0
 10
86.10189342465509
 20
-163.3047607013613
 30
0.0
 10
85.77185327716815
 20
-163.3047607013613
 30
0.0
 10
85.77185327716815
 20
-163.3047607013613
 30
0.0
 10
85.77185327716815
 20
-163.3047607013613
 30
0.0
 10
85.77185327716815
 20
-163.1566215954956
 30
0.0
 10
85.77185327716815
 20
-163.1566215954956
 30
0.0
 10
86.10396048194623
 20
-163.141807684909
 30
0.0
 10
86.1504692709971
 20
-162.9791991780052
 30
0.0
 10
86.18009709217026
 20
-162.8648220078949
 30
0.0
 10
86.18009709217026
 20
-162.8648220078949
 30
0.0
 10
86.32616914074485
 20
-162.8648220078949
 30
0.0
 10
86.32616914074485
 20
-162.8648220078949
 30
0.0
 10
86.32616914074485
 20
-162.8648220078949
 30
0.0
 10
86.32616914074485
 20
-164.4089138043839
 30
0.0
 10
86.32616914074485
 20
-164.4089138043839
 30
0.0
 10
86.32616914074485
 20
-164.4089138043839
 30
0.0
 10
86.10189342465509
 20
-164.4089138043839
 30
0.0
 10
86.10189342465509
 20
-164.4089138043839
 30
0.0
  0
HATCH
  5
E8
330
E3
100
AcDbEntity
  8
_U+30EC_U+30A4_U+30E4_U+30FC 1
 62
     7
420
 16777215
100
AcDbHatch
 10
0.0
 20
0.0
 30
0.0
210
0.0
220
0.0
230
1.0
  2
SOLID
 70
     1
 71
     0
 91
        1
 92
        1
 93
        1
 72
     4
 94
        3
 73
     0
 74
     1
 95
       26
 96
       22
 40
0.0
 40
0.0
 40
0.0
 40
0.0
 40
1.0
 40
1.0
 40
1.0
 40
2.0
 40
2.0
 40
2.0
 40
3.0
 40
3.0
 40
3.0
 40
4.0
 40
4.0
 40
4.0
 40
5.0
 40
5.0
 40
5.0
 40
6.0
 40
6.0
 40
6.0
 40
7.0
 40
7.0
 40
7.0
 40
7.0
 10
86.10189342465509
 20
-164.4089138043839
 10
86.10189342465509
 20
-164.4089138043839
 10
86.10189342465509
 20
-163.3047607013613
 10
86.10189342465509
 20
-163.3047607013613
 10
86.10189342465509
 20
-163.3047607013613
 10
85.77185327716815
 20
-163.3047607013613
 10
85.77185327716815
 20
-163.3047607013613
 10
85.77185327716815
 20
-163.3047607013613
 10
85.77185327716815
 20
-163.1566215954956
 10
85.77185327716815
 20
-163.1566215954956
 10
86.10396048194623
 20
-163.141807684909
 10
86.1504692709971
 20
-162.9791991780052
 10
86.18009709217026
 20
-162.8648220078949
 10
86.18009709217026
 20
-162.8648220078949
 10
86.32616914074485
 20
-162.8648220078949
 10
86.32616914074485
 20
-162.8648220078949
 10
86.32616914074485
 20
-162.8648220078949
 10
86.32616914074485
 20
-164.4089138043839
 10
86.32616914074485
 20
-164.4089138043839
 10
86.32616914074485
 20
-164.4089138043839
 10
86.10189342465509
 20
-164.4089138043839
 10
86.10189342465509
 20
-164.4089138043839
 97
        0
 97
        0
 75
     2
 76
     1
 98
        0
  0
SPLINE
  5
E9
330
E3
100
AcDbEntity
  8
_U+30EC_U+30A4_U+30E4_U+30FC 1
370
     0
100
AcDbSpline
210
0.0
220
0.0
230
1.0
 70
    11
 71
     3
 72
    44
 73
    40
 74
     0
 42
0.0000000001
 43
0.0000000001
 12
1.0
 22
0.0
 32
0.0
 13
1.0
 23
0.0
 33
0.0
 40
0.0
 40
0.0
 40
0.0
 40
0.0
 40
1.0
 40
1.0
 40
1.0
 40
2.0
 40
2.0
 40
2.0
 40
3.0
 40
3.0
 40
3.0
 40
4.0
 40
4.0
 40
4.0
 40
5.0
 40
5.0
 40
5.0
 40
6.0
 40
6.0
 40
6.0
 40
7.0
 40
7.0
 40
7.0
 40
8.0
 40
8.0
 40
8.0
 40
9.0
 40
9.0
 40
9.0
 40
10.0
 40
10.0
 40
10.0
 40
11.0
 40
11.0
 40
11.0
 40
12.0
 40
12.0
 40
12.0
 40
13.0
 40
13.0
 40
13.0
 40
13.0
 10
87.4203314668602
 20
-163.8273816864737
 30
0.0
 10
87.20260143219241
 20
-163.9858560787952
 30
0.0
 10
87.10958385409066
 20
-164.0602701412766
 30
0.0
 10
87.06066349820011
 20
-164.2039306230115
 30
0.0
 10
87.06066349820011
 20
-164.2039306230115
 30
0.0
 10
87.83925507786658
 20
-164.2039306230115
 30
0.0
 10
87.83925507786658
 20
-164.2039306230115
 30
0.0
 10
87.83925507786658
 20
-164.2039306230115
 30
0.0
 10
87.83925507786658
 20
-164.4089138043839
 30
0.0
 10
87.83925507786658
 20
-164.4089138043839
 30
0.0
 10
87.83925507786658
 20
-164.4089138043839
 30
0.0
 10
86.81123858506803
 20
-164.4089138043839
 30
0.0
 10
86.81123858506803
 20
-164.4089138043839
 30
0.0
 10
86.84293346353233
 20
-164.051312893015
 30
0.0
 10
86.90839027775208
 20
-163.9734537350483
 30
0.0
 10
87.293551953003
 20
-163.6751084660257
 30
0.0
 10
87.54952254755707
 20
-163.4759819469782
 30
0.0
 10
87.61497936177682
 20
-163.4084580754673
 30
0.0
 10
87.61497936177682
 20
-163.2709987656059
 30
0.0
 10
87.61497936177682
 20
-163.1524874809133
 30
0.0
 10
87.54297686613509
 20
-163.0212293429253
 30
0.0
 10
87.34626191392732
 20
-163.0212293429253
 30
0.0
 10
87.08615720479096
 20
-163.0212293429253
 30
0.0
 10
87.07754446607784
 20
-163.252050740437
 30
0.0
 10
87.07341035149554
 20
-163.3684949678384
 30
0.0
 10
87.07341035149554
 20
-163.3684949678384
 30
0.0
 10
86.84913463540578
 20
-163.3684949678384
 30
0.0
 10
86.84913463540578
 20
-163.3684949678384
 30
0.0
 10
86.8577473741189
 20
-163.2413709444327
 30
0.0
 10
86.86842717012317
 20
-163.1294053411621
 30
0.0
 10
86.9486978949295
 20
-163.0108940564695
 30
0.0
 10
87.05859644090897
 20
-162.8500080973083
 30
0.0
 10
87.24497610666099
 20
-162.8159016520044
 30
0.0
 10
87.3610758245139
 20
-162.8159016520044
 30
0.0
 10
87.63840601107651
 20
-162.8159016520044
 30
0.0
 10
87.84580075928855
 20
-163.0002142604652
 30
0.0
 10
87.84580075928855
 20
-163.273065822897
 30
0.0
 10
87.84580075928855
 20
-163.5014756535691
 30
0.0
 10
87.7293565318871
 20
-163.6010389130928
 30
0.0
 10
87.4203314668602
 20
-163.8273816864737
 30
0.0
  0
HATCH
  5
EA
330
E3
100
AcDbEntity
  8
_U+30EC_U+30A4_U+30E4_U+30FC 1
 62
     7
420
 16777215
100
AcDbHatch
 10
0.0
 20
0.0
 30
0.0
210
0.0
220
0.0
230
1.0
  2
SOLID
 70
     1
 71
     0
 91
        1
 92
        1
 93
        1
 72
     4
 94
        3
 73
     0
 74
     1
 95
       44
 96
       40
 40
0.0
 40
0.0
 40
0.0
 40
0.0
 40
1.0
 40
1.0
 40
1.0
 40
2.0
 40
2.0
 40
2.0
 40
3.0
 40
3.0
 40
3.0
 40
4.0
 40
4.0
 40
4.0
 40
5.0
 40
5.0
 40
5.0
 40
6.0
 40
6.0
 40
6.0
 40
7.0
 40
7.0
 40
7.0
 40
8.0
 40
8.0
 40
8.0
 40
9.0
 40
9.0
 40
9.0
 40
10.0
 40
10.0
 40
10.0
 40
11.0
 40
11.0
 40
11.0
 40
12.0
 40
12.0
 40
12.0
 40
13.0
 40
13.0
 40
13.0
 40
13.0
 10
87.4203314668602
 20
-163.8273816864737
 10
87.20260143219241
 20
-163.9858560787952
 10
87.10958385409066
 20
-164.0602701412766
 10
87.06066349820011
 20
-164.2039306230115
 10
87.06066349820011
 20
-164.2039306230115
 10
87.83925507786658
 20
-164.2039306230115
 10
87.83925507786658
 20
-164.2039306230115
 10
87.83925507786658
 20
-164.2039306230115
 10
87.83925507786658
 20
-164.4089138043839
 10
87.83925507786658
 20
-164.4089138043839
 10
87.83925507786658
 20
-164.4089138043839
 10
86.81123858506803
 20
-164.4089138043839
 10
86.81123858506803
 20
-164.4089138043839
 10
86.84293346353233
 20
-164.051312893015
 10
86.90839027775208
 20
-163.9734537350483
 10
87.293551953003
 20
-163.6751084660257
 10
87.54952254755707
 20
-163.4759819469782
 10
87.61497936177682
 20
-163.4084580754673
 10
87.61497936177682
 20
-163.2709987656059
 10
87.61497936177682
 20
-163.1524874809133
 10
87.54297686613509
 20
-163.0212293429253
 10
87.34626191392732
 20
-163.0212293429253
 10
87.08615720479096
 20
-163.0212293429253
 10
87.07754446607784
 20
-163.252050740437
 10
87.07341035149554
 20
-163.3684949678384
 10
87.07341035149554
 20
-163.3684949678384
 10
86.84913463540578
 20
-163.3684949678384
 10
86.84913463540578
 20
-163.3684949678384
 10
86.8577473741189
 20
-163.2413709444327
 10
86.86842717012317
 20
-163.1294053411621
 10
86.9486978949295
 20
-163.0108940564695
 10
87.05859644090897
 20
-162.8500080973083
 10
87.24497610666099
 20
-162.8159016520044
 10
87.3610758245139
 20
-162.8159016520044
 10
87.63840601107651
 20
-162.8159016520044
 10
87.84580075928855
 20
-163.0002142604652
 10
87.84580075928855
 20
-163.273065822897
 10
87.84580075928855
 20
-163.5014756535691
 10
87.7293565318871
 20
-163.6010389130928
 10
87.4203314668602
 20
-163.8273816864737
 97
        0
 97
        0
 75
     2
 76
     1
 98
        0
  0
ENDBLK
  5
E6
330
E3
100
AcDbEntity
  8
0
100
AcDbBlockEnd
  0
BLOCK
  5
ED
330
EB
100
AcDbEntity
  8
0
100
AcDbBlockBegin
  2
block 8
 70
     0
 10
0.0
 20
0.0
 30
0.0
  3
block 8
  1

  0
SPLINE
  5
EF
330
EB
100
AcDbEntity
  8
_U+30EC_U+30A4_U+30E4_U+30FC 1
370
     0
100
AcDbSpline
210
0.0
220
0.0
230
1.0
 70
    11
 71
     3
 72
    62
 73
    58
 74
     0
 42
0.0000000001
 43
0.0000000001
 12
1.0
 22
0.0
 32
0.0
 13
1.0
 23
0.0
 33
0.0
 40
0.0
 40
0.0
 40
0.0
 40
0.0
 40
1.0
 40
1.0
 40
1.0
 40
2.0
 40
2.0
 40
2.0
 40
3.0
 40
3.0
 40
3.0
 40
4.0
 40
4.0
 40
4.0
 40
5.0
 40
5.0
 40
5.0
 40
6.0
 40
6.0
 40
6.0
 40
7.0
 40
7.0
 40
7.0
 40
8.0
 40
8.0
 40
8.0
 40
9.0
 40
9.0
 40
9.0
 40
10.0
 40
10.0
 40
10.0
 40
11.0
 40
11.0
 40
11.0
 40
12.0
 40
12.0
 40
12.0
 40
13.0
 40
13.0
 40
13.0
 40
14.0
 40
14.0
 40
14.0
 40
15.0
 40
15.0
 40
15.0
 40
16.0
 40
16.0
 40
16.0
 40
17.0
 40
17.0
 40
17.0
 40
18.0
 40
18.0
 40
18.0
 40
19.0
 40
19.0
 40
19.0
 40
19.0
 10
82.2258164942005
 20
-121.8995361023376
 30
0.0
 10
82.13038734925907
 20
-121.8995361023376
 30
0.0
 10
81.91265731459129
 20
-121.8783487651033
 30
0.0
 10
81.78760034847672
 20
-121.6921413541256
 30
0.0
 10
81.71353079554385
 20
-121.5800034960807
 30
0.0
 10
81.70939668096155
 20
-121.4806124913312
 30
0.0
 10
81.70526256637925
 20
-121.3960353971684
 30
0.0
 10
81.70526256637925
 20
-121.3960353971684
 30
0.0
 10
81.92540416788671
 20
-121.3960353971684
 30
0.0
 10
81.92540416788671
 20
-121.3960353971684
 30
0.0
 10
81.92747122517785
 20
-121.4701049501012
 30
0.0
 10
81.93780651163361
 20
-121.704888207421
 30
0.0
 10
82.22133787006968
 20
-121.704888207421
 30
0.0
 10
82.35879717993114
 20
-121.704888207421
 30
0.0
 10
82.51141490992771
 20
-121.6351250238447
 30
0.0
 10
82.51141490992771
 20
-121.4065429383984
 30
0.0
 10
82.51141490992771
 20
-121.2902709657712
 30
0.0
 10
82.47317435004143
 20
-121.2415228646549
 30
0.0
 10
82.44147947157714
 20
-121.2098279861906
 30
0.0
 10
82.36740991864426
 20
-121.1357584332577
 30
0.0
 10
82.25096569124281
 20
-121.1231838347366
 30
0.0
 10
82.19618867302735
 20
-121.1231838347366
 30
0.0
 10
82.17689613830994
 20
-121.1231838347366
 30
0.0
 10
82.14106714526335
 20
-121.1252508920277
 30
0.0
 10
82.11350638138136
 20
-121.12938500661
 30
0.0
 10
82.11350638138136
 20
-121.12938500661
 30
0.0
 10
82.11350638138136
 20
-120.9349093664677
 30
0.0
 10
82.11350638138136
 20
-120.9349093664677
 30
0.0
 10
82.15174694126762
 20
-120.9411105383411
 30
0.0
 10
82.19377710618767
 20
-120.9433498504065
 30
0.0
 10
82.20032278760965
 20
-120.9433498504065
 30
0.0
 10
82.2657796018294
 20
-120.9433498504065
 30
0.0
 10
82.4645616113283
 20
-120.9221625131722
 30
0.0
 10
82.4645616113283
 20
-120.685139943787
 30
0.0
 10
82.4645616113283
 20
-120.5075452715224
 30
0.0
 10
82.33364798288882
 20
-120.4524237437584
 30
0.0
 10
82.22340492736082
 20
-120.4524237437584
 30
0.0
 10
81.95916610364216
 20
-120.4524237437584
 30
0.0
 10
81.95055336492904
 20
-120.685139943787
 30
0.0
 10
81.94641925034674
 20
-120.7571424394288
 30
0.0
 10
81.94641925034674
 20
-120.7571424394288
 30
0.0
 10
81.743158616717
 20
-120.7571424394288
 30
0.0
 10
81.743158616717
 20
-120.7571424394288
 30
0.0
 10
81.75177135543012
 20
-120.6322577280885
 30
0.0
 10
81.77933211931212
 20
-120.2557087915507
 30
0.0
 10
82.23615178065624
 20
-120.2557087915507
 30
0.0
 10
82.46042749674601
 20
-120.2557087915507
 30
0.0
 10
82.7015841807135
 20
-120.3826605601821
 30
0.0
 10
82.7015841807135
 20
-120.6787665171393
 30
0.0
 10
82.7015841807135
 20
-120.8649739281171
 30
0.0
 10
82.6064995453206
 20
-120.9474839649888
 30
0.0
 10
82.50693628579688
 20
-121.0088066646263
 30
0.0
 10
82.56825898543433
 20
-121.0363674285083
 30
0.0
 10
82.75016002705551
 20
-121.1168104080889
 30
0.0
 10
82.75016002705551
 20
-121.3939683398772
 30
0.0
 10
82.75016002705551
 20
-121.732448971303
 30
0.0
 10
82.50280217121458
 20
-121.8995361023376
 30
0.0
 10
82.2258164942005
 20
-121.8995361023376
 30
0.0
  0
HATCH
  5
F0
330
EB
100
AcDbEntity
  8
_U+30EC_U+30A4_U+30E4_U+30FC 1
 62
     7
420
 16777215
100
AcDbHatch
 10
0.0
 20
0.0
 30
0.0
210
0.0
220
0.0
230
1.0
  2
SOLID
 70
     1
 71
     0
 91
        1
 92
        1
 93
        1
 72
     4
 94
        3
 73
     0
 74
     1
 95
       62
 96
       58
 40
0.0
 40
0.0
 40
0.0
 40
0.0
 40
1.0
 40
1.0
 40
1.0
 40
2.0
 40
2.0
 40
2.0
 40
3.0
 40
3.0
 40
3.0
 40
4.0
 40
4.0
 40
4.0
 40
5.0
 40
5.0
 40
5.0
 40
6.0
 40
6.0
 40
6.0
 40
7.0
 40
7.0
 40
7.0
 40
8.0
 40
8.0
 40
8.0
 40
9.0
 40
9.0
 40
9.0
 40
10.0
 40
10.0
 40
10.0
 40
11.0
 40
11.0
 40
11.0
 40
12.0
 40
12.0
 40
12.0
 40
13.0
 40
13.0
 40
13.0
 40
14.0
 40
14.0
 40
14.0
 40
15.0
 40
15.0
 40
15.0
 40
16.0
 40
16.0
 40
16.0
 40
17.0
 40
17.0
 40
17.0
 40
18.0
 40
18.0
 40
18.0
 40
19.0
 40
19.0
 40
19.0
 40
19.0
 10
82.2258164942005
 20
-121.8995361023376
 10
82.13038734925907
 20
-121.8995361023376
 10
81.91265731459129
 20
-121.8783487651033
 10
81.78760034847672
 20
-121.6921413541256
 10
81.71353079554385
 20
-121.5800034960807
 10
81.70939668096155
 20
-121.4806124913312
 10
81.70526256637925
 20
-121.3960353971684
 10
81.70526256637925
 20
-121.3960353971684
 10
81.92540416788671
 20
-121.3960353971684
 10
81.92540416788671
 20
-121.3960353971684
 10
81.92747122517785
 20
-121.4701049501012
 10
81.93780651163361
 20
-121.704888207421
 10
82.22133787006968
 20
-121.704888207421
 10
82.35879717993114
 20
-121.704888207421
 10
82.51141490992771
 20
-121.6351250238447
 10
82.51141490992771
 20
-121.4065429383984
 10
82.51141490992771
 20
-121.2902709657712
 10
82.47317435004143
 20
-121.2415228646549
 10
82.44147947157714
 20
-121.2098279861906
 10
82.36740991864426
 20
-121.1357584332577
 10
82.25096569124281
 20
-121.1231838347366
 10
82.19618867302735
 20
-121.1231838347366
 10
82.17689613830994
 20
-121.1231838347366
 10
82.14106714526335
 20
-121.1252508920277
 10
82.11350638138136
 20
-121.12938500661
 10
82.11350638138136
 20
-121.12938500661
 10
82.11350638138136
 20
-120.9349093664677
 10
82.11350638138136
 20
-120.9349093664677
 10
82.15174694126762
 20
-120.9411105383411
 10
82.19377710618767
 20
-120.9433498504065
 10
82.20032278760965
 20
-120.9433498504065
 10
82.2657796018294
 20
-120.9433498504065
 10
82.4645616113283
 20
-120.9221625131722
 10
82.4645616113283
 20
-120.685139943787
 10
82.4645616113283
 20
-120.5075452715224
 10
82.33364798288882
 20
-120.4524237437584
 10
82.22340492736082
 20
-120.4524237437584
 10
81.95916610364216
 20
-120.4524237437584
 10
81.95055336492904
 20
-120.685139943787
 10
81.94641925034674
 20
-120.7571424394288
 10
81.94641925034674
 20
-120.7571424394288
 10
81.743158616717
 20
-120.7571424394288
 10
81.743158616717
 20
-120.7571424394288
 10
81.75177135543012
 20
-120.6322577280885
 10
81.77933211931212
 20
-120.2557087915507
 10
82.23615178065624
 20
-120.2557087915507
 10
82.46042749674601
 20
-120.2557087915507
 10
82.7015841807135
 20
-120.3826605601821
 10
82.7015841807135
 20
-120.6787665171393
 10
82.7015841807135
 20
-120.8649739281171
 10
82.6064995453206
 20
-120.9474839649888
 10
82.50693628579688
 20
-121.0088066646263
 10
82.56825898543433
 20
-121.0363674285083
 10
82.75016002705551
 20
-121.1168104080889
 10
82.75016002705551
 20
-121.3939683398772
 10
82.75016002705551
 20
-121.732448971303
 10
82.50280217121458
 20
-121.8995361023376
 10
82.2258164942005
 20
-121.8995361023376
 97
        0
 97
        0
 75
     2
 76
     1
 98
        0
  0
ENDBLK
  5
EE
330
EB
100
AcDbEntity
  8
0
100
AcDbBlockEnd
  0
BLOCK
  5
F3
330
F1
100
AcDbEntity
  8
0
100
AcDbBlockBegin
  2
block 9
 70
     0
 10
0.0
 20
0.0
 30
0.0
  3
block 9
  1

  0
SPLINE
  5
F5
330
F1
100
AcDbEntity
  8
_U+30EC_U+30A4_U+30E4_U+30FC 1
370
     0
100
AcDbSpline
210
0.0
220
0.0
230
1.0
 70
    11
 71
     3
 72
    26
 73
    22
 74
     0
 42
0.0000000001
 43
0.0000000001
 12
1.0
 22
0.0
 32
0.0
 13
1.0
 23
0.0
 33
0.0
 40
0.0
 40
0.0
 40
0.0
 40
0.0
 40
1.0
 40
1.0
 40
1.0
 40
2.0
 40
2.0
 40
2.0
 40
3.0
 40
3.0
 40
3.0
 40
4.0
 40
4.0
 40
4.0
 40
5.0
 40
5.0
 40
5.0
 40
6.0
 40
6.0
 40
6.0
 40
7.0
 40
7.0
 40
7.0
 40
7.0
 10
94.19786781499221
 20
-93.7184827782197
 30
0.0
 10
94.19786781499221
 20
-93.7184827782197
 30
0.0
 10
94.19786781499221
 20
-92.61415742042286
 30
0.0
 10
94.19786781499221
 20
-92.61415742042286
 30
0.0
 10
94.19786781499221
 20
-92.61415742042286
 30
0.0
 10
93.86782766750527
 20
-92.61415742042286
 30
0.0
 10
93.86782766750527
 20
-92.61415742042286
 30
0.0
 10
93.86782766750527
 20
-92.61415742042286
 30
0.0
 10
93.86782766750527
 20
-92.4660183145571
 30
0.0
 10
93.86782766750527
 20
-92.4660183145571
 30
0.0
 10
94.19993487228335
 20
-92.4513766587448
 30
0.0
 10
94.24644366133423
 20
-92.28842364229249
 30
0.0
 10
94.27607148250738
 20
-92.17421872695645
 30
0.0
 10
94.27607148250738
 20
-92.17421872695645
 30
0.0
 10
94.42214353108197
 20
-92.17421872695645
 30
0.0
 10
94.42214353108197
 20
-92.17421872695645
 30
0.0
 10
94.42214353108197
 20
-92.17421872695645
 30
0.0
 10
94.42214353108197
 20
-93.7184827782197
 30
0.0
 10
94.42214353108197
 20
-93.7184827782197
 30
0.0
 10
94.42214353108197
 20
-93.7184827782197
 30
0.0
 10
94.19786781499221
 20
-93.7184827782197
 30
0.0
 10
94.19786781499221
 20
-93.7184827782197
 30
0.0
  0
HATCH
  5
F6
330
F1
100
AcDbEntity
  8
_U+30EC_U+30A4_U+30E4_U+30FC 1
 62
     7
420
 16777215
100
AcDbHatch
 10
0.0
 20
0.0
 30
0.0
210
0.0
220
0.0
230
1.0
  2
SOLID
 70
     1
 71
     0
 91
        1
 92
        1
 93
        1
 72
     4
 94
        3
 73
     0
 74
     1
 95
       26
 96
       22
 40
0.0
 40
0.0
 40
0.0
 40
0.0
 40
1.0
 40
1.0
 40
1.0
 40
2.0
 40
2.0
 40
2.0
 40
3.0
 40
3.0
 40
3.0
 40
4.0
 40
4.0
 40
4.0
 40
5.0
 40
5.0
 40
5.0
 40
6.0
 40
6.0
 40
6.0
 40
7.0
 40
7.0
 40
7.0
 40
7.0
 10
94.19786781499221
 20
-93.7184827782197
 10
94.19786781499221
 20
-93.7184827782197
 10
94.19786781499221
 20
-92.61415742042286
 10
94.19786781499221
 20
-92.61415742042286
 10
94.19786781499221
 20
-92.61415742042286
 10
93.86782766750527
 20
-92.61415742042286
 10
93.86782766750527
 20
-92.61415742042286
 10
93.86782766750527
 20
-92.61415742042286
 10
93.86782766750527
 20
-92.4660183145571
 10
93.86782766750527
 20
-92.4660183145571
 10
94.19993487228335
 20
-92.4513766587448
 10
94.24644366133423
 20
-92.28842364229249
 10
94.27607148250738
 20
-92.17421872695645
 10
94.27607148250738
 20
-92.17421872695645
 10
94.42214353108197
 20
-92.17421872695645
 10
94.42214353108197
 20
-92.17421872695645
 10
94.42214353108197
 20
-92.17421872695645
 10
94.42214353108197
 20
-93.7184827782197
 10
94.42214353108197
 20
-93.7184827782197
 10
94.42214353108197
 20
-93.7184827782197
 10
94.19786781499221
 20
-93.7184827782197
 10
94.19786781499221
 20
-93.7184827782197
 97
        0
 97
        0
 75
     2
 76
     1
 98
        0
  0
ENDBLK
  5
F4
330
F1
100
AcDbEntity
  8
0
100
AcDbBlockEnd
  0
BLOCK
  5
F9
330
F7
100
AcDbEntity
  8
0
100
AcDbBlockBegin
  2
block 10
 70
     0
 10
0.0
 20
0.0
 30
0.0
  3
block 10
  1

  0
SPLINE
  5
FB
330
F7
100
AcDbEntity
  8
_U+30EC_U+30A4_U+30E4_U+30FC 1
370
     0
100
AcDbSpline
210
0.0
220
0.0
230
1.0
 70
    11
 71
     3
 72
    26
 73
    22
 74
     0
 42
0.0000000001
 43
0.0000000001
 12
1.0
 22
0.0
 32
0.0
 13
1.0
 23
0.0
 33
0.0
 40
0.0
 40
0.0
 40
0.0
 40
0.0
 40
1.0
 40
1.0
 40
1.0
 40
2.0
 40
2.0
 40
2.0
 40
3.0
 40
3.0
 40
3.0
 40
4.0
 40
4.0
 40
4.0
 40
5.0
 40
5.0
 40
5.0
 40
6.0
 40
6.0
 40
6.0
 40
7.0
 40
7.0
 40
7.0
 40
7.0
 10
88.33018118451469
 20
-121.8487209439302
 30
0.0
 10
88.33018118451469
 20
-121.8487209439302
 30
0.0
 10
88.33018118451469
 20
-120.7443955861334
 30
0.0
 10
88.33018118451469
 20
-120.7443955861334
 30
0.0
 10
88.33018118451469
 20
-120.7443955861334
 30
0.0
 10
88.00014103702775
 20
-120.7443955861334
 30
0.0
 10
88.00014103702775
 20
-120.7443955861334
 30
0.0
 10
88.00014103702775
 20
-120.7443955861334
 30
0.0
 10
88.00014103702775
 20
-120.5962564802676
 30
0.0
 10
88.00014103702775
 20
-120.5962564802676
 30
0.0
 10
88.33224824180583
 20
-120.5816148244553
 30
0.0
 10
88.3787570308567
 20
-120.418661808003
 30
0.0
 10
88.40838485202985
 20
-120.3044568926669
 30
0.0
 10
88.40838485202985
 20
-120.3044568926669
 30
0.0
 10
88.55445690060445
 20
-120.3044568926669
 30
0.0
 10
88.55445690060445
 20
-120.3044568926669
 30
0.0
 10
88.55445690060445
 20
-120.3044568926669
 30
0.0
 10
88.55445690060445
 20
-121.8487209439302
 30
0.0
 10
88.55445690060445
 20
-121.8487209439302
 30
0.0
 10
88.55445690060445
 20
-121.8487209439302
 30
0.0
 10
88.33018118451469
 20
-121.8487209439302
 30
0.0
 10
88.33018118451469
 20
-121.8487209439302
 30
0.0
  0
HATCH
  5
FC
330
F7
100
AcDbEntity
  8
_U+30EC_U+30A4_U+30E4_U+30FC 1
 62
     7
420
 16777215
100
AcDbHatch
 10
0.0
 20
0.0
 30
0.0
210
0.0
220
0.0
230
1.0
  2
SOLID
 70
     1
 71
     0
 91
        1
 92
        1
 93
        1
 72
     4
 94
        3
 73
     0
 74
     1
 95
       26
 96
       22
 40
0.0
 40
0.0
 40
0.0
 40
0.0
 40
1.0
 40
1.0
 40
1.0
 40
2.0
 40
2.0
 40
2.0
 40
3.0
 40
3.0
 40
3.0
 40
4.0
 40
4.0
 40
4.0
 40
5.0
 40
5.0
 40
5.0
 40
6.0
 40
6.0
 40
6.0
 40
7.0
 40
7.0
 40
7.0
 40
7.0
 10
88.33018118451469
 20
-121.8487209439302
 10
88.33018118451469
 20
-121.8487209439302
 10
88.33018118451469
 20
-120.7443955861334
 10
88.33018118451469
 20
-120.7443955861334
 10
88.33018118451469
 20
-120.7443955861334
 10
88.00014103702775
 20
-120.7443955861334
 10
88.00014103702775
 20
-120.7443955861334
 10
88.00014103702775
 20
-120.7443955861334
 10
88.00014103702775
 20
-120.5962564802676
 10
88.00014103702775
 20
-120.5962564802676
 10
88.33224824180583
 20
-120.5816148244553
 10
88.3787570308567
 20
-120.418661808003
 10
88.40838485202985
 20
-120.3044568926669
 10
88.40838485202985
 20
-120.3044568926669
 10
88.55445690060445
 20
-120.3044568926669
 10
88.55445690060445
 20
-120.3044568926669
 10
88.55445690060445
 20
-120.3044568926669
 10
88.55445690060445
 20
-121.8487209439302
 10
88.55445690060445
 20
-121.8487209439302
 10
88.55445690060445
 20
-121.8487209439302
 10
88.33018118451469
 20
-121.8487209439302
 10
88.33018118451469
 20
-121.8487209439302
 97
        0
 97
        0
 75
     2
 76
     1
 98
        0
  0
SPLINE
  5
FD
330
F7
100
AcDbEntity
  8
_U+30EC_U+30A4_U+30E4_U+30FC 1
370
     0
100
AcDbSpline
210
0.0
220
0.0
230
1.0
 70
    11
 71
     3
 72
    29
 73
    25
 74
     0
 42
0.0000000001
 43
0.0000000001
 12
1.0
 22
0.0
 32
0.0
 13
1.0
 23
0.0
 33
0.0
 40
0.0
 40
0.0
 40
0.0
 40
0.0
 40
1.0
 40
1.0
 40
1.0
 40
2.0
 40
2.0
 40
2.0
 40
3.0
 40
3.0
 40
3.0
 40
4.0
 40
4.0
 40
4.0
 40
5.0
 40
5.0
 40
5.0
 40
6.0
 40
6.0
 40
6.0
 40
7.0
 40
7.0
 40
7.0
 40
8.0
 40
8.0
 40
8.0
 40
8.0
 10
89.9535101771644
 20
-121.6709540168913
 30
0.0
 10
89.84533417892756
 20
-121.8804158223945
 30
0.0
 10
89.6720458760195
 20
-121.8995361023376
 30
0.0
 10
89.55560164861805
 20
-121.8995361023376
 30
0.0
 10
89.39471568945689
 20
-121.8995361023376
 30
0.0
 10
89.25312226501312
 20
-121.8530273132867
 30
0.0
 10
89.15803762962021
 20
-121.6709540168913
 30
0.0
 10
89.05434025551419
 20
-121.4764783767489
 30
0.0
 10
89.0350477207968
 20
-121.2394558073638
 30
0.0
 10
89.0350477207968
 20
-121.0765027909114
 30
0.0
 10
89.0350477207968
 20
-120.9326700544023
 30
0.0
 10
89.05227319822305
 20
-120.6810058292048
 30
0.0
 10
89.15803762962021
 20
-120.4820515649316
 30
0.0
 10
89.26586911830854
 20
-120.2789631860761
 30
0.0
 10
89.4267550774697
 20
-120.2557087915507
 30
0.0
 10
89.55560164861805
 20
-120.2557087915507
 30
0.0
 10
89.71442055048807
 20
-120.2557087915507
 30
0.0
 10
89.85808103222298
 20
-120.3001505233104
 30
0.0
 10
89.9535101771644
 20
-120.4820515649316
 30
0.0
 10
90.0527289271396
 20
-120.674632402557
 30
0.0
 10
90.0761555764393
 20
-120.9030422332291
 30
0.0
 10
90.0761555764393
 20
-121.0765027909114
 30
0.0
 10
90.0761555764393
 20
-121.2478962913026
 30
0.0
 10
90.05479598443075
 20
-121.4785454340401
 30
0.0
 10
89.9535101771644
 20
-121.6709540168913
 30
0.0
  0
SPLINE
  5
FE
330
F7
100
AcDbEntity
  8
_U+30EC_U+30A4_U+30E4_U+30FC 1
370
     0
100
AcDbSpline
210
0.0
220
0.0
230
1.0
 70
    11
 71
     3
 72
    17
 73
    13
 74
     0
 42
0.0000000001
 43
0.0000000001
 12
1.0
 22
0.0
 32
0.0
 13
1.0
 23
0.0
 33
0.0
 40
0.0
 40
0.0
 40
0.0
 40
0.0
 40
1.0
 40
1.0
 40
1.0
 40
2.0
 40
2.0
 40
2.0
 40
3.0
 40
3.0
 40
3.0
 40
4.0
 40
4.0
 40
4.0
 40
4.0
 10
89.55560164861805
 20
-120.4482896291761
 30
0.0
 10
89.30583222593744
 20
-120.4482896291761
 30
0.0
 10
89.25932343688656
 20
-120.7316487328379
 30
0.0
 10
89.25932343688656
 20
-121.0765027909114
 30
0.0
 10
89.25932343688656
 20
-121.3960353971684
 30
0.0
 10
89.29549693948168
 20
-121.704888207421
 30
0.0
 10
89.55560164861805
 20
-121.704888207421
 30
0.0
 10
89.80330401400751
 20
-121.704888207421
 30
0.0
 10
89.85187986034954
 20
-121.4234239062761
 30
0.0
 10
89.85187986034954
 20
-121.0765027909114
 30
0.0
 10
89.85187986034954
 20
-120.7571424394288
 30
0.0
 10
89.81363930046327
 20
-120.4482896291761
 30
0.0
 10
89.55560164861805
 20
-120.4482896291761
 30
0.0
  0
HATCH
  5
FF
330
F7
100
AcDbEntity
  8
_U+30EC_U+30A4_U+30E4_U+30FC 1
 62
     7
420
 16777215
100
AcDbHatch
 10
0.0
 20
0.0
 30
0.0
210
0.0
220
0.0
230
1.0
  2
SOLID
 70
     1
 71
     0
 91
        2
 92
        1
 93
        1
 72
     4
 94
        3
 73
     0
 74
     1
 95
       29
 96
       25
 40
0.0
 40
0.0
 40
0.0
 40
0.0
 40
1.0
 40
1.0
 40
1.0
 40
2.0
 40
2.0
 40
2.0
 40
3.0
 40
3.0
 40
3.0
 40
4.0
 40
4.0
 40
4.0
 40
5.0
 40
5.0
 40
5.0
 40
6.0
 40
6.0
 40
6.0
 40
7.0
 40
7.0
 40
7.0
 40
8.0
 40
8.0
 40
8.0
 40
8.0
 10
89.9535101771644
 20
-121.6709540168913
 10
89.84533417892756
 20
-121.8804158223945
 10
89.6720458760195
 20
-121.8995361023376
 10
89.55560164861805
 20
-121.8995361023376
 10
89.39471568945689
 20
-121.8995361023376
 10
89.25312226501312
 20
-121.8530273132867
 10
89.15803762962021
 20
-121.6709540168913
 10
89.05434025551419
 20
-121.4764783767489
 10
89.0350477207968
 20
-121.2394558073638
 10
89.0350477207968
 20
-121.0765027909114
 10
89.0350477207968
 20
-120.9326700544023
 10
89.05227319822305
 20
-120.6810058292048
 10
89.15803762962021
 20
-120.4820515649316
 10
89.26586911830854
 20
-120.2789631860761
 10
89.4267550774697
 20
-120.2557087915507
 10
89.55560164861805
 20
-120.2557087915507
 10
89.71442055048807
 20
-120.2557087915507
 10
89.85808103222298
 20
-120.3001505233104
 10
89.9535101771644
 20
-120.4820515649316
 10
90.0527289271396
 20
-120.674632402557
 10
90.0761555764393
 20
-120.9030422332291
 10
90.0761555764393
 20
-121.0765027909114
 10
90.0761555764393
 20
-121.2478962913026
 10
90.05479598443075
 20
-121.4785454340401
 10
89.9535101771644
 20
-121.6709540168913
 97
        0
 97
        0
 92
        1
 93
        1
 72
     4
 94
        3
 73
     0
 74
     1
 95
       17
 96
       13
 40
0.0
 40
0.0
 40
0.0
 40
0.0
 40
1.0
 40
1.0
 40
1.0
 40
2.0
 40
2.0
 40
2.0
 40
3.0
 40
3.0
 40
3.0
 40
4.0
 40
4.0
 40
4.0
 40
4.0
 10
89.55560164861805
 20
-120.4482896291761
 10
89.30583222593744
 20
-120.4482896291761
 10
89.25932343688656
 20
-120.7316487328379
 10
89.25932343688656
 20
-121.0765027909114
 10
89.25932343688656
 20
-121.3960353971684
 10
89.29549693948168
 20
-121.704888207421
 10
89.55560164861805
 20
-121.704888207421
 10
89.80330401400751
 20
-121.704888207421
 10
89.85187986034954
 20
-121.4234239062761
 10
89.85187986034954
 20
-121.0765027909114
 10
89.85187986034954
 20
-120.7571424394288
 10
89.81363930046327
 20
-120.4482896291761
 10
89.55560164861805
 20
-120.4482896291761
 97
        0
 97
        0
 75
     2
 76
     1
 98
        0
  0
ENDBLK
  5
FA
330
F7
100
AcDbEntity
  8
0
100
AcDbBlockEnd
  0
ENDSEC
  0
SECTION
  2
ENTITIES
  0
POLYLINE
  5
41
330
1F
100
AcDbEntity
  8
_U+30EC_U+30A4_U+30E4_U+30FC 1
 62
     7
420
 16777215
370
    25
100
AcDb2dPolyline
 66
     1
 10
0.0
 20
0.0
 30
0.0
  0
VERTEX
  5
42
330
41
100
AcDbEntity
  8
_U+30EC_U+30A4_U+30E4_U+30FC 1
 62
     7
420
 16777215
370
    25
100
AcDbVertex
100
AcDb2dVertex
 10
94.73391897202526
 20
-146.3307757967503
 30
0.0
  0
VERTEX
  5
43
330
41
100
AcDbEntity
  8
_U+30EC_U+30A4_U+30E4_U+30FC 1
 62
     7
420
 16777215
370
    25
100
AcDbVertex
100
AcDb2dVertex
 10
94.73391897202526
 20
-98.33059664208398
 30
0.0
  0
VERTEX
  5
44
330
41
100
AcDbEntity
  8
_U+30EC_U+30A4_U+30E4_U+30FC 1
 62
     7
420
 16777215
370
    25
100
AcDbVertex
100
AcDb2dVertex
 10
93.73414677530936
 20
-98.33059664208398
 30
0.0
  0
VERTEX
  5
45
330
41
100
AcDbEntity
  8
_U+30EC_U+30A4_U+30E4_U+30FC 1
 62
     7
420
 16777215
370
    25
100
AcDbVertex
100
AcDb2dVertex
 10
93.73414677530936
 20
-145.3310035747785
 30
0.0
  0
VERTEX
  5
46
330
41
100
AcDbEntity
  8
_U+30EC_U+30A4_U+30E4_U+30FC 1
 62
     7
420
 16777215
370
    25
100
AcDbVertex
100
AcDb2dVertex
 10
81.73419930367574
 20
-145.3310035747785
 30
0.0
  0
VERTEX
  5
47
330
41
100
AcDbEntity
  8
_U+30EC_U+30A4_U+30E4_U+30FC 1
 62
     7
420
 16777215
370
    25
100
AcDbVertex
100
AcDb2dVertex
 10
81.73419930367574
 20
-137.3304621878896
 30
0.0
  0
VERTEX
  5
48
330
41
100
AcDbEntity
  8
_U+30EC_U+30A4_U+30E4_U+30FC 1
 62
     7
420
 16777215
370
    25
100
AcDbVertex
100
AcDb2dVertex
 10
83.73441397486823
 20
-137.3304621878896
 30
0.0
  0
VERTEX
  5
49
330
41
100
AcDbEntity
  8
_U+30EC_U+30A4_U+30E4_U+30FC 1
 62
     7
420
 16777215
370
    25
100
AcDbVertex
100
AcDb2dVertex
 10
83.73441397486823
 20
-136.330689965917
 30
0.0
  0
VERTEX
  5
4A
330
41
100
AcDbEntity
  8
_U+30EC_U+30A4_U+30E4_U+30FC 1
 62
     7
420
 16777215
370
    25
100
AcDbVertex
100
AcDb2dVertex
 10
81.73419930367574
 20
-136.330689965917
 30
0.0
  0
VERTEX
  5
4B
330
41
100
AcDbEntity
  8
_U+30EC_U+30A4_U+30E4_U+30FC 1
 62
     7
420
 16777215
370
    25
100
AcDbVertex
100
AcDb2dVertex
 10
80.73442710695984
 20
-136.330689965917
 30
0.0
  0
VERTEX
  5
4C
330
41
100
AcDbEntity
  8
_U+30EC_U+30A4_U+30E4_U+30FC 1
 62
     7
420
 16777215
370
    25
100
AcDbVertex
100
AcDb2dVertex
 10
80.73442710695984
 20
-137.3304621878896
 30
0.0
  0
VERTEX
  5
4D
330
41
100
AcDbEntity
  8
_U+30EC_U+30A4_U+30E4_U+30FC 1
 62
     7
420
 16777215
370
    25
100
AcDbVertex
100
AcDb2dVertex
 10
80.73442710695984
 20
-145.3310035747785
 30
0.0
  0
VERTEX
  5
4E
330
41
100
AcDbEntity
  8
_U+30EC_U+30A4_U+30E4_U+30FC 1
 62
     7
420
 16777215
370
    25
100
AcDbVertex
100
AcDb2dVertex
 10
80.73442710695984
 20
-146.3307757967503
 30
0.0
  0
VERTEX
  5
4F
330
41
100
AcDbEntity
  8
_U+30EC_U+30A4_U+30E4_U+30FC 1
 62
     7
420
 16777215
370
    25
100
AcDbVertex
100
AcDb2dVertex
 10
81.73419930367574
 20
-146.3307757967503
 30
0.0
  0
VERTEX
  5
50
330
41
100
AcDbEntity
  8
_U+30EC_U+30A4_U+30E4_U+30FC 1
 62
     7
420
 16777215
370
    25
100
AcDbVertex
100
AcDb2dVertex
 10
90.73451268516973
 20
-146.3307757967503
 30
0.0
  0
VERTEX
  5
51
330
41
100
AcDbEntity
  8
_U+30EC_U+30A4_U+30E4_U+30FC 1
 62
     7
420
 16777215
370
    25
100
AcDbVertex
100
AcDb2dVertex
 10
91.73428488188564
 20
-146.3307757967503
 30
0.0
  0
VERTEX
  5
52
330
41
100
AcDbEntity
  8
_U+30EC_U+30A4_U+30E4_U+30FC 1
 62
     7
420
 16777215
370
    25
100
AcDbVertex
100
AcDb2dVertex
 10
92.73472735636223
 20
-146.3307757967503
 30
0.0
  0
VERTEX
  5
53
330
41
100
AcDbEntity
  8
_U+30EC_U+30A4_U+30E4_U+30FC 1
 62
     7
420
 16777215
370
    25
100
AcDbVertex
100
AcDb2dVertex
 10
92.73472735636223
 20
-157.3313041273336
 30
0.0
  0
VERTEX
  5
54
330
41
100
AcDbEntity
  8
_U+30EC_U+30A4_U+30E4_U+30FC 1
 62
     7
420
 16777215
370
    25
100
AcDbVertex
100
AcDb2dVertex
 10
92.73472735636223
 20
-158.3310763493061
 30
0.0
  0
VERTEX
  5
55
330
41
100
AcDbEntity
  8
_U+30EC_U+30A4_U+30E4_U+30FC 1
 62
     7
420
 16777215
370
    25
100
AcDbVertex
100
AcDb2dVertex
 10
93.73449955307814
 20
-158.3310763493061
 30
0.0
  0
VERTEX
  5
56
330
41
100
AcDbEntity
  8
_U+30EC_U+30A4_U+30E4_U+30FC 1
 62
     7
420
 16777215
370
    25
100
AcDbVertex
100
AcDb2dVertex
 10
101.7346879600874
 20
-158.3310763493061
 30
0.0
  0
VERTEX
  5
57
330
41
100
AcDbEntity
  8
_U+30EC_U+30A4_U+30E4_U+30FC 1
 62
     7
420
 16777215
370
    25
100
AcDbVertex
100
AcDb2dVertex
 10
102.7344601568033
 20
-158.3310763493061
 30
0.0
  0
VERTEX
  5
58
330
41
100
AcDbEntity
  8
_U+30EC_U+30A4_U+30E4_U+30FC 1
 62
     7
420
 16777215
370
    25
100
AcDbVertex
100
AcDb2dVertex
 10
102.7344601568033
 20
-157.3313041273336
 30
0.0
  0
VERTEX
  5
59
330
41
100
AcDbEntity
  8
_U+30EC_U+30A4_U+30E4_U+30FC 1
 62
     7
420
 16777215
370
    25
100
AcDbVertex
100
AcDb2dVertex
 10
102.7344601568033
 20
-155.3310894056118
 30
0.0
  0
VERTEX
  5
5A
330
41
100
AcDbEntity
  8
_U+30EC_U+30A4_U+30E4_U+30FC 1
 62
     7
420
 16777215
370
    25
100
AcDbVertex
100
AcDb2dVertex
 10
101.7346879600874
 20
-155.3310894056118
 30
0.0
  0
VERTEX
  5
5B
330
41
100
AcDbEntity
  8
_U+30EC_U+30A4_U+30E4_U+30FC 1
 62
     7
420
 16777215
370
    25
100
AcDbVertex
100
AcDb2dVertex
 10
101.7346879600874
 20
-157.3313041273336
 30
0.0
  0
VERTEX
  5
5C
330
41
100
AcDbEntity
  8
_U+30EC_U+30A4_U+30E4_U+30FC 1
 62
     7
420
 16777215
370
    25
100
AcDbVertex
100
AcDb2dVertex
 10
93.73449955307814
 20
-157.3313041273336
 30
0.0
  0
VERTEX
  5
5D
330
41
100
AcDbEntity
  8
_U+30EC_U+30A4_U+30E4_U+30FC 1
 62
     7
420
 16777215
370
    25
100
AcDbVertex
100
AcDb2dVertex
 10
93.73449955307814
 20
-146.3307757967503
 30
0.0
  0
VERTEX
  5
5E
330
41
100
AcDbEntity
  8
_U+30EC_U+30A4_U+30E4_U+30FC 1
 62
     7
420
 16777215
370
    25
100
AcDbVertex
100
AcDb2dVertex
 10
94.73391897202526
 20
-146.3307757967503
 30
0.0
  0
SEQEND
  5
60
330
41
100
AcDbEntity
  8
_U+30EC_U+30A4_U+30E4_U+30FC 1
 62
     7
420
 16777215
370
    25
  0
HATCH
  5
5F
330
1F
100
AcDbEntity
  8
_U+30EC_U+30A4_U+30E4_U+30FC 1
 62
   253
420
 11711154
100
AcDbHatch
 10
0.0
 20
0.0
 30
0.0
210
0.0
220
0.0
230
1.0
  2
SOLID
 70
     1
 71
     0
 91
        1
 92
        1
 93
       28
 72
     1
 10
94.73391897202526
 20
-146.3307757967503
 11
94.73391897202526
 21
-98.33059664208398
 72
     1
 10
94.73391897202526
 20
-98.33059664208398
 11
93.73414677530936
 21
-98.33059664208398
 72
     1
 10
93.73414677530936
 20
-98.33059664208398
 11
93.73414677530936
 21
-145.3310035747785
 72
     1
 10
93.73414677530936
 20
-145.3310035747785
 11
81.73419930367574
 21
-145.3310035747785
 72
     1
 10
81.73419930367574
 20
-145.3310035747785
 11
81.73419930367574
 21
-137.3304621878896
 72
     1
 10
81.73419930367574
 20
-137.3304621878896
 11
83.73441397486823
 21
-137.3304621878896
 72
     1
 10
83.73441397486823
 20
-137.3304621878896
 11
83.73441397486823
 21
-136.330689965917
 72
     1
 10
83.73441397486823
 20
-136.330689965917
 11
81.73419930367574
 21
-136.330689965917
 72
     1
 10
81.73419930367574
 20
-136.330689965917
 11
80.73442710695984
 21
-136.330689965917
 72
     1
 10
80.73442710695984
 20
-136.330689965917
 11
80.73442710695984
 21
-137.3304621878896
 72
     1
 10
80.73442710695984
 20
-137.3304621878896
 11
80.73442710695984
 21
-145.3310035747785
 72
     1
 10
80.73442710695984
 20
-145.3310035747785
 11
80.73442710695984
 21
-146.3307757967503
 72
     1
 10
80.73442710695984
 20
-146.3307757967503
 11
81.73419930367574
 21
-146.3307757967503
 72
     1
 10
81.73419930367574
 20
-146.3307757967503
 11
90.73451268516973
 21
-146.3307757967503
 72
     1
 10
90.73451268516973
 20
-146.3307757967503
 11
91.73428488188564
 21
-146.3307757967503
 72
     1
 10
91.73428488188564
 20
-146.3307757967503
 11
92.73472735636223
 21
-146.3307757967503
 72
     1
 10
92.73472735636223
 20
-146.3307757967503
 11
92.73472735636223
 21
-157.3313041273336
 72
     1
 10
92.73472735636223
 20
-157.3313041273336
 11
92.73472735636223
 21
-158.3310763493061
 72
     1
 10
92.73472735636223
 20
-158.3310763493061
 11
93.73449955307814
 21
-158.3310763493061
 72
     1
 10
93.73449955307814
 20
-158.3310763493061
 11
101.7346879600874
 21
-158.3310763493061
 72
     1
 10
101.7346879600874
 20
-158.3310763493061
 11
102.7344601568033
 21
-158.3310763493061
 72
     1
 10
102.7344601568033
 20
-158.3310763493061
 11
102.7344601568033
 21
-157.3313041273336
 72
     1
 10
102.7344601568033
 20
-157.3313041273336
 11
102.7344601568033
 21
-155.3310894056118
 72
     1
 10
102.7344601568033
 20
-155.3310894056118
 11
101.7346879600874
 21
-155.3310894056118
 72
     1
 10
101.7346879600874
 20
-155.3310894056118
 11
101.7346879600874
 21
-157.3313041273336
 72
     1
 10
101.7346879600874
 20
-157.3313041273336
 11
93.73449955307814
 21
-157.3313041273336
 72
     1
 10
93.73449955307814
 20
-157.3313041273336
 11
93.73449955307814
 21
-146.3307757967503
 72
     1
 10
93.73449955307814
 20
-146.3307757967503
 11
94.73391897202526
 21
-146.3307757967503
 97
        0
 75
     2
 76
     1
 98
        0
  0
POLYLINE
  5
61
330
1F
100
AcDbEntity
  8
_U+30EC_U+30A4_U+30E4_U+30FC 1
 62
     7
420
 16777215
370
    25
100
AcDb2dPolyline
 66
     1
 10
0.0
 20
0.0
 30
0.0
  0
VERTEX
  5
62
330
61
100
AcDbEntity
  8
_U+30EC_U+30A4_U+30E4_U+30FC 1
 62
     7
420
 16777215
370
    25
100
AcDbVertex
100
AcDb2dVertex
 10
93.73449955307814
 20
-145.3310035747785
 30
0.0
  0
VERTEX
  5
63
330
61
100
AcDbEntity
  8
_U+30EC_U+30A4_U+30E4_U+30FC 1
 62
     7
420
 16777215
370
    25
100
AcDbVertex
100
AcDb2dVertex
 10
92.73472735636223
 20
-145.3310035747785
 30
0.0
  0
SEQEND
  5
64
330
61
100
AcDbEntity
  8
_U+30EC_U+30A4_U+30E4_U+30FC 1
 62
     7
420
 16777215
370
    25
  0
SPLINE
  5
65
330
1F
100
AcDbEntity
  8
_U+30EC_U+30A4_U+30E4_U+30FC 1
 62
     7
420
 16777215
370
     9
100
AcDbSpline
210
0.0
220
0.0
230
1.0
 70
    11
 71
     3
 72
    17
 73
    13
 74
     0
 42
0.0000000001
 43
0.0000000001
 12
1.0
 22
0.0
 32
0.0
 13
1.0
 23
0.0
 33
0.0
 40
0.0
 40
0.0
 40
0.0
 40
0.0
 40
1.0
 40
1.0
 40
1.0
 40
2.0
 40
2.0
 40
2.0
 40
3.0
 40
3.0
 40
3.0
 40
4.0
 40
4.0
 40
4.0
 40
4.0
 10
76.82734276219341
 20
-158.3310763493061
 30
0.0
 10
76.82734276219341
 20
-158.2752669048757
 30
0.0
 10
76.78257526333553
 20
-158.230464127109
 30
0.0
 10
76.72743609807559
 20
-158.230464127109
 30
0.0
 10
76.67162665505495
 20
-158.230464127109
 30
0.0
 10
76.62686109195441
 20
-158.2752669048757
 30
0.0
 10
76.62686109195441
 20
-158.3310763493061
 30
0.0
 10
76.62686109195441
 20
-158.3862155159592
 30
0.0
 10
76.67162665505495
 20
-158.4309830159478
 30
0.0
 10
76.72743609807559
 20
-158.4309830159478
 30
0.0
 10
76.78257526333553
 20
-158.4309830159478
 30
0.0
 10
76.82734276219341
 20
-158.3862155159592
 30
0.0
 10
76.82734276219341
 20
-158.3310763493061
 30
0.0
  0
SPLINE
  5
66
330
1F
100
AcDbEntity
  8
_U+30EC_U+30A4_U+30E4_U+30FC 1
 62
     7
420
 16777215
370
     9
100
AcDbSpline
210
0.0
220
0.0
230
1.0
 70
    11
 71
     3
 72
    17
 73
    13
 74
     0
 42
0.0000000001
 43
0.0000000001
 12
1.0
 22
0.0
 32
0.0
 13
1.0
 23
0.0
 33
0.0
 40
0.0
 40
0.0
 40
0.0
 40
0.0
 40
1.0
 40
1.0
 40
1.0
 40
2.0
 40
2.0
 40
2.0
 40
3.0
 40
3.0
 40
3.0
 40
4.0
 40
4.0
 40
4.0
 40
4.0
 10
76.82734276219341
 20
-136.3809960770159
 30
0.0
 10
76.82734276219341
 20
-136.3258569103628
 30
0.0
 10
76.78257526333553
 20
-136.2810894103743
 30
0.0
 10
76.72743609807559
 20
-136.2810894103743
 30
0.0
 10
76.67162665505495
 20
-136.2810894103743
 30
0.0
 10
76.62686109195441
 20
-136.3258569103628
 30
0.0
 10
76.62686109195441
 20
-136.3809960770159
 30
0.0
 10
76.62686109195441
 20
-136.4364527436686
 30
0.0
 10
76.67162665505495
 20
-136.4812555214353
 30
0.0
 10
76.72743609807559
 20
-136.4812555214353
 30
0.0
 10
76.78257526333553
 20
-136.4812555214353
 30
0.0
 10
76.82734276219341
 20
-136.4364527436686
 30
0.0
 10
76.82734276219341
 20
-136.3809960770159
 30
0.0
  0
POLYLINE
  5
67
330
1F
100
AcDbEntity
  8
_U+30EC_U+30A4_U+30E4_U+30FC 1
 62
     7
420
 16777215
370
     9
100
AcDb2dPolyline
 66
     1
 10
0.0
 20
0.0
 30
0.0
  0
VERTEX
  5
68
330
67
100
AcDbEntity
  8
_U+30EC_U+30A4_U+30E4_U+30FC 1
 62
     7
420
 16777215
370
     9
100
AcDbVertex
100
AcDb2dVertex
 10
76.72743609807559
 20
-158.3310763493061
 30
0.0
  0
VERTEX
  5
69
330
67
100
AcDbEntity
  8
_U+30EC_U+30A4_U+30E4_U+30FC 1
 62
     7
420
 16777215
370
     9
100
AcDbVertex
100
AcDb2dVertex
 10
76.72743609807559
 20
-136.3809960770159
 30
0.0
  0
SEQEND
  5
6A
330
67
100
AcDbEntity
  8
_U+30EC_U+30A4_U+30E4_U+30FC 1
 62
     7
420
 16777215
370
     9
  0
POLYLINE
  5
6B
330
1F
100
AcDbEntity
  8
_U+30EC_U+30A4_U+30E4_U+30FC 1
 62
     7
420
 16777215
370
     9
100
AcDb2dPolyline
 66
     1
 10
0.0
 20
0.0
 30
0.0
  0
VERTEX
  5
6C
330
6B
100
AcDbEntity
  8
_U+30EC_U+30A4_U+30E4_U+30FC 1
 62
     7
420
 16777215
370
     9
100
AcDbVertex
100
AcDb2dVertex
 10
91.23887906119116
 20
-158.3310763493061
 30
0.0
  0
VERTEX
  5
6D
330
6B
100
AcDbEntity
  8
_U+30EC_U+30A4_U+30E4_U+30FC 1
 62
     7
420
 16777215
370
     9
100
AcDbVertex
100
AcDb2dVertex
 10
75.726993623599
 20
-158.3310763493061
 30
0.0
  0
SEQEND
  5
6E
330
6B
100
AcDbEntity
  8
_U+30EC_U+30A4_U+30E4_U+30FC 1
 62
     7
420
 16777215
370
     9
  0
POLYLINE
  5
6F
330
1F
100
AcDbEntity
  8
_U+30EC_U+30A4_U+30E4_U+30FC 1
 62
     7
420
 16777215
370
     9
100
AcDb2dPolyline
 66
     1
 10
0.0
 20
0.0
 30
0.0
  0
VERTEX
  5
70
330
6F
100
AcDbEntity
  8
_U+30EC_U+30A4_U+30E4_U+30FC 1
 62
     7
420
 16777215
370
     9
100
AcDbVertex
100
AcDb2dVertex
 10
79.18724964643162
 20
-136.3809960770159
 30
0.0
  0
VERTEX
  5
71
330
6F
100
AcDbEntity
  8
_U+30EC_U+30A4_U+30E4_U+30FC 1
 62
     7
420
 16777215
370
     9
100
AcDbVertex
100
AcDb2dVertex
 10
75.726993623599
 20
-136.3809960770159
 30
0.0
  0
SEQEND
  5
72
330
6F
100
AcDbEntity
  8
_U+30EC_U+30A4_U+30E4_U+30FC 1
 62
     7
420
 16777215
370
     9
  0
SPLINE
  5
73
330
1F
100
AcDbEntity
  8
_U+30EC_U+30A4_U+30E4_U+30FC 1
 62
     7
420
 16777215
370
     9
100
AcDbSpline
210
0.0
220
0.0
230
1.0
 70
    11
 71
     3
 72
    17
 73
    13
 74
     0
 42
0.0000000001
 43
0.0000000001
 12
1.0
 22
0.0
 32
0.0
 13
1.0
 23
0.0
 33
0.0
 40
0.0
 40
0.0
 40
0.0
 40
0.0
 40
1.0
 40
1.0
 40
1.0
 40
2.0
 40
2.0
 40
2.0
 40
3.0
 40
3.0
 40
3.0
 40
4.0
 40
4.0
 40
4.0
 40
4.0
 10
76.82734276219341
 20
-146.3307757967503
 30
0.0
 10
76.82734276219341
 20
-146.2756366300979
 30
0.0
 10
76.78257526333553
 20
-146.2308691301087
 30
0.0
 10
76.72743609807559
 20
-146.2308691301087
 30
0.0
 10
76.67162665505495
 20
-146.2308691301087
 30
0.0
 10
76.62686109195441
 20
-146.2756366300979
 30
0.0
 10
76.62686109195441
 20
-146.3307757967503
 30
0.0
 10
76.62686109195441
 20
-146.3862324634037
 30
0.0
 10
76.67162665505495
 20
-146.4310352411698
 30
0.0
 10
76.72743609807559
 20
-146.4310352411698
 30
0.0
 10
76.78257526333553
 20
-146.4310352411698
 30
0.0
 10
76.82734276219341
 20
-146.3862324634037
 30
0.0
 10
76.82734276219341
 20
-146.3307757967503
 30
0.0
  0
POLYLINE
  5
74
330
1F
100
AcDbEntity
  8
_U+30EC_U+30A4_U+30E4_U+30FC 1
 62
     7
420
 16777215
370
     9
100
AcDb2dPolyline
 66
     1
 10
0.0
 20
0.0
 30
0.0
  0
VERTEX
  5
75
330
74
100
AcDbEntity
  8
_U+30EC_U+30A4_U+30E4_U+30FC 1
 62
     7
420
 16777215
370
     9
100
AcDbVertex
100
AcDb2dVertex
 10
79.18724964643162
 20
-146.3307757967503
 30
0.0
  0
VERTEX
  5
76
330
74
100
AcDbEntity
  8
_U+30EC_U+30A4_U+30E4_U+30FC 1
 62
     7
420
 16777215
370
     9
100
AcDbVertex
100
AcDb2dVertex
 10
75.726993623599
 20
-146.3307757967503
 30
0.0
  0
SEQEND
  5
77
330
74
100
AcDbEntity
  8
_U+30EC_U+30A4_U+30E4_U+30FC 1
 62
     7
420
 16777215
370
     9
  0
SPLINE
  5
78
330
1F
100
AcDbEntity
  8
_U+30EC_U+30A4_U+30E4_U+30FC 1
 62
     7
420
 16777215
370
     9
100
AcDbSpline
210
0.0
220
0.0
230
1.0
 70
    11
 71
     3
 72
    17
 73
    13
 74
     0
 42
0.0000000001
 43
0.0000000001
 12
1.0
 22
0.0
 32
0.0
 13
1.0
 23
0.0
 33
0.0
 40
0.0
 40
0.0
 40
0.0
 40
0.0
 40
1.0
 40
1.0
 40
1.0
 40
2.0
 40
2.0
 40
2.0
 40
3.0
 40
3.0
 40
3.0
 40
4.0
 40
4.0
 40
4.0
 40
4.0
 10
106.5960714471743
 20
-98.326469142085
 30
0.0
 10
106.5960714471743
 20
-98.38227858651544
 30
0.0
 10
106.6408742238091
 20
-98.42708136428216
 30
0.0
 10
106.6959781112922
 20
-98.42708136428216
 30
0.0
 10
106.7517875543128
 20
-98.42708136428216
 30
0.0
 10
106.7965903309476
 20
-98.38227858651544
 30
0.0
 10
106.7965903309476
 20
-98.326469142085
 30
0.0
 10
106.7965903309476
 20
-98.27136525321008
 30
0.0
 10
106.7517875543128
 20
-98.22656247544336
 30
0.0
 10
106.6959781112922
 20
-98.22656247544336
 30
0.0
 10
106.6408742238091
 20
-98.22656247544336
 30
0.0
 10
106.5960714471743
 20
-98.27136525321008
 30
0.0
 10
106.5960714471743
 20
-98.326469142085
 30
0.0
  0
SPLINE
  5
79
330
1F
100
AcDbEntity
  8
_U+30EC_U+30A4_U+30E4_U+30FC 1
 62
     7
420
 16777215
370
     9
100
AcDbSpline
210
0.0
220
0.0
230
1.0
 70
    11
 71
     3
 72
    17
 73
    13
 74
     0
 42
0.0000000001
 43
0.0000000001
 12
1.0
 22
0.0
 32
0.0
 13
1.0
 23
0.0
 33
0.0
 40
0.0
 40
0.0
 40
0.0
 40
0.0
 40
1.0
 40
1.0
 40
1.0
 40
2.0
 40
2.0
 40
2.0
 40
3.0
 40
3.0
 40
3.0
 40
4.0
 40
4.0
 40
4.0
 40
4.0
 10
106.5960714471743
 20
-158.3310763493061
 30
0.0
 10
106.5960714471743
 20
-158.3862155159592
 30
0.0
 10
106.6408742238091
 20
-158.4309830159478
 30
0.0
 10
106.6959781112922
 20
-158.4309830159478
 30
0.0
 10
106.7517875543128
 20
-158.4309830159478
 30
0.0
 10
106.7965903309476
 20
-158.3862155159592
 30
0.0
 10
106.7965903309476
 20
-158.3310763493061
 30
0.0
 10
106.7965903309476
 20
-158.2756196826535
 30
0.0
 10
106.7517875543128
 20
-158.2308169048867
 30
0.0
 10
106.6959781112922
 20
-158.2308169048867
 30
0.0
 10
106.6408742238091
 20
-158.2308169048867
 30
0.0
 10
106.5960714471743
 20
-158.2756196826535
 30
0.0
 10
106.5960714471743
 20
-158.3310763493061
 30
0.0
  0
POLYLINE
  5
7A
330
1F
100
AcDbEntity
  8
_U+30EC_U+30A4_U+30E4_U+30FC 1
 62
     7
420
 16777215
370
     9
100
AcDb2dPolyline
 66
     1
 10
0.0
 20
0.0
 30
0.0
  0
VERTEX
  5
7B
330
7A
100
AcDbEntity
  8
_U+30EC_U+30A4_U+30E4_U+30FC 1
 62
     7
420
 16777215
370
     9
100
AcDbVertex
100
AcDb2dVertex
 10
106.6959781112922
 20
-98.326469142085
 30
0.0
  0
VERTEX
  5
7C
330
7A
100
AcDbEntity
  8
_U+30EC_U+30A4_U+30E4_U+30FC 1
 62
     7
420
 16777215
370
     9
100
AcDbVertex
100
AcDb2dVertex
 10
106.6959781112922
 20
-158.3310763493061
 30
0.0
  0
SEQEND
  5
7D
330
7A
100
AcDbEntity
  8
_U+30EC_U+30A4_U+30E4_U+30FC 1
 62
     7
420
 16777215
370
     9
  0
POLYLINE
  5
7E
330
1F
100
AcDbEntity
  8
_U+30EC_U+30A4_U+30E4_U+30FC 1
 62
     7
420
 16777215
370
     9
100
AcDb2dPolyline
 66
     1
 10
0.0
 20
0.0
 30
0.0
  0
VERTEX
  5
7F
330
7E
100
AcDbEntity
  8
_U+30EC_U+30A4_U+30E4_U+30FC 1
 62
     7
420
 16777215
370
     9
100
AcDbVertex
100
AcDb2dVertex
 10
96.2339300448679
 20
-98.326469142085
 30
0.0
  0
VERTEX
  5
80
330
7E
100
AcDbEntity
  8
_U+30EC_U+30A4_U+30E4_U+30FC 1
 62
     7
420
 16777215
370
     9
100
AcDbVertex
100
AcDb2dVertex
 10
107.6964558635456
 20
-98.326469142085
 30
0.0
  0
SEQEND
  5
81
330
7E
100
AcDbEntity
  8
_U+30EC_U+30A4_U+30E4_U+30FC 1
 62
     7
420
 16777215
370
     9
  0
POLYLINE
  5
82
330
1F
100
AcDbEntity
  8
_U+30EC_U+30A4_U+30E4_U+30FC 1
 62
     7
420
 16777215
370
     9
100
AcDb2dPolyline
 66
     1
 10
0.0
 20
0.0
 30
0.0
  0
VERTEX
  5
83
330
82
100
AcDbEntity
  8
_U+30EC_U+30A4_U+30E4_U+30FC 1
 62
     7
420
 16777215
370
     9
100
AcDbVertex
100
AcDb2dVertex
 10
104.236199840713
 20
-158.3310763493061
 30
0.0
  0
VERTEX
  5
84
330
82
100
AcDbEntity
  8
_U+30EC_U+30A4_U+30E4_U+30FC 1
 62
     7
420
 16777215
370
     9
100
AcDbVertex
100
AcDb2dVertex
 10
107.6964558635456
 20
-158.3310763493061
 30
0.0
  0
SEQEND
  5
85
330
82
100
AcDbEntity
  8
_U+30EC_U+30A4_U+30E4_U+30FC 1
 62
     7
420
 16777215
370
     9
  0
SPLINE
  5
86
330
1F
100
AcDbEntity
  8
_U+30EC_U+30A4_U+30E4_U+30FC 1
 62
     7
420
 16777215
370
     9
100
AcDbSpline
210
0.0
220
0.0
230
1.0
 70
    11
 71
     3
 72
    17
 73
    13
 74
     0
 42
0.0000000001
 43
0.0000000001
 12
1.0
 22
0.0
 32
0.0
 13
1.0
 23
0.0
 33
0.0
 40
0.0
 40
0.0
 40
0.0
 40
0.0
 40
1.0
 40
1.0
 40
1.0
 40
2.0
 40
2.0
 40
2.0
 40
3.0
 40
3.0
 40
3.0
 40
4.0
 40
4.0
 40
4.0
 40
4.0
 10
106.5960714471743
 20
-155.3310894056118
 30
0.0
 10
106.5960714471743
 20
-155.3861932944867
 30
0.0
 10
106.6408742238091
 20
-155.4309960722534
 30
0.0
 10
106.6959781112922
 20
-155.4309960722534
 30
0.0
 10
106.7517875543128
 20
-155.4309960722534
 30
0.0
 10
106.7965903309476
 20
-155.3861932944867
 30
0.0
 10
106.7965903309476
 20
-155.3310894056118
 30
0.0
 10
106.7965903309476
 20
-155.2756327389591
 30
0.0
 10
106.7517875543128
 20
-155.2308299611924
 30
0.0
 10
106.6959781112922
 20
-155.2308299611924
 30
0.0
 10
106.6408742238091
 20
-155.2308299611924
 30
0.0
 10
106.5960714471743
 20
-155.2756327389591
 30
0.0
 10
106.5960714471743
 20
-155.3310894056118
 30
0.0
  0
POLYLINE
  5
87
330
1F
100
AcDbEntity
  8
_U+30EC_U+30A4_U+30E4_U+30FC 1
 62
     7
420
 16777215
370
     9
100
AcDb2dPolyline
 66
     1
 10
0.0
 20
0.0
 30
0.0
  0
VERTEX
  5
88
330
87
100
AcDbEntity
  8
_U+30EC_U+30A4_U+30E4_U+30FC 1
 62
     7
420
 16777215
370
     9
100
AcDbVertex
100
AcDb2dVertex
 10
104.236199840713
 20
-155.3310894056118
 30
0.0
  0
VERTEX
  5
89
330
87
100
AcDbEntity
  8
_U+30EC_U+30A4_U+30E4_U+30FC 1
 62
     7
420
 16777215
370
     9
100
AcDbVertex
100
AcDb2dVertex
 10
107.6964558635456
 20
-155.3310894056118
 30
0.0
  0
SEQEND
  5
8A
330
87
100
AcDbEntity
  8
_U+30EC_U+30A4_U+30E4_U+30FC 1
 62
     7
420
 16777215
370
     9
  0
SPLINE
  5
8B
330
1F
100
AcDbEntity
  8
_U+30EC_U+30A4_U+30E4_U+30FC 1
 62
     7
420
 16777215
370
     9
100
AcDbSpline
210
0.0
220
0.0
230
1.0
 70
    11
 71
     3
 72
    17
 73
    13
 74
     0
 42
0.0000000001
 43
0.0000000001
 12
1.0
 22
0.0
 32
0.0
 13
1.0
 23
0.0
 33
0.0
 40
0.0
 40
0.0
 40
0.0
 40
0.0
 40
1.0
 40
1.0
 40
1.0
 40
2.0
 40
2.0
 40
2.0
 40
3.0
 40
3.0
 40
3.0
 40
4.0
 40
4.0
 40
4.0
 40
4.0
 10
80.73890738462332
 20
-162.1909591261188
 30
0.0
 10
80.79471682764394
 20
-162.1909591261188
 30
0.0
 10
80.8395196042787
 20
-162.2357619038856
 30
0.0
 10
80.8395196042787
 20
-162.2908657927605
 30
0.0
 10
80.8395196042787
 20
-162.3466752371909
 30
0.0
 10
80.79471682764394
 20
-162.3914780149576
 30
0.0
 10
80.73890738462332
 20
-162.3914780149576
 30
0.0
 10
80.68380553538462
 20
-162.3914780149576
 30
0.0
 10
80.6390027576179
 20
-162.3466752371909
 30
0.0
 10
80.6390027576179
 20
-162.2908657927605
 30
0.0
 10
80.6390027576179
 20
-162.2357619038856
 30
0.0
 10
80.68380553538462
 20
-162.1909591261188
 30
0.0
 10
80.73890738462332
 20
-162.1909591261188
 30
0.0
  0
SPLINE
  5
8C
330
1F
100
AcDbEntity
  8
_U+30EC_U+30A4_U+30E4_U+30FC 1
 62
     7
420
 16777215
370
     9
100
AcDbSpline
210
0.0
220
0.0
230
1.0
 70
    11
 71
     3
 72
    17
 73
    13
 74
     0
 42
0.0000000001
 43
0.0000000001
 12
1.0
 22
0.0
 32
0.0
 13
1.0
 23
0.0
 33
0.0
 40
0.0
 40
0.0
 40
0.0
 40
0.0
 40
1.0
 40
1.0
 40
1.0
 40
2.0
 40
2.0
 40
2.0
 40
3.0
 40
3.0
 40
3.0
 40
4.0
 40
4.0
 40
4.0
 40
4.0
 10
102.6889871024079
 20
-162.1909591261188
 30
0.0
 10
102.7441262676679
 20
-162.1909591261188
 30
0.0
 10
102.7888937665257
 20
-162.2357619038856
 30
0.0
 10
102.7888937665257
 20
-162.2908657927605
 30
0.0
 10
102.7888937665257
 20
-162.3466752371909
 30
0.0
 10
102.7441262676679
 20
-162.3914780149576
 30
0.0
 10
102.6889871024079
 20
-162.3914780149576
 30
0.0
 10
102.6335304371561
 20
-162.3914780149576
 30
0.0
 10
102.5887276605213
 20
-162.3466752371909
 30
0.0
 10
102.5887276605213
 20
-162.2908657927605
 30
0.0
 10
102.5887276605213
 20
-162.2357619038856
 30
0.0
 10
102.6335304371561
 20
-162.1909591261188
 30
0.0
 10
102.6889871024079
 20
-162.1909591261188
 30
0.0
  0
POLYLINE
  5
8D
330
1F
100
AcDbEntity
  8
_U+30EC_U+30A4_U+30E4_U+30FC 1
 62
     7
420
 16777215
370
     9
100
AcDb2dPolyline
 66
     1
 10
0.0
 20
0.0
 30
0.0
  0
VERTEX
  5
8E
330
8D
100
AcDbEntity
  8
_U+30EC_U+30A4_U+30E4_U+30FC 1
 62
     7
420
 16777215
370
     9
100
AcDbVertex
100
AcDb2dVertex
 10
80.73890738462332
 20
-162.2908657927605
 30
0.0
  0
VERTEX
  5
8F
330
8D
100
AcDbEntity
  8
_U+30EC_U+30A4_U+30E4_U+30FC 1
 62
     7
420
 16777215
370
     9
100
AcDbVertex
100
AcDb2dVertex
 10
102.6889871024079
 20
-162.2908657927605
 30
0.0
  0
SEQEND
  5
90
330
8D
100
AcDbEntity
  8
_U+30EC_U+30A4_U+30E4_U+30FC 1
 62
     7
420
 16777215
370
     9
  0
POLYLINE
  5
91
330
1F
100
AcDbEntity
  8
_U+30EC_U+30A4_U+30E4_U+30FC 1
 62
     7
420
 16777215
370
     9
100
AcDb2dPolyline
 66
     1
 10
0.0
 20
0.0
 30
0.0
  0
VERTEX
  5
92
330
91
100
AcDbEntity
  8
_U+30EC_U+30A4_U+30E4_U+30FC 1
 62
     7
420
 16777215
370
     9
100
AcDbVertex
100
AcDb2dVertex
 10
80.73890738462332
 20
-147.8304341297088
 30
0.0
  0
VERTEX
  5
93
330
91
100
AcDbEntity
  8
_U+30EC_U+30A4_U+30E4_U+30FC 1
 62
     7
420
 16777215
370
     9
100
AcDbVertex
100
AcDb2dVertex
 10
80.73890738462332
 20
-163.2913082925104
 30
0.0
  0
SEQEND
  5
94
330
91
100
AcDbEntity
  8
_U+30EC_U+30A4_U+30E4_U+30FC 1
 62
     7
420
 16777215
370
     9
  0
POLYLINE
  5
95
330
1F
100
AcDbEntity
  8
_U+30EC_U+30A4_U+30E4_U+30FC 1
 62
     7
420
 16777215
370
     9
100
AcDb2dPolyline
 66
     1
 10
0.0
 20
0.0
 30
0.0
  0
VERTEX
  5
96
330
95
100
AcDbEntity
  8
_U+30EC_U+30A4_U+30E4_U+30FC 1
 62
     7
420
 16777215
370
     9
100
AcDbVertex
100
AcDb2dVertex
 10
102.6889871024079
 20
-159.8310874600424
 30
0.0
  0
VERTEX
  5
97
330
95
100
AcDbEntity
  8
_U+30EC_U+30A4_U+30E4_U+30FC 1
 62
     7
420
 16777215
370
     9
100
AcDbVertex
100
AcDb2dVertex
 10
102.6889871024079
 20
-163.2913082925104
 30
0.0
  0
SEQEND
  5
98
330
95
100
AcDbEntity
  8
_U+30EC_U+30A4_U+30E4_U+30FC 1
 62
     7
420
 16777215
370
     9
  0
SPLINE
  5
99
330
1F
100
AcDbEntity
  8
_U+30EC_U+30A4_U+30E4_U+30FC 1
 62
     7
420
 16777215
370
     9
100
AcDbSpline
210
0.0
220
0.0
230
1.0
 70
    11
 71
     3
 72
    17
 73
    13
 74
     0
 42
0.0000000001
 43
0.0000000001
 12
1.0
 22
0.0
 32
0.0
 13
1.0
 23
0.0
 33
0.0
 40
0.0
 40
0.0
 40
0.0
 40
0.0
 40
1.0
 40
1.0
 40
1.0
 40
2.0
 40
2.0
 40
2.0
 40
3.0
 40
3.0
 40
3.0
 40
4.0
 40
4.0
 40
4.0
 40
4.0
 10
92.7392076340257
 20
-162.1909591261188
 30
0.0
 10
92.79434679928565
 20
-162.1909591261188
 30
0.0
 10
92.83911664345663
 20
-162.2357619038856
 30
0.0
 10
92.83911664345663
 20
-162.2908657927605
 30
0.0
 10
92.83911664345663
 20
-162.3466752371909
 30
0.0
 10
92.79434679928565
 20
-162.3914780149576
 30
0.0
 10
92.7392076340257
 20
-162.3914780149576
 30
0.0
 10
92.68375096877385
 20
-162.3914780149576
 30
0.0
 10
92.63894819213908
 20
-162.3466752371909
 30
0.0
 10
92.63894819213908
 20
-162.2908657927605
 30
0.0
 10
92.63894819213908
 20
-162.2357619038856
 30
0.0
 10
92.68375096877385
 20
-162.1909591261188
 30
0.0
 10
92.7392076340257
 20
-162.1909591261188
 30
0.0
  0
POLYLINE
  5
9A
330
1F
100
AcDbEntity
  8
_U+30EC_U+30A4_U+30E4_U+30FC 1
 62
     7
420
 16777215
370
     9
100
AcDb2dPolyline
 66
     1
 10
0.0
 20
0.0
 30
0.0
  0
VERTEX
  5
9B
330
9A
100
AcDbEntity
  8
_U+30EC_U+30A4_U+30E4_U+30FC 1
 62
     7
420
 16777215
370
     9
100
AcDbVertex
100
AcDb2dVertex
 10
92.7392076340257
 20
-159.8310874600424
 30
0.0
  0
VERTEX
  5
9C
330
9A
100
AcDbEntity
  8
_U+30EC_U+30A4_U+30E4_U+30FC 1
 62
     7
420
 16777215
370
     9
100
AcDbVertex
100
AcDb2dVertex
 10
92.7392076340257
 20
-163.2913082925104
 30
0.0
  0
SEQEND
  5
9D
330
9A
100
AcDbEntity
  8
_U+30EC_U+30A4_U+30E4_U+30FC 1
 62
     7
420
 16777215
370
     9
  0
SPLINE
  5
9E
330
1F
100
AcDbEntity
  8
_U+30EC_U+30A4_U+30E4_U+30FC 1
 62
     7
420
 16777215
370
     9
100
AcDbSpline
210
0.0
220
0.0
230
1.0
 70
    11
 71
     3
 72
    17
 73
    13
 74
     0
 42
0.0000000001
 43
0.0000000001
 12
1.0
 22
0.0
 32
0.0
 13
1.0
 23
0.0
 33
0.0
 40
0.0
 40
0.0
 40
0.0
 40
0.0
 40
1.0
 40
1.0
 40
1.0
 40
2.0
 40
2.0
 40
2.0
 40
3.0
 40
3.0
 40
3.0
 40
4.0
 40
4.0
 40
4.0
 40
4.0
 10
93.73210066425045
 20
-122.5210274693699
 30
0.0
 10
93.67629122122982
 20
-122.5210274693699
 30
0.0
 10
93.63148844459505
 20
-122.476259969381
 30
0.0
 10
93.63148844459505
 20
-122.4211208027279
 30
0.0
 10
93.63148844459505
 20
-122.3653113582975
 30
0.0
 10
93.67629122122982
 20
-122.3205438583086
 30
0.0
 10
93.73210066425045
 20
-122.3205438583086
 30
0.0
 10
93.78720455173352
 20
-122.3205438583086
 30
0.0
 10
93.83200732836828
 20
-122.3653113582975
 30
0.0
 10
93.83200732836828
 20
-122.4211208027279
 30
0.0
 10
93.83200732836828
 20
-122.476259969381
 30
0.0
 10
93.78720455173352
 20
-122.5210274693699
 30
0.0
 10
93.73210066425045
 20
-122.5210274693699
 30
0.0
  0
SPLINE
  5
9F
330
1F
100
AcDbEntity
  8
_U+30EC_U+30A4_U+30E4_U+30FC 1
 62
     7
420
 16777215
370
     9
100
AcDbSpline
210
0.0
220
0.0
230
1.0
 70
    11
 71
     3
 72
    17
 73
    13
 74
     0
 42
0.0000000001
 43
0.0000000001
 12
1.0
 22
0.0
 32
0.0
 13
1.0
 23
0.0
 33
0.0
 40
0.0
 40
0.0
 40
0.0
 40
0.0
 40
1.0
 40
1.0
 40
1.0
 40
2.0
 40
2.0
 40
2.0
 40
3.0
 40
3.0
 40
3.0
 40
4.0
 40
4.0
 40
4.0
 40
4.0
 10
80.73442710695984
 20
-122.5210274693699
 30
0.0
 10
80.67932321947676
 20
-122.5210274693699
 30
0.0
 10
80.634520442842
 20
-122.476259969381
 30
0.0
 10
80.634520442842
 20
-122.4211208027279
 30
0.0
 10
80.634520442842
 20
-122.3653113582975
 30
0.0
 10
80.67932321947676
 20
-122.3205438583086
 30
0.0
 10
80.73442710695984
 20
-122.3205438583086
 30
0.0
 10
80.78988377221168
 20
-122.3205438583086
 30
0.0
 10
80.83468654884645
 20
-122.3653113582975
 30
0.0
 10
80.83468654884645
 20
-122.4211208027279
 30
0.0
 10
80.83468654884645
 20
-122.476259969381
 30
0.0
 10
80.78988377221168
 20
-122.5210274693699
 30
0.0
 10
80.73442710695984
 20
-122.5210274693699
 30
0.0
  0
POLYLINE
  5
A0
330
1F
100
AcDbEntity
  8
_U+30EC_U+30A4_U+30E4_U+30FC 1
 62
     7
420
 16777215
370
     9
100
AcDb2dPolyline
 66
     1
 10
0.0
 20
0.0
 30
0.0
  0
VERTEX
  5
A1
330
A0
100
AcDbEntity
  8
_U+30EC_U+30A4_U+30E4_U+30FC 1
 62
     7
420
 16777215
370
     9
100
AcDbVertex
100
AcDb2dVertex
 10
93.73210066425045
 20
-122.4211208027279
 30
0.0
  0
VERTEX
  5
A2
330
A0
100
AcDbEntity
  8
_U+30EC_U+30A4_U+30E4_U+30FC 1
 62
     7
420
 16777215
370
     9
100
AcDbVertex
100
AcDb2dVertex
 10
80.73442710695984
 20
-122.4211208027279
 30
0.0
  0
SEQEND
  5
A3
330
A0
100
AcDbEntity
  8
_U+30EC_U+30A4_U+30E4_U+30FC 1
 62
     7
420
 16777215
370
     9
  0
POLYLINE
  5
A4
330
1F
100
AcDbEntity
  8
_U+30EC_U+30A4_U+30E4_U+30FC 1
 62
     7
420
 16777215
370
     9
100
AcDb2dPolyline
 66
     1
 10
0.0
 20
0.0
 30
0.0
  0
VERTEX
  5
A5
330
A4
100
AcDbEntity
  8
_U+30EC_U+30A4_U+30E4_U+30FC 1
 62
     7
420
 16777215
370
     9
100
AcDbVertex
100
AcDb2dVertex
 10
80.73442710695984
 20
-134.8813377440574
 30
0.0
  0
VERTEX
  5
A6
330
A4
100
AcDbEntity
  8
_U+30EC_U+30A4_U+30E4_U+30FC 1
 62
     7
420
 16777215
370
     9
100
AcDbVertex
100
AcDb2dVertex
 10
80.73442710695984
 20
-121.420678302978
 30
0.0
  0
SEQEND
  5
A7
330
A4
100
AcDbEntity
  8
_U+30EC_U+30A4_U+30E4_U+30FC 1
 62
     7
420
 16777215
370
     9
  0
SPLINE
  5
A8
330
1F
100
AcDbEntity
  8
_U+30EC_U+30A4_U+30E4_U+30FC 1
 62
     7
420
 16777215
370
     9
100
AcDbSpline
210
0.0
220
0.0
230
1.0
 70
    11
 71
     3
 72
    17
 73
    13
 74
     0
 42
0.0000000001
 43
0.0000000001
 12
1.0
 22
0.0
 32
0.0
 13
1.0
 23
0.0
 33
0.0
 40
0.0
 40
0.0
 40
0.0
 40
0.0
 40
1.0
 40
1.0
 40
1.0
 40
2.0
 40
2.0
 40
2.0
 40
3.0
 40
3.0
 40
3.0
 40
4.0
 40
4.0
 40
4.0
 40
4.0
 10
83.73441397486823
 20
-122.5210274693699
 30
0.0
 10
83.67931008738516
 20
-122.5210274693699
 30
0.0
 10
83.63450731075041
 20
-122.476259969381
 30
0.0
 10
83.63450731075041
 20
-122.4211208027279
 30
0.0
 10
83.63450731075041
 20
-122.3653113582975
 30
0.0
 10
83.67931008738516
 20
-122.3205438583086
 30
0.0
 10
83.73441397486823
 20
-122.3205438583086
 30
0.0
 10
83.78987064012009
 20
-122.3205438583086
 30
0.0
 10
83.83467341675485
 20
-122.3653113582975
 30
0.0
 10
83.83467341675485
 20
-122.4211208027279
 30
0.0
 10
83.83467341675485
 20
-122.476259969381
 30
0.0
 10
83.78987064012009
 20
-122.5210274693699
 30
0.0
 10
83.73441397486823
 20
-122.5210274693699
 30
0.0
  0
POLYLINE
  5
A9
330
1F
100
AcDbEntity
  8
_U+30EC_U+30A4_U+30E4_U+30FC 1
 62
     7
420
 16777215
370
     9
100
AcDb2dPolyline
 66
     1
 10
0.0
 20
0.0
 30
0.0
  0
VERTEX
  5
AA
330
A9
100
AcDbEntity
  8
_U+30EC_U+30A4_U+30E4_U+30FC 1
 62
     7
420
 16777215
370
     9
100
AcDbVertex
100
AcDb2dVertex
 10
83.73441397486823
 20
-134.8813377440574
 30
0.0
  0
VERTEX
  5
AB
330
A9
100
AcDbEntity
  8
_U+30EC_U+30A4_U+30E4_U+30FC 1
 62
     7
420
 16777215
370
     9
100
AcDbVertex
100
AcDb2dVertex
 10
83.73441397486823
 20
-121.420678302978
 30
0.0
  0
SEQEND
  5
AC
330
A9
100
AcDbEntity
  8
_U+30EC_U+30A4_U+30E4_U+30FC 1
 62
     7
420
 16777215
370
     9
  0
SPLINE
  5
AD
330
1F
100
AcDbEntity
  8
_U+30EC_U+30A4_U+30E4_U+30FC 1
 62
     7
420
 16777215
370
     9
100
AcDbSpline
210
0.0
220
0.0
230
1.0
 70
    11
 71
     3
 72
    17
 73
    13
 74
     0
 42
0.0000000001
 43
0.0000000001
 12
1.0
 22
0.0
 32
0.0
 13
1.0
 23
0.0
 33
0.0
 40
0.0
 40
0.0
 40
0.0
 40
0.0
 40
1.0
 40
1.0
 40
1.0
 40
2.0
 40
2.0
 40
2.0
 40
3.0
 40
3.0
 40
3.0
 40
4.0
 40
4.0
 40
4.0
 40
4.0
 10
93.75965260799198
 20
-94.43144969861426
 30
0.0
 10
93.70451344273204
 20
-94.43144969861426
 30
0.0
 10
93.65974594387414
 20
-94.38664692084785
 30
0.0
 10
93.65974594387414
 20
-94.33154303197261
 30
0.0
 10
93.65974594387414
 20
-94.27573358754218
 30
0.0
 10
93.70451344273204
 20
-94.23093080977577
 30
0.0
 10
93.75965260799198
 20
-94.23093080977577
 30
0.0
 10
93.81510927324383
 20
-94.23093080977577
 30
0.0
 10
93.85991204987859
 20
-94.27573358754218
 30
0.0
 10
93.85991204987859
 20
-94.33154303197261
 30
0.0
 10
93.85991204987859
 20
-94.38664692084785
 30
0.0
 10
93.81510927324383
 20
-94.43144969861426
 30
0.0
 10
93.75965260799198
 20
-94.43144969861426
 30
0.0
  0
POLYLINE
  5
AE
330
1F
100
AcDbEntity
  8
_U+30EC_U+30A4_U+30E4_U+30FC 1
 62
     7
420
 16777215
370
     9
100
AcDb2dPolyline
 66
     1
 10
0.0
 20
0.0
 30
0.0
  0
VERTEX
  5
AF
330
AE
100
AcDbEntity
  8
_U+30EC_U+30A4_U+30E4_U+30FC 1
 62
     7
420
 16777215
370
     9
100
AcDbVertex
100
AcDb2dVertex
 10
99.99217744898702
 20
-94.33154303197261
 30
0.0
  0
VERTEX
  5
B0
330
AE
100
AcDbEntity
  8
_U+30EC_U+30A4_U+30E4_U+30FC 1
 62
     7
420
 16777215
370
     9
100
AcDbVertex
100
AcDb2dVertex
 10
92.53424375036587
 20
-94.33154303197261
 30
0.0
  0
SEQEND
  5
B1
330
AE
100
AcDbEntity
  8
_U+30EC_U+30A4_U+30E4_U+30FC 1
 62
     7
420
 16777215
370
     9
  0
POLYLINE
  5
B2
330
1F
100
AcDbEntity
  8
_U+30EC_U+30A4_U+30E4_U+30FC 1
 62
     7
420
 16777215
370
     9
100
AcDb2dPolyline
 66
     1
 10
0.0
 20
0.0
 30
0.0
  0
VERTEX
  5
B3
330
B2
100
AcDbEntity
  8
_U+30EC_U+30A4_U+30E4_U+30FC 1
 62
     7
420
 16777215
370
     9
100
AcDbVertex
100
AcDb2dVertex
 10
93.75965260799198
 20
-96.83129108690325
 30
0.0
  0
VERTEX
  5
B4
330
B2
100
AcDbEntity
  8
_U+30EC_U+30A4_U+30E4_U+30FC 1
 62
     7
420
 16777215
370
     9
100
AcDbVertex
100
AcDb2dVertex
 10
93.75965260799198
 20
-93.33106525444487
 30
0.0
  0
SEQEND
  5
B5
330
B2
100
AcDbEntity
  8
_U+30EC_U+30A4_U+30E4_U+30FC 1
 62
     7
420
 16777215
370
     9
  0
SPLINE
  5
B6
330
1F
100
AcDbEntity
  8
_U+30EC_U+30A4_U+30E4_U+30FC 1
 62
     7
420
 16777215
370
     9
100
AcDbSpline
210
0.0
220
0.0
230
1.0
 70
    11
 71
     3
 72
    17
 73
    13
 74
     0
 42
0.0000000001
 43
0.0000000001
 12
1.0
 22
0.0
 32
0.0
 13
1.0
 23
0.0
 33
0.0
 40
0.0
 40
0.0
 40
0.0
 40
0.0
 40
1.0
 40
1.0
 40
1.0
 40
2.0
 40
2.0
 40
2.0
 40
3.0
 40
3.0
 40
3.0
 40
4.0
 40
4.0
 40
4.0
 40
4.0
 10
94.73391897202526
 20
-94.43144969861426
 30
0.0
 10
94.6788150845422
 20
-94.43144969861426
 30
0.0
 10
94.63401230790743
 20
-94.38664692084785
 30
0.0
 10
94.63401230790743
 20
-94.33154303197261
 30
0.0
 10
94.63401230790743
 20
-94.27573358754218
 30
0.0
 10
94.6788150845422
 20
-94.23093080977577
 30
0.0
 10
94.73391897202526
 20
-94.23093080977577
 30
0.0
 10
94.78937563727712
 20
-94.23093080977577
 30
0.0
 10
94.83417841391187
 20
-94.27573358754218
 30
0.0
 10
94.83417841391187
 20
-94.33154303197261
 30
0.0
 10
94.83417841391187
 20
-94.38664692084785
 30
0.0
 10
94.78937563727712
 20
-94.43144969861426
 30
0.0
 10
94.73391897202526
 20
-94.43144969861426
 30
0.0
  0
POLYLINE
  5
B7
330
1F
100
AcDbEntity
  8
_U+30EC_U+30A4_U+30E4_U+30FC 1
 62
     7
420
 16777215
370
     9
100
AcDb2dPolyline
 66
     1
 10
0.0
 20
0.0
 30
0.0
  0
VERTEX
  5
B8
330
B7
100
AcDbEntity
  8
_U+30EC_U+30A4_U+30E4_U+30FC 1
 62
     7
420
 16777215
370
     9
100
AcDbVertex
100
AcDb2dVertex
 10
94.73391897202526
 20
-96.83129108690325
 30
0.0
  0
VERTEX
  5
B9
330
B7
100
AcDbEntity
  8
_U+30EC_U+30A4_U+30E4_U+30FC 1
 62
     7
420
 16777215
370
     9
100
AcDbVertex
100
AcDb2dVertex
 10
94.73391897202526
 20
-93.33106525444487
 30
0.0
  0
SEQEND
  5
BA
330
B7
100
AcDbEntity
  8
_U+30EC_U+30A4_U+30E4_U+30FC 1
 62
     7
420
 16777215
370
     9
  0
INSERT
  5
BC
330
1F
100
AcDbEntity
  8
_U+30EC_U+30A4_U+30E4_U+30FC 1
100
AcDbBlockReference
  2
block 2
 10
0.0
 20
0.0
 30
0.0
  0
INSERT
  5
C5
330
1F
100
AcDbEntity
  8
_U+30EC_U+30A4_U+30E4_U+30FC 1
100
AcDbBlockReference
  2
block 3
 10
0.0
 20
0.0
 30
0.0
  0
INSERT
  5
CB
330
1F
100
AcDbEntity
  8
_U+30EC_U+30A4_U+30E4_U+30FC 1
100
AcDbBlockReference
  2
block 4
 10
0.0
 20
0.0
 30
0.0
  0
INSERT
  5
D3
330
1F
100
AcDbEntity
  8
_U+30EC_U+30A4_U+30E4_U+30FC 1
100
AcDbBlockReference
  2
block 5
 10
0.0
 20
0.0
 30
0.0
  0
INSERT
  5
DB
330
1F
100
AcDbEntity
  8
_U+30EC_U+30A4_U+30E4_U+30FC 1
100
AcDbBlockReference
  2
block 6
 10
0.0
 20
0.0
 30
0.0
  0
INSERT
  5
E4
330
1F
100
AcDbEntity
  8
_U+30EC_U+30A4_U+30E4_U+30FC 1
100
AcDbBlockReference
  2
block 7
 10
0.0
 20
0.0
 30
0.0
  0
INSERT
  5
EC
330
1F
100
AcDbEntity
  8
_U+30EC_U+30A4_U+30E4_U+30FC 1
100
AcDbBlockReference
  2
block 8
 10
0.0
 20
0.0
 30
0.0
  0
INSERT
  5
F2
330
1F
100
AcDbEntity
  8
_U+30EC_U+30A4_U+30E4_U+30FC 1
100
AcDbBlockReference
  2
block 9
 10
0.0
 20
0.0
 30
0.0
  0
INSERT
  5
F8
330
1F
100
AcDbEntity
  8
_U+30EC_U+30A4_U+30E4_U+30FC 1
100
AcDbBlockReference
  2
block 10
 10
0.0
 20
0.0
 30
0.0
  0
ENDSEC
  0
SECTION
  2
OBJECTS
  0
DICTIONARY
  5
C
330
0
100
AcDbDictionary
281
     1
  3
ACAD_GROUP
350
D
  3
ACAD_LAYOUT
350
1A
  3
ACAD_MATERIAL
350
3B
  3
ACAD_MLEADERSTYLE
350
101
  3
ACAD_MLINESTYLE
350
17
  3
ACAD_PLOTSETTINGS
350
19
  3
ACAD_PLOTSTYLENAME
350
E
  3
ACAD_TABLESTYLE
350
100
  3
ACAD_VISUALSTYLE
350
2A
  0
SUN
  5
3F
330
29
100
AcDbSun
 90
        1
290
     0
 63
     7
421
 16777215
 40
1.0
291
     1
 91
  2455826
 92
 54000000
292
     0
 70
     2
 71
   256
280
     1
  0
DICTIONARY
  5
D
102
{ACAD_REACTORS
330
C
102
}
330
C
100
AcDbDictionary
281
     1
  0
DICTIONARY
  5
1A
102
{ACAD_REACTORS
330
C
102
}
330
C
100
AcDbDictionary
281
     1
  3
Layout1
350
1E
  3
Layout2
350
26
  3
Model
350
22
  0
DICTIONARY
  5
3B
102
{ACAD_REACTORS
330
C
102
}
330
C
100
AcDbDictionary
281
     1
  3
ByBlock
350
3D
  3
ByLayer
350
3C
  3
Global
350
3E
  0
DICTIONARY
  5
101
102
{ACAD_REACTORS
330
C
102
}
330
C
100
AcDbDictionary
281
     1
  0
DICTIONARY
  5
17
102
{ACAD_REACTORS
330
C
102
}
330
C
100
AcDbDictionary
281
     1
  3
Standard
350
18
  0
DICTIONARY
  5
19
102
{ACAD_REACTORS
330
C
102
}
330
C
100
AcDbDictionary
281
     1
  0
ACDBDICTIONARYWDFLT
  5
E
102
{ACAD_REACTORS
330
C
102
}
330
C
100
AcDbDictionary
281
     1
  3
Normal
350
F
100
AcDbDictionaryWithDefault
340
F
  0
DICTIONARY
  5
100
102
{ACAD_REACTORS
330
C
102
}
330
C
100
AcDbDictionary
281
     1
  0
DICTIONARY
  5
2A
102
{ACAD_REACTORS
330
C
102
}
330
C
100
AcDbDictionary
281
     1
  3
2dWireframe
350
2F
  3
3D Hidden
350
31
  3
3dWireframe
350
30
  3
Basic
350
32
  3
Brighten
350
36
  3
ColorChange
350
3A
  3
Conceptual
350
34
  3
Dim
350
35
  3
Facepattern
350
39
  3
Flat
350
2B
  3
FlatWithEdges
350
2C
  3
Gouraud
350
2D
  3
GouraudWithEdges
350
2E
  3
Linepattern
350
38
  3
Realistic
350
33
  3
Thicken
350
37
  0
LAYOUT
  5
1E
102
{ACAD_REACTORS
330
1A
102
}
330
1A
100
AcDbPlotSettings
  1

  2
none_device
  4

  6

 40
0.0
 41
0.0
 42
0.0
 43
0.0
 44
0.0
 45
0.0
 46
0.0
 47
0.0
 48
0.0
 49
0.0
140
0.0
141
0.0
142
1.0
143
1.0
 70
   688
 72
     0
 73
     0
 74
     5
  7

 75
    16
 76
     0
 77
     2
 78
   300
147
1.0
148
0.0
149
0.0
100
AcDbLayout
  1
Layout1
 70
     1
 71
     1
 10
0.0
 20
0.0
 11
12.0
 21
9.0
 12
0.0
 22
0.0
 32
0.0
 14
1.000000000000000E+20
 24
1.000000000000000E+20
 34
1.000000000000000E+20
 15
-1.000000000000000E+20
 25
-1.000000000000000E+20
 35
-1.000000000000000E+20
146
0.0
 13
0.0
 23
0.0
 33
0.0
 16
1.0
 26
0.0
 36
0.0
 17
0.0
 27
1.0
 37
0.0
 76
     0
330
1B
  0
LAYOUT
  5
26
102
{ACAD_REACTORS
330
1A
102
}
330
1A
100
AcDbPlotSettings
  1

  2
none_device
  4

  6

 40
0.0
 41
0.0
 42
0.0
 43
0.0
 44
0.0
 45
0.0
 46
0.0
 47
0.0
 48
0.0
 49
0.0
140
0.0
141
0.0
142
1.0
143
1.0
 70
   688
 72
     0
 73
     0
 74
     5
  7

 75
    16
 76
     0
 77
     2
 78
   300
147
1.0
148
0.0
149
0.0
100
AcDbLayout
  1
Layout2
 70
     1
 71
     2
 10
0.0
 20
0.0
 11
0.0
 21
0.0
 12
0.0
 22
0.0
 32
0.0
 14
0.0
 24
0.0
 34
0.0
 15
0.0
 25
0.0
 35
0.0
146
0.0
 13
0.0
 23
0.0
 33
0.0
 16
1.0
 26
0.0
 36
0.0
 17
0.0
 27
1.0
 37
0.0
 76
     0
330
23
  0
LAYOUT
  5
22
102
{ACAD_REACTORS
330
1A
102
}
330
1A
100
AcDbPlotSettings
  1

  2
none_device
  4

  6

 40
0.0
 41
0.0
 42
0.0
 43
0.0
 44
0.0
 45
0.0
 46
0.0
 47
0.0
 48
0.0
 49
0.0
140
0.0
141
0.0
142
1.0
143
1.0
 70
  1712
 72
     0
 73
     0
 74
     0
  7

 75
     0
 76
     0
 77
     2
 78
   300
147
1.0
148
0.0
149
0.0
100
AcDbLayout
  1
Model
 70
     1
 71
     0
 10
0.0
 20
0.0
 11
12.0
 21
9.0
 12
0.0
 22
0.0
 32
0.0
 14
1.000000000000000E+20
 24
1.000000000000000E+20
 34
1.000000000000000E+20
 15
-1.000000000000000E+20
 25
-1.000000000000000E+20
 35
-1.000000000000000E+20
146
0.0
 13
0.0
 23
0.0
 33
0.0
 16
1.0
 26
0.0
 36
0.0
 17
0.0
 27
1.0
 37
0.0
 76
     0
330
1F
331
29
  0
MATERIAL
  5
3D
102
{ACAD_REACTORS
330
3B
102
}
330
3B
100
AcDbMaterial
  1
ByBlock
 72
     1
 94
      127
  0
MATERIAL
  5
3C
102
{ACAD_REACTORS
330
3B
102
}
330
3B
100
AcDbMaterial
  1
ByLayer
 72
     1
 94
      127
  0
MATERIAL
  5
3E
102
{ACAD_REACTORS
330
3B
102
}
330
3B
100
AcDbMaterial
  1
Global
 72
     1
 94
      127
  0
MLINESTYLE
  5
18
102
{ACAD_REACTORS
330
17
102
}
330
17
100
AcDbMlineStyle
  2
Standard
 70
     0
  3

 62
   256
 51
90.0
 52
90.0
 71
     2
 49
0.5
 62
   256
  6
BYLAYER
 49
-0.5
 62
   256
  6
BYLAYER
  0
ACDBPLACEHOLDER
  5
F
102
{ACAD_REACTORS
330
E
102
}
330
E
  0
VISUALSTYLE
  5
2F
102
{ACAD_REACTORS
330
2A
102
}
330
2A
100
AcDbVisualStyle
  2
2dWireframe
 70
     4
177
     2
291
     0
 71
     0
176
     1
 72
     2
176
     1
 73
     0
176
     1
 90
        0
176
     1
 40
-0.6
176
     1
 41
-30.0
176
     1
 62
     5
 63
     7
421
 16777215
176
     1
 74
     1
176
     1
 91
        4
176
     1
 64
     7
176
     1
 65
   257
176
     1
 75
     1
176
     1
175
     1
176
     1
 42
1.0
176
     1
 92
        0
176
     1
 66
   257
176
     1
 43
1.0
176
     1
 76
     1
176
     1
 77
     6
176
     1
 78
     2
176
     1
 67
     7
176
     1
 79
     5
176
     1
170
     0
176
     1
171
     0
176
     1
290
     0
176
     1
 93
        1
176
     1
 44
0.0
176
     1
173
     0
176
     1
  0
VISUALSTYLE
  5
31
102
{ACAD_REACTORS
330
2A
102
}
330
2A
100
AcDbVisualStyle
  2
3D Hidden
 70
     6
177
     2
291
     0
 71
     1
176
     1
 72
     2
176
     1
 73
     2
176
     1
 90
        0
176
     1
 40
-0.6
176
     1
 41
-30.0
176
     1
 62
     5
 63
     7
421
 16777215
176
     1
 74
     2
176
     1
 91
        2
176
     1
 64
     7
176
     1
 65
   257
176
     1
 75
     2
176
     1
175
     1
176
     1
 42
40.0
176
     1
 92
        0
176
     1
 66
   257
176
     1
 43
1.0
176
     1
 76
     1
176
     1
 77
     6
176
     1
 78
     2
176
     1
 67
     7
176
     1
 79
     3
176
     1
170
     0
176
     1
171
     0
176
     1
290
     0
176
     1
 93
        1
176
     1
 44
0.0
176
     1
173
     0
176
     1
  0
VISUALSTYLE
  5
30
102
{ACAD_REACTORS
330
2A
102
}
330
2A
100
AcDbVisualStyle
  2
3dWireframe
 70
     5
177
     2
291
     0
 71
     0
176
     1
 72
     2
176
     1
 73
     0
176
     1
 90
        0
176
     1
 40
-0.6
176
     1
 41
-30.0
176
     1
 62
     5
 63
     7
421
 16777215
176
     1
 74
     1
176
     1
 91
        4
176
     1
 64
     7
176
     1
 65
   257
176
     1
 75
     1
176
     1
175
     1
176
     1
 42
1.0
176
     1
 92
        0
176
     1
 66
   257
176
     1
 43
1.0
176
     1
 76
     1
176
     1
 77
     6
176
     1
 78
     2
176
     1
 67
     7
176
     1
 79
     5
176
     1
170
     0
176
     1
171
     0
176
     1
290
     0
176
     1
 93
        1
176
     1
 44
0.0
176
     1
173
     0
176
     1
  0
VISUALSTYLE
  5
32
102
{ACAD_REACTORS
330
2A
102
}
330
2A
100
AcDbVisualStyle
  2
Basic
 70
     7
177
     2
291
     1
 71
     1
176
     1
 72
     0
176
     1
 73
     1
176
     1
 90
        0
176
     1
 40
-0.6
176
     1
 41
-30.0
176
     1
 62
     5
 63
     7
421
 16777215
176
     1
 74
     0
176
     1
 91
        4
176
     1
 64
     7
176
     1
 65
   257
176
     1
 75
     1
176
     1
175
     1
176
     1
 42
1.0
176
     1
 92
        8
176
     1
 66
     7
176
     1
 43
1.0
176
     1
 76
     1
176
     1
 77
     6
176
     1
 78
     2
176
     1
 67
     7
176
     1
 79
     5
176
     1
170
     0
176
     1
171
     0
176
     1
290
     0
176
     1
 93
        1
176
     1
 44
0.0
176
     1
173
     0
176
     1
  0
VISUALSTYLE
  5
36
102
{ACAD_REACTORS
330
2A
102
}
330
2A
100
AcDbVisualStyle
  2
Brighten
 70
    12
177
     2
291
     1
 71
     2
176
     1
 72
     2
176
     1
 73
     0
176
     1
 90
        0
176
     1
 40
-0.6
176
     1
 41
-30.0
176
     1
 62
     5
 63
     7
421
 16777215
176
     1
 74
     1
176
     1
 91
        4
176
     1
 64
     7
176
     1
 65
   257
176
     1
 75
     1
176
     1
175
     1
176
     1
 42
1.0
176
     1
 92
        8
176
     1
 66
     7
176
     1
 43
1.0
176
     1
 76
     1
176
     1
 77
     6
176
     1
 78
     2
176
     1
 67
     7
176
     1
 79
     5
176
     1
170
     0
176
     1
171
     0
176
     1
290
     0
176
     1
 93
        1
176
     1
 44
50.0
176
     1
173
     0
176
     1
  0
VISUALSTYLE
  5
3A
102
{ACAD_REACTORS
330
2A
102
}
330
2A
100
AcDbVisualStyle
  2
ColorChange
 70
    16
177
     2
291
     1
 71
     2
176
     1
 72
     2
176
     1
 73
     3
176
     1
 90
        0
176
     1
 40
-0.6
176
     1
 41
-30.0
176
     1
 62
     5
 63
     8
421
  8421504
176
     1
 74
     1
176
     1
 91
        4
176
     1
 64
     7
176
     1
 65
   257
176
     1
 75
     1
176
     1
175
     1
176
     1
 42
1.0
176
     1
 92
        8
176
     1
 66
     8
424
  8421504
176
     1
 43
1.0
176
     1
 76
     1
176
     1
 77
     6
176
     1
 78
     2
176
     1
 67
     7
176
     1
 79
     5
176
     1
170
     0
176
     1
171
     0
176
     1
290
     0
176
     1
 93
        1
176
     1
 44
0.0
176
     1
173
     0
176
     1
  0
VISUALSTYLE
  5
34
102
{ACAD_REACTORS
330
2A
102
}
330
2A
100
AcDbVisualStyle
  2
Conceptual
 70
     9
177
     2
291
     0
 71
     3
176
     1
 72
     2
176
     1
 73
     0
176
     1
 90
        0
176
     1
 40
-0.6
176
     1
 41
-30.0
176
     1
 62
     5
 63
     7
421
 16777215
176
     1
 74
     2
176
     1
 91
        2
176
     1
 64
     7
176
     1
 65
   257
176
     1
 75
     1
176
     1
175
     1
176
     1
 42
40.0
176
     1
 92
        8
176
     1
 66
     7
176
     1
 43
1.0
176
     1
 76
     1
176
     1
 77
     6
176
     1
 78
     2
176
     1
 67
     7
176
     1
 79
     3
176
     1
170
     0
176
     1
171
     0
176
     1
290
     0
176
     1
 93
        1
176
     1
 44
0.0
176
     1
173
     0
176
     1
  0
VISUALSTYLE
  5
35
102
{ACAD_REACTORS
330
2A
102
}
330
2A
100
AcDbVisualStyle
  2
Dim
 70
    11
177
     2
291
     1
 71
     2
176
     1
 72
     2
176
     1
 73
     0
176
     1
 90
        0
176
     1
 40
-0.6
176
     1
 41
-30.0
176
     1
 62
     5
 63
     7
421
 16777215
176
     1
 74
     1
176
     1
 91
        4
176
     1
 64
     7
176
     1
 65
   257
176
     1
 75
     1
176
     1
175
     1
176
     1
 42
1.0
176
     1
 92
        8
176
     1
 66
     7
176
     1
 43
1.0
176
     1
 76
     1
176
     1
 77
     6
176
     1
 78
     2
176
     1
 67
     7
176
     1
 79
     5
176
     1
170
     0
176
     1
171
     0
176
     1
290
     0
176
     1
 93
        1
176
     1
 44
-50.0
176
     1
173
     0
176
     1
  0
VISUALSTYLE
  5
39
102
{ACAD_REACTORS
330
2A
102
}
330
2A
100
AcDbVisualStyle
  2
Facepattern
 70
    15
177
     2
291
     1
 71
     2
176
     1
 72
     2
176
     1
 73
     0
176
     1
 90
        0
176
     1
 40
-0.6
176
     1
 41
-30.0
176
     1
 62
     5
 63
     7
421
 16777215
176
     1
 74
     1
176
     1
 91
        4
176
     1
 64
     7
176
     1
 65
   257
176
     1
 75
     1
176
     1
175
     1
176
     1
 42
1.0
176
     1
 92
        8
176
     1
 66
     7
176
     1
 43
1.0
176
     1
 76
     1
176
     1
 77
     6
176
     1
 78
     2
176
     1
 67
     7
176
     1
 79
     5
176
     1
170
     0
176
     1
171
     0
176
     1
290
     0
176
     1
 93
        1
176
     1
 44
0.0
176
     1
173
     0
176
     1
  0
VISUALSTYLE
  5
2B
102
{ACAD_REACTORS
330
2A
102
}
330
2A
100
AcDbVisualStyle
  2
Flat
 70
     0
177
     2
291
     1
 71
     2
176
     1
 72
     1
176
     1
 73
     1
176
     1
 90
        2
176
     1
 40
-0.6
176
     1
 41
30.0
176
     1
 62
     5
 63
     7
421
 16777215
176
     1
 74
     0
176
     1
 91
        4
176
     1
 64
     7
176
     1
 65
   257
176
     1
 75
     1
176
     1
175
     1
176
     1
 42
1.0
176
     1
 92
        8
176
     1
 66
     7
176
     1
 43
1.0
176
     1
 76
     1
176
     1
 77
     6
176
     1
 78
     2
176
     1
 67
     7
176
     1
 79
     5
176
     1
170
     0
176
     1
171
     0
176
     1
290
     0
176
     1
 93
       13
176
     1
 44
0.0
176
     1
173
     0
176
     1
  0
VISUALSTYLE
  5
2C
102
{ACAD_REACTORS
330
2A
102
}
330
2A
100
AcDbVisualStyle
  2
FlatWithEdges
 70
     1
177
     2
291
     1
 71
     2
176
     1
 72
     1
176
     1
 73
     1
176
     1
 90
        2
176
     1
 40
-0.6
176
     1
 41
30.0
176
     1
 62
     5
 63
     7
421
 16777215
176
     1
 74
     1
176
     1
 91
        4
176
     1
 64
     7
176
     1
 65
   257
176
     1
 75
     1
176
     1
175
     1
176
     1
 42
1.0
176
     1
 92
        0
176
     1
 66
   257
176
     1
 43
1.0
176
     1
 76
     1
176
     1
 77
     6
176
     1
 78
     2
176
     1
 67
     7
176
     1
 79
     5
176
     1
170
     0
176
     1
171
     0
176
     1
290
     0
176
     1
 93
       13
176
     1
 44
0.0
176
     1
173
     0
176
     1
  0
VISUALSTYLE
  5
2D
102
{ACAD_REACTORS
330
2A
102
}
330
2A
100
AcDbVisualStyle
  2
Gouraud
 70
     2
177
     2
291
     1
 71
     2
176
     1
 72
     2
176
     1
 73
     1
176
     1
 90
        2
176
     1
 40
-0.6
176
     1
 41
30.0
176
     1
 62
     5
 63
     7
421
 16777215
176
     1
 74
     0
176
     1
 91
        4
176
     1
 64
     7
176
     1
 65
   257
176
     1
 75
     1
176
     1
175
     1
176
     1
 42
1.0
176
     1
 92
        0
176
     1
 66
     7
176
     1
 43
1.0
176
     1
 76
     1
176
     1
 77
     6
176
     1
 78
     2
176
     1
 67
     7
176
     1
 79
     5
176
     1
170
     0
176
     1
171
     0
176
     1
290
     0
176
     1
 93
       13
176
     1
 44
0.0
176
     1
173
     0
176
     1
  0
VISUALSTYLE
  5
2E
102
{ACAD_REACTORS
330
2A
102
}
330
2A
100
AcDbVisualStyle
  2
GouraudWithEdges
 70
     3
177
     2
291
     1
 71
     2
176
     1
 72
     2
176
     1
 73
     1
176
     1
 90
        2
176
     1
 40
-0.6
176
     1
 41
30.0
176
     1
 62
     5
 63
     7
421
 16777215
176
     1
 74
     1
176
     1
 91
        4
176
     1
 64
     7
176
     1
 65
   257
176
     1
 75
     1
176
     1
175
     1
176
     1
 42
1.0
176
     1
 92
        0
176
     1
 66
   257
176
     1
 43
1.0
176
     1
 76
     1
176
     1
 77
     6
176
     1
 78
     2
176
     1
 67
     7
176
     1
 79
     5
176
     1
170
     0
176
     1
171
     0
176
     1
290
     0
176
     1
 93
       13
176
     1
 44
0.0
176
     1
173
     0
176
     1
  0
VISUALSTYLE
  5
38
102
{ACAD_REACTORS
330
2A
102
}
330
2A
100
AcDbVisualStyle
  2
Linepattern
 70
    14
177
     2
291
     1
 71
     2
176
     1
 72
     2
176
     1
 73
     0
176
     1
 90
        0
176
     1
 40
-0.6
176
     1
 41
-30.0
176
     1
 62
     5
 63
     7
421
 16777215
176
     1
 74
     1
176
     1
 91
        4
176
     1
 64
     7
176
     1
 65
   257
176
     1
 75
     7
176
     1
175
     7
176
     1
 42
1.0
176
     1
 92
        8
176
     1
 66
     7
176
     1
 43
1.0
176
     1
 76
     1
176
     1
 77
     6
176
     1
 78
     2
176
     1
 67
     7
176
     1
 79
     5
176
     1
170
     0
176
     1
171
     0
176
     1
290
     0
176
     1
 93
        1
176
     1
 44
0.0
176
     1
173
     0
176
     1
  0
VISUALSTYLE
  5
33
102
{ACAD_REACTORS
330
2A
102
}
330
2A
100
AcDbVisualStyle
  2
Realistic
 70
     8
177
     2
291
     0
 71
     2
176
     1
 72
     2
176
     1
 73
     0
176
     1
 90
        0
176
     1
 40
-0.6
176
     1
 41
-30.0
176
     1
 62
     5
 63
     7
421
 16777215
176
     1
 74
     1
176
     1
 91
        0
176
     1
 64
     7
176
     1
 65
   257
176
     1
 75
     1
176
     1
175
     1
176
     1
 42
1.0
176
     1
 92
        8
176
     1
 66
     8
424
  7895160
176
     1
 43
1.0
176
     1
 76
     1
176
     1
 77
     6
176
     1
 78
     2
176
     1
 67
     7
176
     1
 79
     5
176
     1
170
     0
176
     1
171
     0
176
     1
290
     0
176
     1
 93
       13
176
     1
 44
0.0
176
     1
173
     0
176
     1
  0
VISUALSTYLE
  5
37
102
{ACAD_REACTORS
330
2A
102
}
330
2A
100
AcDbVisualStyle
  2
Thicken
 70
    13
177
     2
291
     1
 71
     2
176
     1
 72
     2
176
     1
 73
     0
176
     1
 90
        0
176
     1
 40
-0.6
176
     1
 41
-30.0
176
     1
 62
     5
 63
     7
421
 16777215
176
     1
 74
     1
176
     1
 91
        4
176
     1
 64
     7
176
     1
 65
   257
176
     1
 75
     1
176
     1
175
     1
176
     1
 42
1.0
176
     1
 92
       12
176
     1
 66
     7
176
     1
 43
1.0
176
     1
 76
     1
176
     1
 77
     6
176
     1
 78
     2
176
     1
 67
     7
176
     1
 79
     5
176
     1
170
     0
176
     1
171
     0
176
     1
290
     0
176
     1
 93
        1
176
     1
 44
0.0
176
     1
173
     0
176
     1
  0
ENDSEC
  0
EOF
