  0
SECTION
  2
HEADER
  9
$ACADVER
  1
AC1024
  9
$ACADMAINTVER
 70
     6
  9
$DWGCODEPAGE
  3
UNDEFINED
  9
$INSBASE
 10
0.0
 20
0.0
 30
0.0
  9
$EXTMIN
 10
1.000000000000000E+20
 20
1.000000000000000E+20
 30
1.000000000000000E+20
  9
$EXTMAX
 10
-1.000000000000000E+20
 20
-1.000000000000000E+20
 30
-1.000000000000000E+20
  9
$LIMMIN
 10
0.0
 20
0.0
  9
$LIMMAX
 10
12.0
 20
9.0
  9
$ORTHOMODE
 70
     0
  9
$REGENMODE
 70
     1
  9
$FILLMODE
 70
     1
  9
$QTEXTMODE
 70
     0
  9
$MIRRTEXT
 70
     1
  9
$LTSCALE
 40
1.0
  9
$ATTMODE
 70
     1
  9
$TEXTSIZE
 40
0.2
  9
$TRACEWID
 40
0.05
  9
$TEXTSTYLE
  7
Standard
  9
$CLAYER
  8
0
  9
$CELTYPE
  6
ByLayer
  9
$CECOLOR
 62
   256
  9
$CELTSCALE
 40
1.0
  9
$DISPSILH
 70
     0
  9
$DIMSCALE
 40
1.0
  9
$DIMASZ
 40
0.18
  9
$DIMEXO
 40
0.0625
  9
$DIMDLI
 40
0.38
  9
$DIMRND
 40
0.0
  9
$DIMDLE
 40
0.0
  9
$DIMEXE
 40
0.18
  9
$DIMTP
 40
0.0
  9
$DIMTM
 40
0.0
  9
$DIMTXT
 40
0.18
  9
$DIMCEN
 40
0.09
  9
$DIMTSZ
 40
0.0
  9
$DIMTOL
 70
     0
  9
$DIMLIM
 70
     0
  9
$DIMTIH
 70
     1
  9
$DIMTOH
 70
     1
  9
$DIMSE1
 70
     0
  9
$DIMSE2
 70
     0
  9
$DIMTAD
 70
     0
  9
$DIMZIN
 70
     0
  9
$DIMBLK
  1

  9
$DIMASO
 70
     1
  9
$DIMSHO
 70
     1
  9
$DIMPOST
  1

  9
$DIMAPOST
  1

  9
$DIMALT
 70
     0
  9
$DIMALTD
 70
     2
  9
$DIMALTF
 40
25.4
  9
$DIMLFAC
 40
1.0
  9
$DIMTOFL
 70
     0
  9
$DIMTVP
 40
0.0
  9
$DIMTIX
 70
     0
  9
$DIMSOXD
 70
     0
  9
$DIMSAH
 70
     0
  9
$DIMBLK1
  1

  9
$DIMBLK2
  1

  9
$DIMSTYLE
  2
Standard
  9
$DIMCLRD
 70
     0
  9
$DIMCLRE
 70
     0
  9
$DIMCLRT
 70
     0
  9
$DIMTFAC
 40
1.0
  9
$DIMGAP
 40
0.09
  9
$DIMJUST
 70
     0
  9
$DIMSD1
 70
     0
  9
$DIMSD2
 70
     0
  9
$DIMTOLJ
 70
     1
  9
$DIMTZIN
 70
     0
  9
$DIMALTZ
 70
     0
  9
$DIMALTTZ
 70
     0
  9
$DIMUPT
 70
     0
  9
$DIMDEC
 70
     4
  9
$DIMTDEC
 70
     4
  9
$DIMALTU
 70
     2
  9
$DIMALTTD
 70
     2
  9
$DIMTXSTY
  7
Standard
  9
$DIMAUNIT
 70
     0
  9
$DIMADEC
 70
     0
  9
$DIMALTRND
 40
0.0
  9
$DIMAZIN
 70
     0
  9
$DIMDSEP
 70
    46
  9
$DIMATFIT
 70
     3
  9
$DIMFRAC
 70
     0
  9
$DIMLDRBLK
  1

  9
$DIMLUNIT
 70
     2
  9
$DIMLWD
 70
    -2
  9
$DIMLWE
 70
    -2
  9
$DIMTMOVE
 70
     0
  9
$DIMFXL
 40
1.0
  9
$DIMFXLON
 70
     0
  9
$DIMJOGANG
 40
0.7853981633974483
  9
$DIMTFILL
 70
     0
  9
$DIMTFILLCLR
 70
     0
  9
$DIMARCSYM
 70
     0
  9
$DIMLTYPE
  6

  9
$DIMLTEX1
  6

  9
$DIMLTEX2
  6

  9
$DIMTXTDIRECTION
 70
     0
  9
$LUNITS
 70
     2
  9
$LUPREC
 70
     4
  9
$SKETCHINC
 40
0.1
  9
$FILLETRAD
 40
0.5
  9
$AUNITS
 70
     0
  9
$AUPREC
 70
     0
  9
$MENU
  1
.
  9
$ELEVATION
 40
0.0
  9
$PELEVATION
 40
0.0
  9
$THICKNESS
 40
0.0
  9
$LIMCHECK
 70
     0
  9
$CHAMFERA
 40
0.5
  9
$CHAMFERB
 40
0.5
  9
$CHAMFERC
 40
1.0
  9
$CHAMFERD
 40
0.0
  9
$SKPOLY
 70
     0
  9
$TDCREATE
 40
2457917.614166667
  9
$TDUCREATE
 40
2457917.239166667
  9
$TDUPDATE
 40
2457917.614166667
  9
$TDUUPDATE
 40
2457917.239166667
  9
$TDINDWG
 40
0.0000000116
  9
$TDUSRTIMER
 40
0.0000000116
  9
$USRTIMER
 70
     1
  9
$ANGBASE
 50
0.0
  9
$ANGDIR
 70
     0
  9
$PDMODE
 70
     0
  9
$PDSIZE
 40
0.0
  9
$PLINEWID
 40
0.0
  9
$SPLFRAME
 70
     0
  9
$SPLINETYPE
 70
     6
  9
$SPLINESEGS
 70
     8
  9
$HANDSEED
  5
FD
  9
$SURFTAB1
 70
     6
  9
$SURFTAB2
 70
     6
  9
$SURFTYPE
 70
     6
  9
$SURFU
 70
     6
  9
$SURFV
 70
     6
  9
$UCSBASE
  2

  9
$UCSNAME
  2

  9
$UCSORG
 10
0.0
 20
0.0
 30
0.0
  9
$UCSXDIR
 10
1.0
 20
0.0
 30
0.0
  9
$UCSYDIR
 10
0.0
 20
1.0
 30
0.0
  9
$UCSORTHOREF
  2

  9
$UCSORTHOVIEW
 70
     0
  9
$UCSORGTOP
 10
0.0
 20
0.0
 30
0.0
  9
$UCSORGBOTTOM
 10
0.0
 20
0.0
 30
0.0
  9
$UCSORGLEFT
 10
0.0
 20
0.0
 30
0.0
  9
$UCSORGRIGHT
 10
0.0
 20
0.0
 30
0.0
  9
$UCSORGFRONT
 10
0.0
 20
0.0
 30
0.0
  9
$UCSORGBACK
 10
0.0
 20
0.0
 30
0.0
  9
$PUCSBASE
  2

  9
$PUCSNAME
  2

  9
$PUCSORG
 10
0.0
 20
0.0
 30
0.0
  9
$PUCSXDIR
 10
1.0
 20
0.0
 30
0.0
  9
$PUCSYDIR
 10
0.0
 20
1.0
 30
0.0
  9
$PUCSORTHOREF
  2

  9
$PUCSORTHOVIEW
 70
     0
  9
$PUCSORGTOP
 10
0.0
 20
0.0
 30
0.0
  9
$PUCSORGBOTTOM
 10
0.0
 20
0.0
 30
0.0
  9
$PUCSORGLEFT
 10
0.0
 20
0.0
 30
0.0
  9
$PUCSORGRIGHT
 10
0.0
 20
0.0
 30
0.0
  9
$PUCSORGFRONT
 10
0.0
 20
0.0
 30
0.0
  9
$PUCSORGBACK
 10
0.0
 20
0.0
 30
0.0
  9
$USERI1
 70
     0
  9
$USERI2
 70
     0
  9
$USERI3
 70
     0
  9
$USERI4
 70
     0
  9
$USERI5
 70
     0
  9
$USERR1
 40
0.0
  9
$USERR2
 40
0.0
  9
$USERR3
 40
0.0
  9
$USERR4
 40
0.0
  9
$USERR5
 40
0.0
  9
$WORLDVIEW
 70
     1
  9
$SHADEDGE
 70
     3
  9
$SHADEDIF
 70
    70
  9
$TILEMODE
 70
     1
  9
$MAXACTVP
 70
    64
  9
$PINSBASE
 10
0.0
 20
0.0
 30
0.0
  9
$PLIMCHECK
 70
     0
  9
$PEXTMIN
 10
1.000000000000000E+20
 20
1.000000000000000E+20
 30
1.000000000000000E+20
  9
$PEXTMAX
 10
-1.000000000000000E+20
 20
-1.000000000000000E+20
 30
-1.000000000000000E+20
  9
$PLIMMIN
 10
0.0
 20
0.0
  9
$PLIMMAX
 10
12.0
 20
9.0
  9
$UNITMODE
 70
     0
  9
$VISRETAIN
 70
     1
  9
$PLINEGEN
 70
     0
  9
$PSLTSCALE
 70
     1
  9
$TREEDEPTH
 70
  3020
  9
$CMLSTYLE
  2
Standard
  9
$CMLJUST
 70
     0
  9
$CMLSCALE
 40
1.0
  9
$PROXYGRAPHICS
 70
     1
  9
$MEASUREMENT
 70
     0
  9
$CELWEIGHT
370
    -1
  9
$ENDCAPS
280
     0
  9
$JOINSTYLE
280
     0
  9
$LWDISPLAY
290
     1
  9
$INSUNITS
 70
     1
  9
$HYPERLINKBASE
  1

  9
$STYLESHEET
  1

  9
$XEDIT
290
     1
  9
$CEPSNTYPE
380
     0
  9
$PSTYLEMODE
290
     1
  9
$FINGERPRINTGUID
  2
{693A08D3-BC1F-1590-0B61-93591A63480F}
  9
$VERSIONGUID
  2
{FAEB1C32-E019-11D5-929B-00C0DF256EC4}
  9
$EXTNAMES
290
     1
  9
$PSVPSCALE
 40
0.0
  9
$OLESTARTUP
290
     0
  9
$SORTENTS
280
   127
  9
$INDEXCTL
280
     0
  9
$HIDETEXT
280
     1
  9
$XCLIPFRAME
280
     2
  9
$HALOGAP
280
     0
  9
$OBSCOLOR
 70
   257
  9
$OBSLTYPE
280
     0
  9
$INTERSECTIONDISPLAY
280
     0
  9
$INTERSECTIONCOLOR
 70
   257
  9
$DIMASSOC
280
     2
  9
$PROJECTNAME
  1

  9
$CAMERADISPLAY
290
     0
  9
$LENSLENGTH
 40
50.0
  9
$CAMERAHEIGHT
 40
0.0
  9
$STEPSPERSEC
 40
2.0
  9
$STEPSIZE
 40
6.0
  9
$3DDWFPREC
 40
2.0
  9
$PSOLWIDTH
 40
0.25
  9
$PSOLHEIGHT
 40
4.0
  9
$LOFTANG1
 40
1.570796326794897
  9
$LOFTANG2
 40
1.570796326794897
  9
$LOFTMAG1
 40
0.0
  9
$LOFTMAG2
 40
0.0
  9
$LOFTPARAM
 70
     7
  9
$LOFTNORMALS
280
     1
  9
$LATITUDE
 40
37.795
  9
$LONGITUDE
 40
-122.394
  9
$NORTHDIRECTION
 40
0.0
  9
$TIMEZONE
 70
 -8000
  9
$LIGHTGLYPHDISPLAY
280
     1
  9
$TILEMODELIGHTSYNCH
280
     1
  9
$CMATERIAL
347
3C
  9
$SOLIDHIST
280
     1
  9
$SHOWHIST
280
     1
  9
$DWFFRAME
280
     2
  9
$DGNFRAME
280
     2
  9
$REALWORLDSCALE
290
     1
  9
$INTERFERECOLOR
 62
   256
  9
$CSHADOW
280
     0
  9
$SHADOWPLANELOCATION
 40
0.0
  0
ENDSEC
  0
SECTION
  2
CLASSES
  0
CLASS
  1
ACDBDICTIONARYWDFLT
  2
AcDbDictionaryWithDefault
  3
ObjectDBX Classes
 90
        0
 91
        4
280
     0
281
     0
  0
CLASS
  1
VISUALSTYLE
  2
AcDbVisualStyle
  3
ObjectDBX Classes
 90
     4095
 91
        4
280
     0
281
     0
  0
CLASS
  1
MATERIAL
  2
AcDbMaterial
  3
ObjectDBX Classes
 90
     1153
 91
        4
280
     0
281
     0
  0
CLASS
  1
SUN
  2
AcDbSun
  3
SCENEOE
 90
     1024
 91
        4
280
     0
281
     0
  0
ENDSEC
  0
SECTION
  2
TABLES
  0
TABLE
  2
VPORT
  5
8
330
0
100
AcDbSymbolTable
 70
     1
  0
VPORT
  5
29
330
8
100
AcDbSymbolTableRecord
100
AcDbViewportTableRecord
  2
*Active
 70
     0
 10
0.0
 20
0.0
 11
1.0
 21
1.0
 12
0.0
 22
0.0
 13
0.0
 23
0.0
 14
0.5
 24
0.5
 15
0.5
 25
0.5
 16
0.0
 26
0.0
 36
1.0
 17
91.00082462281999
 27
-128.4993055234307
 37
0.0
 40
256.9986110468615
 41
0.7081814508812795
 42
50.0
 43
0.0
 44
0.0
 50
0.0
 51
0.0
 71
     0
 72
   100
 73
     1
 74
     3
 75
     0
 76
     0
 77
     0
 78
     0
281
     0
 65
     1
110
0.0
120
0.0
130
0.0
111
1.0
121
0.0
131
0.0
112
0.0
122
1.0
132
0.0
 79
     0
146
0.0
 60
     3
 61
     5
292
     1
282
     1
141
0.0
142
0.0
 63
   250
361
3F
  0
ENDTAB
  0
TABLE
  2
LTYPE
  5
5
330
0
100
AcDbSymbolTable
 70
     1
  0
LTYPE
  5
14
330
5
100
AcDbSymbolTableRecord
100
AcDbLinetypeTableRecord
  2
ByBlock
 70
     0
  3

 72
    65
 73
     0
 40
0.0
  0
LTYPE
  5
15
330
5
100
AcDbSymbolTableRecord
100
AcDbLinetypeTableRecord
  2
ByLayer
 70
     0
  3

 72
    65
 73
     0
 40
0.0
  0
LTYPE
  5
16
330
5
100
AcDbSymbolTableRecord
100
AcDbLinetypeTableRecord
  2
Continuous
 70
     0
  3
Solid line
 72
    65
 73
     0
 40
0.0
  0
ENDTAB
  0
TABLE
  2
LAYER
  5
2
330
0
100
AcDbSymbolTable
 70
     2
  0
LAYER
  5
10
330
2
100
AcDbSymbolTableRecord
100
AcDbLayerTableRecord
  2
0
 70
     0
 62
     7
  6
Continuous
370
    -3
390
F
347
3E
  0
LAYER
  5
40
330
2
100
AcDbSymbolTableRecord
100
AcDbLayerTableRecord
  2
_U+30EC_U+30A4_U+30E4_U+30FC 1
 70
     0
 62
     7
  6
Continuous
370
    -3
390
F
347
3E
  0
ENDTAB
  0
TABLE
  2
STYLE
  5
3
330
0
100
AcDbSymbolTable
 70
     1
  0
STYLE
  5
11
330
3
100
AcDbSymbolTableRecord
100
AcDbTextStyleTableRecord
  2
Standard
 70
     0
 40
0.0
 41
1.0
 50
0.0
 71
     0
 42
0.2
  3
txt
  4

  0
ENDTAB
  0
TABLE
  2
VIEW
  5
6
330
0
100
AcDbSymbolTable
 70
     0
  0
ENDTAB
  0
TABLE
  2
UCS
  5
7
330
0
100
AcDbSymbolTable
 70
     0
  0
ENDTAB
  0
TABLE
  2
APPID
  5
9
330
0
100
AcDbSymbolTable
 70
     1
  0
APPID
  5
12
330
9
100
AcDbSymbolTableRecord
100
AcDbRegAppTableRecord
  2
ACAD
 70
     0
  0
ENDTAB
  0
TABLE
  2
DIMSTYLE
  5
A
330
0
100
AcDbSymbolTable
 70
     1
100
AcDbDimStyleTable
  0
DIMSTYLE
105
27
330
A
100
AcDbSymbolTableRecord
100
AcDbDimStyleTableRecord
  2
Standard
 70
     0
178
     0
340
11
  0
ENDTAB
  0
TABLE
  2
BLOCK_RECORD
  5
1
330
0
100
AcDbSymbolTable
 70
    10
  0
BLOCK_RECORD
  5
1F
330
1
100
AcDbSymbolTableRecord
100
AcDbBlockTableRecord
  2
*Model_Space
340
22
 70
     0
280
     1
281
     0
  0
BLOCK_RECORD
  5
1B
330
1
100
AcDbSymbolTableRecord
100
AcDbBlockTableRecord
  2
*Paper_Space
340
1E
 70
     0
280
     1
281
     0
  0
BLOCK_RECORD
  5
23
330
1
100
AcDbSymbolTableRecord
100
AcDbBlockTableRecord
  2
*Paper_Space0
340
26
 70
     0
280
     1
281
     0
  0
BLOCK_RECORD
  5
B9
330
1
100
AcDbSymbolTableRecord
100
AcDbBlockTableRecord
  2
block 2
340
0
102
{BLKREFS
331
BA
102
}
 70
     0
280
     1
281
     0
  0
BLOCK_RECORD
  5
C2
330
1
100
AcDbSymbolTableRecord
100
AcDbBlockTableRecord
  2
block 3
340
0
102
{BLKREFS
331
C3
102
}
 70
     0
280
     1
281
     0
  0
BLOCK_RECORD
  5
C8
330
1
100
AcDbSymbolTableRecord
100
AcDbBlockTableRecord
  2
block 4
340
0
102
{BLKREFS
331
C9
102
}
 70
     0
280
     1
281
     0
  0
BLOCK_RECORD
  5
D0
330
1
100
AcDbSymbolTableRecord
100
AcDbBlockTableRecord
  2
block 5
340
0
102
{BLKREFS
331
D1
102
}
 70
     0
280
     1
281
     0
  0
BLOCK_RECORD
  5
D8
330
1
100
AcDbSymbolTableRecord
100
AcDbBlockTableRecord
  2
block 6
340
0
102
{BLKREFS
331
D9
102
}
 70
     0
280
     1
281
     0
  0
BLOCK_RECORD
  5
E1
330
1
100
AcDbSymbolTableRecord
100
AcDbBlockTableRecord
  2
block 7
340
0
102
{BLKREFS
331
E2
102
}
 70
     0
280
     1
281
     0
  0
BLOCK_RECORD
  5
E9
330
1
100
AcDbSymbolTableRecord
100
AcDbBlockTableRecord
  2
block 8
340
0
102
{BLKREFS
331
EA
102
}
 70
     0
280
     1
281
     0
  0
BLOCK_RECORD
  5
EF
330
1
100
AcDbSymbolTableRecord
100
AcDbBlockTableRecord
  2
block 9
340
0
102
{BLKREFS
331
F0
102
}
 70
     0
280
     1
281
     0
  0
BLOCK_RECORD
  5
F5
330
1
100
AcDbSymbolTableRecord
100
AcDbBlockTableRecord
  2
block 10
340
0
102
{BLKREFS
331
F6
102
}
 70
     0
280
     1
281
     0
  0
ENDTAB
  0
ENDSEC
  0
SECTION
  2
BLOCKS
  0
BLOCK
  5
20
330
1F
100
AcDbEntity
  8
0
100
AcDbBlockBegin
  2
*Model_Space
 70
     0
 10
0.0
 20
0.0
 30
0.0
  3
*Model_Space
  1

  0
ENDBLK
  5
21
330
1F
100
AcDbEntity
  8
0
100
AcDbBlockEnd
  0
BLOCK
  5
1C
330
1B
100
AcDbEntity
 67
     1
  8
0
100
AcDbBlockBegin
  2
*Paper_Space
 70
     0
 10
0.0
 20
0.0
 30
0.0
  3
*Paper_Space
  1

  0
ENDBLK
  5
1D
330
1B
100
AcDbEntity
 67
     1
  8
0
100
AcDbBlockEnd
  0
BLOCK
  5
24
330
23
100
AcDbEntity
  8
0
100
AcDbBlockBegin
  2
*Paper_Space0
 70
     0
 10
0.0
 20
0.0
 30
0.0
  3
*Paper_Space0
  1

  0
ENDBLK
  5
25
330
23
100
AcDbEntity
  8
0
100
AcDbBlockEnd
  0
BLOCK
  5
BB
330
B9
100
AcDbEntity
  8
0
100
AcDbBlockBegin
  2
block 2
 70
     0
 10
0.0
 20
0.0
 30
0.0
  3
block 2
  1

  0
SPLINE
  5
BD
330
B9
100
AcDbEntity
  8
_U+30EC_U+30A4_U+30E4_U+30FC 1
370
     0
100
AcDbSpline
210
0.0
220
0.0
230
1.0
 70
    11
 71
     3
 72
    26
 73
    22
 74
     0
 42
0.0000000001
 43
0.0000000001
 12
1.0
 22
0.0
 32
0.0
 13
1.0
 23
0.0
 33
0.0
 40
0.0
 40
0.0
 40
0.0
 40
0.0
 40
1.0
 40
1.0
 40
1.0
 40
2.0
 40
2.0
 40
2.0
 40
3.0
 40
3.0
 40
3.0
 40
4.0
 40
4.0
 40
4.0
 40
5.0
 40
5.0
 40
5.0
 40
6.0
 40
6.0
 40
6.0
 40
7.0
 40
7.0
 40
7.0
 40
7.0
 10
76.07115340980165
 20
-141.9344888968081
 30
0.0
 10
76.07115340980165
 20
-141.9344888968081
 30
0.0
 10
74.96682805200483
 20
-141.9344888968081
 30
0.0
 10
74.96682805200483
 20
-141.9344888968081
 30
0.0
 10
74.96682805200483
 20
-141.9344888968081
 30
0.0
 10
74.96682805200483
 20
-142.264529044295
 30
0.0
 10
74.96682805200483
 20
-142.264529044295
 30
0.0
 10
74.96682805200483
 20
-142.264529044295
 30
0.0
 10
74.81868894613908
 20
-142.264529044295
 30
0.0
 10
74.81868894613908
 20
-142.264529044295
 30
0.0
 10
74.80404729032676
 20
-141.9324218395169
 30
0.0
 10
74.64109427387446
 20
-141.885913050466
 30
0.0
 10
74.52688935853843
 20
-141.8562852292929
 30
0.0
 10
74.52688935853843
 20
-141.8562852292929
 30
0.0
 10
74.52688935853843
 20
-141.7102131807183
 30
0.0
 10
74.52688935853843
 20
-141.7102131807183
 30
0.0
 10
74.52688935853843
 20
-141.7102131807183
 30
0.0
 10
76.07115340980165
 20
-141.7102131807183
 30
0.0
 10
76.07115340980165
 20
-141.7102131807183
 30
0.0
 10
76.07115340980165
 20
-141.7102131807183
 30
0.0
 10
76.07115340980165
 20
-141.9344888968081
 30
0.0
 10
76.07115340980165
 20
-141.9344888968081
 30
0.0
  0
HATCH
  5
BE
330
B9
100
AcDbEntity
  8
_U+30EC_U+30A4_U+30E4_U+30FC 1
 62
     7
420
 16777215
100
AcDbHatch
 10
0.0
 20
0.0
 30
0.0
210
0.0
220
0.0
230
1.0
  2
SOLID
 70
     1
 71
     0
 91
        1
 92
        1
 93
        1
 72
     4
 94
        3
 73
     0
 74
     1
 95
       26
 96
       22
 40
0.0
 40
0.0
 40
0.0
 40
0.0
 40
1.0
 40
1.0
 40
1.0
 40
2.0
 40
2.0
 40
2.0
 40
3.0
 40
3.0
 40
3.0
 40
4.0
 40
4.0
 40
4.0
 40
5.0
 40
5.0
 40
5.0
 40
6.0
 40
6.0
 40
6.0
 40
7.0
 40
7.0
 40
7.0
 40
7.0
 10
76.07115340980165
 20
-141.9344888968081
 10
76.07115340980165
 20
-141.9344888968081
 10
74.96682805200483
 20
-141.9344888968081
 10
74.96682805200483
 20
-141.9344888968081
 10
74.96682805200483
 20
-141.9344888968081
 10
74.96682805200483
 20
-142.264529044295
 10
74.96682805200483
 20
-142.264529044295
 10
74.96682805200483
 20
-142.264529044295
 10
74.81868894613908
 20
-142.264529044295
 10
74.81868894613908
 20
-142.264529044295
 10
74.80404729032676
 20
-141.9324218395169
 10
74.64109427387446
 20
-141.885913050466
 10
74.52688935853843
 20
-141.8562852292929
 10
74.52688935853843
 20
-141.8562852292929
 10
74.52688935853843
 20
-141.7102131807183
 10
74.52688935853843
 20
-141.7102131807183
 10
74.52688935853843
 20
-141.7102131807183
 10
76.07115340980165
 20
-141.7102131807183
 10
76.07115340980165
 20
-141.7102131807183
 10
76.07115340980165
 20
-141.7102131807183
 10
76.07115340980165
 20
-141.9344888968081
 10
76.07115340980165
 20
-141.9344888968081
 97
        0
 97
        0
 75
     2
 76
     1
 98
        0
  0
SPLINE
  5
BF
330
B9
100
AcDbEntity
  8
_U+30EC_U+30A4_U+30E4_U+30FC 1
370
     0
100
AcDbSpline
210
0.0
220
0.0
230
1.0
 70
    11
 71
     3
 72
    29
 73
    25
 74
     0
 42
0.0000000001
 43
0.0000000001
 12
1.0
 22
0.0
 32
0.0
 13
1.0
 23
0.0
 33
0.0
 40
0.0
 40
0.0
 40
0.0
 40
0.0
 40
1.0
 40
1.0
 40
1.0
 40
2.0
 40
2.0
 40
2.0
 40
3.0
 40
3.0
 40
3.0
 40
4.0
 40
4.0
 40
4.0
 40
5.0
 40
5.0
 40
5.0
 40
6.0
 40
6.0
 40
6.0
 40
7.0
 40
7.0
 40
7.0
 40
8.0
 40
8.0
 40
8.0
 40
8.0
 10
75.89338648276276
 20
-140.3111599041583
 30
0.0
 10
76.10284828826596
 20
-140.4193359023952
 30
0.0
 10
76.1219685682091
 20
-140.5926242053033
 30
0.0
 10
76.1219685682091
 20
-140.7090684327047
 30
0.0
 10
76.1219685682091
 20
-140.8699543918659
 30
0.0
 10
76.07545977915822
 20
-141.0115478163096
 30
0.0
 10
75.89338648276276
 20
-141.1066324517025
 30
0.0
 10
75.69891084262042
 20
-141.2103298258085
 30
0.0
 10
75.46188827323523
 20
-141.2296223605259
 30
0.0
 10
75.29893525678291
 20
-141.2296223605259
 30
0.0
 10
75.15510252027373
 20
-141.2296223605259
 30
0.0
 10
74.90343829507623
 20
-141.2123968830997
 30
0.0
 10
74.70448403080304
 20
-141.1066324517025
 30
0.0
 10
74.50139565194758
 20
-140.9988009630142
 30
0.0
 10
74.47814125742214
 20
-140.837915003853
 30
0.0
 10
74.47814125742214
 20
-140.7090684327047
 30
0.0
 10
74.47814125742214
 20
-140.5502495308347
 30
0.0
 10
74.52258298918186
 20
-140.4065890490998
 30
0.0
 10
74.70448403080304
 20
-140.3111599041583
 30
0.0
 10
74.89706486842852
 20
-140.2119411541831
 30
0.0
 10
75.12547469910058
 20
-140.1885145048834
 30
0.0
 10
75.29893525678291
 20
-140.1885145048834
 30
0.0
 10
75.47032875717409
 20
-140.1885145048834
 30
0.0
 10
75.70097789991156
 20
-140.209874096892
 30
0.0
 10
75.89338648276276
 20
-140.3111599041583
 30
0.0
  0
SPLINE
  5
C0
330
B9
100
AcDbEntity
  8
_U+30EC_U+30A4_U+30E4_U+30FC 1
370
     0
100
AcDbSpline
210
0.0
220
0.0
230
1.0
 70
    11
 71
     3
 72
    17
 73
    13
 74
     0
 42
0.0000000001
 43
0.0000000001
 12
1.0
 22
0.0
 32
0.0
 13
1.0
 23
0.0
 33
0.0
 40
0.0
 40
0.0
 40
0.0
 40
0.0
 40
1.0
 40
1.0
 40
1.0
 40
2.0
 40
2.0
 40
2.0
 40
3.0
 40
3.0
 40
3.0
 40
4.0
 40
4.0
 40
4.0
 40
4.0
 10
74.6707220950476
 20
-140.7090684327047
 30
0.0
 10
74.6707220950476
 20
-140.9588378553853
 30
0.0
 10
74.9540811987094
 20
-141.0053466444362
 30
0.0
 10
75.29893525678291
 20
-141.0053466444362
 30
0.0
 10
75.61846786303983
 20
-141.0053466444362
 30
0.0
 10
75.92732067329248
 20
-140.9691731418411
 30
0.0
 10
75.92732067329248
 20
-140.7090684327047
 30
0.0
 10
75.92732067329248
 20
-140.4613660673152
 30
0.0
 10
75.64585637214756
 20
-140.4127902209732
 30
0.0
 10
75.29893525678291
 20
-140.4127902209732
 30
0.0
 10
74.97957490530025
 20
-140.4127902209732
 30
0.0
 10
74.6707220950476
 20
-140.4510307808595
 30
0.0
 10
74.6707220950476
 20
-140.7090684327047
 30
0.0
  0
HATCH
  5
C1
330
B9
100
AcDbEntity
  8
_U+30EC_U+30A4_U+30E4_U+30FC 1
 62
     7
420
 16777215
100
AcDbHatch
 10
0.0
 20
0.0
 30
0.0
210
0.0
220
0.0
230
1.0
  2
SOLID
 70
     1
 71
     0
 91
        2
 92
        1
 93
        1
 72
     4
 94
        3
 73
     0
 74
     1
 95
       29
 96
       25
 40
0.0
 40
0.0
 40
0.0
 40
0.0
 40
1.0
 40
1.0
 40
1.0
 40
2.0
 40
2.0
 40
2.0
 40
3.0
 40
3.0
 40
3.0
 40
4.0
 40
4.0
 40
4.0
 40
5.0
 40
5.0
 40
5.0
 40
6.0
 40
6.0
 40
6.0
 40
7.0
 40
7.0
 40
7.0
 40
8.0
 40
8.0
 40
8.0
 40
8.0
 10
75.89338648276276
 20
-140.3111599041583
 10
76.10284828826596
 20
-140.4193359023952
 10
76.1219685682091
 20
-140.5926242053033
 10
76.1219685682091
 20
-140.7090684327047
 10
76.1219685682091
 20
-140.8699543918659
 10
76.07545977915822
 20
-141.0115478163096
 10
75.89338648276276
 20
-141.1066324517025
 10
75.69891084262042
 20
-141.2103298258085
 10
75.46188827323523
 20
-141.2296223605259
 10
75.29893525678291
 20
-141.2296223605259
 10
75.15510252027373
 20
-141.2296223605259
 10
74.90343829507623
 20
-141.2123968830997
 10
74.70448403080304
 20
-141.1066324517025
 10
74.50139565194758
 20
-140.9988009630142
 10
74.47814125742214
 20
-140.837915003853
 10
74.47814125742214
 20
-140.7090684327047
 10
74.47814125742214
 20
-140.5502495308347
 10
74.52258298918186
 20
-140.4065890490998
 10
74.70448403080304
 20
-140.3111599041583
 10
74.89706486842852
 20
-140.2119411541831
 10
75.12547469910058
 20
-140.1885145048834
 10
75.29893525678291
 20
-140.1885145048834
 10
75.47032875717409
 20
-140.1885145048834
 10
75.70097789991156
 20
-140.209874096892
 10
75.89338648276276
 20
-140.3111599041583
 97
        0
 97
        0
 92
        1
 93
        1
 72
     4
 94
        3
 73
     0
 74
     1
 95
       17
 96
       13
 40
0.0
 40
0.0
 40
0.0
 40
0.0
 40
1.0
 40
1.0
 40
1.0
 40
2.0
 40
2.0
 40
2.0
 40
3.0
 40
3.0
 40
3.0
 40
4.0
 40
4.0
 40
4.0
 40
4.0
 10
74.6707220950476
 20
-140.7090684327047
 10
74.6707220950476
 20
-140.9588378553853
 10
74.9540811987094
 20
-141.0053466444362
 10
75.29893525678291
 20
-141.0053466444362
 10
75.61846786303983
 20
-141.0053466444362
 10
75.92732067329248
 20
-140.9691731418411
 10
75.92732067329248
 20
-140.7090684327047
 10
75.92732067329248
 20
-140.4613660673152
 10
75.64585637214756
 20
-140.4127902209732
 10
75.29893525678291
 20
-140.4127902209732
 10
74.97957490530025
 20
-140.4127902209732
 10
74.6707220950476
 20
-140.4510307808595
 10
74.6707220950476
 20
-140.7090684327047
 97
        0
 97
        0
 75
     2
 76
     1
 98
        0
  0
ENDBLK
  5
BC
330
B9
100
AcDbEntity
  8
0
100
AcDbBlockEnd
  0
BLOCK
  5
C4
330
C2
100
AcDbEntity
  8
0
100
AcDbBlockBegin
  2
block 3
 70
     0
 10
0.0
 20
0.0
 30
0.0
  3
block 3
  1

  0
SPLINE
  5
C6
330
C2
100
AcDbEntity
  8
_U+30EC_U+30A4_U+30E4_U+30FC 1
370
     0
100
AcDbSpline
210
0.0
220
0.0
230
1.0
 70
    11
 71
     3
 72
    62
 73
    58
 74
     0
 42
0.0000000001
 43
0.0000000001
 12
1.0
 22
0.0
 32
0.0
 13
1.0
 23
0.0
 33
0.0
 40
0.0
 40
0.0
 40
0.0
 40
0.0
 40
1.0
 40
1.0
 40
1.0
 40
2.0
 40
2.0
 40
2.0
 40
3.0
 40
3.0
 40
3.0
 40
4.0
 40
4.0
 40
4.0
 40
5.0
 40
5.0
 40
5.0
 40
6.0
 40
6.0
 40
6.0
 40
7.0
 40
7.0
 40
7.0
 40
8.0
 40
8.0
 40
8.0
 40
9.0
 40
9.0
 40
9.0
 40
10.0
 40
10.0
 40
10.0
 40
11.0
 40
11.0
 40
11.0
 40
12.0
 40
12.0
 40
12.0
 40
13.0
 40
13.0
 40
13.0
 40
14.0
 40
14.0
 40
14.0
 40
15.0
 40
15.0
 40
15.0
 40
16.0
 40
16.0
 40
16.0
 40
17.0
 40
17.0
 40
17.0
 40
18.0
 40
18.0
 40
18.0
 40
19.0
 40
19.0
 40
19.0
 40
19.0
 10
106.040728055087
 20
-156.7807833809437
 30
0.0
 10
106.040728055087
 20
-156.8762125258851
 30
0.0
 10
106.019712972627
 20
-157.0939425605529
 30
0.0
 10
105.833333306875
 20
-157.2189995266675
 30
0.0
 10
105.7213677036044
 20
-157.2930690796003
 30
0.0
 10
105.6218044440807
 20
-157.2972031941827
 30
0.0
 10
105.537399604692
 20
-157.3013373087649
 30
0.0
 10
105.537399604692
 20
-157.3013373087649
 30
0.0
 10
105.537399604692
 20
-157.0811957072575
 30
0.0
 10
105.537399604692
 20
-157.0811957072575
 30
0.0
 10
105.6114691576249
 20
-157.0791286499663
 30
0.0
 10
105.846424669719
 20
-157.0687933635106
 30
0.0
 10
105.846424669719
 20
-156.7852620050745
 30
0.0
 10
105.846424669719
 20
-156.647802695213
 30
0.0
 10
105.7764892313684
 20
-156.4951849652165
 30
0.0
 10
105.5480794006963
 20
-156.4951849652165
 30
0.0
 10
105.4316351732949
 20
-156.4951849652165
 30
0.0
 10
105.3827148174043
 20
-156.5334255251028
 30
0.0
 10
105.35101993894
 20
-156.5651204035671
 30
0.0
 10
105.2772948955557
 20
-156.6391899564999
 30
0.0
 10
105.2645480422603
 20
-156.7556341839014
 30
0.0
 10
105.2645480422603
 20
-156.8104112021169
 30
0.0
 10
105.2645480422603
 20
-156.8297037368343
 30
0.0
 10
105.2666150995514
 20
-156.8655327298808
 30
0.0
 10
105.2707492141337
 20
-156.8930934937628
 30
0.0
 10
105.2707492141337
 20
-156.8930934937628
 30
0.0
 10
105.0761013192171
 20
-156.8930934937628
 30
0.0
 10
105.0761013192171
 20
-156.8930934937628
 30
0.0
 10
105.0823024910905
 20
-156.8548529338766
 30
0.0
 10
105.0847140579302
 20
-156.8128227689565
 30
0.0
 10
105.0847140579302
 20
-156.8062770875345
 30
0.0
 10
105.0847140579302
 20
-156.7408202733148
 30
0.0
 10
105.0636989754702
 20
-156.5420382638159
 30
0.0
 10
104.826676406085
 20
-156.5420382638159
 30
0.0
 10
104.6489094790461
 20
-156.5420382638159
 30
0.0
 10
104.5937879512821
 20
-156.6729518922554
 30
0.0
 10
104.5937879512821
 20
-156.7831949477834
 30
0.0
 10
104.5937879512821
 20
-157.047433771502
 30
0.0
 10
104.826676406085
 20
-157.0560465102152
 30
0.0
 10
104.8983343921782
 20
-157.0601806247975
 30
0.0
 10
104.8983343921782
 20
-157.0601806247975
 30
0.0
 10
104.8983343921782
 20
-157.2634412584272
 30
0.0
 10
104.8983343921782
 20
-157.2634412584272
 30
0.0
 10
104.7736219356122
 20
-157.2548285197141
 30
0.0
 10
104.3970729990744
 20
-157.2272677558321
 30
0.0
 10
104.3970729990744
 20
-156.770448094488
 30
0.0
 10
104.3970729990744
 20
-156.5461723783982
 30
0.0
 10
104.5241970224801
 20
-156.3050156944307
 30
0.0
 10
104.820130724663
 20
-156.3050156944307
 30
0.0
 10
105.006510390415
 20
-156.3050156944307
 30
0.0
 10
105.0888481725125
 20
-156.4001003298236
 30
0.0
 10
105.15017087215
 20
-156.4996635893473
 30
0.0
 10
105.177731636032
 20
-156.4383408897099
 30
0.0
 10
105.2580023608383
 20
-156.2564398480887
 30
0.0
 10
105.5353325474009
 20
-156.2564398480887
 30
0.0
 10
105.873985433601
 20
-156.2564398480887
 30
0.0
 10
106.040728055087
 20
-156.5037977039296
 30
0.0
 10
106.040728055087
 20
-156.7807833809437
 30
0.0
  0
HATCH
  5
C7
330
C2
100
AcDbEntity
  8
_U+30EC_U+30A4_U+30E4_U+30FC 1
 62
     7
420
 16777215
100
AcDbHatch
 10
0.0
 20
0.0
 30
0.0
210
0.0
220
0.0
230
1.0
  2
SOLID
 70
     1
 71
     0
 91
        1
 92
        1
 93
        1
 72
     4
 94
        3
 73
     0
 74
     1
 95
       62
 96
       58
 40
0.0
 40
0.0
 40
0.0
 40
0.0
 40
1.0
 40
1.0
 40
1.0
 40
2.0
 40
2.0
 40
2.0
 40
3.0
 40
3.0
 40
3.0
 40
4.0
 40
4.0
 40
4.0
 40
5.0
 40
5.0
 40
5.0
 40
6.0
 40
6.0
 40
6.0
 40
7.0
 40
7.0
 40
7.0
 40
8.0
 40
8.0
 40
8.0
 40
9.0
 40
9.0
 40
9.0
 40
10.0
 40
10.0
 40
10.0
 40
11.0
 40
11.0
 40
11.0
 40
12.0
 40
12.0
 40
12.0
 40
13.0
 40
13.0
 40
13.0
 40
14.0
 40
14.0
 40
14.0
 40
15.0
 40
15.0
 40
15.0
 40
16.0
 40
16.0
 40
16.0
 40
17.0
 40
17.0
 40
17.0
 40
18.0
 40
18.0
 40
18.0
 40
19.0
 40
19.0
 40
19.0
 40
19.0
 10
106.040728055087
 20
-156.7807833809437
 10
106.040728055087
 20
-156.8762125258851
 10
106.019712972627
 20
-157.0939425605529
 10
105.833333306875
 20
-157.2189995266675
 10
105.7213677036044
 20
-157.2930690796003
 10
105.6218044440807
 20
-157.2972031941827
 10
105.537399604692
 20
-157.3013373087649
 10
105.537399604692
 20
-157.3013373087649
 10
105.537399604692
 20
-157.0811957072575
 10
105.537399604692
 20
-157.0811957072575
 10
105.6114691576249
 20
-157.0791286499663
 10
105.846424669719
 20
-157.0687933635106
 10
105.846424669719
 20
-156.7852620050745
 10
105.846424669719
 20
-156.647802695213
 10
105.7764892313684
 20
-156.4951849652165
 10
105.5480794006963
 20
-156.4951849652165
 10
105.4316351732949
 20
-156.4951849652165
 10
105.3827148174043
 20
-156.5334255251028
 10
105.35101993894
 20
-156.5651204035671
 10
105.2772948955557
 20
-156.6391899564999
 10
105.2645480422603
 20
-156.7556341839014
 10
105.2645480422603
 20
-156.8104112021169
 10
105.2645480422603
 20
-156.8297037368343
 10
105.2666150995514
 20
-156.8655327298808
 10
105.2707492141337
 20
-156.8930934937628
 10
105.2707492141337
 20
-156.8930934937628
 10
105.0761013192171
 20
-156.8930934937628
 10
105.0761013192171
 20
-156.8930934937628
 10
105.0823024910905
 20
-156.8548529338766
 10
105.0847140579302
 20
-156.8128227689565
 10
105.0847140579302
 20
-156.8062770875345
 10
105.0847140579302
 20
-156.7408202733148
 10
105.0636989754702
 20
-156.5420382638159
 10
104.826676406085
 20
-156.5420382638159
 10
104.6489094790461
 20
-156.5420382638159
 10
104.5937879512821
 20
-156.6729518922554
 10
104.5937879512821
 20
-156.7831949477834
 10
104.5937879512821
 20
-157.047433771502
 10
104.826676406085
 20
-157.0560465102152
 10
104.8983343921782
 20
-157.0601806247975
 10
104.8983343921782
 20
-157.0601806247975
 10
104.8983343921782
 20
-157.2634412584272
 10
104.8983343921782
 20
-157.2634412584272
 10
104.7736219356122
 20
-157.2548285197141
 10
104.3970729990744
 20
-157.2272677558321
 10
104.3970729990744
 20
-156.770448094488
 10
104.3970729990744
 20
-156.5461723783982
 10
104.5241970224801
 20
-156.3050156944307
 10
104.820130724663
 20
-156.3050156944307
 10
105.006510390415
 20
-156.3050156944307
 10
105.0888481725125
 20
-156.4001003298236
 10
105.15017087215
 20
-156.4996635893473
 10
105.177731636032
 20
-156.4383408897099
 10
105.2580023608383
 20
-156.2564398480887
 10
105.5353325474009
 20
-156.2564398480887
 10
105.873985433601
 20
-156.2564398480887
 10
106.040728055087
 20
-156.5037977039296
 10
106.040728055087
 20
-156.7807833809437
 97
        0
 97
        0
 75
     2
 76
     1
 98
        0
  0
ENDBLK
  5
C5
330
C2
100
AcDbEntity
  8
0
100
AcDbBlockEnd
  0
BLOCK
  5
CA
330
C8
100
AcDbEntity
  8
0
100
AcDbBlockBegin
  2
block 4
 70
     0
 10
0.0
 20
0.0
 30
0.0
  3
block 4
  1

  0
SPLINE
  5
CC
330
C8
100
AcDbEntity
  8
_U+30EC_U+30A4_U+30E4_U+30FC 1
370
     0
100
AcDbSpline
210
0.0
220
0.0
230
1.0
 70
    11
 71
     3
 72
    53
 73
    49
 74
     0
 42
0.0000000001
 43
0.0000000001
 12
1.0
 22
0.0
 32
0.0
 13
1.0
 23
0.0
 33
0.0
 40
0.0
 40
0.0
 40
0.0
 40
0.0
 40
1.0
 40
1.0
 40
1.0
 40
2.0
 40
2.0
 40
2.0
 40
3.0
 40
3.0
 40
3.0
 40
4.0
 40
4.0
 40
4.0
 40
5.0
 40
5.0
 40
5.0
 40
6.0
 40
6.0
 40
6.0
 40
7.0
 40
7.0
 40
7.0
 40
8.0
 40
8.0
 40
8.0
 40
9.0
 40
9.0
 40
9.0
 40
10.0
 40
10.0
 40
10.0
 40
11.0
 40
11.0
 40
11.0
 40
12.0
 40
12.0
 40
12.0
 40
13.0
 40
13.0
 40
13.0
 40
14.0
 40
14.0
 40
14.0
 40
15.0
 40
15.0
 40
15.0
 40
16.0
 40
16.0
 40
16.0
 40
16.0
 10
106.0403835455385
 20
-127.3779269429819
 30
0.0
 10
106.0403835455385
 20
-127.4561306104971
 30
0.0
 10
106.0235025776608
 20
-127.557760927312
 30
0.0
 10
105.9601128207322
 20
-127.6593912441268
 30
0.0
 10
105.8498697652042
 20
-127.8326795470349
 30
0.0
 10
105.7189561367647
 20
-127.8540391390434
 30
0.0
 10
105.6111246480764
 20
-127.8729871642123
 30
0.0
 10
105.6111246480764
 20
-127.8729871642123
 30
0.0
 10
105.6111246480764
 20
-127.6507785054137
 30
0.0
 10
105.6111246480764
 20
-127.6507785054137
 30
0.0
 10
105.8099066575753
 20
-127.5960014871982
 30
0.0
 10
105.8395344787484
 20
-127.4688774637925
 30
0.0
 10
105.8395344787484
 20
-127.3758598856908
 30
0.0
 10
105.8395344787484
 20
-127.2363335185381
 30
0.0
 10
105.7399712192247
 20
-127.0840602980901
 30
0.0
 10
105.5074272739704
 20
-127.0840602980901
 30
0.0
 10
105.2514566794163
 20
-127.0840602980901
 30
0.0
 10
105.1815212410657
 20
-127.2638942824201
 30
0.0
 10
105.1815212410657
 20
-127.3844726244039
 30
0.0
 10
105.1815212410657
 20
-127.4161675028682
 30
0.0
 10
105.1815212410657
 20
-127.557760927312
 30
0.0
 10
105.3107123217626
 20
-127.6466443908314
 30
0.0
 10
105.3107123217626
 20
-127.6466443908314
 30
0.0
 10
105.2914197870452
 20
-127.8223442605791
 30
0.0
 10
105.2914197870452
 20
-127.8223442605791
 30
0.0
 10
105.2914197870452
 20
-127.8223442605791
 30
0.0
 10
104.4453043358678
 20
-127.7017659185954
 30
0.0
 10
104.4453043358678
 20
-127.7017659185954
 30
0.0
 10
104.4453043358678
 20
-127.7017659185954
 30
0.0
 10
104.4453043358678
 20
-126.9231743389289
 30
0.0
 10
104.4453043358678
 20
-126.9231743389289
 30
0.0
 10
104.4453043358678
 20
-126.9231743389289
 30
0.0
 10
104.6399522307845
 20
-126.9231743389289
 30
0.0
 10
104.6399522307845
 20
-126.9231743389289
 30
0.0
 10
104.6399522307845
 20
-126.9231743389289
 30
0.0
 10
104.6399522307845
 20
-127.5388129021431
 30
0.0
 10
104.6399522307845
 20
-127.5388129021431
 30
0.0
 10
104.6399522307845
 20
-127.5388129021431
 30
0.0
 10
105.0630099563731
 20
-127.6042697163628
 30
0.0
 10
105.0630099563731
 20
-127.6042697163628
 30
0.0
 10
105.0292480206177
 20
-127.5429470167254
 30
0.0
 10
104.9889404034403
 20
-127.4606092346279
 30
0.0
 10
104.9889404034403
 20
-127.3420979499353
 30
0.0
 10
104.9889404034403
 20
-127.0881944126724
 30
0.0
 10
105.1753200691923
 20
-126.8511718432872
 30
0.0
 10
105.488134739253
 20
-126.8511718432872
 30
0.0
 10
105.805772542993
 20
-126.8511718432872
 30
0.0
 10
106.0403835455385
 20
-127.075447559377
 30
0.0
 10
106.0403835455385
 20
-127.3779269429819
 30
0.0
  0
HATCH
  5
CD
330
C8
100
AcDbEntity
  8
_U+30EC_U+30A4_U+30E4_U+30FC 1
 62
     7
420
 16777215
100
AcDbHatch
 10
0.0
 20
0.0
 30
0.0
210
0.0
220
0.0
230
1.0
  2
SOLID
 70
     1
 71
     0
 91
        1
 92
        1
 93
        1
 72
     4
 94
        3
 73
     0
 74
     1
 95
       53
 96
       49
 40
0.0
 40
0.0
 40
0.0
 40
0.0
 40
1.0
 40
1.0
 40
1.0
 40
2.0
 40
2.0
 40
2.0
 40
3.0
 40
3.0
 40
3.0
 40
4.0
 40
4.0
 40
4.0
 40
5.0
 40
5.0
 40
5.0
 40
6.0
 40
6.0
 40
6.0
 40
7.0
 40
7.0
 40
7.0
 40
8.0
 40
8.0
 40
8.0
 40
9.0
 40
9.0
 40
9.0
 40
10.0
 40
10.0
 40
10.0
 40
11.0
 40
11.0
 40
11.0
 40
12.0
 40
12.0
 40
12.0
 40
13.0
 40
13.0
 40
13.0
 40
14.0
 40
14.0
 40
14.0
 40
15.0
 40
15.0
 40
15.0
 40
16.0
 40
16.0
 40
16.0
 40
16.0
 10
106.0403835455385
 20
-127.3779269429819
 10
106.0403835455385
 20
-127.4561306104971
 10
106.0235025776608
 20
-127.557760927312
 10
105.9601128207322
 20
-127.6593912441268
 10
105.8498697652042
 20
-127.8326795470349
 10
105.7189561367647
 20
-127.8540391390434
 10
105.6111246480764
 20
-127.8729871642123
 10
105.6111246480764
 20
-127.8729871642123
 10
105.6111246480764
 20
-127.6507785054137
 10
105.6111246480764
 20
-127.6507785054137
 10
105.8099066575753
 20
-127.5960014871982
 10
105.8395344787484
 20
-127.4688774637925
 10
105.8395344787484
 20
-127.3758598856908
 10
105.8395344787484
 20
-127.2363335185381
 10
105.7399712192247
 20
-127.0840602980901
 10
105.5074272739704
 20
-127.0840602980901
 10
105.2514566794163
 20
-127.0840602980901
 10
105.1815212410657
 20
-127.2638942824201
 10
105.1815212410657
 20
-127.3844726244039
 10
105.1815212410657
 20
-127.4161675028682
 10
105.1815212410657
 20
-127.557760927312
 10
105.3107123217626
 20
-127.6466443908314
 10
105.3107123217626
 20
-127.6466443908314
 10
105.2914197870452
 20
-127.8223442605791
 10
105.2914197870452
 20
-127.8223442605791
 10
105.2914197870452
 20
-127.8223442605791
 10
104.4453043358678
 20
-127.7017659185954
 10
104.4453043358678
 20
-127.7017659185954
 10
104.4453043358678
 20
-127.7017659185954
 10
104.4453043358678
 20
-126.9231743389289
 10
104.4453043358678
 20
-126.9231743389289
 10
104.4453043358678
 20
-126.9231743389289
 10
104.6399522307845
 20
-126.9231743389289
 10
104.6399522307845
 20
-126.9231743389289
 10
104.6399522307845
 20
-126.9231743389289
 10
104.6399522307845
 20
-127.5388129021431
 10
104.6399522307845
 20
-127.5388129021431
 10
104.6399522307845
 20
-127.5388129021431
 10
105.0630099563731
 20
-127.6042697163628
 10
105.0630099563731
 20
-127.6042697163628
 10
105.0292480206177
 20
-127.5429470167254
 10
104.9889404034403
 20
-127.4606092346279
 10
104.9889404034403
 20
-127.3420979499353
 10
104.9889404034403
 20
-127.0881944126724
 10
105.1753200691923
 20
-126.8511718432872
 10
105.488134739253
 20
-126.8511718432872
 10
105.805772542993
 20
-126.8511718432872
 10
106.0403835455385
 20
-127.075447559377
 10
106.0403835455385
 20
-127.3779269429819
 97
        0
 97
        0
 75
     2
 76
     1
 98
        0
  0
SPLINE
  5
CE
330
C8
100
AcDbEntity
  8
_U+30EC_U+30A4_U+30E4_U+30FC 1
370
     0
100
AcDbSpline
210
0.0
220
0.0
230
1.0
 70
    11
 71
     3
 72
    26
 73
    22
 74
     0
 42
0.0000000001
 43
0.0000000001
 12
1.0
 22
0.0
 32
0.0
 13
1.0
 23
0.0
 33
0.0
 40
0.0
 40
0.0
 40
0.0
 40
0.0
 40
1.0
 40
1.0
 40
1.0
 40
2.0
 40
2.0
 40
2.0
 40
3.0
 40
3.0
 40
3.0
 40
4.0
 40
4.0
 40
4.0
 40
5.0
 40
5.0
 40
5.0
 40
6.0
 40
6.0
 40
6.0
 40
7.0
 40
7.0
 40
7.0
 40
7.0
 10
105.9897406419053
 20
-126.2710177635711
 30
0.0
 10
105.9897406419053
 20
-126.2710177635711
 30
0.0
 10
105.9897406419053
 20
-126.5080403329563
 30
0.0
 10
105.9897406419053
 20
-126.5080403329563
 30
0.0
 10
105.6807155768784
 20
-126.4825466263655
 30
0.0
 10
105.1625732158969
 20
-126.28996578874
 30
0.0
 10
104.6568331986622
 20
-125.8837890310291
 30
0.0
 10
104.6568331986622
 20
-125.8837890310291
 30
0.0
 10
104.6568331986622
 20
-126.7216362530418
 30
0.0
 10
104.6568331986622
 20
-126.7216362530418
 30
0.0
 10
104.6568331986622
 20
-126.7216362530418
 30
0.0
 10
104.4453043358678
 20
-126.7216362530418
 30
0.0
 10
104.4453043358678
 20
-126.7216362530418
 30
0.0
 10
104.4453043358678
 20
-126.7216362530418
 30
0.0
 10
104.4453043358678
 20
-125.6467664616439
 30
0.0
 10
104.4453043358678
 20
-125.6467664616439
 30
0.0
 10
104.4453043358678
 20
-125.6467664616439
 30
0.0
 10
104.6568331986622
 20
-125.6467664616439
 30
0.0
 10
104.6568331986622
 20
-125.6467664616439
 30
0.0
 10
104.9465657289717
 20
-125.9706054372573
 30
0.0
 10
105.5391221524347
 20
-126.2372558278157
 30
0.0
 10
105.9897406419053
 20
-126.2710177635711
 30
0.0
  0
HATCH
  5
CF
330
C8
100
AcDbEntity
  8
_U+30EC_U+30A4_U+30E4_U+30FC 1
 62
     7
420
 16777215
100
AcDbHatch
 10
0.0
 20
0.0
 30
0.0
210
0.0
220
0.0
230
1.0
  2
SOLID
 70
     1
 71
     0
 91
        1
 92
        1
 93
        1
 72
     4
 94
        3
 73
     0
 74
     1
 95
       26
 96
       22
 40
0.0
 40
0.0
 40
0.0
 40
0.0
 40
1.0
 40
1.0
 40
1.0
 40
2.0
 40
2.0
 40
2.0
 40
3.0
 40
3.0
 40
3.0
 40
4.0
 40
4.0
 40
4.0
 40
5.0
 40
5.0
 40
5.0
 40
6.0
 40
6.0
 40
6.0
 40
7.0
 40
7.0
 40
7.0
 40
7.0
 10
105.9897406419053
 20
-126.2710177635711
 10
105.9897406419053
 20
-126.2710177635711
 10
105.9897406419053
 20
-126.5080403329563
 10
105.9897406419053
 20
-126.5080403329563
 10
105.6807155768784
 20
-126.4825466263655
 10
105.1625732158969
 20
-126.28996578874
 10
104.6568331986622
 20
-125.8837890310291
 10
104.6568331986622
 20
-125.8837890310291
 10
104.6568331986622
 20
-126.7216362530418
 10
104.6568331986622
 20
-126.7216362530418
 10
104.6568331986622
 20
-126.7216362530418
 10
104.4453043358678
 20
-126.7216362530418
 10
104.4453043358678
 20
-126.7216362530418
 10
104.4453043358678
 20
-126.7216362530418
 10
104.4453043358678
 20
-125.6467664616439
 10
104.4453043358678
 20
-125.6467664616439
 10
104.4453043358678
 20
-125.6467664616439
 10
104.6568331986622
 20
-125.6467664616439
 10
104.6568331986622
 20
-125.6467664616439
 10
104.9465657289717
 20
-125.9706054372573
 10
105.5391221524347
 20
-126.2372558278157
 10
105.9897406419053
 20
-126.2710177635711
 97
        0
 97
        0
 75
     2
 76
     1
 98
        0
  0
ENDBLK
  5
CB
330
C8
100
AcDbEntity
  8
0
100
AcDbBlockEnd
  0
BLOCK
  5
D2
330
D0
100
AcDbEntity
  8
0
100
AcDbBlockBegin
  2
block 5
 70
     0
 10
0.0
 20
0.0
 30
0.0
  3
block 5
  1

  0
SPLINE
  5
D4
330
D0
100
AcDbEntity
  8
_U+30EC_U+30A4_U+30E4_U+30FC 1
370
     0
100
AcDbSpline
210
0.0
220
0.0
230
1.0
 70
    11
 71
     3
 72
    26
 73
    22
 74
     0
 42
0.0000000001
 43
0.0000000001
 12
1.0
 22
0.0
 32
0.0
 13
1.0
 23
0.0
 33
0.0
 40
0.0
 40
0.0
 40
0.0
 40
0.0
 40
1.0
 40
1.0
 40
1.0
 40
2.0
 40
2.0
 40
2.0
 40
3.0
 40
3.0
 40
3.0
 40
4.0
 40
4.0
 40
4.0
 40
5.0
 40
5.0
 40
5.0
 40
6.0
 40
6.0
 40
6.0
 40
7.0
 40
7.0
 40
7.0
 40
7.0
 10
76.07115340980165
 20
-152.9095295841685
 30
0.0
 10
76.07115340980165
 20
-152.9095295841685
 30
0.0
 10
74.96682805200483
 20
-152.9095295841685
 30
0.0
 10
74.96682805200483
 20
-152.9095295841685
 30
0.0
 10
74.96682805200483
 20
-152.9095295841685
 30
0.0
 10
74.96682805200483
 20
-153.2395697316554
 30
0.0
 10
74.96682805200483
 20
-153.2395697316554
 30
0.0
 10
74.96682805200483
 20
-153.2395697316554
 30
0.0
 10
74.81868894613908
 20
-153.2395697316554
 30
0.0
 10
74.81868894613908
 20
-153.2395697316554
 30
0.0
 10
74.80404729032676
 20
-152.9074625268773
 30
0.0
 10
74.64109427387446
 20
-152.8609537378264
 30
0.0
 10
74.52688935853843
 20
-152.8313259166533
 30
0.0
 10
74.52688935853843
 20
-152.8313259166533
 30
0.0
 10
74.52688935853843
 20
-152.6852538680787
 30
0.0
 10
74.52688935853843
 20
-152.6852538680787
 30
0.0
 10
74.52688935853843
 20
-152.6852538680787
 30
0.0
 10
76.07115340980165
 20
-152.6852538680787
 30
0.0
 10
76.07115340980165
 20
-152.6852538680787
 30
0.0
 10
76.07115340980165
 20
-152.6852538680787
 30
0.0
 10
76.07115340980165
 20
-152.9095295841685
 30
0.0
 10
76.07115340980165
 20
-152.9095295841685
 30
0.0
  0
HATCH
  5
D5
330
D0
100
AcDbEntity
  8
_U+30EC_U+30A4_U+30E4_U+30FC 1
 62
     7
420
 16777215
100
AcDbHatch
 10
0.0
 20
0.0
 30
0.0
210
0.0
220
0.0
230
1.0
  2
SOLID
 70
     1
 71
     0
 91
        1
 92
        1
 93
        1
 72
     4
 94
        3
 73
     0
 74
     1
 95
       26
 96
       22
 40
0.0
 40
0.0
 40
0.0
 40
0.0
 40
1.0
 40
1.0
 40
1.0
 40
2.0
 40
2.0
 40
2.0
 40
3.0
 40
3.0
 40
3.0
 40
4.0
 40
4.0
 40
4.0
 40
5.0
 40
5.0
 40
5.0
 40
6.0
 40
6.0
 40
6.0
 40
7.0
 40
7.0
 40
7.0
 40
7.0
 10
76.07115340980165
 20
-152.9095295841685
 10
76.07115340980165
 20
-152.9095295841685
 10
74.96682805200483
 20
-152.9095295841685
 10
74.96682805200483
 20
-152.9095295841685
 10
74.96682805200483
 20
-152.9095295841685
 10
74.96682805200483
 20
-153.2395697316554
 10
74.96682805200483
 20
-153.2395697316554
 10
74.96682805200483
 20
-153.2395697316554
 10
74.81868894613908
 20
-153.2395697316554
 10
74.81868894613908
 20
-153.2395697316554
 10
74.80404729032676
 20
-152.9074625268773
 10
74.64109427387446
 20
-152.8609537378264
 10
74.52688935853843
 20
-152.8313259166533
 10
74.52688935853843
 20
-152.8313259166533
 10
74.52688935853843
 20
-152.6852538680787
 10
74.52688935853843
 20
-152.6852538680787
 10
74.52688935853843
 20
-152.6852538680787
 10
76.07115340980165
 20
-152.6852538680787
 10
76.07115340980165
 20
-152.6852538680787
 10
76.07115340980165
 20
-152.6852538680787
 10
76.07115340980165
 20
-152.9095295841685
 10
76.07115340980165
 20
-152.9095295841685
 97
        0
 97
        0
 75
     2
 76
     1
 98
        0
  0
SPLINE
  5
D6
330
D0
100
AcDbEntity
  8
_U+30EC_U+30A4_U+30E4_U+30FC 1
370
     0
100
AcDbSpline
210
0.0
220
0.0
230
1.0
 70
    11
 71
     3
 72
    44
 73
    40
 74
     0
 42
0.0000000001
 43
0.0000000001
 12
1.0
 22
0.0
 32
0.0
 13
1.0
 23
0.0
 33
0.0
 40
0.0
 40
0.0
 40
0.0
 40
0.0
 40
1.0
 40
1.0
 40
1.0
 40
2.0
 40
2.0
 40
2.0
 40
3.0
 40
3.0
 40
3.0
 40
4.0
 40
4.0
 40
4.0
 40
5.0
 40
5.0
 40
5.0
 40
6.0
 40
6.0
 40
6.0
 40
7.0
 40
7.0
 40
7.0
 40
8.0
 40
8.0
 40
8.0
 40
9.0
 40
9.0
 40
9.0
 40
10.0
 40
10.0
 40
10.0
 40
11.0
 40
11.0
 40
11.0
 40
12.0
 40
12.0
 40
12.0
 40
13.0
 40
13.0
 40
13.0
 40
13.0
 10
75.48944903711723
 20
-151.5910915419634
 30
0.0
 10
75.64809568421298
 20
-151.8088215766311
 30
0.0
 10
75.72216523714584
 20
-151.9018391547329
 30
0.0
 10
75.86599797365503
 20
-151.9507595106234
 30
0.0
 10
75.86599797365503
 20
-151.9507595106234
 30
0.0
 10
75.86599797365503
 20
-151.172167930957
 30
0.0
 10
75.86599797365503
 20
-151.172167930957
 30
0.0
 10
75.86599797365503
 20
-151.172167930957
 30
0.0
 10
76.07115340980165
 20
-151.172167930957
 30
0.0
 10
76.07115340980165
 20
-151.172167930957
 30
0.0
 10
76.07115340980165
 20
-151.172167930957
 30
0.0
 10
76.07115340980165
 20
-152.2001844237555
 30
0.0
 10
76.07115340980165
 20
-152.2001844237555
 30
0.0
 10
75.71355249843273
 20
-152.1684895452912
 30
0.0
 10
75.63534883091755
 20
-152.1030327310715
 30
0.0
 10
75.33700356189492
 20
-151.7178710558206
 30
0.0
 10
75.138221552396
 20
-151.4619004612665
 30
0.0
 10
75.07052542611085
 20
-151.3964436470467
 30
0.0
 10
74.93306611624938
 20
-151.3964436470467
 30
0.0
 10
74.81455483155678
 20
-151.3964436470467
 30
0.0
 10
74.68329669356876
 20
-151.4684461426885
 30
0.0
 10
74.68329669356876
 20
-151.6651610948962
 30
0.0
 10
74.68329669356876
 20
-151.9252658040326
 30
0.0
 10
74.91394583630624
 20
-151.9338785427457
 30
0.0
 10
75.03039006370769
 20
-151.938012657328
 30
0.0
 10
75.03039006370769
 20
-151.938012657328
 30
0.0
 10
75.03039006370769
 20
-152.1622883734178
 30
0.0
 10
75.03039006370769
 20
-152.1622883734178
 30
0.0
 10
74.90343829507623
 20
-152.1536756347047
 30
0.0
 10
74.79130043703134
 20
-152.1429958387004
 30
0.0
 10
74.67278915233875
 20
-152.0627251138941
 30
0.0
 10
74.51207544795184
 20
-151.9528265679146
 30
0.0
 10
74.47814125742214
 20
-151.7664469021626
 30
0.0
 10
74.47814125742214
 20
-151.6503471843097
 30
0.0
 10
74.47814125742214
 20
-151.373016997747
 30
0.0
 10
74.66228161110874
 20
-151.165622249535
 30
0.0
 10
74.93513317354052
 20
-151.165622249535
 30
0.0
 10
75.16354300421258
 20
-151.165622249535
 30
0.0
 10
75.2631062637363
 20
-151.2820664769364
 30
0.0
 10
75.48944903711723
 20
-151.5910915419634
 30
0.0
  0
HATCH
  5
D7
330
D0
100
AcDbEntity
  8
_U+30EC_U+30A4_U+30E4_U+30FC 1
 62
     7
420
 16777215
100
AcDbHatch
 10
0.0
 20
0.0
 30
0.0
210
0.0
220
0.0
230
1.0
  2
SOLID
 70
     1
 71
     0
 91
        1
 92
        1
 93
        1
 72
     4
 94
        3
 73
     0
 74
     1
 95
       44
 96
       40
 40
0.0
 40
0.0
 40
0.0
 40
0.0
 40
1.0
 40
1.0
 40
1.0
 40
2.0
 40
2.0
 40
2.0
 40
3.0
 40
3.0
 40
3.0
 40
4.0
 40
4.0
 40
4.0
 40
5.0
 40
5.0
 40
5.0
 40
6.0
 40
6.0
 40
6.0
 40
7.0
 40
7.0
 40
7.0
 40
8.0
 40
8.0
 40
8.0
 40
9.0
 40
9.0
 40
9.0
 40
10.0
 40
10.0
 40
10.0
 40
11.0
 40
11.0
 40
11.0
 40
12.0
 40
12.0
 40
12.0
 40
13.0
 40
13.0
 40
13.0
 40
13.0
 10
75.48944903711723
 20
-151.5910915419634
 10
75.64809568421298
 20
-151.8088215766311
 10
75.72216523714584
 20
-151.9018391547329
 10
75.86599797365503
 20
-151.9507595106234
 10
75.86599797365503
 20
-151.9507595106234
 10
75.86599797365503
 20
-151.172167930957
 10
75.86599797365503
 20
-151.172167930957
 10
75.86599797365503
 20
-151.172167930957
 10
76.07115340980165
 20
-151.172167930957
 10
76.07115340980165
 20
-151.172167930957
 10
76.07115340980165
 20
-151.172167930957
 10
76.07115340980165
 20
-152.2001844237555
 10
76.07115340980165
 20
-152.2001844237555
 10
75.71355249843273
 20
-152.1684895452912
 10
75.63534883091755
 20
-152.1030327310715
 10
75.33700356189492
 20
-151.7178710558206
 10
75.138221552396
 20
-151.4619004612665
 10
75.07052542611085
 20
-151.3964436470467
 10
74.93306611624938
 20
-151.3964436470467
 10
74.81455483155678
 20
-151.3964436470467
 10
74.68329669356876
 20
-151.4684461426885
 10
74.68329669356876
 20
-151.6651610948962
 10
74.68329669356876
 20
-151.9252658040326
 10
74.91394583630624
 20
-151.9338785427457
 10
75.03039006370769
 20
-151.938012657328
 10
75.03039006370769
 20
-151.938012657328
 10
75.03039006370769
 20
-152.1622883734178
 10
75.03039006370769
 20
-152.1622883734178
 10
74.90343829507623
 20
-152.1536756347047
 10
74.79130043703134
 20
-152.1429958387004
 10
74.67278915233875
 20
-152.0627251138941
 10
74.51207544795184
 20
-151.9528265679146
 10
74.47814125742214
 20
-151.7664469021626
 10
74.47814125742214
 20
-151.6503471843097
 10
74.47814125742214
 20
-151.373016997747
 10
74.66228161110874
 20
-151.165622249535
 10
74.93513317354052
 20
-151.165622249535
 10
75.16354300421258
 20
-151.165622249535
 10
75.2631062637363
 20
-151.2820664769364
 10
75.48944903711723
 20
-151.5910915419634
 97
        0
 97
        0
 75
     2
 76
     1
 98
        0
  0
ENDBLK
  5
D3
330
D0
100
AcDbEntity
  8
0
100
AcDbBlockEnd
  0
BLOCK
  5
DA
330
D8
100
AcDbEntity
  8
0
100
AcDbBlockBegin
  2
block 6
 70
     0
 10
0.0
 20
0.0
 30
0.0
  3
block 6
  1

  0
SPLINE
  5
DC
330
D8
100
AcDbEntity
  8
_U+30EC_U+30A4_U+30E4_U+30FC 1
370
     0
100
AcDbSpline
210
0.0
220
0.0
230
1.0
 70
    11
 71
     3
 72
    26
 73
    22
 74
     0
 42
0.0000000001
 43
0.0000000001
 12
1.0
 22
0.0
 32
0.0
 13
1.0
 23
0.0
 33
0.0
 40
0.0
 40
0.0
 40
0.0
 40
0.0
 40
1.0
 40
1.0
 40
1.0
 40
2.0
 40
2.0
 40
2.0
 40
3.0
 40
3.0
 40
3.0
 40
4.0
 40
4.0
 40
4.0
 40
5.0
 40
5.0
 40
5.0
 40
6.0
 40
6.0
 40
6.0
 40
7.0
 40
7.0
 40
7.0
 40
7.0
 10
97.01802297921772
 20
-164.3503471811347
 30
0.0
 10
97.01802297921772
 20
-164.3503471811347
 30
0.0
 10
97.01802297921772
 20
-163.2458495685636
 30
0.0
 10
97.01802297921772
 20
-163.2458495685636
 30
0.0
 10
97.01802297921772
 20
-163.2458495685636
 30
0.0
 10
96.68798283173079
 20
-163.2458495685636
 30
0.0
 10
96.68798283173079
 20
-163.2458495685636
 30
0.0
 10
96.68798283173079
 20
-163.2458495685636
 30
0.0
 10
96.68798283173079
 20
-163.0977104626978
 30
0.0
 10
96.68798283173079
 20
-163.0977104626978
 30
0.0
 10
97.02009003650888
 20
-163.0832410616597
 30
0.0
 10
97.06659882555974
 20
-162.9199435356589
 30
0.0
 10
97.09622664673289
 20
-162.8059108750971
 30
0.0
 10
97.09622664673289
 20
-162.8059108750971
 30
0.0
 10
97.24229869530748
 20
-162.8059108750971
 30
0.0
 10
97.24229869530748
 20
-162.8059108750971
 30
0.0
 10
97.24229869530748
 20
-162.8059108750971
 30
0.0
 10
97.24229869530748
 20
-164.3503471811347
 30
0.0
 10
97.24229869530748
 20
-164.3503471811347
 30
0.0
 10
97.24229869530748
 20
-164.3503471811347
 30
0.0
 10
97.01802297921772
 20
-164.3503471811347
 30
0.0
 10
97.01802297921772
 20
-164.3503471811347
 30
0.0
  0
HATCH
  5
DD
330
D8
100
AcDbEntity
  8
_U+30EC_U+30A4_U+30E4_U+30FC 1
 62
     7
420
 16777215
100
AcDbHatch
 10
0.0
 20
0.0
 30
0.0
210
0.0
220
0.0
230
1.0
  2
SOLID
 70
     1
 71
     0
 91
        1
 92
        1
 93
        1
 72
     4
 94
        3
 73
     0
 74
     1
 95
       26
 96
       22
 40
0.0
 40
0.0
 40
0.0
 40
0.0
 40
1.0
 40
1.0
 40
1.0
 40
2.0
 40
2.0
 40
2.0
 40
3.0
 40
3.0
 40
3.0
 40
4.0
 40
4.0
 40
4.0
 40
5.0
 40
5.0
 40
5.0
 40
6.0
 40
6.0
 40
6.0
 40
7.0
 40
7.0
 40
7.0
 40
7.0
 10
97.01802297921772
 20
-164.3503471811347
 10
97.01802297921772
 20
-164.3503471811347
 10
97.01802297921772
 20
-163.2458495685636
 10
97.01802297921772
 20
-163.2458495685636
 10
97.01802297921772
 20
-163.2458495685636
 10
96.68798283173079
 20
-163.2458495685636
 10
96.68798283173079
 20
-163.2458495685636
 10
96.68798283173079
 20
-163.2458495685636
 10
96.68798283173079
 20
-163.0977104626978
 10
96.68798283173079
 20
-163.0977104626978
 10
97.02009003650888
 20
-163.0832410616597
 10
97.06659882555974
 20
-162.9199435356589
 10
97.09622664673289
 20
-162.8059108750971
 10
97.09622664673289
 20
-162.8059108750971
 10
97.24229869530748
 20
-162.8059108750971
 10
97.24229869530748
 20
-162.8059108750971
 10
97.24229869530748
 20
-162.8059108750971
 10
97.24229869530748
 20
-164.3503471811347
 10
97.24229869530748
 20
-164.3503471811347
 10
97.24229869530748
 20
-164.3503471811347
 10
97.01802297921772
 20
-164.3503471811347
 10
97.01802297921772
 20
-164.3503471811347
 97
        0
 97
        0
 75
     2
 76
     1
 98
        0
  0
SPLINE
  5
DE
330
D8
100
AcDbEntity
  8
_U+30EC_U+30A4_U+30E4_U+30FC 1
370
     0
100
AcDbSpline
210
0.0
220
0.0
230
1.0
 70
    11
 71
     3
 72
    29
 73
    25
 74
     0
 42
0.0000000001
 43
0.0000000001
 12
1.0
 22
0.0
 32
0.0
 13
1.0
 23
0.0
 33
0.0
 40
0.0
 40
0.0
 40
0.0
 40
0.0
 40
1.0
 40
1.0
 40
1.0
 40
2.0
 40
2.0
 40
2.0
 40
3.0
 40
3.0
 40
3.0
 40
4.0
 40
4.0
 40
4.0
 40
5.0
 40
5.0
 40
5.0
 40
6.0
 40
6.0
 40
6.0
 40
7.0
 40
7.0
 40
7.0
 40
8.0
 40
8.0
 40
8.0
 40
8.0
 10
98.64135197186745
 20
-164.1725802540957
 30
0.0
 10
98.5331759736306
 20
-164.3820420595989
 30
0.0
 10
98.35988767072253
 20
-164.4009900847678
 30
0.0
 10
98.24344344332108
 20
-164.4009900847678
 30
0.0
 10
98.08255748415992
 20
-164.4009900847678
 30
0.0
 10
97.94096405971615
 20
-164.3544812957169
 30
0.0
 10
97.84587942432326
 20
-164.1725802540957
 30
0.0
 10
97.74218205021724
 20
-163.9779323591791
 30
0.0
 10
97.72288951549984
 20
-163.740909789794
 30
0.0
 10
97.72288951549984
 20
-163.5779567733416
 30
0.0
 10
97.72288951549984
 20
-163.4339517820582
 30
0.0
 10
97.74011499292608
 20
-163.1824598116349
 30
0.0
 10
97.84587942432326
 20
-162.9833332925875
 30
0.0
 10
97.95371091301158
 20
-162.7804171685063
 30
0.0
 10
98.11459687217274
 20
-162.7573350287551
 30
0.0
 10
98.24344344332108
 20
-162.7573350287551
 30
0.0
 10
98.4022623451911
 20
-162.7573350287551
 30
0.0
 10
98.54592282692603
 20
-162.8014322509663
 30
0.0
 10
98.64135197186745
 20
-162.9833332925875
 30
0.0
 10
98.74057072184264
 20
-163.1762586397615
 30
0.0
 10
98.76399737114234
 20
-163.4043239608851
 30
0.0
 10
98.76399737114234
 20
-163.5779567733416
 30
0.0
 10
98.76399737114234
 20
-163.7495225285071
 30
0.0
 10
98.74263777913379
 20
-163.9799994164703
 30
0.0
 10
98.64135197186745
 20
-164.1725802540957
 30
0.0
  0
SPLINE
  5
DF
330
D8
100
AcDbEntity
  8
_U+30EC_U+30A4_U+30E4_U+30FC 1
370
     0
100
AcDbSpline
210
0.0
220
0.0
230
1.0
 70
    11
 71
     3
 72
    17
 73
    13
 74
     0
 42
0.0000000001
 43
0.0000000001
 12
1.0
 22
0.0
 32
0.0
 13
1.0
 23
0.0
 33
0.0
 40
0.0
 40
0.0
 40
0.0
 40
0.0
 40
1.0
 40
1.0
 40
1.0
 40
2.0
 40
2.0
 40
2.0
 40
3.0
 40
3.0
 40
3.0
 40
4.0
 40
4.0
 40
4.0
 40
4.0
 10
98.24344344332108
 20
-162.9495713568321
 30
0.0
 10
97.99367402064047
 20
-162.9495713568321
 30
0.0
 10
97.94716523158961
 20
-163.2331027152681
 30
0.0
 10
97.94716523158961
 20
-163.5779567733416
 30
0.0
 10
97.94716523158961
 20
-163.8976616343728
 30
0.0
 10
97.98333873418473
 20
-164.2063421898512
 30
0.0
 10
98.24344344332108
 20
-164.2063421898512
 30
0.0
 10
98.49114580871056
 20
-164.2063421898512
 30
0.0
 10
98.53972165505257
 20
-163.9248778887063
 30
0.0
 10
98.53972165505257
 20
-163.5779567733416
 30
0.0
 10
98.53972165505257
 20
-163.258596421859
 30
0.0
 10
98.5014810951663
 20
-162.9495713568321
 30
0.0
 10
98.24344344332108
 20
-162.9495713568321
 30
0.0
  0
HATCH
  5
E0
330
D8
100
AcDbEntity
  8
_U+30EC_U+30A4_U+30E4_U+30FC 1
 62
     7
420
 16777215
100
AcDbHatch
 10
0.0
 20
0.0
 30
0.0
210
0.0
220
0.0
230
1.0
  2
SOLID
 70
     1
 71
     0
 91
        2
 92
        1
 93
        1
 72
     4
 94
        3
 73
     0
 74
     1
 95
       29
 96
       25
 40
0.0
 40
0.0
 40
0.0
 40
0.0
 40
1.0
 40
1.0
 40
1.0
 40
2.0
 40
2.0
 40
2.0
 40
3.0
 40
3.0
 40
3.0
 40
4.0
 40
4.0
 40
4.0
 40
5.0
 40
5.0
 40
5.0
 40
6.0
 40
6.0
 40
6.0
 40
7.0
 40
7.0
 40
7.0
 40
8.0
 40
8.0
 40
8.0
 40
8.0
 10
98.64135197186745
 20
-164.1725802540957
 10
98.5331759736306
 20
-164.3820420595989
 10
98.35988767072253
 20
-164.4009900847678
 10
98.24344344332108
 20
-164.4009900847678
 10
98.08255748415992
 20
-164.4009900847678
 10
97.94096405971615
 20
-164.3544812957169
 10
97.84587942432326
 20
-164.1725802540957
 10
97.74218205021724
 20
-163.9779323591791
 10
97.72288951549984
 20
-163.740909789794
 10
97.72288951549984
 20
-163.5779567733416
 10
97.72288951549984
 20
-163.4339517820582
 10
97.74011499292608
 20
-163.1824598116349
 10
97.84587942432326
 20
-162.9833332925875
 10
97.95371091301158
 20
-162.7804171685063
 10
98.11459687217274
 20
-162.7573350287551
 10
98.24344344332108
 20
-162.7573350287551
 10
98.4022623451911
 20
-162.7573350287551
 10
98.54592282692603
 20
-162.8014322509663
 10
98.64135197186745
 20
-162.9833332925875
 10
98.74057072184264
 20
-163.1762586397615
 10
98.76399737114234
 20
-163.4043239608851
 10
98.76399737114234
 20
-163.5779567733416
 10
98.76399737114234
 20
-163.7495225285071
 10
98.74263777913379
 20
-163.9799994164703
 10
98.64135197186745
 20
-164.1725802540957
 97
        0
 97
        0
 92
        1
 93
        1
 72
     4
 94
        3
 73
     0
 74
     1
 95
       17
 96
       13
 40
0.0
 40
0.0
 40
0.0
 40
0.0
 40
1.0
 40
1.0
 40
1.0
 40
2.0
 40
2.0
 40
2.0
 40
3.0
 40
3.0
 40
3.0
 40
4.0
 40
4.0
 40
4.0
 40
4.0
 10
98.24344344332108
 20
-162.9495713568321
 10
97.99367402064047
 20
-162.9495713568321
 10
97.94716523158961
 20
-163.2331027152681
 10
97.94716523158961
 20
-163.5779567733416
 10
97.94716523158961
 20
-163.8976616343728
 10
97.98333873418473
 20
-164.2063421898512
 10
98.24344344332108
 20
-164.2063421898512
 10
98.49114580871056
 20
-164.2063421898512
 10
98.53972165505257
 20
-163.9248778887063
 10
98.53972165505257
 20
-163.5779567733416
 10
98.53972165505257
 20
-163.258596421859
 10
98.5014810951663
 20
-162.9495713568321
 10
98.24344344332108
 20
-162.9495713568321
 97
        0
 97
        0
 75
     2
 76
     1
 98
        0
  0
ENDBLK
  5
DB
330
D8
100
AcDbEntity
  8
0
100
AcDbBlockEnd
  0
BLOCK
  5
E3
330
E1
100
AcDbEntity
  8
0
100
AcDbBlockBegin
  2
block 7
 70
     0
 10
0.0
 20
0.0
 30
0.0
  3
block 7
  1

  0
SPLINE
  5
E5
330
E1
100
AcDbEntity
  8
_U+30EC_U+30A4_U+30E4_U+30FC 1
370
     0
100
AcDbSpline
210
0.0
220
0.0
230
1.0
 70
    11
 71
     3
 72
    26
 73
    22
 74
     0
 42
0.0000000001
 43
0.0000000001
 12
1.0
 22
0.0
 32
0.0
 13
1.0
 23
0.0
 33
0.0
 40
0.0
 40
0.0
 40
0.0
 40
0.0
 40
1.0
 40
1.0
 40
1.0
 40
2.0
 40
2.0
 40
2.0
 40
3.0
 40
3.0
 40
3.0
 40
4.0
 40
4.0
 40
4.0
 40
5.0
 40
5.0
 40
5.0
 40
6.0
 40
6.0
 40
6.0
 40
7.0
 40
7.0
 40
7.0
 40
7.0
 10
86.04332680140584
 20
-164.3503471811347
 30
0.0
 10
86.04332680140584
 20
-164.3503471811347
 30
0.0
 10
86.04332680140584
 20
-163.2458495685636
 30
0.0
 10
86.04332680140584
 20
-163.2458495685636
 30
0.0
 10
86.04332680140584
 20
-163.2458495685636
 30
0.0
 10
85.7132866539189
 20
-163.2458495685636
 30
0.0
 10
85.7132866539189
 20
-163.2458495685636
 30
0.0
 10
85.7132866539189
 20
-163.2458495685636
 30
0.0
 10
85.7132866539189
 20
-163.0977104626978
 30
0.0
 10
85.7132866539189
 20
-163.0977104626978
 30
0.0
 10
86.04539385869698
 20
-163.0832410616597
 30
0.0
 10
86.09190264774786
 20
-162.9199435356589
 30
0.0
 10
86.12153046892101
 20
-162.8059108750971
 30
0.0
 10
86.12153046892101
 20
-162.8059108750971
 30
0.0
 10
86.2676025174956
 20
-162.8059108750971
 30
0.0
 10
86.2676025174956
 20
-162.8059108750971
 30
0.0
 10
86.2676025174956
 20
-162.8059108750971
 30
0.0
 10
86.2676025174956
 20
-164.3503471811347
 30
0.0
 10
86.2676025174956
 20
-164.3503471811347
 30
0.0
 10
86.2676025174956
 20
-164.3503471811347
 30
0.0
 10
86.04332680140584
 20
-164.3503471811347
 30
0.0
 10
86.04332680140584
 20
-164.3503471811347
 30
0.0
  0
HATCH
  5
E6
330
E1
100
AcDbEntity
  8
_U+30EC_U+30A4_U+30E4_U+30FC 1
 62
     7
420
 16777215
100
AcDbHatch
 10
0.0
 20
0.0
 30
0.0
210
0.0
220
0.0
230
1.0
  2
SOLID
 70
     1
 71
     0
 91
        1
 92
        1
 93
        1
 72
     4
 94
        3
 73
     0
 74
     1
 95
       26
 96
       22
 40
0.0
 40
0.0
 40
0.0
 40
0.0
 40
1.0
 40
1.0
 40
1.0
 40
2.0
 40
2.0
 40
2.0
 40
3.0
 40
3.0
 40
3.0
 40
4.0
 40
4.0
 40
4.0
 40
5.0
 40
5.0
 40
5.0
 40
6.0
 40
6.0
 40
6.0
 40
7.0
 40
7.0
 40
7.0
 40
7.0
 10
86.04332680140584
 20
-164.3503471811347
 10
86.04332680140584
 20
-164.3503471811347
 10
86.04332680140584
 20
-163.2458495685636
 10
86.04332680140584
 20
-163.2458495685636
 10
86.04332680140584
 20
-163.2458495685636
 10
85.7132866539189
 20
-163.2458495685636
 10
85.7132866539189
 20
-163.2458495685636
 10
85.7132866539189
 20
-163.2458495685636
 10
85.7132866539189
 20
-163.0977104626978
 10
85.7132866539189
 20
-163.0977104626978
 10
86.04539385869698
 20
-163.0832410616597
 10
86.09190264774786
 20
-162.9199435356589
 10
86.12153046892101
 20
-162.8059108750971
 10
86.12153046892101
 20
-162.8059108750971
 10
86.2676025174956
 20
-162.8059108750971
 10
86.2676025174956
 20
-162.8059108750971
 10
86.2676025174956
 20
-162.8059108750971
 10
86.2676025174956
 20
-164.3503471811347
 10
86.2676025174956
 20
-164.3503471811347
 10
86.2676025174956
 20
-164.3503471811347
 10
86.04332680140584
 20
-164.3503471811347
 10
86.04332680140584
 20
-164.3503471811347
 97
        0
 97
        0
 75
     2
 76
     1
 98
        0
  0
SPLINE
  5
E7
330
E1
100
AcDbEntity
  8
_U+30EC_U+30A4_U+30E4_U+30FC 1
370
     0
100
AcDbSpline
210
0.0
220
0.0
230
1.0
 70
    11
 71
     3
 72
    44
 73
    40
 74
     0
 42
0.0000000001
 43
0.0000000001
 12
1.0
 22
0.0
 32
0.0
 13
1.0
 23
0.0
 33
0.0
 40
0.0
 40
0.0
 40
0.0
 40
0.0
 40
1.0
 40
1.0
 40
1.0
 40
2.0
 40
2.0
 40
2.0
 40
3.0
 40
3.0
 40
3.0
 40
4.0
 40
4.0
 40
4.0
 40
5.0
 40
5.0
 40
5.0
 40
6.0
 40
6.0
 40
6.0
 40
7.0
 40
7.0
 40
7.0
 40
8.0
 40
8.0
 40
8.0
 40
9.0
 40
9.0
 40
9.0
 40
10.0
 40
10.0
 40
10.0
 40
11.0
 40
11.0
 40
11.0
 40
12.0
 40
12.0
 40
12.0
 40
13.0
 40
13.0
 40
13.0
 40
13.0
 10
87.36176484361096
 20
-163.7684705536759
 30
0.0
 10
87.14403480894316
 20
-163.927289455546
 30
0.0
 10
87.05101723084141
 20
-164.0010144989303
 30
0.0
 10
87.00209687495087
 20
-164.1450194902137
 30
0.0
 10
87.00209687495087
 20
-164.1450194902137
 30
0.0
 10
87.78068845461733
 20
-164.1450194902137
 30
0.0
 10
87.78068845461733
 20
-164.1450194902137
 30
0.0
 10
87.78068845461733
 20
-164.1450194902137
 30
0.0
 10
87.78068845461733
 20
-164.3503471811347
 30
0.0
 10
87.78068845461733
 20
-164.3503471811347
 30
0.0
 10
87.78068845461733
 20
-164.3503471811347
 30
0.0
 10
86.75267196181878
 20
-164.3503471811347
 30
0.0
 10
86.75267196181878
 20
-164.3503471811347
 30
0.0
 10
86.78436684028308
 20
-163.9927462697657
 30
0.0
 10
86.84982365450283
 20
-163.914198092702
 30
0.0
 10
87.23498532975375
 20
-163.6158528236794
 30
0.0
 10
87.49095592430783
 20
-163.417415323729
 30
0.0
 10
87.55641273852757
 20
-163.3495469426696
 30
0.0
 10
87.55641273852757
 20
-163.2120876328081
 30
0.0
 10
87.55641273852757
 20
-163.0935763481155
 30
0.0
 10
87.48441024288584
 20
-162.9623182101275
 30
0.0
 10
87.28769529067809
 20
-162.9623182101275
 30
0.0
 10
87.02759058154172
 20
-162.9623182101275
 30
0.0
 10
87.01897784282859
 20
-163.1927950980907
 30
0.0
 10
87.01484372824629
 20
-163.3092393254921
 30
0.0
 10
87.01484372824629
 20
-163.3092393254921
 30
0.0
 10
86.79056801215653
 20
-163.3092393254921
 30
0.0
 10
86.79056801215653
 20
-163.3092393254921
 30
0.0
 10
86.79918075086965
 20
-163.1824598116349
 30
0.0
 10
86.80986054687392
 20
-163.0701496988158
 30
0.0
 10
86.89013127168025
 20
-162.9516384141232
 30
0.0
 10
87.00002981765972
 20
-162.7910969645106
 30
0.0
 10
87.18640948341174
 20
-162.7573350287551
 30
0.0
 10
87.30250920126466
 20
-162.7573350287551
 30
0.0
 10
87.57983938782726
 20
-162.7573350287551
 30
0.0
 10
87.7872341360393
 20
-162.9413031276675
 30
0.0
 10
87.7872341360393
 20
-163.2141546900992
 30
0.0
 10
87.7872341360393
 20
-163.4425645207713
 30
0.0
 10
87.67078990863786
 20
-163.542127780295
 30
0.0
 10
87.36176484361096
 20
-163.7684705536759
 30
0.0
  0
HATCH
  5
E8
330
E1
100
AcDbEntity
  8
_U+30EC_U+30A4_U+30E4_U+30FC 1
 62
     7
420
 16777215
100
AcDbHatch
 10
0.0
 20
0.0
 30
0.0
210
0.0
220
0.0
230
1.0
  2
SOLID
 70
     1
 71
     0
 91
        1
 92
        1
 93
        1
 72
     4
 94
        3
 73
     0
 74
     1
 95
       44
 96
       40
 40
0.0
 40
0.0
 40
0.0
 40
0.0
 40
1.0
 40
1.0
 40
1.0
 40
2.0
 40
2.0
 40
2.0
 40
3.0
 40
3.0
 40
3.0
 40
4.0
 40
4.0
 40
4.0
 40
5.0
 40
5.0
 40
5.0
 40
6.0
 40
6.0
 40
6.0
 40
7.0
 40
7.0
 40
7.0
 40
8.0
 40
8.0
 40
8.0
 40
9.0
 40
9.0
 40
9.0
 40
10.0
 40
10.0
 40
10.0
 40
11.0
 40
11.0
 40
11.0
 40
12.0
 40
12.0
 40
12.0
 40
13.0
 40
13.0
 40
13.0
 40
13.0
 10
87.36176484361096
 20
-163.7684705536759
 10
87.14403480894316
 20
-163.927289455546
 10
87.05101723084141
 20
-164.0010144989303
 10
87.00209687495087
 20
-164.1450194902137
 10
87.00209687495087
 20
-164.1450194902137
 10
87.78068845461733
 20
-164.1450194902137
 10
87.78068845461733
 20
-164.1450194902137
 10
87.78068845461733
 20
-164.1450194902137
 10
87.78068845461733
 20
-164.3503471811347
 10
87.78068845461733
 20
-164.3503471811347
 10
87.78068845461733
 20
-164.3503471811347
 10
86.75267196181878
 20
-164.3503471811347
 10
86.75267196181878
 20
-164.3503471811347
 10
86.78436684028308
 20
-163.9927462697657
 10
86.84982365450283
 20
-163.914198092702
 10
87.23498532975375
 20
-163.6158528236794
 10
87.49095592430783
 20
-163.417415323729
 10
87.55641273852757
 20
-163.3495469426696
 10
87.55641273852757
 20
-163.2120876328081
 10
87.55641273852757
 20
-163.0935763481155
 10
87.48441024288584
 20
-162.9623182101275
 10
87.28769529067809
 20
-162.9623182101275
 10
87.02759058154172
 20
-162.9623182101275
 10
87.01897784282859
 20
-163.1927950980907
 10
87.01484372824629
 20
-163.3092393254921
 10
87.01484372824629
 20
-163.3092393254921
 10
86.79056801215653
 20
-163.3092393254921
 10
86.79056801215653
 20
-163.3092393254921
 10
86.79918075086965
 20
-163.1824598116349
 10
86.80986054687392
 20
-163.0701496988158
 10
86.89013127168025
 20
-162.9516384141232
 10
87.00002981765972
 20
-162.7910969645106
 10
87.18640948341174
 20
-162.7573350287551
 10
87.30250920126466
 20
-162.7573350287551
 10
87.57983938782726
 20
-162.7573350287551
 10
87.7872341360393
 20
-162.9413031276675
 10
87.7872341360393
 20
-163.2141546900992
 10
87.7872341360393
 20
-163.4425645207713
 10
87.67078990863786
 20
-163.542127780295
 10
87.36176484361096
 20
-163.7684705536759
 97
        0
 97
        0
 75
     2
 76
     1
 98
        0
  0
ENDBLK
  5
E4
330
E1
100
AcDbEntity
  8
0
100
AcDbBlockEnd
  0
BLOCK
  5
EB
330
E9
100
AcDbEntity
  8
0
100
AcDbBlockBegin
  2
block 8
 70
     0
 10
0.0
 20
0.0
 30
0.0
  3
block 8
  1

  0
SPLINE
  5
ED
330
E9
100
AcDbEntity
  8
_U+30EC_U+30A4_U+30E4_U+30FC 1
370
     0
100
AcDbSpline
210
0.0
220
0.0
230
1.0
 70
    11
 71
     3
 72
    62
 73
    58
 74
     0
 42
0.0000000001
 43
0.0000000001
 12
1.0
 22
0.0
 32
0.0
 13
1.0
 23
0.0
 33
0.0
 40
0.0
 40
0.0
 40
0.0
 40
0.0
 40
1.0
 40
1.0
 40
1.0
 40
2.0
 40
2.0
 40
2.0
 40
3.0
 40
3.0
 40
3.0
 40
4.0
 40
4.0
 40
4.0
 40
5.0
 40
5.0
 40
5.0
 40
6.0
 40
6.0
 40
6.0
 40
7.0
 40
7.0
 40
7.0
 40
8.0
 40
8.0
 40
8.0
 40
9.0
 40
9.0
 40
9.0
 40
10.0
 40
10.0
 40
10.0
 40
11.0
 40
11.0
 40
11.0
 40
12.0
 40
12.0
 40
12.0
 40
13.0
 40
13.0
 40
13.0
 40
14.0
 40
14.0
 40
14.0
 40
15.0
 40
15.0
 40
15.0
 40
16.0
 40
16.0
 40
16.0
 40
17.0
 40
17.0
 40
17.0
 40
18.0
 40
18.0
 40
18.0
 40
19.0
 40
19.0
 40
19.0
 40
19.0
 10
82.16724987095125
 20
-121.8406249695398
 30
0.0
 10
82.07182072600983
 20
-121.8406249695398
 30
0.0
 10
81.85409069134204
 20
-121.8194376323056
 30
0.0
 10
81.72903372522747
 20
-121.6332302213278
 30
0.0
 10
81.6549641722946
 20
-121.5210923632829
 30
0.0
 10
81.6508300577123
 20
-121.4217013585335
 30
0.0
 10
81.64669594313
 20
-121.3371242643706
 30
0.0
 10
81.64669594313
 20
-121.3371242643706
 30
0.0
 10
81.86683754463746
 20
-121.3371242643706
 30
0.0
 10
81.86683754463746
 20
-121.3371242643706
 30
0.0
 10
81.8689046019286
 20
-121.4111938173035
 30
0.0
 10
81.87923988838436
 20
-121.6459770746232
 30
0.0
 10
82.16277124682043
 20
-121.6459770746232
 30
0.0
 10
82.3002305566819
 20
-121.6459770746232
 30
0.0
 10
82.45284828667846
 20
-121.5762138910469
 30
0.0
 10
82.45284828667846
 20
-121.3476318056006
 30
0.0
 10
82.45284828667846
 20
-121.2313598329734
 30
0.0
 10
82.41460772679218
 20
-121.1826117318571
 30
0.0
 10
82.38291284832789
 20
-121.1509168533928
 30
0.0
 10
82.30884329539502
 20
-121.07684730046
 30
0.0
 10
82.19239906799358
 20
-121.0642727019388
 30
0.0
 10
82.1376220497781
 20
-121.0642727019388
 30
0.0
 10
82.1183295150607
 20
-121.0642727019388
 30
0.0
 10
82.0825005220141
 20
-121.0663397592299
 30
0.0
 10
82.05493975813211
 20
-121.0704738738122
 30
0.0
 10
82.05493975813211
 20
-121.0704738738122
 30
0.0
 10
82.05493975813211
 20
-120.8759982336699
 30
0.0
 10
82.05493975813211
 20
-120.8759982336699
 30
0.0
 10
82.09318031801837
 20
-120.8821994055433
 30
0.0
 10
82.13521048293842
 20
-120.8844387176088
 30
0.0
 10
82.1417561643604
 20
-120.8844387176088
 30
0.0
 10
82.20721297858015
 20
-120.8844387176088
 30
0.0
 10
82.40599498807906
 20
-120.8632513803745
 30
0.0
 10
82.40599498807906
 20
-120.6262288109893
 30
0.0
 10
82.40599498807906
 20
-120.4486341387247
 30
0.0
 10
82.27508135963957
 20
-120.3935126109607
 30
0.0
 10
82.16483830411157
 20
-120.3935126109607
 30
0.0
 10
81.90059948039291
 20
-120.3935126109607
 30
0.0
 10
81.89198674167979
 20
-120.6262288109893
 30
0.0
 10
81.88785262709749
 20
-120.698231306631
 30
0.0
 10
81.88785262709749
 20
-120.698231306631
 30
0.0
 10
81.68459199346775
 20
-120.698231306631
 30
0.0
 10
81.68459199346775
 20
-120.698231306631
 30
0.0
 10
81.69320473218087
 20
-120.5733465952907
 30
0.0
 10
81.72076549606287
 20
-120.1967976587529
 30
0.0
 10
82.177585157407
 20
-120.1967976587529
 30
0.0
 10
82.40186087349676
 20
-120.1967976587529
 30
0.0
 10
82.64301755746425
 20
-120.3237494273843
 30
0.0
 10
82.64301755746425
 20
-120.6198553843416
 30
0.0
 10
82.64301755746425
 20
-120.8060627953193
 30
0.0
 10
82.54793292207135
 20
-120.8885728321911
 30
0.0
 10
82.44836966254763
 20
-120.9498955318285
 30
0.0
 10
82.50969236218508
 20
-120.9774562957105
 30
0.0
 10
82.69159340380627
 20
-121.0578992752911
 30
0.0
 10
82.69159340380627
 20
-121.3350572070794
 30
0.0
 10
82.69159340380627
 20
-121.6735378385052
 30
0.0
 10
82.44423554796533
 20
-121.8406249695398
 30
0.0
 10
82.16724987095125
 20
-121.8406249695398
 30
0.0
  0
HATCH
  5
EE
330
E9
100
AcDbEntity
  8
_U+30EC_U+30A4_U+30E4_U+30FC 1
 62
     7
420
 16777215
100
AcDbHatch
 10
0.0
 20
0.0
 30
0.0
210
0.0
220
0.0
230
1.0
  2
SOLID
 70
     1
 71
     0
 91
        1
 92
        1
 93
        1
 72
     4
 94
        3
 73
     0
 74
     1
 95
       62
 96
       58
 40
0.0
 40
0.0
 40
0.0
 40
0.0
 40
1.0
 40
1.0
 40
1.0
 40
2.0
 40
2.0
 40
2.0
 40
3.0
 40
3.0
 40
3.0
 40
4.0
 40
4.0
 40
4.0
 40
5.0
 40
5.0
 40
5.0
 40
6.0
 40
6.0
 40
6.0
 40
7.0
 40
7.0
 40
7.0
 40
8.0
 40
8.0
 40
8.0
 40
9.0
 40
9.0
 40
9.0
 40
10.0
 40
10.0
 40
10.0
 40
11.0
 40
11.0
 40
11.0
 40
12.0
 40
12.0
 40
12.0
 40
13.0
 40
13.0
 40
13.0
 40
14.0
 40
14.0
 40
14.0
 40
15.0
 40
15.0
 40
15.0
 40
16.0
 40
16.0
 40
16.0
 40
17.0
 40
17.0
 40
17.0
 40
18.0
 40
18.0
 40
18.0
 40
19.0
 40
19.0
 40
19.0
 40
19.0
 10
82.16724987095125
 20
-121.8406249695398
 10
82.07182072600983
 20
-121.8406249695398
 10
81.85409069134204
 20
-121.8194376323056
 10
81.72903372522747
 20
-121.6332302213278
 10
81.6549641722946
 20
-121.5210923632829
 10
81.6508300577123
 20
-121.4217013585335
 10
81.64669594313
 20
-121.3371242643706
 10
81.64669594313
 20
-121.3371242643706
 10
81.86683754463746
 20
-121.3371242643706
 10
81.86683754463746
 20
-121.3371242643706
 10
81.8689046019286
 20
-121.4111938173035
 10
81.87923988838436
 20
-121.6459770746232
 10
82.16277124682043
 20
-121.6459770746232
 10
82.3002305566819
 20
-121.6459770746232
 10
82.45284828667846
 20
-121.5762138910469
 10
82.45284828667846
 20
-121.3476318056006
 10
82.45284828667846
 20
-121.2313598329734
 10
82.41460772679218
 20
-121.1826117318571
 10
82.38291284832789
 20
-121.1509168533928
 10
82.30884329539502
 20
-121.07684730046
 10
82.19239906799358
 20
-121.0642727019388
 10
82.1376220497781
 20
-121.0642727019388
 10
82.1183295150607
 20
-121.0642727019388
 10
82.0825005220141
 20
-121.0663397592299
 10
82.05493975813211
 20
-121.0704738738122
 10
82.05493975813211
 20
-121.0704738738122
 10
82.05493975813211
 20
-120.8759982336699
 10
82.05493975813211
 20
-120.8759982336699
 10
82.09318031801837
 20
-120.8821994055433
 10
82.13521048293842
 20
-120.8844387176088
 10
82.1417561643604
 20
-120.8844387176088
 10
82.20721297858015
 20
-120.8844387176088
 10
82.40599498807906
 20
-120.8632513803745
 10
82.40599498807906
 20
-120.6262288109893
 10
82.40599498807906
 20
-120.4486341387247
 10
82.27508135963957
 20
-120.3935126109607
 10
82.16483830411157
 20
-120.3935126109607
 10
81.90059948039291
 20
-120.3935126109607
 10
81.89198674167979
 20
-120.6262288109893
 10
81.88785262709749
 20
-120.698231306631
 10
81.88785262709749
 20
-120.698231306631
 10
81.68459199346775
 20
-120.698231306631
 10
81.68459199346775
 20
-120.698231306631
 10
81.69320473218087
 20
-120.5733465952907
 10
81.72076549606287
 20
-120.1967976587529
 10
82.177585157407
 20
-120.1967976587529
 10
82.40186087349676
 20
-120.1967976587529
 10
82.64301755746425
 20
-120.3237494273843
 10
82.64301755746425
 20
-120.6198553843416
 10
82.64301755746425
 20
-120.8060627953193
 10
82.54793292207135
 20
-120.8885728321911
 10
82.44836966254763
 20
-120.9498955318285
 10
82.50969236218508
 20
-120.9774562957105
 10
82.69159340380627
 20
-121.0578992752911
 10
82.69159340380627
 20
-121.3350572070794
 10
82.69159340380627
 20
-121.6735378385052
 10
82.44423554796533
 20
-121.8406249695398
 10
82.16724987095125
 20
-121.8406249695398
 97
        0
 97
        0
 75
     2
 76
     1
 98
        0
  0
ENDBLK
  5
EC
330
E9
100
AcDbEntity
  8
0
100
AcDbBlockEnd
  0
BLOCK
  5
F1
330
EF
100
AcDbEntity
  8
0
100
AcDbBlockBegin
  2
block 9
 70
     0
 10
0.0
 20
0.0
 30
0.0
  3
block 9
  1

  0
SPLINE
  5
F3
330
EF
100
AcDbEntity
  8
_U+30EC_U+30A4_U+30E4_U+30FC 1
370
     0
100
AcDbSpline
210
0.0
220
0.0
230
1.0
 70
    11
 71
     3
 72
    26
 73
    22
 74
     0
 42
0.0000000001
 43
0.0000000001
 12
1.0
 22
0.0
 32
0.0
 13
1.0
 23
0.0
 33
0.0
 40
0.0
 40
0.0
 40
0.0
 40
0.0
 40
1.0
 40
1.0
 40
1.0
 40
2.0
 40
2.0
 40
2.0
 40
3.0
 40
3.0
 40
3.0
 40
4.0
 40
4.0
 40
4.0
 40
5.0
 40
5.0
 40
5.0
 40
6.0
 40
6.0
 40
6.0
 40
7.0
 40
7.0
 40
7.0
 40
7.0
 10
91.1393120431874
 20
-93.65957164542192
 30
0.0
 10
91.1393120431874
 20
-93.65957164542192
 30
0.0
 10
91.1393120431874
 20
-92.55524628762508
 30
0.0
 10
91.1393120431874
 20
-92.55524628762508
 30
0.0
 10
91.1393120431874
 20
-92.55524628762508
 30
0.0
 10
90.80927189570046
 20
-92.55524628762508
 30
0.0
 10
90.80927189570046
 20
-92.55524628762508
 30
0.0
 10
90.80927189570046
 20
-92.55524628762508
 30
0.0
 10
90.80927189570046
 20
-92.40710718175934
 30
0.0
 10
90.80927189570046
 20
-92.40710718175934
 30
0.0
 10
91.14137910047855
 20
-92.39246552594703
 30
0.0
 10
91.18788788952942
 20
-92.22951250949471
 30
0.0
 10
91.21751571070257
 20
-92.11530759415868
 30
0.0
 10
91.21751571070257
 20
-92.11530759415868
 30
0.0
 10
91.36358775927717
 20
-92.11530759415868
 30
0.0
 10
91.36358775927717
 20
-92.11530759415868
 30
0.0
 10
91.36358775927717
 20
-92.11530759415868
 30
0.0
 10
91.36358775927717
 20
-93.65957164542192
 30
0.0
 10
91.36358775927717
 20
-93.65957164542192
 30
0.0
 10
91.36358775927717
 20
-93.65957164542192
 30
0.0
 10
91.1393120431874
 20
-93.65957164542192
 30
0.0
 10
91.1393120431874
 20
-93.65957164542192
 30
0.0
  0
HATCH
  5
F4
330
EF
100
AcDbEntity
  8
_U+30EC_U+30A4_U+30E4_U+30FC 1
 62
     7
420
 16777215
100
AcDbHatch
 10
0.0
 20
0.0
 30
0.0
210
0.0
220
0.0
230
1.0
  2
SOLID
 70
     1
 71
     0
 91
        1
 92
        1
 93
        1
 72
     4
 94
        3
 73
     0
 74
     1
 95
       26
 96
       22
 40
0.0
 40
0.0
 40
0.0
 40
0.0
 40
1.0
 40
1.0
 40
1.0
 40
2.0
 40
2.0
 40
2.0
 40
3.0
 40
3.0
 40
3.0
 40
4.0
 40
4.0
 40
4.0
 40
5.0
 40
5.0
 40
5.0
 40
6.0
 40
6.0
 40
6.0
 40
7.0
 40
7.0
 40
7.0
 40
7.0
 10
91.1393120431874
 20
-93.65957164542192
 10
91.1393120431874
 20
-93.65957164542192
 10
91.1393120431874
 20
-92.55524628762508
 10
91.1393120431874
 20
-92.55524628762508
 10
91.1393120431874
 20
-92.55524628762508
 10
90.80927189570046
 20
-92.55524628762508
 10
90.80927189570046
 20
-92.55524628762508
 10
90.80927189570046
 20
-92.55524628762508
 10
90.80927189570046
 20
-92.40710718175934
 10
90.80927189570046
 20
-92.40710718175934
 10
91.14137910047855
 20
-92.39246552594703
 10
91.18788788952942
 20
-92.22951250949471
 10
91.21751571070257
 20
-92.11530759415868
 10
91.21751571070257
 20
-92.11530759415868
 10
91.36358775927717
 20
-92.11530759415868
 10
91.36358775927717
 20
-92.11530759415868
 10
91.36358775927717
 20
-92.11530759415868
 10
91.36358775927717
 20
-93.65957164542192
 10
91.36358775927717
 20
-93.65957164542192
 10
91.36358775927717
 20
-93.65957164542192
 10
91.1393120431874
 20
-93.65957164542192
 10
91.1393120431874
 20
-93.65957164542192
 97
        0
 97
        0
 75
     2
 76
     1
 98
        0
  0
ENDBLK
  5
F2
330
EF
100
AcDbEntity
  8
0
100
AcDbBlockEnd
  0
BLOCK
  5
F7
330
F5
100
AcDbEntity
  8
0
100
AcDbBlockBegin
  2
block 10
 70
     0
 10
0.0
 20
0.0
 30
0.0
  3
block 10
  1

  0
SPLINE
  5
F9
330
F5
100
AcDbEntity
  8
_U+30EC_U+30A4_U+30E4_U+30FC 1
370
     0
100
AcDbSpline
210
0.0
220
0.0
230
1.0
 70
    11
 71
     3
 72
    26
 73
    22
 74
     0
 42
0.0000000001
 43
0.0000000001
 12
1.0
 22
0.0
 32
0.0
 13
1.0
 23
0.0
 33
0.0
 40
0.0
 40
0.0
 40
0.0
 40
0.0
 40
1.0
 40
1.0
 40
1.0
 40
2.0
 40
2.0
 40
2.0
 40
3.0
 40
3.0
 40
3.0
 40
4.0
 40
4.0
 40
4.0
 40
5.0
 40
5.0
 40
5.0
 40
6.0
 40
6.0
 40
6.0
 40
7.0
 40
7.0
 40
7.0
 40
7.0
 10
87.06824270826766
 20
-121.7898098111324
 30
0.0
 10
87.06824270826766
 20
-121.7898098111324
 30
0.0
 10
86.83122013888247
 20
-121.7898098111324
 30
0.0
 10
86.83122013888247
 20
-121.7898098111324
 30
0.0
 10
86.85671384547332
 20
-121.4809570008798
 30
0.0
 10
87.0492946830988
 20
-120.9626423851239
 30
0.0
 10
87.45547144080975
 20
-120.4570746226635
 30
0.0
 10
87.45547144080975
 20
-120.4570746226635
 30
0.0
 10
86.61762421879699
 20
-120.4570746226635
 30
0.0
 10
86.61762421879699
 20
-120.4570746226635
 30
0.0
 10
86.61762421879699
 20
-120.4570746226635
 30
0.0
 10
86.61762421879699
 20
-120.2455457598692
 30
0.0
 10
86.61762421879699
 20
-120.2455457598692
 30
0.0
 10
86.61762421879699
 20
-120.2455457598692
 30
0.0
 10
87.69249401019493
 20
-120.2455457598692
 30
0.0
 10
87.69249401019493
 20
-120.2455457598692
 30
0.0
 10
87.69249401019493
 20
-120.2455457598692
 30
0.0
 10
87.69249401019493
 20
-120.4570746226635
 30
0.0
 10
87.69249401019493
 20
-120.4570746226635
 30
0.0
 10
87.36865503458145
 20
-120.746807152973
 30
0.0
 10
87.10200464402311
 20
-121.3391913216617
 30
0.0
 10
87.06824270826766
 20
-121.7898098111324
 30
0.0
  0
HATCH
  5
FA
330
F5
100
AcDbEntity
  8
_U+30EC_U+30A4_U+30E4_U+30FC 1
 62
     7
420
 16777215
100
AcDbHatch
 10
0.0
 20
0.0
 30
0.0
210
0.0
220
0.0
230
1.0
  2
SOLID
 70
     1
 71
     0
 91
        1
 92
        1
 93
        1
 72
     4
 94
        3
 73
     0
 74
     1
 95
       26
 96
       22
 40
0.0
 40
0.0
 40
0.0
 40
0.0
 40
1.0
 40
1.0
 40
1.0
 40
2.0
 40
2.0
 40
2.0
 40
3.0
 40
3.0
 40
3.0
 40
4.0
 40
4.0
 40
4.0
 40
5.0
 40
5.0
 40
5.0
 40
6.0
 40
6.0
 40
6.0
 40
7.0
 40
7.0
 40
7.0
 40
7.0
 10
87.06824270826766
 20
-121.7898098111324
 10
87.06824270826766
 20
-121.7898098111324
 10
86.83122013888247
 20
-121.7898098111324
 10
86.83122013888247
 20
-121.7898098111324
 10
86.85671384547332
 20
-121.4809570008798
 10
87.0492946830988
 20
-120.9626423851239
 10
87.45547144080975
 20
-120.4570746226635
 10
87.45547144080975
 20
-120.4570746226635
 10
86.61762421879699
 20
-120.4570746226635
 10
86.61762421879699
 20
-120.4570746226635
 10
86.61762421879699
 20
-120.4570746226635
 10
86.61762421879699
 20
-120.2455457598692
 10
86.61762421879699
 20
-120.2455457598692
 10
86.61762421879699
 20
-120.2455457598692
 10
87.69249401019493
 20
-120.2455457598692
 10
87.69249401019493
 20
-120.2455457598692
 10
87.69249401019493
 20
-120.2455457598692
 10
87.69249401019493
 20
-120.4570746226635
 10
87.69249401019493
 20
-120.4570746226635
 10
87.36865503458145
 20
-120.746807152973
 10
87.10200464402311
 20
-121.3391913216617
 10
87.06824270826766
 20
-121.7898098111324
 97
        0
 97
        0
 75
     2
 76
     1
 98
        0
  0
ENDBLK
  5
F8
330
F5
100
AcDbEntity
  8
0
100
AcDbBlockEnd
  0
ENDSEC
  0
SECTION
  2
ENTITIES
  0
POLYLINE
  5
41
330
1F
100
AcDbEntity
  8
_U+30EC_U+30A4_U+30E4_U+30FC 1
 62
     7
420
 16777215
370
    25
100
AcDb2dPolyline
 66
     1
 10
0.0
 20
0.0
 30
0.0
  0
VERTEX
  5
42
330
41
100
AcDbEntity
  8
_U+30EC_U+30A4_U+30E4_U+30FC 1
 62
     7
420
 16777215
370
    25
100
AcDbVertex
100
AcDb2dVertex
 10
101.6757740727016
 20
-155.2721755167378
 30
0.0
  0
VERTEX
  5
43
330
41
100
AcDbEntity
  8
_U+30EC_U+30A4_U+30E4_U+30FC 1
 62
     7
420
 16777215
370
    25
100
AcDbVertex
100
AcDb2dVertex
 10
101.6757740727016
 20
-157.2723902384596
 30
0.0
  0
VERTEX
  5
44
330
41
100
AcDbEntity
  8
_U+30EC_U+30A4_U+30E4_U+30FC 1
 62
     7
420
 16777215
370
    25
100
AcDbVertex
100
AcDb2dVertex
 10
93.67558566569227
 20
-157.2723902384596
 30
0.0
  0
VERTEX
  5
45
330
41
100
AcDbEntity
  8
_U+30EC_U+30A4_U+30E4_U+30FC 1
 62
     7
420
 16777215
370
    25
100
AcDbVertex
100
AcDb2dVertex
 10
93.67558566569227
 20
-146.2718619078764
 30
0.0
  0
VERTEX
  5
46
330
41
100
AcDbEntity
  8
_U+30EC_U+30A4_U+30E4_U+30FC 1
 62
     7
420
 16777215
370
    25
100
AcDbVertex
100
AcDb2dVertex
 10
93.67558566569227
 20
-145.2720896859045
 30
0.0
  0
VERTEX
  5
47
330
41
100
AcDbEntity
  8
_U+30EC_U+30A4_U+30E4_U+30FC 1
 62
     7
420
 16777215
370
    25
100
AcDbVertex
100
AcDb2dVertex
 10
92.67581346897636
 20
-145.2720896859045
 30
0.0
  0
VERTEX
  5
48
330
41
100
AcDbEntity
  8
_U+30EC_U+30A4_U+30E4_U+30FC 1
 62
     7
420
 16777215
370
    25
100
AcDbVertex
100
AcDb2dVertex
 10
91.67537099449977
 20
-145.2720896859045
 30
0.0
  0
VERTEX
  5
49
330
41
100
AcDbEntity
  8
_U+30EC_U+30A4_U+30E4_U+30FC 1
 62
     7
420
 16777215
370
    25
100
AcDbVertex
100
AcDb2dVertex
 10
91.67537099449977
 20
-98.27168275321
 30
0.0
  0
VERTEX
  5
4A
330
41
100
AcDbEntity
  8
_U+30EC_U+30A4_U+30E4_U+30FC 1
 62
     7
420
 16777215
370
    25
100
AcDbVertex
100
AcDb2dVertex
 10
90.67542240889948
 20
-98.27168275321
 30
0.0
  0
VERTEX
  5
4B
330
41
100
AcDbEntity
  8
_U+30EC_U+30A4_U+30E4_U+30FC 1
 62
     7
420
 16777215
370
    25
100
AcDbVertex
100
AcDb2dVertex
 10
90.67542240889948
 20
-145.2720896859045
 30
0.0
  0
VERTEX
  5
4C
330
41
100
AcDbEntity
  8
_U+30EC_U+30A4_U+30E4_U+30FC 1
 62
     7
420
 16777215
370
    25
100
AcDbVertex
100
AcDb2dVertex
 10
81.6751110906925
 20
-145.2720896859045
 30
0.0
  0
VERTEX
  5
4D
330
41
100
AcDbEntity
  8
_U+30EC_U+30A4_U+30E4_U+30FC 1
 62
     7
420
 16777215
370
    25
100
AcDbVertex
100
AcDb2dVertex
 10
81.6751110906925
 20
-137.2715482990156
 30
0.0
  0
VERTEX
  5
4E
330
41
100
AcDbEntity
  8
_U+30EC_U+30A4_U+30E4_U+30FC 1
 62
     7
420
 16777215
370
    25
100
AcDbVertex
100
AcDb2dVertex
 10
83.67532369859798
 20
-137.2715482990156
 30
0.0
  0
VERTEX
  5
4F
330
41
100
AcDbEntity
  8
_U+30EC_U+30A4_U+30E4_U+30FC 1
 62
     7
420
 16777215
370
    25
100
AcDbVertex
100
AcDb2dVertex
 10
83.67532369859798
 20
-136.2717760770431
 30
0.0
  0
VERTEX
  5
50
330
41
100
AcDbEntity
  8
_U+30EC_U+30A4_U+30E4_U+30FC 1
 62
     7
420
 16777215
370
    25
100
AcDbVertex
100
AcDb2dVertex
 10
81.6751110906925
 20
-136.2717760770431
 30
0.0
  0
VERTEX
  5
51
330
41
100
AcDbEntity
  8
_U+30EC_U+30A4_U+30E4_U+30FC 1
 62
     7
420
 16777215
370
    25
100
AcDbVertex
100
AcDb2dVertex
 10
80.67533886871995
 20
-136.2717760770431
 30
0.0
  0
VERTEX
  5
52
330
41
100
AcDbEntity
  8
_U+30EC_U+30A4_U+30E4_U+30FC 1
 62
     7
420
 16777215
370
    25
100
AcDbVertex
100
AcDb2dVertex
 10
80.67533886871995
 20
-137.2715482990156
 30
0.0
  0
VERTEX
  5
53
330
41
100
AcDbEntity
  8
_U+30EC_U+30A4_U+30E4_U+30FC 1
 62
     7
420
 16777215
370
    25
100
AcDbVertex
100
AcDb2dVertex
 10
80.67533886871995
 20
-145.2720896859045
 30
0.0
  0
VERTEX
  5
54
330
41
100
AcDbEntity
  8
_U+30EC_U+30A4_U+30E4_U+30FC 1
 62
     7
420
 16777215
370
    25
100
AcDbVertex
100
AcDb2dVertex
 10
80.67533886871995
 20
-146.2718619078764
 30
0.0
  0
VERTEX
  5
55
330
41
100
AcDbEntity
  8
_U+30EC_U+30A4_U+30E4_U+30FC 1
 62
     7
420
 16777215
370
    25
100
AcDbVertex
100
AcDb2dVertex
 10
81.6751110906925
 20
-146.2718619078764
 30
0.0
  0
VERTEX
  5
56
330
41
100
AcDbEntity
  8
_U+30EC_U+30A4_U+30E4_U+30FC 1
 62
     7
420
 16777215
370
    25
100
AcDbVertex
100
AcDb2dVertex
 10
90.67542240889948
 20
-146.2718619078764
 30
0.0
  0
VERTEX
  5
57
330
41
100
AcDbEntity
  8
_U+30EC_U+30A4_U+30E4_U+30FC 1
 62
     7
420
 16777215
370
    25
100
AcDbVertex
100
AcDb2dVertex
 10
91.67537099449977
 20
-146.2718619078764
 30
0.0
  0
VERTEX
  5
58
330
41
100
AcDbEntity
  8
_U+30EC_U+30A4_U+30E4_U+30FC 1
 62
     7
420
 16777215
370
    25
100
AcDbVertex
100
AcDb2dVertex
 10
92.67581346897636
 20
-146.2718619078764
 30
0.0
  0
VERTEX
  5
59
330
41
100
AcDbEntity
  8
_U+30EC_U+30A4_U+30E4_U+30FC 1
 62
     7
420
 16777215
370
    25
100
AcDbVertex
100
AcDb2dVertex
 10
92.67581346897636
 20
-157.2723902384596
 30
0.0
  0
VERTEX
  5
5A
330
41
100
AcDbEntity
  8
_U+30EC_U+30A4_U+30E4_U+30FC 1
 62
     7
420
 16777215
370
    25
100
AcDbVertex
100
AcDb2dVertex
 10
92.67581346897636
 20
-158.2721624604322
 30
0.0
  0
VERTEX
  5
5B
330
41
100
AcDbEntity
  8
_U+30EC_U+30A4_U+30E4_U+30FC 1
 62
     7
420
 16777215
370
    25
100
AcDbVertex
100
AcDb2dVertex
 10
93.67558566569227
 20
-158.2721624604322
 30
0.0
  0
VERTEX
  5
5C
330
41
100
AcDbEntity
  8
_U+30EC_U+30A4_U+30E4_U+30FC 1
 62
     7
420
 16777215
370
    25
100
AcDbVertex
100
AcDb2dVertex
 10
101.6757740727016
 20
-158.2721624604322
 30
0.0
  0
VERTEX
  5
5D
330
41
100
AcDbEntity
  8
_U+30EC_U+30A4_U+30E4_U+30FC 1
 62
     7
420
 16777215
370
    25
100
AcDbVertex
100
AcDb2dVertex
 10
102.6755462694175
 20
-158.2721624604322
 30
0.0
  0
VERTEX
  5
5E
330
41
100
AcDbEntity
  8
_U+30EC_U+30A4_U+30E4_U+30FC 1
 62
     7
420
 16777215
370
    25
100
AcDbVertex
100
AcDb2dVertex
 10
102.6755462694175
 20
-157.2723902384596
 30
0.0
  0
VERTEX
  5
5F
330
41
100
AcDbEntity
  8
_U+30EC_U+30A4_U+30E4_U+30FC 1
 62
     7
420
 16777215
370
    25
100
AcDbVertex
100
AcDb2dVertex
 10
102.6755462694175
 20
-155.2721755167378
 30
0.0
  0
VERTEX
  5
60
330
41
100
AcDbEntity
  8
_U+30EC_U+30A4_U+30E4_U+30FC 1
 62
     7
420
 16777215
370
    25
100
AcDbVertex
100
AcDb2dVertex
 10
101.6757740727016
 20
-155.2721755167378
 30
0.0
  0
SEQEND
  5
62
330
41
100
AcDbEntity
  8
_U+30EC_U+30A4_U+30E4_U+30FC 1
 62
     7
420
 16777215
370
    25
  0
HATCH
  5
61
330
1F
100
AcDbEntity
  8
_U+30EC_U+30A4_U+30E4_U+30FC 1
 62
   253
420
 11711154
100
AcDbHatch
 10
0.0
 20
0.0
 30
0.0
210
0.0
220
0.0
230
1.0
  2
SOLID
 70
     1
 71
     0
 91
        1
 92
        1
 93
       30
 72
     1
 10
101.6757740727016
 20
-155.2721755167378
 11
101.6757740727016
 21
-157.2723902384596
 72
     1
 10
101.6757740727016
 20
-157.2723902384596
 11
93.67558566569227
 21
-157.2723902384596
 72
     1
 10
93.67558566569227
 20
-157.2723902384596
 11
93.67558566569227
 21
-146.2718619078764
 72
     1
 10
93.67558566569227
 20
-146.2718619078764
 11
93.67558566569227
 21
-145.2720896859045
 72
     1
 10
93.67558566569227
 20
-145.2720896859045
 11
92.67581346897636
 21
-145.2720896859045
 72
     1
 10
92.67581346897636
 20
-145.2720896859045
 11
91.67537099449977
 21
-145.2720896859045
 72
     1
 10
91.67537099449977
 20
-145.2720896859045
 11
91.67537099449977
 21
-98.27168275321
 72
     1
 10
91.67537099449977
 20
-98.27168275321
 11
90.67542240889948
 21
-98.27168275321
 72
     1
 10
90.67542240889948
 20
-98.27168275321
 11
90.67542240889948
 21
-145.2720896859045
 72
     1
 10
90.67542240889948
 20
-145.2720896859045
 11
81.6751110906925
 21
-145.2720896859045
 72
     1
 10
81.6751110906925
 20
-145.2720896859045
 11
81.6751110906925
 21
-137.2715482990156
 72
     1
 10
81.6751110906925
 20
-137.2715482990156
 11
83.67532369859798
 21
-137.2715482990156
 72
     1
 10
83.67532369859798
 20
-137.2715482990156
 11
83.67532369859798
 21
-136.2717760770431
 72
     1
 10
83.67532369859798
 20
-136.2717760770431
 11
81.6751110906925
 21
-136.2717760770431
 72
     1
 10
81.6751110906925
 20
-136.2717760770431
 11
80.67533886871995
 21
-136.2717760770431
 72
     1
 10
80.67533886871995
 20
-136.2717760770431
 11
80.67533886871995
 21
-137.2715482990156
 72
     1
 10
80.67533886871995
 20
-137.2715482990156
 11
80.67533886871995
 21
-145.2720896859045
 72
     1
 10
80.67533886871995
 20
-145.2720896859045
 11
80.67533886871995
 21
-146.2718619078764
 72
     1
 10
80.67533886871995
 20
-146.2718619078764
 11
81.6751110906925
 21
-146.2718619078764
 72
     1
 10
81.6751110906925
 20
-146.2718619078764
 11
90.67542240889948
 21
-146.2718619078764
 72
     1
 10
90.67542240889948
 20
-146.2718619078764
 11
91.67537099449977
 21
-146.2718619078764
 72
     1
 10
91.67537099449977
 20
-146.2718619078764
 11
92.67581346897636
 21
-146.2718619078764
 72
     1
 10
92.67581346897636
 20
-146.2718619078764
 11
92.67581346897636
 21
-157.2723902384596
 72
     1
 10
92.67581346897636
 20
-157.2723902384596
 11
92.67581346897636
 21
-158.2721624604322
 72
     1
 10
92.67581346897636
 20
-158.2721624604322
 11
93.67558566569227
 21
-158.2721624604322
 72
     1
 10
93.67558566569227
 20
-158.2721624604322
 11
101.6757740727016
 21
-158.2721624604322
 72
     1
 10
101.6757740727016
 20
-158.2721624604322
 11
102.6755462694175
 21
-158.2721624604322
 72
     1
 10
102.6755462694175
 20
-158.2721624604322
 11
102.6755462694175
 21
-157.2723902384596
 72
     1
 10
102.6755462694175
 20
-157.2723902384596
 11
102.6755462694175
 21
-155.2721755167378
 72
     1
 10
102.6755462694175
 20
-155.2721755167378
 11
101.6757740727016
 21
-155.2721755167378
 97
        0
 75
     2
 76
     1
 98
        0
  0
SPLINE
  5
63
330
1F
100
AcDbEntity
  8
_U+30EC_U+30A4_U+30E4_U+30FC 1
 62
     7
420
 16777215
370
     9
100
AcDbSpline
210
0.0
220
0.0
230
1.0
 70
    11
 71
     3
 72
    17
 73
    13
 74
     0
 42
0.0000000001
 43
0.0000000001
 12
1.0
 22
0.0
 32
0.0
 13
1.0
 23
0.0
 33
0.0
 40
0.0
 40
0.0
 40
0.0
 40
0.0
 40
1.0
 40
1.0
 40
1.0
 40
2.0
 40
2.0
 40
2.0
 40
3.0
 40
3.0
 40
3.0
 40
4.0
 40
4.0
 40
4.0
 40
4.0
 10
76.76825248592316
 20
-158.2721624604322
 30
0.0
 10
76.76825248592316
 20
-158.2163530160017
 30
0.0
 10
76.72348498706528
 20
-158.1715855160125
 30
0.0
 10
76.66834582180532
 20
-158.1715855160125
 30
0.0
 10
76.6125363787847
 20
-158.1715855160125
 30
0.0
 10
76.5677688799268
 20
-158.2163530160017
 30
0.0
 10
76.5677688799268
 20
-158.2721624604322
 30
0.0
 10
76.5677688799268
 20
-158.3273016270846
 30
0.0
 10
76.6125363787847
 20
-158.3720691270738
 30
0.0
 10
76.66834582180532
 20
-158.3720691270738
 30
0.0
 10
76.72348498706528
 20
-158.3720691270738
 30
0.0
 10
76.76825248592316
 20
-158.3273016270846
 30
0.0
 10
76.76825248592316
 20
-158.2721624604322
 30
0.0
  0
SPLINE
  5
64
330
1F
100
AcDbEntity
  8
_U+30EC_U+30A4_U+30E4_U+30FC 1
 62
     7
420
 16777215
370
     9
100
AcDbSpline
210
0.0
220
0.0
230
1.0
 70
    11
 71
     3
 72
    17
 73
    13
 74
     0
 42
0.0000000001
 43
0.0000000001
 12
1.0
 22
0.0
 32
0.0
 13
1.0
 23
0.0
 33
0.0
 40
0.0
 40
0.0
 40
0.0
 40
0.0
 40
1.0
 40
1.0
 40
1.0
 40
2.0
 40
2.0
 40
2.0
 40
3.0
 40
3.0
 40
3.0
 40
4.0
 40
4.0
 40
4.0
 40
4.0
 10
76.76825248592316
 20
-136.322082188142
 30
0.0
 10
76.76825248592316
 20
-136.2669782992664
 30
0.0
 10
76.72348498706528
 20
-136.2221755215003
 30
0.0
 10
76.66834582180532
 20
-136.2221755215003
 30
0.0
 10
76.6125363787847
 20
-136.2221755215003
 30
0.0
 10
76.5677688799268
 20
-136.2669782992664
 30
0.0
 10
76.5677688799268
 20
-136.322082188142
 30
0.0
 10
76.5677688799268
 20
-136.3775388547946
 30
0.0
 10
76.6125363787847
 20
-136.4223416325613
 30
0.0
 10
76.66834582180532
 20
-136.4223416325613
 30
0.0
 10
76.72348498706528
 20
-136.4223416325613
 30
0.0
 10
76.76825248592316
 20
-136.3775388547946
 30
0.0
 10
76.76825248592316
 20
-136.322082188142
 30
0.0
  0
POLYLINE
  5
65
330
1F
100
AcDbEntity
  8
_U+30EC_U+30A4_U+30E4_U+30FC 1
 62
     7
420
 16777215
370
     9
100
AcDb2dPolyline
 66
     1
 10
0.0
 20
0.0
 30
0.0
  0
VERTEX
  5
66
330
65
100
AcDbEntity
  8
_U+30EC_U+30A4_U+30E4_U+30FC 1
 62
     7
420
 16777215
370
     9
100
AcDbVertex
100
AcDb2dVertex
 10
76.66834582180532
 20
-158.2721624604322
 30
0.0
  0
VERTEX
  5
67
330
65
100
AcDbEntity
  8
_U+30EC_U+30A4_U+30E4_U+30FC 1
 62
     7
420
 16777215
370
     9
100
AcDbVertex
100
AcDb2dVertex
 10
76.66834582180532
 20
-136.322082188142
 30
0.0
  0
SEQEND
  5
68
330
65
100
AcDbEntity
  8
_U+30EC_U+30A4_U+30E4_U+30FC 1
 62
     7
420
 16777215
370
     9
  0
POLYLINE
  5
69
330
1F
100
AcDbEntity
  8
_U+30EC_U+30A4_U+30E4_U+30FC 1
 62
     7
420
 16777215
370
     9
100
AcDb2dPolyline
 66
     1
 10
0.0
 20
0.0
 30
0.0
  0
VERTEX
  5
6A
330
69
100
AcDbEntity
  8
_U+30EC_U+30A4_U+30E4_U+30FC 1
 62
     7
420
 16777215
370
     9
100
AcDbVertex
100
AcDb2dVertex
 10
91.1797887849209
 20
-158.2721624604322
 30
0.0
  0
VERTEX
  5
6B
330
69
100
AcDbEntity
  8
_U+30EC_U+30A4_U+30E4_U+30FC 1
 62
     7
420
 16777215
370
     9
100
AcDbVertex
100
AcDb2dVertex
 10
75.66790334732873
 20
-158.2721624604322
 30
0.0
  0
SEQEND
  5
6C
330
69
100
AcDbEntity
  8
_U+30EC_U+30A4_U+30E4_U+30FC 1
 62
     7
420
 16777215
370
     9
  0
POLYLINE
  5
6D
330
1F
100
AcDbEntity
  8
_U+30EC_U+30A4_U+30E4_U+30FC 1
 62
     7
420
 16777215
370
     9
100
AcDb2dPolyline
 66
     1
 10
0.0
 20
0.0
 30
0.0
  0
VERTEX
  5
6E
330
6D
100
AcDbEntity
  8
_U+30EC_U+30A4_U+30E4_U+30FC 1
 62
     7
420
 16777215
370
     9
100
AcDbVertex
100
AcDb2dVertex
 10
79.12815937016136
 20
-136.322082188142
 30
0.0
  0
VERTEX
  5
6F
330
6D
100
AcDbEntity
  8
_U+30EC_U+30A4_U+30E4_U+30FC 1
 62
     7
420
 16777215
370
     9
100
AcDbVertex
100
AcDb2dVertex
 10
75.66790334732873
 20
-136.322082188142
 30
0.0
  0
SEQEND
  5
70
330
6D
100
AcDbEntity
  8
_U+30EC_U+30A4_U+30E4_U+30FC 1
 62
     7
420
 16777215
370
     9
  0
SPLINE
  5
71
330
1F
100
AcDbEntity
  8
_U+30EC_U+30A4_U+30E4_U+30FC 1
 62
     7
420
 16777215
370
     9
100
AcDbSpline
210
0.0
220
0.0
230
1.0
 70
    11
 71
     3
 72
    17
 73
    13
 74
     0
 42
0.0000000001
 43
0.0000000001
 12
1.0
 22
0.0
 32
0.0
 13
1.0
 23
0.0
 33
0.0
 40
0.0
 40
0.0
 40
0.0
 40
0.0
 40
1.0
 40
1.0
 40
1.0
 40
2.0
 40
2.0
 40
2.0
 40
3.0
 40
3.0
 40
3.0
 40
4.0
 40
4.0
 40
4.0
 40
4.0
 10
76.76825248592316
 20
-146.2718619078764
 30
0.0
 10
76.76825248592316
 20
-146.2167580190015
 30
0.0
 10
76.72348498706528
 20
-146.1719552412347
 30
0.0
 10
76.66834582180532
 20
-146.1719552412347
 30
0.0
 10
76.6125363787847
 20
-146.1719552412347
 30
0.0
 10
76.5677688799268
 20
-146.2167580190015
 30
0.0
 10
76.5677688799268
 20
-146.2718619078764
 30
0.0
 10
76.5677688799268
 20
-146.3273185745291
 30
0.0
 10
76.6125363787847
 20
-146.3721213522958
 30
0.0
 10
76.66834582180532
 20
-146.3721213522958
 30
0.0
 10
76.72348498706528
 20
-146.3721213522958
 30
0.0
 10
76.76825248592316
 20
-146.3273185745291
 30
0.0
 10
76.76825248592316
 20
-146.2718619078764
 30
0.0
  0
POLYLINE
  5
72
330
1F
100
AcDbEntity
  8
_U+30EC_U+30A4_U+30E4_U+30FC 1
 62
     7
420
 16777215
370
     9
100
AcDb2dPolyline
 66
     1
 10
0.0
 20
0.0
 30
0.0
  0
VERTEX
  5
73
330
72
100
AcDbEntity
  8
_U+30EC_U+30A4_U+30E4_U+30FC 1
 62
     7
420
 16777215
370
     9
100
AcDbVertex
100
AcDb2dVertex
 10
79.12815937016136
 20
-146.2718619078764
 30
0.0
  0
VERTEX
  5
74
330
72
100
AcDbEntity
  8
_U+30EC_U+30A4_U+30E4_U+30FC 1
 62
     7
420
 16777215
370
     9
100
AcDbVertex
100
AcDb2dVertex
 10
75.66790334732873
 20
-146.2718619078764
 30
0.0
  0
SEQEND
  5
75
330
72
100
AcDbEntity
  8
_U+30EC_U+30A4_U+30E4_U+30FC 1
 62
     7
420
 16777215
370
     9
  0
SPLINE
  5
76
330
1F
100
AcDbEntity
  8
_U+30EC_U+30A4_U+30E4_U+30FC 1
 62
     7
420
 16777215
370
     9
100
AcDbSpline
210
0.0
220
0.0
230
1.0
 70
    11
 71
     3
 72
    17
 73
    13
 74
     0
 42
0.0000000001
 43
0.0000000001
 12
1.0
 22
0.0
 32
0.0
 13
1.0
 23
0.0
 33
0.0
 40
0.0
 40
0.0
 40
0.0
 40
0.0
 40
1.0
 40
1.0
 40
1.0
 40
2.0
 40
2.0
 40
2.0
 40
3.0
 40
3.0
 40
3.0
 40
4.0
 40
4.0
 40
4.0
 40
4.0
 10
106.5368047820197
 20
-98.26755525321103
 30
0.0
 10
106.5368047820197
 20
-98.32336469764147
 30
0.0
 10
106.5816075586544
 20
-98.36816747540787
 30
0.0
 10
106.6367114461375
 20
-98.36816747540787
 30
0.0
 10
106.6925208891581
 20
-98.36816747540787
 30
0.0
 10
106.7373236657929
 20
-98.32336469764147
 30
0.0
 10
106.7373236657929
 20
-98.26755525321103
 30
0.0
 10
106.7373236657929
 20
-98.21245136433579
 30
0.0
 10
106.6925208891581
 20
-98.16764858656907
 30
0.0
 10
106.6367114461375
 20
-98.16764858656907
 30
0.0
 10
106.5816075586544
 20
-98.16764858656907
 30
0.0
 10
106.5368047820197
 20
-98.21245136433579
 30
0.0
 10
106.5368047820197
 20
-98.26755525321103
 30
0.0
  0
SPLINE
  5
77
330
1F
100
AcDbEntity
  8
_U+30EC_U+30A4_U+30E4_U+30FC 1
 62
     7
420
 16777215
370
     9
100
AcDbSpline
210
0.0
220
0.0
230
1.0
 70
    11
 71
     3
 72
    17
 73
    13
 74
     0
 42
0.0000000001
 43
0.0000000001
 12
1.0
 22
0.0
 32
0.0
 13
1.0
 23
0.0
 33
0.0
 40
0.0
 40
0.0
 40
0.0
 40
0.0
 40
1.0
 40
1.0
 40
1.0
 40
2.0
 40
2.0
 40
2.0
 40
3.0
 40
3.0
 40
3.0
 40
4.0
 40
4.0
 40
4.0
 40
4.0
 10
106.5368047820197
 20
-158.2721624604322
 30
0.0
 10
106.5368047820197
 20
-158.3273016270846
 30
0.0
 10
106.5816075586544
 20
-158.3720691270738
 30
0.0
 10
106.6367114461375
 20
-158.3720691270738
 30
0.0
 10
106.6925208891581
 20
-158.3720691270738
 30
0.0
 10
106.7373236657929
 20
-158.3273016270846
 30
0.0
 10
106.7373236657929
 20
-158.2721624604322
 30
0.0
 10
106.7373236657929
 20
-158.2167057937795
 30
0.0
 10
106.6925208891581
 20
-158.1719030160127
 30
0.0
 10
106.6367114461375
 20
-158.1719030160127
 30
0.0
 10
106.5816075586544
 20
-158.1719030160127
 30
0.0
 10
106.5368047820197
 20
-158.2167057937795
 30
0.0
 10
106.5368047820197
 20
-158.2721624604322
 30
0.0
  0
POLYLINE
  5
78
330
1F
100
AcDbEntity
  8
_U+30EC_U+30A4_U+30E4_U+30FC 1
 62
     7
420
 16777215
370
     9
100
AcDb2dPolyline
 66
     1
 10
0.0
 20
0.0
 30
0.0
  0
VERTEX
  5
79
330
78
100
AcDbEntity
  8
_U+30EC_U+30A4_U+30E4_U+30FC 1
 62
     7
420
 16777215
370
     9
100
AcDbVertex
100
AcDb2dVertex
 10
106.6367114461375
 20
-98.26755525321103
 30
0.0
  0
VERTEX
  5
7A
330
78
100
AcDbEntity
  8
_U+30EC_U+30A4_U+30E4_U+30FC 1
 62
     7
420
 16777215
370
     9
100
AcDbVertex
100
AcDb2dVertex
 10
106.6367114461375
 20
-158.2721624604322
 30
0.0
  0
SEQEND
  5
7B
330
78
100
AcDbEntity
  8
_U+30EC_U+30A4_U+30E4_U+30FC 1
 62
     7
420
 16777215
370
     9
  0
POLYLINE
  5
7C
330
1F
100
AcDbEntity
  8
_U+30EC_U+30A4_U+30E4_U+30FC 1
 62
     7
420
 16777215
370
     9
100
AcDb2dPolyline
 66
     1
 10
0.0
 20
0.0
 30
0.0
  0
VERTEX
  5
7D
330
7C
100
AcDbEntity
  8
_U+30EC_U+30A4_U+30E4_U+30FC 1
 62
     7
420
 16777215
370
     9
100
AcDbVertex
100
AcDb2dVertex
 10
93.17534678956554
 20
-98.26755525321103
 30
0.0
  0
VERTEX
  5
7E
330
7C
100
AcDbEntity
  8
_U+30EC_U+30A4_U+30E4_U+30FC 1
 62
     7
420
 16777215
370
     9
100
AcDbVertex
100
AcDb2dVertex
 10
107.637189198391
 20
-98.26755525321103
 30
0.0
  0
SEQEND
  5
7F
330
7C
100
AcDbEntity
  8
_U+30EC_U+30A4_U+30E4_U+30FC 1
 62
     7
420
 16777215
370
     9
  0
POLYLINE
  5
80
330
1F
100
AcDbEntity
  8
_U+30EC_U+30A4_U+30E4_U+30FC 1
 62
     7
420
 16777215
370
     9
100
AcDb2dPolyline
 66
     1
 10
0.0
 20
0.0
 30
0.0
  0
VERTEX
  5
81
330
80
100
AcDbEntity
  8
_U+30EC_U+30A4_U+30E4_U+30FC 1
 62
     7
420
 16777215
370
     9
100
AcDbVertex
100
AcDb2dVertex
 10
104.1769331755583
 20
-158.2721624604322
 30
0.0
  0
VERTEX
  5
82
330
80
100
AcDbEntity
  8
_U+30EC_U+30A4_U+30E4_U+30FC 1
 62
     7
420
 16777215
370
     9
100
AcDbVertex
100
AcDb2dVertex
 10
107.637189198391
 20
-158.2721624604322
 30
0.0
  0
SEQEND
  5
83
330
80
100
AcDbEntity
  8
_U+30EC_U+30A4_U+30E4_U+30FC 1
 62
     7
420
 16777215
370
     9
  0
SPLINE
  5
84
330
1F
100
AcDbEntity
  8
_U+30EC_U+30A4_U+30E4_U+30FC 1
 62
     7
420
 16777215
370
     9
100
AcDbSpline
210
0.0
220
0.0
230
1.0
 70
    11
 71
     3
 72
    17
 73
    13
 74
     0
 42
0.0000000001
 43
0.0000000001
 12
1.0
 22
0.0
 32
0.0
 13
1.0
 23
0.0
 33
0.0
 40
0.0
 40
0.0
 40
0.0
 40
0.0
 40
1.0
 40
1.0
 40
1.0
 40
2.0
 40
2.0
 40
2.0
 40
3.0
 40
3.0
 40
3.0
 40
4.0
 40
4.0
 40
4.0
 40
4.0
 10
106.5368047820197
 20
-155.2721755167378
 30
0.0
 10
106.5368047820197
 20
-155.3273146833903
 30
0.0
 10
106.5816075586544
 20
-155.3720821833795
 30
0.0
 10
106.6367114461375
 20
-155.3720821833795
 30
0.0
 10
106.6925208891581
 20
-155.3720821833795
 30
0.0
 10
106.7373236657929
 20
-155.3273146833903
 30
0.0
 10
106.7373236657929
 20
-155.2721755167378
 30
0.0
 10
106.7373236657929
 20
-155.2167188500845
 30
0.0
 10
106.6925208891581
 20
-155.1719160723184
 30
0.0
 10
106.6367114461375
 20
-155.1719160723184
 30
0.0
 10
106.5816075586544
 20
-155.1719160723184
 30
0.0
 10
106.5368047820197
 20
-155.2167188500845
 30
0.0
 10
106.5368047820197
 20
-155.2721755167378
 30
0.0
  0
POLYLINE
  5
85
330
1F
100
AcDbEntity
  8
_U+30EC_U+30A4_U+30E4_U+30FC 1
 62
     7
420
 16777215
370
     9
100
AcDb2dPolyline
 66
     1
 10
0.0
 20
0.0
 30
0.0
  0
VERTEX
  5
86
330
85
100
AcDbEntity
  8
_U+30EC_U+30A4_U+30E4_U+30FC 1
 62
     7
420
 16777215
370
     9
100
AcDbVertex
100
AcDb2dVertex
 10
104.1769331755583
 20
-155.2721755167378
 30
0.0
  0
VERTEX
  5
87
330
85
100
AcDbEntity
  8
_U+30EC_U+30A4_U+30E4_U+30FC 1
 62
     7
420
 16777215
370
     9
100
AcDbVertex
100
AcDb2dVertex
 10
107.637189198391
 20
-155.2721755167378
 30
0.0
  0
SEQEND
  5
88
330
85
100
AcDbEntity
  8
_U+30EC_U+30A4_U+30E4_U+30FC 1
 62
     7
420
 16777215
370
     9
  0
SPLINE
  5
89
330
1F
100
AcDbEntity
  8
_U+30EC_U+30A4_U+30E4_U+30FC 1
 62
     7
420
 16777215
370
     9
100
AcDbSpline
210
0.0
220
0.0
230
1.0
 70
    11
 71
     3
 72
    17
 73
    13
 74
     0
 42
0.0000000001
 43
0.0000000001
 12
1.0
 22
0.0
 32
0.0
 13
1.0
 23
0.0
 33
0.0
 40
0.0
 40
0.0
 40
0.0
 40
0.0
 40
1.0
 40
1.0
 40
1.0
 40
2.0
 40
2.0
 40
2.0
 40
3.0
 40
3.0
 40
3.0
 40
4.0
 40
4.0
 40
4.0
 40
4.0
 10
80.67981710835305
 20
-162.1320452372449
 30
0.0
 10
80.73562655137368
 20
-162.1320452372449
 30
0.0
 10
80.78042932800844
 20
-162.1768480150116
 30
0.0
 10
80.78042932800844
 20
-162.2319519038865
 30
0.0
 10
80.78042932800844
 20
-162.2877613483169
 30
0.0
 10
80.73562655137368
 20
-162.3325641260837
 30
0.0
 10
80.67981710835305
 20
-162.3325641260837
 30
0.0
 10
80.62471322086998
 20
-162.3325641260837
 30
0.0
 10
80.57991044423521
 20
-162.2877613483169
 30
0.0
 10
80.57991044423521
 20
-162.2319519038865
 30
0.0
 10
80.57991044423521
 20
-162.1768480150116
 30
0.0
 10
80.62471322086998
 20
-162.1320452372449
 30
0.0
 10
80.67981710835305
 20
-162.1320452372449
 30
0.0
  0
SPLINE
  5
8A
330
1F
100
AcDbEntity
  8
_U+30EC_U+30A4_U+30E4_U+30FC 1
 62
     7
420
 16777215
370
     9
100
AcDbSpline
210
0.0
220
0.0
230
1.0
 70
    11
 71
     3
 72
    17
 73
    13
 74
     0
 42
0.0000000001
 43
0.0000000001
 12
1.0
 22
0.0
 32
0.0
 13
1.0
 23
0.0
 33
0.0
 40
0.0
 40
0.0
 40
0.0
 40
0.0
 40
1.0
 40
1.0
 40
1.0
 40
2.0
 40
2.0
 40
2.0
 40
3.0
 40
3.0
 40
3.0
 40
4.0
 40
4.0
 40
4.0
 40
4.0
 10
102.630073215022
 20
-162.1320452372449
 30
0.0
 10
102.685212380282
 20
-162.1320452372449
 30
0.0
 10
102.7299798791399
 20
-162.1768480150116
 30
0.0
 10
102.7299798791399
 20
-162.2319519038865
 30
0.0
 10
102.7299798791399
 20
-162.2877613483169
 30
0.0
 10
102.685212380282
 20
-162.3325641260837
 30
0.0
 10
102.630073215022
 20
-162.3325641260837
 30
0.0
 10
102.5742637720014
 20
-162.3325641260837
 30
0.0
 10
102.5294962731435
 20
-162.2877613483169
 30
0.0
 10
102.5294962731435
 20
-162.2319519038865
 30
0.0
 10
102.5294962731435
 20
-162.1768480150116
 30
0.0
 10
102.5742637720014
 20
-162.1320452372449
 30
0.0
 10
102.630073215022
 20
-162.1320452372449
 30
0.0
  0
POLYLINE
  5
8B
330
1F
100
AcDbEntity
  8
_U+30EC_U+30A4_U+30E4_U+30FC 1
 62
     7
420
 16777215
370
     9
100
AcDb2dPolyline
 66
     1
 10
0.0
 20
0.0
 30
0.0
  0
VERTEX
  5
8C
330
8B
100
AcDbEntity
  8
_U+30EC_U+30A4_U+30E4_U+30FC 1
 62
     7
420
 16777215
370
     9
100
AcDbVertex
100
AcDb2dVertex
 10
80.67981710835305
 20
-162.2319519038865
 30
0.0
  0
VERTEX
  5
8D
330
8B
100
AcDbEntity
  8
_U+30EC_U+30A4_U+30E4_U+30FC 1
 62
     7
420
 16777215
370
     9
100
AcDbVertex
100
AcDb2dVertex
 10
102.630073215022
 20
-162.2319519038865
 30
0.0
  0
SEQEND
  5
8E
330
8B
100
AcDbEntity
  8
_U+30EC_U+30A4_U+30E4_U+30FC 1
 62
     7
420
 16777215
370
     9
  0
POLYLINE
  5
8F
330
1F
100
AcDbEntity
  8
_U+30EC_U+30A4_U+30E4_U+30FC 1
 62
     7
420
 16777215
370
     9
100
AcDb2dPolyline
 66
     1
 10
0.0
 20
0.0
 30
0.0
  0
VERTEX
  5
90
330
8F
100
AcDbEntity
  8
_U+30EC_U+30A4_U+30E4_U+30FC 1
 62
     7
420
 16777215
370
     9
100
AcDbVertex
100
AcDb2dVertex
 10
80.67981710835305
 20
-147.7715202408349
 30
0.0
  0
VERTEX
  5
91
330
8F
100
AcDbEntity
  8
_U+30EC_U+30A4_U+30E4_U+30FC 1
 62
     7
420
 16777215
370
     9
100
AcDbVertex
100
AcDb2dVertex
 10
80.67981710835305
 20
-163.2324296814139
 30
0.0
  0
SEQEND
  5
92
330
8F
100
AcDbEntity
  8
_U+30EC_U+30A4_U+30E4_U+30FC 1
 62
     7
420
 16777215
370
     9
  0
POLYLINE
  5
93
330
1F
100
AcDbEntity
  8
_U+30EC_U+30A4_U+30E4_U+30FC 1
 62
     7
420
 16777215
370
     9
100
AcDb2dPolyline
 66
     1
 10
0.0
 20
0.0
 30
0.0
  0
VERTEX
  5
94
330
93
100
AcDbEntity
  8
_U+30EC_U+30A4_U+30E4_U+30FC 1
 62
     7
420
 16777215
370
     9
100
AcDbVertex
100
AcDb2dVertex
 10
102.630073215022
 20
-159.7721735711678
 30
0.0
  0
VERTEX
  5
95
330
93
100
AcDbEntity
  8
_U+30EC_U+30A4_U+30E4_U+30FC 1
 62
     7
420
 16777215
370
     9
100
AcDbVertex
100
AcDb2dVertex
 10
102.630073215022
 20
-163.2324296814139
 30
0.0
  0
SEQEND
  5
96
330
93
100
AcDbEntity
  8
_U+30EC_U+30A4_U+30E4_U+30FC 1
 62
     7
420
 16777215
370
     9
  0
SPLINE
  5
97
330
1F
100
AcDbEntity
  8
_U+30EC_U+30A4_U+30E4_U+30FC 1
 62
     7
420
 16777215
370
     9
100
AcDbSpline
210
0.0
220
0.0
230
1.0
 70
    11
 71
     3
 72
    17
 73
    13
 74
     0
 42
0.0000000001
 43
0.0000000001
 12
1.0
 22
0.0
 32
0.0
 13
1.0
 23
0.0
 33
0.0
 40
0.0
 40
0.0
 40
0.0
 40
0.0
 40
1.0
 40
1.0
 40
1.0
 40
2.0
 40
2.0
 40
2.0
 40
3.0
 40
3.0
 40
3.0
 40
4.0
 40
4.0
 40
4.0
 40
4.0
 10
92.67994096887105
 20
-162.1320452372449
 30
0.0
 10
92.73508013413101
 20
-162.1320452372449
 30
0.0
 10
92.7798499768049
 20
-162.1768480150116
 30
0.0
 10
92.7798499768049
 20
-162.2319519038865
 30
0.0
 10
92.7798499768049
 20
-162.2877613483169
 30
0.0
 10
92.73508013413101
 20
-162.3325641260837
 30
0.0
 10
92.67994096887105
 20
-162.3325641260837
 30
0.0
 10
92.62483708138798
 20
-162.3325641260837
 30
0.0
 10
92.58003430475321
 20
-162.2877613483169
 30
0.0
 10
92.58003430475321
 20
-162.2319519038865
 30
0.0
 10
92.58003430475321
 20
-162.1768480150116
 30
0.0
 10
92.62483708138798
 20
-162.1320452372449
 30
0.0
 10
92.67994096887105
 20
-162.1320452372449
 30
0.0
  0
POLYLINE
  5
98
330
1F
100
AcDbEntity
  8
_U+30EC_U+30A4_U+30E4_U+30FC 1
 62
     7
420
 16777215
370
     9
100
AcDb2dPolyline
 66
     1
 10
0.0
 20
0.0
 30
0.0
  0
VERTEX
  5
99
330
98
100
AcDbEntity
  8
_U+30EC_U+30A4_U+30E4_U+30FC 1
 62
     7
420
 16777215
370
     9
100
AcDbVertex
100
AcDb2dVertex
 10
92.67994096887105
 20
-159.7721735711678
 30
0.0
  0
VERTEX
  5
9A
330
98
100
AcDbEntity
  8
_U+30EC_U+30A4_U+30E4_U+30FC 1
 62
     7
420
 16777215
370
     9
100
AcDbVertex
100
AcDb2dVertex
 10
92.67994096887105
 20
-163.2324296814139
 30
0.0
  0
SEQEND
  5
9B
330
98
100
AcDbEntity
  8
_U+30EC_U+30A4_U+30E4_U+30FC 1
 62
     7
420
 16777215
370
     9
  0
SPLINE
  5
9C
330
1F
100
AcDbEntity
  8
_U+30EC_U+30A4_U+30E4_U+30FC 1
 62
     7
420
 16777215
370
     9
100
AcDbSpline
210
0.0
220
0.0
230
1.0
 70
    11
 71
     3
 72
    17
 73
    13
 74
     0
 42
0.0000000001
 43
0.0000000001
 12
1.0
 22
0.0
 32
0.0
 13
1.0
 23
0.0
 33
0.0
 40
0.0
 40
0.0
 40
0.0
 40
0.0
 40
1.0
 40
1.0
 40
1.0
 40
2.0
 40
2.0
 40
2.0
 40
3.0
 40
3.0
 40
3.0
 40
4.0
 40
4.0
 40
4.0
 40
4.0
 10
90.65683331066897
 20
-122.4621135804956
 30
0.0
 10
90.60102157746427
 20
-122.4621135804956
 30
0.0
 10
90.5562188008295
 20
-122.4173460805067
 30
0.0
 10
90.5562188008295
 20
-122.362206913854
 30
0.0
 10
90.5562188008295
 20
-122.3063974694235
 30
0.0
 10
90.60102157746427
 20
-122.2616299694346
 30
0.0
 10
90.65683331066897
 20
-122.2616299694346
 30
0.0
 10
90.71193490796796
 20
-122.2616299694346
 30
0.0
 10
90.75673768460273
 20
-122.3063974694235
 30
0.0
 10
90.75673768460273
 20
-122.362206913854
 30
0.0
 10
90.75673768460273
 20
-122.4173460805067
 30
0.0
 10
90.71193490796796
 20
-122.4621135804956
 30
0.0
 10
90.65683331066897
 20
-122.4621135804956
 30
0.0
  0
SPLINE
  5
9D
330
1F
100
AcDbEntity
  8
_U+30EC_U+30A4_U+30E4_U+30FC 1
 62
     7
420
 16777215
370
     9
100
AcDbSpline
210
0.0
220
0.0
230
1.0
 70
    11
 71
     3
 72
    17
 73
    13
 74
     0
 42
0.0000000001
 43
0.0000000001
 12
1.0
 22
0.0
 32
0.0
 13
1.0
 23
0.0
 33
0.0
 40
0.0
 40
0.0
 40
0.0
 40
0.0
 40
1.0
 40
1.0
 40
1.0
 40
2.0
 40
2.0
 40
2.0
 40
3.0
 40
3.0
 40
3.0
 40
4.0
 40
4.0
 40
4.0
 40
4.0
 10
80.67533886871995
 20
-122.4621135804956
 30
0.0
 10
80.6202329432065
 20
-122.4621135804956
 30
0.0
 10
80.57543016657173
 20
-122.4173460805067
 30
0.0
 10
80.57543016657173
 20
-122.362206913854
 30
0.0
 10
80.57543016657173
 20
-122.3063974694235
 30
0.0
 10
80.6202329432065
 20
-122.2616299694346
 30
0.0
 10
80.67533886871995
 20
-122.2616299694346
 30
0.0
 10
80.7308287737183
 20
-122.2616299694346
 30
0.0
 10
80.7755962725762
 20
-122.3063974694235
 30
0.0
 10
80.7755962725762
 20
-122.362206913854
 30
0.0
 10
80.7755962725762
 20
-122.4173460805067
 30
0.0
 10
80.7308287737183
 20
-122.4621135804956
 30
0.0
 10
80.67533886871995
 20
-122.4621135804956
 30
0.0
  0
POLYLINE
  5
9E
330
1F
100
AcDbEntity
  8
_U+30EC_U+30A4_U+30E4_U+30FC 1
 62
     7
420
 16777215
370
     9
100
AcDb2dPolyline
 66
     1
 10
0.0
 20
0.0
 30
0.0
  0
VERTEX
  5
9F
330
9E
100
AcDbEntity
  8
_U+30EC_U+30A4_U+30E4_U+30FC 1
 62
     7
420
 16777215
370
     9
100
AcDbVertex
100
AcDb2dVertex
 10
90.65683331066897
 20
-122.362206913854
 30
0.0
  0
VERTEX
  5
A0
330
9E
100
AcDbEntity
  8
_U+30EC_U+30A4_U+30E4_U+30FC 1
 62
     7
420
 16777215
370
     9
100
AcDbVertex
100
AcDb2dVertex
 10
80.67533886871995
 20
-122.362206913854
 30
0.0
  0
SEQEND
  5
A1
330
9E
100
AcDbEntity
  8
_U+30EC_U+30A4_U+30E4_U+30FC 1
 62
     7
420
 16777215
370
     9
  0
POLYLINE
  5
A2
330
1F
100
AcDbEntity
  8
_U+30EC_U+30A4_U+30E4_U+30FC 1
 62
     7
420
 16777215
370
     9
100
AcDb2dPolyline
 66
     1
 10
0.0
 20
0.0
 30
0.0
  0
VERTEX
  5
A3
330
A2
100
AcDbEntity
  8
_U+30EC_U+30A4_U+30E4_U+30FC 1
 62
     7
420
 16777215
370
     9
100
AcDbVertex
100
AcDb2dVertex
 10
80.67533886871995
 20
-134.8224238551835
 30
0.0
  0
VERTEX
  5
A4
330
A2
100
AcDbEntity
  8
_U+30EC_U+30A4_U+30E4_U+30FC 1
 62
     7
420
 16777215
370
     9
100
AcDbVertex
100
AcDb2dVertex
 10
80.67533886871995
 20
-121.3617644141041
 30
0.0
  0
SEQEND
  5
A5
330
A2
100
AcDbEntity
  8
_U+30EC_U+30A4_U+30E4_U+30FC 1
 62
     7
420
 16777215
370
     9
  0
SPLINE
  5
A6
330
1F
100
AcDbEntity
  8
_U+30EC_U+30A4_U+30E4_U+30FC 1
 62
     7
420
 16777215
370
     9
100
AcDbSpline
210
0.0
220
0.0
230
1.0
 70
    11
 71
     3
 72
    17
 73
    13
 74
     0
 42
0.0000000001
 43
0.0000000001
 12
1.0
 22
0.0
 32
0.0
 13
1.0
 23
0.0
 33
0.0
 40
0.0
 40
0.0
 40
0.0
 40
0.0
 40
1.0
 40
1.0
 40
1.0
 40
2.0
 40
2.0
 40
2.0
 40
3.0
 40
3.0
 40
3.0
 40
4.0
 40
4.0
 40
4.0
 40
4.0
 10
83.67532369859798
 20
-122.4621135804956
 30
0.0
 10
83.62021981111491
 20
-122.4621135804956
 30
0.0
 10
83.57541703448014
 20
-122.4173460805067
 30
0.0
 10
83.57541703448014
 20
-122.362206913854
 30
0.0
 10
83.57541703448014
 20
-122.3063974694235
 30
0.0
 10
83.62021981111491
 20
-122.2616299694346
 30
0.0
 10
83.67532369859798
 20
-122.2616299694346
 30
0.0
 10
83.7308156416267
 20
-122.2616299694346
 30
0.0
 10
83.7755831404846
 20
-122.3063974694235
 30
0.0
 10
83.7755831404846
 20
-122.362206913854
 30
0.0
 10
83.7755831404846
 20
-122.4173460805067
 30
0.0
 10
83.7308156416267
 20
-122.4621135804956
 30
0.0
 10
83.67532369859798
 20
-122.4621135804956
 30
0.0
  0
POLYLINE
  5
A7
330
1F
100
AcDbEntity
  8
_U+30EC_U+30A4_U+30E4_U+30FC 1
 62
     7
420
 16777215
370
     9
100
AcDb2dPolyline
 66
     1
 10
0.0
 20
0.0
 30
0.0
  0
VERTEX
  5
A8
330
A7
100
AcDbEntity
  8
_U+30EC_U+30A4_U+30E4_U+30FC 1
 62
     7
420
 16777215
370
     9
100
AcDbVertex
100
AcDb2dVertex
 10
83.67532369859798
 20
-134.8224238551835
 30
0.0
  0
VERTEX
  5
A9
330
A7
100
AcDbEntity
  8
_U+30EC_U+30A4_U+30E4_U+30FC 1
 62
     7
420
 16777215
370
     9
100
AcDbVertex
100
AcDb2dVertex
 10
83.67532369859798
 20
-121.3617644141041
 30
0.0
  0
SEQEND
  5
AA
330
A7
100
AcDbEntity
  8
_U+30EC_U+30A4_U+30E4_U+30FC 1
 62
     7
420
 16777215
370
     9
  0
SPLINE
  5
AB
330
1F
100
AcDbEntity
  8
_U+30EC_U+30A4_U+30E4_U+30FC 1
 62
     7
420
 16777215
370
     9
100
AcDbSpline
210
0.0
220
0.0
230
1.0
 70
    11
 71
     3
 72
    17
 73
    13
 74
     0
 42
0.0000000001
 43
0.0000000001
 12
1.0
 22
0.0
 32
0.0
 13
1.0
 23
0.0
 33
0.0
 40
0.0
 40
0.0
 40
0.0
 40
0.0
 40
1.0
 40
1.0
 40
1.0
 40
2.0
 40
2.0
 40
2.0
 40
3.0
 40
3.0
 40
3.0
 40
4.0
 40
4.0
 40
4.0
 40
4.0
 10
90.70093053288018
 20
-94.37253580974028
 30
0.0
 10
90.64578907632215
 20
-94.37253580974028
 30
0.0
 10
90.60102157746427
 20
-94.32773303197357
 30
0.0
 10
90.60102157746427
 20
-94.27262914309864
 30
0.0
 10
90.60102157746427
 20
-94.21681969866789
 30
0.0
 10
90.64578907632215
 20
-94.17201692090148
 30
0.0
 10
90.70093053288018
 20
-94.17201692090148
 30
0.0
 10
90.75638490683394
 20
-94.17201692090148
 30
0.0
 10
90.80118768346871
 20
-94.21681969866789
 30
0.0
 10
90.80118768346871
 20
-94.27262914309864
 30
0.0
 10
90.80118768346871
 20
-94.32773303197357
 30
0.0
 10
90.75638490683394
 20
-94.37253580974028
 30
0.0
 10
90.70093053288018
 20
-94.37253580974028
 30
0.0
  0
POLYLINE
  5
AC
330
1F
100
AcDbEntity
  8
_U+30EC_U+30A4_U+30E4_U+30FC 1
 62
     7
420
 16777215
370
     9
100
AcDb2dPolyline
 66
     1
 10
0.0
 20
0.0
 30
0.0
  0
VERTEX
  5
AD
330
AC
100
AcDbEntity
  8
_U+30EC_U+30A4_U+30E4_U+30FC 1
 62
     7
420
 16777215
370
     9
100
AcDbVertex
100
AcDb2dVertex
 10
96.93327669369275
 20
-94.27262914309864
 30
0.0
  0
VERTEX
  5
AE
330
AC
100
AcDbEntity
  8
_U+30EC_U+30A4_U+30E4_U+30FC 1
 62
     7
420
 16777215
370
     9
100
AcDbVertex
100
AcDb2dVertex
 10
89.47516660618722
 20
-94.27262914309864
 30
0.0
  0
SEQEND
  5
AF
330
AC
100
AcDbEntity
  8
_U+30EC_U+30A4_U+30E4_U+30FC 1
 62
     7
420
 16777215
370
     9
  0
POLYLINE
  5
B0
330
1F
100
AcDbEntity
  8
_U+30EC_U+30A4_U+30E4_U+30FC 1
 62
     7
420
 16777215
370
     9
100
AcDb2dPolyline
 66
     1
 10
0.0
 20
0.0
 30
0.0
  0
VERTEX
  5
B1
330
B0
100
AcDbEntity
  8
_U+30EC_U+30A4_U+30E4_U+30FC 1
 62
     7
420
 16777215
370
     9
100
AcDbVertex
100
AcDb2dVertex
 10
90.70093053288018
 20
-96.77237719802928
 30
0.0
  0
VERTEX
  5
B2
330
B0
100
AcDbEntity
  8
_U+30EC_U+30A4_U+30E4_U+30FC 1
 62
     7
420
 16777215
370
     9
100
AcDbVertex
100
AcDb2dVertex
 10
90.70093053288018
 20
-93.27218664334875
 30
0.0
  0
SEQEND
  5
B3
330
B0
100
AcDbEntity
  8
_U+30EC_U+30A4_U+30E4_U+30FC 1
 62
     7
420
 16777215
370
     9
  0
SPLINE
  5
B4
330
1F
100
AcDbEntity
  8
_U+30EC_U+30A4_U+30E4_U+30FC 1
 62
     7
420
 16777215
370
     9
100
AcDbSpline
210
0.0
220
0.0
230
1.0
 70
    11
 71
     3
 72
    17
 73
    13
 74
     0
 42
0.0000000001
 43
0.0000000001
 12
1.0
 22
0.0
 32
0.0
 13
1.0
 23
0.0
 33
0.0
 40
0.0
 40
0.0
 40
0.0
 40
0.0
 40
1.0
 40
1.0
 40
1.0
 40
2.0
 40
2.0
 40
2.0
 40
3.0
 40
3.0
 40
3.0
 40
4.0
 40
4.0
 40
4.0
 40
4.0
 10
91.67537099449977
 20
-94.37253580974028
 30
0.0
 10
91.62023182923981
 20
-94.37253580974028
 30
0.0
 10
91.57546664377307
 20
-94.32773303197357
 30
0.0
 10
91.57546664377307
 20
-94.27262914309864
 30
0.0
 10
91.57546664377307
 20
-94.21681969866789
 30
0.0
 10
91.62023182923981
 20
-94.17201692090148
 30
0.0
 10
91.67537099449977
 20
-94.17201692090148
 30
0.0
 10
91.73047488198284
 20
-94.17201692090148
 30
0.0
 10
91.77527765861761
 20
-94.21681969866789
 30
0.0
 10
91.77527765861761
 20
-94.27262914309864
 30
0.0
 10
91.77527765861761
 20
-94.32773303197357
 30
0.0
 10
91.73047488198284
 20
-94.37253580974028
 30
0.0
 10
91.67537099449977
 20
-94.37253580974028
 30
0.0
  0
POLYLINE
  5
B5
330
1F
100
AcDbEntity
  8
_U+30EC_U+30A4_U+30E4_U+30FC 1
 62
     7
420
 16777215
370
     9
100
AcDb2dPolyline
 66
     1
 10
0.0
 20
0.0
 30
0.0
  0
VERTEX
  5
B6
330
B5
100
AcDbEntity
  8
_U+30EC_U+30A4_U+30E4_U+30FC 1
 62
     7
420
 16777215
370
     9
100
AcDbVertex
100
AcDb2dVertex
 10
91.67537099449977
 20
-96.77237719802928
 30
0.0
  0
VERTEX
  5
B7
330
B5
100
AcDbEntity
  8
_U+30EC_U+30A4_U+30E4_U+30FC 1
 62
     7
420
 16777215
370
     9
100
AcDbVertex
100
AcDb2dVertex
 10
91.67537099449977
 20
-93.27218664334875
 30
0.0
  0
SEQEND
  5
B8
330
B5
100
AcDbEntity
  8
_U+30EC_U+30A4_U+30E4_U+30FC 1
 62
     7
420
 16777215
370
     9
  0
INSERT
  5
BA
330
1F
100
AcDbEntity
  8
_U+30EC_U+30A4_U+30E4_U+30FC 1
100
AcDbBlockReference
  2
block 2
 10
0.0
 20
0.0
 30
0.0
  0
INSERT
  5
C3
330
1F
100
AcDbEntity
  8
_U+30EC_U+30A4_U+30E4_U+30FC 1
100
AcDbBlockReference
  2
block 3
 10
0.0
 20
0.0
 30
0.0
  0
INSERT
  5
C9
330
1F
100
AcDbEntity
  8
_U+30EC_U+30A4_U+30E4_U+30FC 1
100
AcDbBlockReference
  2
block 4
 10
0.0
 20
0.0
 30
0.0
  0
INSERT
  5
D1
330
1F
100
AcDbEntity
  8
_U+30EC_U+30A4_U+30E4_U+30FC 1
100
AcDbBlockReference
  2
block 5
 10
0.0
 20
0.0
 30
0.0
  0
INSERT
  5
D9
330
1F
100
AcDbEntity
  8
_U+30EC_U+30A4_U+30E4_U+30FC 1
100
AcDbBlockReference
  2
block 6
 10
0.0
 20
0.0
 30
0.0
  0
INSERT
  5
E2
330
1F
100
AcDbEntity
  8
_U+30EC_U+30A4_U+30E4_U+30FC 1
100
AcDbBlockReference
  2
block 7
 10
0.0
 20
0.0
 30
0.0
  0
INSERT
  5
EA
330
1F
100
AcDbEntity
  8
_U+30EC_U+30A4_U+30E4_U+30FC 1
100
AcDbBlockReference
  2
block 8
 10
0.0
 20
0.0
 30
0.0
  0
INSERT
  5
F0
330
1F
100
AcDbEntity
  8
_U+30EC_U+30A4_U+30E4_U+30FC 1
100
AcDbBlockReference
  2
block 9
 10
0.0
 20
0.0
 30
0.0
  0
INSERT
  5
F6
330
1F
100
AcDbEntity
  8
_U+30EC_U+30A4_U+30E4_U+30FC 1
100
AcDbBlockReference
  2
block 10
 10
0.0
 20
0.0
 30
0.0
  0
ENDSEC
  0
SECTION
  2
OBJECTS
  0
DICTIONARY
  5
C
330
0
100
AcDbDictionary
281
     1
  3
ACAD_GROUP
350
D
  3
ACAD_LAYOUT
350
1A
  3
ACAD_MATERIAL
350
3B
  3
ACAD_MLEADERSTYLE
350
FC
  3
ACAD_MLINESTYLE
350
17
  3
ACAD_PLOTSETTINGS
350
19
  3
ACAD_PLOTSTYLENAME
350
E
  3
ACAD_TABLESTYLE
350
FB
  3
ACAD_VISUALSTYLE
350
2A
  0
SUN
  5
3F
330
29
100
AcDbSun
 90
        1
290
     0
 63
     7
421
 16777215
 40
1.0
291
     1
 91
  2455826
 92
 54000000
292
     0
 70
     2
 71
   256
280
     1
  0
DICTIONARY
  5
D
102
{ACAD_REACTORS
330
C
102
}
330
C
100
AcDbDictionary
281
     1
  0
DICTIONARY
  5
1A
102
{ACAD_REACTORS
330
C
102
}
330
C
100
AcDbDictionary
281
     1
  3
Layout1
350
1E
  3
Layout2
350
26
  3
Model
350
22
  0
DICTIONARY
  5
3B
102
{ACAD_REACTORS
330
C
102
}
330
C
100
AcDbDictionary
281
     1
  3
ByBlock
350
3D
  3
ByLayer
350
3C
  3
Global
350
3E
  0
DICTIONARY
  5
FC
102
{ACAD_REACTORS
330
C
102
}
330
C
100
AcDbDictionary
281
     1
  0
DICTIONARY
  5
17
102
{ACAD_REACTORS
330
C
102
}
330
C
100
AcDbDictionary
281
     1
  3
Standard
350
18
  0
DICTIONARY
  5
19
102
{ACAD_REACTORS
330
C
102
}
330
C
100
AcDbDictionary
281
     1
  0
ACDBDICTIONARYWDFLT
  5
E
102
{ACAD_REACTORS
330
C
102
}
330
C
100
AcDbDictionary
281
     1
  3
Normal
350
F
100
AcDbDictionaryWithDefault
340
F
  0
DICTIONARY
  5
FB
102
{ACAD_REACTORS
330
C
102
}
330
C
100
AcDbDictionary
281
     1
  0
DICTIONARY
  5
2A
102
{ACAD_REACTORS
330
C
102
}
330
C
100
AcDbDictionary
281
     1
  3
2dWireframe
350
2F
  3
3D Hidden
350
31
  3
3dWireframe
350
30
  3
Basic
350
32
  3
Brighten
350
36
  3
ColorChange
350
3A
  3
Conceptual
350
34
  3
Dim
350
35
  3
Facepattern
350
39
  3
Flat
350
2B
  3
FlatWithEdges
350
2C
  3
Gouraud
350
2D
  3
GouraudWithEdges
350
2E
  3
Linepattern
350
38
  3
Realistic
350
33
  3
Thicken
350
37
  0
LAYOUT
  5
1E
102
{ACAD_REACTORS
330
1A
102
}
330
1A
100
AcDbPlotSettings
  1

  2
none_device
  4

  6

 40
0.0
 41
0.0
 42
0.0
 43
0.0
 44
0.0
 45
0.0
 46
0.0
 47
0.0
 48
0.0
 49
0.0
140
0.0
141
0.0
142
1.0
143
1.0
 70
   688
 72
     0
 73
     0
 74
     5
  7

 75
    16
 76
     0
 77
     2
 78
   300
147
1.0
148
0.0
149
0.0
100
AcDbLayout
  1
Layout1
 70
     1
 71
     1
 10
0.0
 20
0.0
 11
12.0
 21
9.0
 12
0.0
 22
0.0
 32
0.0
 14
1.000000000000000E+20
 24
1.000000000000000E+20
 34
1.000000000000000E+20
 15
-1.000000000000000E+20
 25
-1.000000000000000E+20
 35
-1.000000000000000E+20
146
0.0
 13
0.0
 23
0.0
 33
0.0
 16
1.0
 26
0.0
 36
0.0
 17
0.0
 27
1.0
 37
0.0
 76
     0
330
1B
  0
LAYOUT
  5
26
102
{ACAD_REACTORS
330
1A
102
}
330
1A
100
AcDbPlotSettings
  1

  2
none_device
  4

  6

 40
0.0
 41
0.0
 42
0.0
 43
0.0
 44
0.0
 45
0.0
 46
0.0
 47
0.0
 48
0.0
 49
0.0
140
0.0
141
0.0
142
1.0
143
1.0
 70
   688
 72
     0
 73
     0
 74
     5
  7

 75
    16
 76
     0
 77
     2
 78
   300
147
1.0
148
0.0
149
0.0
100
AcDbLayout
  1
Layout2
 70
     1
 71
     2
 10
0.0
 20
0.0
 11
0.0
 21
0.0
 12
0.0
 22
0.0
 32
0.0
 14
0.0
 24
0.0
 34
0.0
 15
0.0
 25
0.0
 35
0.0
146
0.0
 13
0.0
 23
0.0
 33
0.0
 16
1.0
 26
0.0
 36
0.0
 17
0.0
 27
1.0
 37
0.0
 76
     0
330
23
  0
LAYOUT
  5
22
102
{ACAD_REACTORS
330
1A
102
}
330
1A
100
AcDbPlotSettings
  1

  2
none_device
  4

  6

 40
0.0
 41
0.0
 42
0.0
 43
0.0
 44
0.0
 45
0.0
 46
0.0
 47
0.0
 48
0.0
 49
0.0
140
0.0
141
0.0
142
1.0
143
1.0
 70
  1712
 72
     0
 73
     0
 74
     0
  7

 75
     0
 76
     0
 77
     2
 78
   300
147
1.0
148
0.0
149
0.0
100
AcDbLayout
  1
Model
 70
     1
 71
     0
 10
0.0
 20
0.0
 11
12.0
 21
9.0
 12
0.0
 22
0.0
 32
0.0
 14
1.000000000000000E+20
 24
1.000000000000000E+20
 34
1.000000000000000E+20
 15
-1.000000000000000E+20
 25
-1.000000000000000E+20
 35
-1.000000000000000E+20
146
0.0
 13
0.0
 23
0.0
 33
0.0
 16
1.0
 26
0.0
 36
0.0
 17
0.0
 27
1.0
 37
0.0
 76
     0
330
1F
331
29
  0
MATERIAL
  5
3D
102
{ACAD_REACTORS
330
3B
102
}
330
3B
100
AcDbMaterial
  1
ByBlock
 72
     1
 94
      127
  0
MATERIAL
  5
3C
102
{ACAD_REACTORS
330
3B
102
}
330
3B
100
AcDbMaterial
  1
ByLayer
 72
     1
 94
      127
  0
MATERIAL
  5
3E
102
{ACAD_REACTORS
330
3B
102
}
330
3B
100
AcDbMaterial
  1
Global
 72
     1
 94
      127
  0
MLINESTYLE
  5
18
102
{ACAD_REACTORS
330
17
102
}
330
17
100
AcDbMlineStyle
  2
Standard
 70
     0
  3

 62
   256
 51
90.0
 52
90.0
 71
     2
 49
0.5
 62
   256
  6
BYLAYER
 49
-0.5
 62
   256
  6
BYLAYER
  0
ACDBPLACEHOLDER
  5
F
102
{ACAD_REACTORS
330
E
102
}
330
E
  0
VISUALSTYLE
  5
2F
102
{ACAD_REACTORS
330
2A
102
}
330
2A
100
AcDbVisualStyle
  2
2dWireframe
 70
     4
177
     2
291
     0
 71
     0
176
     1
 72
     2
176
     1
 73
     0
176
     1
 90
        0
176
     1
 40
-0.6
176
     1
 41
-30.0
176
     1
 62
     5
 63
     7
421
 16777215
176
     1
 74
     1
176
     1
 91
        4
176
     1
 64
     7
176
     1
 65
   257
176
     1
 75
     1
176
     1
175
     1
176
     1
 42
1.0
176
     1
 92
        0
176
     1
 66
   257
176
     1
 43
1.0
176
     1
 76
     1
176
     1
 77
     6
176
     1
 78
     2
176
     1
 67
     7
176
     1
 79
     5
176
     1
170
     0
176
     1
171
     0
176
     1
290
     0
176
     1
 93
        1
176
     1
 44
0.0
176
     1
173
     0
176
     1
  0
VISUALSTYLE
  5
31
102
{ACAD_REACTORS
330
2A
102
}
330
2A
100
AcDbVisualStyle
  2
3D Hidden
 70
     6
177
     2
291
     0
 71
     1
176
     1
 72
     2
176
     1
 73
     2
176
     1
 90
        0
176
     1
 40
-0.6
176
     1
 41
-30.0
176
     1
 62
     5
 63
     7
421
 16777215
176
     1
 74
     2
176
     1
 91
        2
176
     1
 64
     7
176
     1
 65
   257
176
     1
 75
     2
176
     1
175
     1
176
     1
 42
40.0
176
     1
 92
        0
176
     1
 66
   257
176
     1
 43
1.0
176
     1
 76
     1
176
     1
 77
     6
176
     1
 78
     2
176
     1
 67
     7
176
     1
 79
     3
176
     1
170
     0
176
     1
171
     0
176
     1
290
     0
176
     1
 93
        1
176
     1
 44
0.0
176
     1
173
     0
176
     1
  0
VISUALSTYLE
  5
30
102
{ACAD_REACTORS
330
2A
102
}
330
2A
100
AcDbVisualStyle
  2
3dWireframe
 70
     5
177
     2
291
     0
 71
     0
176
     1
 72
     2
176
     1
 73
     0
176
     1
 90
        0
176
     1
 40
-0.6
176
     1
 41
-30.0
176
     1
 62
     5
 63
     7
421
 16777215
176
     1
 74
     1
176
     1
 91
        4
176
     1
 64
     7
176
     1
 65
   257
176
     1
 75
     1
176
     1
175
     1
176
     1
 42
1.0
176
     1
 92
        0
176
     1
 66
   257
176
     1
 43
1.0
176
     1
 76
     1
176
     1
 77
     6
176
     1
 78
     2
176
     1
 67
     7
176
     1
 79
     5
176
     1
170
     0
176
     1
171
     0
176
     1
290
     0
176
     1
 93
        1
176
     1
 44
0.0
176
     1
173
     0
176
     1
  0
VISUALSTYLE
  5
32
102
{ACAD_REACTORS
330
2A
102
}
330
2A
100
AcDbVisualStyle
  2
Basic
 70
     7
177
     2
291
     1
 71
     1
176
     1
 72
     0
176
     1
 73
     1
176
     1
 90
        0
176
     1
 40
-0.6
176
     1
 41
-30.0
176
     1
 62
     5
 63
     7
421
 16777215
176
     1
 74
     0
176
     1
 91
        4
176
     1
 64
     7
176
     1
 65
   257
176
     1
 75
     1
176
     1
175
     1
176
     1
 42
1.0
176
     1
 92
        8
176
     1
 66
     7
176
     1
 43
1.0
176
     1
 76
     1
176
     1
 77
     6
176
     1
 78
     2
176
     1
 67
     7
176
     1
 79
     5
176
     1
170
     0
176
     1
171
     0
176
     1
290
     0
176
     1
 93
        1
176
     1
 44
0.0
176
     1
173
     0
176
     1
  0
VISUALSTYLE
  5
36
102
{ACAD_REACTORS
330
2A
102
}
330
2A
100
AcDbVisualStyle
  2
Brighten
 70
    12
177
     2
291
     1
 71
     2
176
     1
 72
     2
176
     1
 73
     0
176
     1
 90
        0
176
     1
 40
-0.6
176
     1
 41
-30.0
176
     1
 62
     5
 63
     7
421
 16777215
176
     1
 74
     1
176
     1
 91
        4
176
     1
 64
     7
176
     1
 65
   257
176
     1
 75
     1
176
     1
175
     1
176
     1
 42
1.0
176
     1
 92
        8
176
     1
 66
     7
176
     1
 43
1.0
176
     1
 76
     1
176
     1
 77
     6
176
     1
 78
     2
176
     1
 67
     7
176
     1
 79
     5
176
     1
170
     0
176
     1
171
     0
176
     1
290
     0
176
     1
 93
        1
176
     1
 44
50.0
176
     1
173
     0
176
     1
  0
VISUALSTYLE
  5
3A
102
{ACAD_REACTORS
330
2A
102
}
330
2A
100
AcDbVisualStyle
  2
ColorChange
 70
    16
177
     2
291
     1
 71
     2
176
     1
 72
     2
176
     1
 73
     3
176
     1
 90
        0
176
     1
 40
-0.6
176
     1
 41
-30.0
176
     1
 62
     5
 63
     8
421
  8421504
176
     1
 74
     1
176
     1
 91
        4
176
     1
 64
     7
176
     1
 65
   257
176
     1
 75
     1
176
     1
175
     1
176
     1
 42
1.0
176
     1
 92
        8
176
     1
 66
     8
424
  8421504
176
     1
 43
1.0
176
     1
 76
     1
176
     1
 77
     6
176
     1
 78
     2
176
     1
 67
     7
176
     1
 79
     5
176
     1
170
     0
176
     1
171
     0
176
     1
290
     0
176
     1
 93
        1
176
     1
 44
0.0
176
     1
173
     0
176
     1
  0
VISUALSTYLE
  5
34
102
{ACAD_REACTORS
330
2A
102
}
330
2A
100
AcDbVisualStyle
  2
Conceptual
 70
     9
177
     2
291
     0
 71
     3
176
     1
 72
     2
176
     1
 73
     0
176
     1
 90
        0
176
     1
 40
-0.6
176
     1
 41
-30.0
176
     1
 62
     5
 63
     7
421
 16777215
176
     1
 74
     2
176
     1
 91
        2
176
     1
 64
     7
176
     1
 65
   257
176
     1
 75
     1
176
     1
175
     1
176
     1
 42
40.0
176
     1
 92
        8
176
     1
 66
     7
176
     1
 43
1.0
176
     1
 76
     1
176
     1
 77
     6
176
     1
 78
     2
176
     1
 67
     7
176
     1
 79
     3
176
     1
170
     0
176
     1
171
     0
176
     1
290
     0
176
     1
 93
        1
176
     1
 44
0.0
176
     1
173
     0
176
     1
  0
VISUALSTYLE
  5
35
102
{ACAD_REACTORS
330
2A
102
}
330
2A
100
AcDbVisualStyle
  2
Dim
 70
    11
177
     2
291
     1
 71
     2
176
     1
 72
     2
176
     1
 73
     0
176
     1
 90
        0
176
     1
 40
-0.6
176
     1
 41
-30.0
176
     1
 62
     5
 63
     7
421
 16777215
176
     1
 74
     1
176
     1
 91
        4
176
     1
 64
     7
176
     1
 65
   257
176
     1
 75
     1
176
     1
175
     1
176
     1
 42
1.0
176
     1
 92
        8
176
     1
 66
     7
176
     1
 43
1.0
176
     1
 76
     1
176
     1
 77
     6
176
     1
 78
     2
176
     1
 67
     7
176
     1
 79
     5
176
     1
170
     0
176
     1
171
     0
176
     1
290
     0
176
     1
 93
        1
176
     1
 44
-50.0
176
     1
173
     0
176
     1
  0
VISUALSTYLE
  5
39
102
{ACAD_REACTORS
330
2A
102
}
330
2A
100
AcDbVisualStyle
  2
Facepattern
 70
    15
177
     2
291
     1
 71
     2
176
     1
 72
     2
176
     1
 73
     0
176
     1
 90
        0
176
     1
 40
-0.6
176
     1
 41
-30.0
176
     1
 62
     5
 63
     7
421
 16777215
176
     1
 74
     1
176
     1
 91
        4
176
     1
 64
     7
176
     1
 65
   257
176
     1
 75
     1
176
     1
175
     1
176
     1
 42
1.0
176
     1
 92
        8
176
     1
 66
     7
176
     1
 43
1.0
176
     1
 76
     1
176
     1
 77
     6
176
     1
 78
     2
176
     1
 67
     7
176
     1
 79
     5
176
     1
170
     0
176
     1
171
     0
176
     1
290
     0
176
     1
 93
        1
176
     1
 44
0.0
176
     1
173
     0
176
     1
  0
VISUALSTYLE
  5
2B
102
{ACAD_REACTORS
330
2A
102
}
330
2A
100
AcDbVisualStyle
  2
Flat
 70
     0
177
     2
291
     1
 71
     2
176
     1
 72
     1
176
     1
 73
     1
176
     1
 90
        2
176
     1
 40
-0.6
176
     1
 41
30.0
176
     1
 62
     5
 63
     7
421
 16777215
176
     1
 74
     0
176
     1
 91
        4
176
     1
 64
     7
176
     1
 65
   257
176
     1
 75
     1
176
     1
175
     1
176
     1
 42
1.0
176
     1
 92
        8
176
     1
 66
     7
176
     1
 43
1.0
176
     1
 76
     1
176
     1
 77
     6
176
     1
 78
     2
176
     1
 67
     7
176
     1
 79
     5
176
     1
170
     0
176
     1
171
     0
176
     1
290
     0
176
     1
 93
       13
176
     1
 44
0.0
176
     1
173
     0
176
     1
  0
VISUALSTYLE
  5
2C
102
{ACAD_REACTORS
330
2A
102
}
330
2A
100
AcDbVisualStyle
  2
FlatWithEdges
 70
     1
177
     2
291
     1
 71
     2
176
     1
 72
     1
176
     1
 73
     1
176
     1
 90
        2
176
     1
 40
-0.6
176
     1
 41
30.0
176
     1
 62
     5
 63
     7
421
 16777215
176
     1
 74
     1
176
     1
 91
        4
176
     1
 64
     7
176
     1
 65
   257
176
     1
 75
     1
176
     1
175
     1
176
     1
 42
1.0
176
     1
 92
        0
176
     1
 66
   257
176
     1
 43
1.0
176
     1
 76
     1
176
     1
 77
     6
176
     1
 78
     2
176
     1
 67
     7
176
     1
 79
     5
176
     1
170
     0
176
     1
171
     0
176
     1
290
     0
176
     1
 93
       13
176
     1
 44
0.0
176
     1
173
     0
176
     1
  0
VISUALSTYLE
  5
2D
102
{ACAD_REACTORS
330
2A
102
}
330
2A
100
AcDbVisualStyle
  2
Gouraud
 70
     2
177
     2
291
     1
 71
     2
176
     1
 72
     2
176
     1
 73
     1
176
     1
 90
        2
176
     1
 40
-0.6
176
     1
 41
30.0
176
     1
 62
     5
 63
     7
421
 16777215
176
     1
 74
     0
176
     1
 91
        4
176
     1
 64
     7
176
     1
 65
   257
176
     1
 75
     1
176
     1
175
     1
176
     1
 42
1.0
176
     1
 92
        0
176
     1
 66
     7
176
     1
 43
1.0
176
     1
 76
     1
176
     1
 77
     6
176
     1
 78
     2
176
     1
 67
     7
176
     1
 79
     5
176
     1
170
     0
176
     1
171
     0
176
     1
290
     0
176
     1
 93
       13
176
     1
 44
0.0
176
     1
173
     0
176
     1
  0
VISUALSTYLE
  5
2E
102
{ACAD_REACTORS
330
2A
102
}
330
2A
100
AcDbVisualStyle
  2
GouraudWithEdges
 70
     3
177
     2
291
     1
 71
     2
176
     1
 72
     2
176
     1
 73
     1
176
     1
 90
        2
176
     1
 40
-0.6
176
     1
 41
30.0
176
     1
 62
     5
 63
     7
421
 16777215
176
     1
 74
     1
176
     1
 91
        4
176
     1
 64
     7
176
     1
 65
   257
176
     1
 75
     1
176
     1
175
     1
176
     1
 42
1.0
176
     1
 92
        0
176
     1
 66
   257
176
     1
 43
1.0
176
     1
 76
     1
176
     1
 77
     6
176
     1
 78
     2
176
     1
 67
     7
176
     1
 79
     5
176
     1
170
     0
176
     1
171
     0
176
     1
290
     0
176
     1
 93
       13
176
     1
 44
0.0
176
     1
173
     0
176
     1
  0
VISUALSTYLE
  5
38
102
{ACAD_REACTORS
330
2A
102
}
330
2A
100
AcDbVisualStyle
  2
Linepattern
 70
    14
177
     2
291
     1
 71
     2
176
     1
 72
     2
176
     1
 73
     0
176
     1
 90
        0
176
     1
 40
-0.6
176
     1
 41
-30.0
176
     1
 62
     5
 63
     7
421
 16777215
176
     1
 74
     1
176
     1
 91
        4
176
     1
 64
     7
176
     1
 65
   257
176
     1
 75
     7
176
     1
175
     7
176
     1
 42
1.0
176
     1
 92
        8
176
     1
 66
     7
176
     1
 43
1.0
176
     1
 76
     1
176
     1
 77
     6
176
     1
 78
     2
176
     1
 67
     7
176
     1
 79
     5
176
     1
170
     0
176
     1
171
     0
176
     1
290
     0
176
     1
 93
        1
176
     1
 44
0.0
176
     1
173
     0
176
     1
  0
VISUALSTYLE
  5
33
102
{ACAD_REACTORS
330
2A
102
}
330
2A
100
AcDbVisualStyle
  2
Realistic
 70
     8
177
     2
291
     0
 71
     2
176
     1
 72
     2
176
     1
 73
     0
176
     1
 90
        0
176
     1
 40
-0.6
176
     1
 41
-30.0
176
     1
 62
     5
 63
     7
421
 16777215
176
     1
 74
     1
176
     1
 91
        0
176
     1
 64
     7
176
     1
 65
   257
176
     1
 75
     1
176
     1
175
     1
176
     1
 42
1.0
176
     1
 92
        8
176
     1
 66
     8
424
  7895160
176
     1
 43
1.0
176
     1
 76
     1
176
     1
 77
     6
176
     1
 78
     2
176
     1
 67
     7
176
     1
 79
     5
176
     1
170
     0
176
     1
171
     0
176
     1
290
     0
176
     1
 93
       13
176
     1
 44
0.0
176
     1
173
     0
176
     1
  0
VISUALSTYLE
  5
37
102
{ACAD_REACTORS
330
2A
102
}
330
2A
100
AcDbVisualStyle
  2
Thicken
 70
    13
177
     2
291
     1
 71
     2
176
     1
 72
     2
176
     1
 73
     0
176
     1
 90
        0
176
     1
 40
-0.6
176
     1
 41
-30.0
176
     1
 62
     5
 63
     7
421
 16777215
176
     1
 74
     1
176
     1
 91
        4
176
     1
 64
     7
176
     1
 65
   257
176
     1
 75
     1
176
     1
175
     1
176
     1
 42
1.0
176
     1
 92
       12
176
     1
 66
     7
176
     1
 43
1.0
176
     1
 76
     1
176
     1
 77
     6
176
     1
 78
     2
176
     1
 67
     7
176
     1
 79
     5
176
     1
170
     0
176
     1
171
     0
176
     1
290
     0
176
     1
 93
        1
176
     1
 44
0.0
176
     1
173
     0
176
     1
  0
ENDSEC
  0
EOF
