  0
SECTION
  2
HEADER
  9
$ACADVER
  1
AC1024
  9
$ACADMAINTVER
 70
     6
  9
$DWGCODEPAGE
  3
UNDEFINED
  9
$INSBASE
 10
0.0
 20
0.0
 30
0.0
  9
$EXTMIN
 10
1.000000000000000E+20
 20
1.000000000000000E+20
 30
1.000000000000000E+20
  9
$EXTMAX
 10
-1.000000000000000E+20
 20
-1.000000000000000E+20
 30
-1.000000000000000E+20
  9
$LIMMIN
 10
0.0
 20
0.0
  9
$LIMMAX
 10
12.0
 20
9.0
  9
$ORTHOMODE
 70
     0
  9
$REGENMODE
 70
     1
  9
$FILLMODE
 70
     1
  9
$QTEXTMODE
 70
     0
  9
$MIRRTEXT
 70
     1
  9
$LTSCALE
 40
1.0
  9
$ATTMODE
 70
     1
  9
$TEXTSIZE
 40
0.2
  9
$TRACEWID
 40
0.05
  9
$TEXTSTYLE
  7
Standard
  9
$CLAYER
  8
0
  9
$CELTYPE
  6
ByLayer
  9
$CECOLOR
 62
   256
  9
$CELTSCALE
 40
1.0
  9
$DISPSILH
 70
     0
  9
$DIMSCALE
 40
1.0
  9
$DIMASZ
 40
0.18
  9
$DIMEXO
 40
0.0625
  9
$DIMDLI
 40
0.38
  9
$DIMRND
 40
0.0
  9
$DIMDLE
 40
0.0
  9
$DIMEXE
 40
0.18
  9
$DIMTP
 40
0.0
  9
$DIMTM
 40
0.0
  9
$DIMTXT
 40
0.18
  9
$DIMCEN
 40
0.09
  9
$DIMTSZ
 40
0.0
  9
$DIMTOL
 70
     0
  9
$DIMLIM
 70
     0
  9
$DIMTIH
 70
     1
  9
$DIMTOH
 70
     1
  9
$DIMSE1
 70
     0
  9
$DIMSE2
 70
     0
  9
$DIMTAD
 70
     0
  9
$DIMZIN
 70
     0
  9
$DIMBLK
  1

  9
$DIMASO
 70
     1
  9
$DIMSHO
 70
     1
  9
$DIMPOST
  1

  9
$DIMAPOST
  1

  9
$DIMALT
 70
     0
  9
$DIMALTD
 70
     2
  9
$DIMALTF
 40
25.4
  9
$DIMLFAC
 40
1.0
  9
$DIMTOFL
 70
     0
  9
$DIMTVP
 40
0.0
  9
$DIMTIX
 70
     0
  9
$DIMSOXD
 70
     0
  9
$DIMSAH
 70
     0
  9
$DIMBLK1
  1

  9
$DIMBLK2
  1

  9
$DIMSTYLE
  2
Standard
  9
$DIMCLRD
 70
     0
  9
$DIMCLRE
 70
     0
  9
$DIMCLRT
 70
     0
  9
$DIMTFAC
 40
1.0
  9
$DIMGAP
 40
0.09
  9
$DIMJUST
 70
     0
  9
$DIMSD1
 70
     0
  9
$DIMSD2
 70
     0
  9
$DIMTOLJ
 70
     1
  9
$DIMTZIN
 70
     0
  9
$DIMALTZ
 70
     0
  9
$DIMALTTZ
 70
     0
  9
$DIMUPT
 70
     0
  9
$DIMDEC
 70
     4
  9
$DIMTDEC
 70
     4
  9
$DIMALTU
 70
     2
  9
$DIMALTTD
 70
     2
  9
$DIMTXSTY
  7
Standard
  9
$DIMAUNIT
 70
     0
  9
$DIMADEC
 70
     0
  9
$DIMALTRND
 40
0.0
  9
$DIMAZIN
 70
     0
  9
$DIMDSEP
 70
    46
  9
$DIMATFIT
 70
     3
  9
$DIMFRAC
 70
     0
  9
$DIMLDRBLK
  1

  9
$DIMLUNIT
 70
     2
  9
$DIMLWD
 70
    -2
  9
$DIMLWE
 70
    -2
  9
$DIMTMOVE
 70
     0
  9
$DIMFXL
 40
1.0
  9
$DIMFXLON
 70
     0
  9
$DIMJOGANG
 40
0.7853981633974483
  9
$DIMTFILL
 70
     0
  9
$DIMTFILLCLR
 70
     0
  9
$DIMARCSYM
 70
     0
  9
$DIMLTYPE
  6

  9
$DIMLTEX1
  6

  9
$DIMLTEX2
  6

  9
$DIMTXTDIRECTION
 70
     0
  9
$LUNITS
 70
     2
  9
$LUPREC
 70
     4
  9
$SKETCHINC
 40
0.1
  9
$FILLETRAD
 40
0.5
  9
$AUNITS
 70
     0
  9
$AUPREC
 70
     0
  9
$MENU
  1
.
  9
$ELEVATION
 40
0.0
  9
$PELEVATION
 40
0.0
  9
$THICKNESS
 40
0.0
  9
$LIMCHECK
 70
     0
  9
$CHAMFERA
 40
0.5
  9
$CHAMFERB
 40
0.5
  9
$CHAMFERC
 40
1.0
  9
$CHAMFERD
 40
0.0
  9
$SKPOLY
 70
     0
  9
$TDCREATE
 40
2457917.614143519
  9
$TDUCREATE
 40
2457917.239143519
  9
$TDUPDATE
 40
2457917.614143519
  9
$TDUUPDATE
 40
2457917.239143519
  9
$TDINDWG
 40
0.0000000116
  9
$TDUSRTIMER
 40
0.0000000116
  9
$USRTIMER
 70
     1
  9
$ANGBASE
 50
0.0
  9
$ANGDIR
 70
     0
  9
$PDMODE
 70
     0
  9
$PDSIZE
 40
0.0
  9
$PLINEWID
 40
0.0
  9
$SPLFRAME
 70
     0
  9
$SPLINETYPE
 70
     6
  9
$SPLINESEGS
 70
     8
  9
$HANDSEED
  5
147
  9
$SURFTAB1
 70
     6
  9
$SURFTAB2
 70
     6
  9
$SURFTYPE
 70
     6
  9
$SURFU
 70
     6
  9
$SURFV
 70
     6
  9
$UCSBASE
  2

  9
$UCSNAME
  2

  9
$UCSORG
 10
0.0
 20
0.0
 30
0.0
  9
$UCSXDIR
 10
1.0
 20
0.0
 30
0.0
  9
$UCSYDIR
 10
0.0
 20
1.0
 30
0.0
  9
$UCSORTHOREF
  2

  9
$UCSORTHOVIEW
 70
     0
  9
$UCSORGTOP
 10
0.0
 20
0.0
 30
0.0
  9
$UCSORGBOTTOM
 10
0.0
 20
0.0
 30
0.0
  9
$UCSORGLEFT
 10
0.0
 20
0.0
 30
0.0
  9
$UCSORGRIGHT
 10
0.0
 20
0.0
 30
0.0
  9
$UCSORGFRONT
 10
0.0
 20
0.0
 30
0.0
  9
$UCSORGBACK
 10
0.0
 20
0.0
 30
0.0
  9
$PUCSBASE
  2

  9
$PUCSNAME
  2

  9
$PUCSORG
 10
0.0
 20
0.0
 30
0.0
  9
$PUCSXDIR
 10
1.0
 20
0.0
 30
0.0
  9
$PUCSYDIR
 10
0.0
 20
1.0
 30
0.0
  9
$PUCSORTHOREF
  2

  9
$PUCSORTHOVIEW
 70
     0
  9
$PUCSORGTOP
 10
0.0
 20
0.0
 30
0.0
  9
$PUCSORGBOTTOM
 10
0.0
 20
0.0
 30
0.0
  9
$PUCSORGLEFT
 10
0.0
 20
0.0
 30
0.0
  9
$PUCSORGRIGHT
 10
0.0
 20
0.0
 30
0.0
  9
$PUCSORGFRONT
 10
0.0
 20
0.0
 30
0.0
  9
$PUCSORGBACK
 10
0.0
 20
0.0
 30
0.0
  9
$USERI1
 70
     0
  9
$USERI2
 70
     0
  9
$USERI3
 70
     0
  9
$USERI4
 70
     0
  9
$USERI5
 70
     0
  9
$USERR1
 40
0.0
  9
$USERR2
 40
0.0
  9
$USERR3
 40
0.0
  9
$USERR4
 40
0.0
  9
$USERR5
 40
0.0
  9
$WORLDVIEW
 70
     1
  9
$SHADEDGE
 70
     3
  9
$SHADEDIF
 70
    70
  9
$TILEMODE
 70
     1
  9
$MAXACTVP
 70
    64
  9
$PINSBASE
 10
0.0
 20
0.0
 30
0.0
  9
$PLIMCHECK
 70
     0
  9
$PEXTMIN
 10
1.000000000000000E+20
 20
1.000000000000000E+20
 30
1.000000000000000E+20
  9
$PEXTMAX
 10
-1.000000000000000E+20
 20
-1.000000000000000E+20
 30
-1.000000000000000E+20
  9
$PLIMMIN
 10
0.0
 20
0.0
  9
$PLIMMAX
 10
12.0
 20
9.0
  9
$UNITMODE
 70
     0
  9
$VISRETAIN
 70
     1
  9
$PLINEGEN
 70
     0
  9
$PSLTSCALE
 70
     1
  9
$TREEDEPTH
 70
  3020
  9
$CMLSTYLE
  2
Standard
  9
$CMLJUST
 70
     0
  9
$CMLSCALE
 40
1.0
  9
$PROXYGRAPHICS
 70
     1
  9
$MEASUREMENT
 70
     0
  9
$CELWEIGHT
370
    -1
  9
$ENDCAPS
280
     0
  9
$JOINSTYLE
280
     0
  9
$LWDISPLAY
290
     1
  9
$INSUNITS
 70
     1
  9
$HYPERLINKBASE
  1

  9
$STYLESHEET
  1

  9
$XEDIT
290
     1
  9
$CEPSNTYPE
380
     0
  9
$PSTYLEMODE
290
     1
  9
$FINGERPRINTGUID
  2
{8F3B30CB-25F1-BF47-E1B2-BF75FED5882F}
  9
$VERSIONGUID
  2
{FAEB1C32-E019-11D5-929B-00C0DF256EC4}
  9
$EXTNAMES
290
     1
  9
$PSVPSCALE
 40
0.0
  9
$OLESTARTUP
290
     0
  9
$SORTENTS
280
   127
  9
$INDEXCTL
280
     0
  9
$HIDETEXT
280
     1
  9
$XCLIPFRAME
280
     2
  9
$HALOGAP
280
     0
  9
$OBSCOLOR
 70
   257
  9
$OBSLTYPE
280
     0
  9
$INTERSECTIONDISPLAY
280
     0
  9
$INTERSECTIONCOLOR
 70
   257
  9
$DIMASSOC
280
     2
  9
$PROJECTNAME
  1

  9
$CAMERADISPLAY
290
     0
  9
$LENSLENGTH
 40
50.0
  9
$CAMERAHEIGHT
 40
0.0
  9
$STEPSPERSEC
 40
2.0
  9
$STEPSIZE
 40
6.0
  9
$3DDWFPREC
 40
2.0
  9
$PSOLWIDTH
 40
0.25
  9
$PSOLHEIGHT
 40
4.0
  9
$LOFTANG1
 40
1.570796326794897
  9
$LOFTANG2
 40
1.570796326794897
  9
$LOFTMAG1
 40
0.0
  9
$LOFTMAG2
 40
0.0
  9
$LOFTPARAM
 70
     7
  9
$LOFTNORMALS
280
     1
  9
$LATITUDE
 40
37.795
  9
$LONGITUDE
 40
-122.394
  9
$NORTHDIRECTION
 40
0.0
  9
$TIMEZONE
 70
 -8000
  9
$LIGHTGLYPHDISPLAY
280
     1
  9
$TILEMODELIGHTSYNCH
280
     1
  9
$CMATERIAL
347
3C
  9
$SOLIDHIST
280
     1
  9
$SHOWHIST
280
     1
  9
$DWFFRAME
280
     2
  9
$DGNFRAME
280
     2
  9
$REALWORLDSCALE
290
     1
  9
$INTERFERECOLOR
 62
   256
  9
$CSHADOW
280
     0
  9
$SHADOWPLANELOCATION
 40
0.0
  0
ENDSEC
  0
SECTION
  2
CLASSES
  0
CLASS
  1
ACDBDICTIONARYWDFLT
  2
AcDbDictionaryWithDefault
  3
ObjectDBX Classes
 90
        0
 91
        4
280
     0
281
     0
  0
CLASS
  1
VISUALSTYLE
  2
AcDbVisualStyle
  3
ObjectDBX Classes
 90
     4095
 91
        4
280
     0
281
     0
  0
CLASS
  1
MATERIAL
  2
AcDbMaterial
  3
ObjectDBX Classes
 90
     1153
 91
        4
280
     0
281
     0
  0
CLASS
  1
SUN
  2
AcDbSun
  3
SCENEOE
 90
     1024
 91
        4
280
     0
281
     0
  0
ENDSEC
  0
SECTION
  2
TABLES
  0
TABLE
  2
VPORT
  5
8
330
0
100
AcDbSymbolTable
 70
     1
  0
VPORT
  5
29
330
8
100
AcDbSymbolTableRecord
100
AcDbViewportTableRecord
  2
*Active
 70
     0
 10
0.0
 20
0.0
 11
1.0
 21
1.0
 12
0.0
 22
0.0
 13
0.0
 23
0.0
 14
0.5
 24
0.5
 15
0.5
 25
0.5
 16
0.0
 26
0.0
 36
1.0
 17
91.00082462281999
 27
-128.4993055234307
 37
0.0
 40
256.9986110468615
 41
0.7081814508812795
 42
50.0
 43
0.0
 44
0.0
 50
0.0
 51
0.0
 71
     0
 72
   100
 73
     1
 74
     3
 75
     0
 76
     0
 77
     0
 78
     0
281
     0
 65
     1
110
0.0
120
0.0
130
0.0
111
1.0
121
0.0
131
0.0
112
0.0
122
1.0
132
0.0
 79
     0
146
0.0
 60
     3
 61
     5
292
     1
282
     1
141
0.0
142
0.0
 63
   250
361
3F
  0
ENDTAB
  0
TABLE
  2
LTYPE
  5
5
330
0
100
AcDbSymbolTable
 70
     1
  0
LTYPE
  5
14
330
5
100
AcDbSymbolTableRecord
100
AcDbLinetypeTableRecord
  2
ByBlock
 70
     0
  3

 72
    65
 73
     0
 40
0.0
  0
LTYPE
  5
15
330
5
100
AcDbSymbolTableRecord
100
AcDbLinetypeTableRecord
  2
ByLayer
 70
     0
  3

 72
    65
 73
     0
 40
0.0
  0
LTYPE
  5
16
330
5
100
AcDbSymbolTableRecord
100
AcDbLinetypeTableRecord
  2
Continuous
 70
     0
  3
Solid line
 72
    65
 73
     0
 40
0.0
  0
ENDTAB
  0
TABLE
  2
LAYER
  5
2
330
0
100
AcDbSymbolTable
 70
     2
  0
LAYER
  5
10
330
2
100
AcDbSymbolTableRecord
100
AcDbLayerTableRecord
  2
0
 70
     0
 62
     7
  6
Continuous
370
    -3
390
F
347
3E
  0
LAYER
  5
40
330
2
100
AcDbSymbolTableRecord
100
AcDbLayerTableRecord
  2
_U+30EC_U+30A4_U+30E4_U+30FC 1
 70
     0
 62
     7
  6
Continuous
370
    -3
390
F
347
3E
  0
ENDTAB
  0
TABLE
  2
STYLE
  5
3
330
0
100
AcDbSymbolTable
 70
     1
  0
STYLE
  5
11
330
3
100
AcDbSymbolTableRecord
100
AcDbTextStyleTableRecord
  2
Standard
 70
     0
 40
0.0
 41
1.0
 50
0.0
 71
     0
 42
0.2
  3
txt
  4

  0
ENDTAB
  0
TABLE
  2
VIEW
  5
6
330
0
100
AcDbSymbolTable
 70
     0
  0
ENDTAB
  0
TABLE
  2
UCS
  5
7
330
0
100
AcDbSymbolTable
 70
     0
  0
ENDTAB
  0
TABLE
  2
APPID
  5
9
330
0
100
AcDbSymbolTable
 70
     1
  0
APPID
  5
12
330
9
100
AcDbSymbolTableRecord
100
AcDbRegAppTableRecord
  2
ACAD
 70
     0
  0
ENDTAB
  0
TABLE
  2
DIMSTYLE
  5
A
330
0
100
AcDbSymbolTable
 70
     1
100
AcDbDimStyleTable
  0
DIMSTYLE
105
27
330
A
100
AcDbSymbolTableRecord
100
AcDbDimStyleTableRecord
  2
Standard
 70
     0
178
     0
340
11
  0
ENDTAB
  0
TABLE
  2
BLOCK_RECORD
  5
1
330
0
100
AcDbSymbolTable
 70
     8
  0
BLOCK_RECORD
  5
1F
330
1
100
AcDbSymbolTableRecord
100
AcDbBlockTableRecord
  2
*Model_Space
340
22
 70
     0
280
     1
281
     0
  0
BLOCK_RECORD
  5
1B
330
1
100
AcDbSymbolTableRecord
100
AcDbBlockTableRecord
  2
*Paper_Space
340
1E
 70
     0
280
     1
281
     0
  0
BLOCK_RECORD
  5
23
330
1
100
AcDbSymbolTableRecord
100
AcDbBlockTableRecord
  2
*Paper_Space0
340
26
 70
     0
280
     1
281
     0
  0
BLOCK_RECORD
  5
E1
330
1
100
AcDbSymbolTableRecord
100
AcDbBlockTableRecord
  2
block 2
340
0
102
{BLKREFS
331
E2
102
}
 70
     0
280
     1
281
     0
  0
BLOCK_RECORD
  5
E7
330
1
100
AcDbSymbolTableRecord
100
AcDbBlockTableRecord
  2
block 3
340
0
102
{BLKREFS
331
E8
102
}
 70
     0
280
     1
281
     0
  0
BLOCK_RECORD
  5
ED
330
1
100
AcDbSymbolTableRecord
100
AcDbBlockTableRecord
  2
block 4
340
0
102
{BLKREFS
331
EE
102
}
 70
     0
280
     1
281
     0
  0
BLOCK_RECORD
  5
F3
330
1
100
AcDbSymbolTableRecord
100
AcDbBlockTableRecord
  2
block 5
340
0
102
{BLKREFS
331
F4
102
}
 70
     0
280
     1
281
     0
  0
BLOCK_RECORD
  5
FC
330
1
100
AcDbSymbolTableRecord
100
AcDbBlockTableRecord
  2
block 6
340
0
102
{BLKREFS
331
FD
102
}
 70
     0
280
     1
281
     0
  0
BLOCK_RECORD
  5
118
330
1
100
AcDbSymbolTableRecord
100
AcDbBlockTableRecord
  2
block 7
340
0
102
{BLKREFS
331
119
102
}
 70
     0
280
     1
281
     0
  0
BLOCK_RECORD
  5
12A
330
1
100
AcDbSymbolTableRecord
100
AcDbBlockTableRecord
  2
block 8
340
0
102
{BLKREFS
331
12B
102
}
 70
     0
280
     1
281
     0
  0
ENDTAB
  0
ENDSEC
  0
SECTION
  2
BLOCKS
  0
BLOCK
  5
20
330
1F
100
AcDbEntity
  8
0
100
AcDbBlockBegin
  2
*Model_Space
 70
     0
 10
0.0
 20
0.0
 30
0.0
  3
*Model_Space
  1

  0
ENDBLK
  5
21
330
1F
100
AcDbEntity
  8
0
100
AcDbBlockEnd
  0
BLOCK
  5
1C
330
1B
100
AcDbEntity
 67
     1
  8
0
100
AcDbBlockBegin
  2
*Paper_Space
 70
     0
 10
0.0
 20
0.0
 30
0.0
  3
*Paper_Space
  1

  0
ENDBLK
  5
1D
330
1B
100
AcDbEntity
 67
     1
  8
0
100
AcDbBlockEnd
  0
BLOCK
  5
24
330
23
100
AcDbEntity
  8
0
100
AcDbBlockBegin
  2
*Paper_Space0
 70
     0
 10
0.0
 20
0.0
 30
0.0
  3
*Paper_Space0
  1

  0
ENDBLK
  5
25
330
23
100
AcDbEntity
  8
0
100
AcDbBlockEnd
  0
BLOCK
  5
E3
330
E1
100
AcDbEntity
  8
0
100
AcDbBlockBegin
  2
block 2
 70
     0
 10
0.0
 20
0.0
 30
0.0
  3
block 2
  1

  0
SPLINE
  5
E5
330
E1
100
AcDbEntity
  8
_U+30EC_U+30A4_U+30E4_U+30FC 1
370
     0
100
AcDbSpline
210
0.0
220
0.0
230
1.0
 70
    11
 71
     3
 72
    62
 73
    58
 74
     0
 42
0.0000000001
 43
0.0000000001
 12
1.0
 22
0.0
 32
0.0
 13
1.0
 23
0.0
 33
0.0
 40
0.0
 40
0.0
 40
0.0
 40
0.0
 40
1.0
 40
1.0
 40
1.0
 40
2.0
 40
2.0
 40
2.0
 40
3.0
 40
3.0
 40
3.0
 40
4.0
 40
4.0
 40
4.0
 40
5.0
 40
5.0
 40
5.0
 40
6.0
 40
6.0
 40
6.0
 40
7.0
 40
7.0
 40
7.0
 40
8.0
 40
8.0
 40
8.0
 40
9.0
 40
9.0
 40
9.0
 40
10.0
 40
10.0
 40
10.0
 40
11.0
 40
11.0
 40
11.0
 40
12.0
 40
12.0
 40
12.0
 40
13.0
 40
13.0
 40
13.0
 40
14.0
 40
14.0
 40
14.0
 40
15.0
 40
15.0
 40
15.0
 40
16.0
 40
16.0
 40
16.0
 40
17.0
 40
17.0
 40
17.0
 40
18.0
 40
18.0
 40
18.0
 40
19.0
 40
19.0
 40
19.0
 40
19.0
 10
72.68927542670616
 20
-110.4203056907109
 30
0.0
 10
72.58764510989128
 20
-110.4203056907109
 30
0.0
 10
72.3547566550884
 20
-110.3991183534766
 30
0.0
 10
72.22125920503497
 20
-110.2129109424989
 30
0.0
 10
72.14219426364848
 20
-110.100773084454
 30
0.0
 10
72.13771563951765
 20
-110.0013820797045
 30
0.0
 10
72.13306476061257
 20
-109.9168049855416
 30
0.0
 10
72.13306476061257
 20
-109.9168049855416
 30
0.0
 10
72.36836478225513
 20
-109.9168049855416
 30
0.0
 10
72.36836478225513
 20
-109.9168049855416
 30
0.0
 10
72.37060409432054
 20
-109.9908745384745
 30
0.0
 10
72.3818006546476
 20
-110.2256577957943
 30
0.0
 10
72.68479680257533
 20
-110.2256577957943
 30
0.0
 10
72.83173012502124
 20
-110.2256577957943
 30
0.0
 10
72.99451088669929
 20
-110.155894612218
 30
0.0
 10
72.99451088669929
 20
-109.9273125267716
 30
0.0
 10
72.99451088669929
 20
-109.8110405541445
 30
0.0
 10
72.95385875997334
 20
-109.7622924530282
 30
0.0
 10
72.91992456944364
 20
-109.7305975745639
 30
0.0
 10
72.84085962805715
 20
-109.656528021631
 30
0.0
 10
72.71649168103963
 20
-109.6439534231098
 30
0.0
 10
72.65775280301612
 20
-109.6439534231098
 30
0.0
 10
72.63725448487888
 20
-109.6439534231098
 30
0.0
 10
72.59884167021835
 20
-109.646020480401
 30
0.0
 10
72.56955835859372
 20
-109.6501545949833
 30
0.0
 10
72.56955835859372
 20
-109.6501545949833
 30
0.0
 10
72.56955835859372
 20
-109.4555067000667
 30
0.0
 10
72.56955835859372
 20
-109.4555067000667
 30
0.0
 10
72.61021048531967
 20
-109.4618801267144
 30
0.0
 10
72.65534123617644
 20
-109.4641194387798
 30
0.0
 10
72.66223142714695
 20
-109.4641194387798
 30
0.0
 10
72.73233912027177
 20
-109.4641194387798
 30
0.0
 10
72.94472925693744
 20
-109.4429321015455
 30
0.0
 10
72.94472925693744
 20
-109.2059095321603
 30
0.0
 10
72.94472925693744
 20
-109.0283148598957
 30
0.0
 10
72.80468612546203
 20
-108.9731933321317
 30
0.0
 10
72.68703611464075
 20
-108.9731933321317
 30
0.0
 10
72.40453828485026
 20
-108.9731933321317
 30
0.0
 10
72.39540878181434
 20
-109.2059095321603
 30
0.0
 10
72.39093015768353
 20
-109.2779120278021
 30
0.0
 10
72.39093015768353
 20
-109.2779120278021
 30
0.0
 10
72.17388914211278
 20
-109.2779120278021
 30
0.0
 10
72.17388914211278
 20
-109.2779120278021
 30
0.0
 10
72.18284639037444
 20
-109.1530273164617
 30
0.0
 10
72.21230195677332
 20
-108.7764783799239
 30
0.0
 10
72.70064424180748
 20
-108.7764783799239
 30
0.0
 10
72.94025063280661
 20
-108.7764783799239
 30
0.0
 10
73.1979437751033
 20
-108.9034301485554
 30
0.0
 10
73.1979437751033
 20
-109.1995361055126
 30
0.0
 10
73.1979437751033
 20
-109.3857435164904
 30
0.0
 10
73.09631345828842
 20
-109.4682535533621
 30
0.0
 10
72.99003226256846
 20
-109.5295762529996
 30
0.0
 10
73.05566133156248
 20
-109.5571370168816
 30
0.0
 10
73.24996471693056
 20
-109.6375799964621
 30
0.0
 10
73.24996471693056
 20
-109.9147379282505
 30
0.0
 10
73.24996471693056
 20
-110.2532185596763
 30
0.0
 10
72.98555363843764
 20
-110.4203056907109
 30
0.0
 10
72.68927542670616
 20
-110.4203056907109
 30
0.0
  0
HATCH
  5
E6
330
E1
100
AcDbEntity
  8
_U+30EC_U+30A4_U+30E4_U+30FC 1
 62
   179
420
  2234388
100
AcDbHatch
 10
0.0
 20
0.0
 30
0.0
210
0.0
220
0.0
230
1.0
  2
SOLID
 70
     1
 71
     0
 91
        1
 92
        1
 93
        1
 72
     4
 94
        3
 73
     0
 74
     1
 95
       62
 96
       58
 40
0.0
 40
0.0
 40
0.0
 40
0.0
 40
1.0
 40
1.0
 40
1.0
 40
2.0
 40
2.0
 40
2.0
 40
3.0
 40
3.0
 40
3.0
 40
4.0
 40
4.0
 40
4.0
 40
5.0
 40
5.0
 40
5.0
 40
6.0
 40
6.0
 40
6.0
 40
7.0
 40
7.0
 40
7.0
 40
8.0
 40
8.0
 40
8.0
 40
9.0
 40
9.0
 40
9.0
 40
10.0
 40
10.0
 40
10.0
 40
11.0
 40
11.0
 40
11.0
 40
12.0
 40
12.0
 40
12.0
 40
13.0
 40
13.0
 40
13.0
 40
14.0
 40
14.0
 40
14.0
 40
15.0
 40
15.0
 40
15.0
 40
16.0
 40
16.0
 40
16.0
 40
17.0
 40
17.0
 40
17.0
 40
18.0
 40
18.0
 40
18.0
 40
19.0
 40
19.0
 40
19.0
 40
19.0
 10
72.68927542670616
 20
-110.4203056907109
 10
72.58764510989128
 20
-110.4203056907109
 10
72.3547566550884
 20
-110.3991183534766
 10
72.22125920503497
 20
-110.2129109424989
 10
72.14219426364848
 20
-110.100773084454
 10
72.13771563951765
 20
-110.0013820797045
 10
72.13306476061257
 20
-109.9168049855416
 10
72.13306476061257
 20
-109.9168049855416
 10
72.36836478225513
 20
-109.9168049855416
 10
72.36836478225513
 20
-109.9168049855416
 10
72.37060409432054
 20
-109.9908745384745
 10
72.3818006546476
 20
-110.2256577957943
 10
72.68479680257533
 20
-110.2256577957943
 10
72.83173012502124
 20
-110.2256577957943
 10
72.99451088669929
 20
-110.155894612218
 10
72.99451088669929
 20
-109.9273125267716
 10
72.99451088669929
 20
-109.8110405541445
 10
72.95385875997334
 20
-109.7622924530282
 10
72.91992456944364
 20
-109.7305975745639
 10
72.84085962805715
 20
-109.656528021631
 10
72.71649168103963
 20
-109.6439534231098
 10
72.65775280301612
 20
-109.6439534231098
 10
72.63725448487888
 20
-109.6439534231098
 10
72.59884167021835
 20
-109.646020480401
 10
72.56955835859372
 20
-109.6501545949833
 10
72.56955835859372
 20
-109.6501545949833
 10
72.56955835859372
 20
-109.4555067000667
 10
72.56955835859372
 20
-109.4555067000667
 10
72.61021048531967
 20
-109.4618801267144
 10
72.65534123617644
 20
-109.4641194387798
 10
72.66223142714695
 20
-109.4641194387798
 10
72.73233912027177
 20
-109.4641194387798
 10
72.94472925693744
 20
-109.4429321015455
 10
72.94472925693744
 20
-109.2059095321603
 10
72.94472925693744
 20
-109.0283148598957
 10
72.80468612546203
 20
-108.9731933321317
 10
72.68703611464075
 20
-108.9731933321317
 10
72.40453828485026
 20
-108.9731933321317
 10
72.39540878181434
 20
-109.2059095321603
 10
72.39093015768353
 20
-109.2779120278021
 10
72.39093015768353
 20
-109.2779120278021
 10
72.17388914211278
 20
-109.2779120278021
 10
72.17388914211278
 20
-109.2779120278021
 10
72.18284639037444
 20
-109.1530273164617
 10
72.21230195677332
 20
-108.7764783799239
 10
72.70064424180748
 20
-108.7764783799239
 10
72.94025063280661
 20
-108.7764783799239
 10
73.1979437751033
 20
-108.9034301485554
 10
73.1979437751033
 20
-109.1995361055126
 10
73.1979437751033
 20
-109.3857435164904
 10
73.09631345828842
 20
-109.4682535533621
 10
72.99003226256846
 20
-109.5295762529996
 10
73.05566133156248
 20
-109.5571370168816
 10
73.24996471693056
 20
-109.6375799964621
 10
73.24996471693056
 20
-109.9147379282505
 10
73.24996471693056
 20
-110.2532185596763
 10
72.98555363843764
 20
-110.4203056907109
 10
72.68927542670616
 20
-110.4203056907109
 97
        0
 97
        0
 75
     2
 76
     1
 98
        0
  0
ENDBLK
  5
E4
330
E1
100
AcDbEntity
  8
0
100
AcDbBlockEnd
  0
BLOCK
  5
E9
330
E7
100
AcDbEntity
  8
0
100
AcDbBlockBegin
  2
block 3
 70
     0
 10
0.0
 20
0.0
 30
0.0
  3
block 3
  1

  0
SPLINE
  5
EB
330
E7
100
AcDbEntity
  8
_U+30EC_U+30A4_U+30E4_U+30FC 1
370
     0
100
AcDbSpline
210
0.0
220
0.0
230
1.0
 70
    11
 71
     3
 72
    26
 73
    22
 74
     0
 42
0.0000000001
 43
0.0000000001
 12
1.0
 22
0.0
 32
0.0
 13
1.0
 23
0.0
 33
0.0
 40
0.0
 40
0.0
 40
0.0
 40
0.0
 40
1.0
 40
1.0
 40
1.0
 40
2.0
 40
2.0
 40
2.0
 40
3.0
 40
3.0
 40
3.0
 40
4.0
 40
4.0
 40
4.0
 40
5.0
 40
5.0
 40
5.0
 40
6.0
 40
6.0
 40
6.0
 40
7.0
 40
7.0
 40
7.0
 40
7.0
 10
117.6637912032229
 20
-124.4070488512767
 30
0.0
 10
117.6637912032229
 20
-124.4070488512767
 30
0.0
 10
116.5596381002004
 20
-124.4070488512767
 30
0.0
 10
116.5596381002004
 20
-124.4070488512767
 30
0.0
 10
116.5596381002004
 20
-124.4070488512767
 30
0.0
 10
116.5596381002004
 20
-124.7598266289663
 30
0.0
 10
116.5596381002004
 20
-124.7598266289663
 30
0.0
 10
116.5596381002004
 20
-124.7598266289663
 30
0.0
 10
116.4114989943346
 20
-124.7598266289663
 30
0.0
 10
116.4114989943346
 20
-124.7598266289663
 30
0.0
 10
116.3966850837481
 20
-124.4048095392113
 30
0.0
 10
116.2337320672957
 20
-124.3550279094494
 30
0.0
 10
116.1193548971854
 20
-124.3235052857594
 30
0.0
 10
116.1193548971854
 20
-124.3235052857594
 30
0.0
 10
116.1193548971854
 20
-124.1674424602776
 30
0.0
 10
116.1193548971854
 20
-124.1674424602776
 30
0.0
 10
116.1193548971854
 20
-124.1674424602776
 30
0.0
 10
117.6637912032229
 20
-124.1674424602776
 30
0.0
 10
117.6637912032229
 20
-124.1674424602776
 30
0.0
 10
117.6637912032229
 20
-124.1674424602776
 30
0.0
 10
117.6637912032229
 20
-124.4070488512767
 30
0.0
 10
117.6637912032229
 20
-124.4070488512767
 30
0.0
  0
HATCH
  5
EC
330
E7
100
AcDbEntity
  8
_U+30EC_U+30A4_U+30E4_U+30FC 1
 62
   179
420
  2234388
100
AcDbHatch
 10
0.0
 20
0.0
 30
0.0
210
0.0
220
0.0
230
1.0
  2
SOLID
 70
     1
 71
     0
 91
        1
 92
        1
 93
        1
 72
     4
 94
        3
 73
     0
 74
     1
 95
       26
 96
       22
 40
0.0
 40
0.0
 40
0.0
 40
0.0
 40
1.0
 40
1.0
 40
1.0
 40
2.0
 40
2.0
 40
2.0
 40
3.0
 40
3.0
 40
3.0
 40
4.0
 40
4.0
 40
4.0
 40
5.0
 40
5.0
 40
5.0
 40
6.0
 40
6.0
 40
6.0
 40
7.0
 40
7.0
 40
7.0
 40
7.0
 10
117.6637912032229
 20
-124.4070488512767
 10
117.6637912032229
 20
-124.4070488512767
 10
116.5596381002004
 20
-124.4070488512767
 10
116.5596381002004
 20
-124.4070488512767
 10
116.5596381002004
 20
-124.4070488512767
 10
116.5596381002004
 20
-124.7598266289663
 10
116.5596381002004
 20
-124.7598266289663
 10
116.5596381002004
 20
-124.7598266289663
 10
116.4114989943346
 20
-124.7598266289663
 10
116.4114989943346
 20
-124.7598266289663
 10
116.3966850837481
 20
-124.4048095392113
 10
116.2337320672957
 20
-124.3550279094494
 10
116.1193548971854
 20
-124.3235052857594
 10
116.1193548971854
 20
-124.3235052857594
 10
116.1193548971854
 20
-124.1674424602776
 10
116.1193548971854
 20
-124.1674424602776
 10
116.1193548971854
 20
-124.1674424602776
 10
117.6637912032229
 20
-124.1674424602776
 10
117.6637912032229
 20
-124.1674424602776
 10
117.6637912032229
 20
-124.1674424602776
 10
117.6637912032229
 20
-124.4070488512767
 10
117.6637912032229
 20
-124.4070488512767
 97
        0
 97
        0
 75
     2
 76
     1
 98
        0
  0
ENDBLK
  5
EA
330
E7
100
AcDbEntity
  8
0
100
AcDbBlockEnd
  0
BLOCK
  5
EF
330
ED
100
AcDbEntity
  8
0
100
AcDbBlockBegin
  2
block 4
 70
     0
 10
0.0
 20
0.0
 30
0.0
  3
block 4
  1

  0
SPLINE
  5
F1
330
ED
100
AcDbEntity
  8
_U+30EC_U+30A4_U+30E4_U+30FC 1
370
     0
100
AcDbSpline
210
0.0
220
0.0
230
1.0
 70
    11
 71
     3
 72
    62
 73
    58
 74
     0
 42
0.0000000001
 43
0.0000000001
 12
1.0
 22
0.0
 32
0.0
 13
1.0
 23
0.0
 33
0.0
 40
0.0
 40
0.0
 40
0.0
 40
0.0
 40
1.0
 40
1.0
 40
1.0
 40
2.0
 40
2.0
 40
2.0
 40
3.0
 40
3.0
 40
3.0
 40
4.0
 40
4.0
 40
4.0
 40
5.0
 40
5.0
 40
5.0
 40
6.0
 40
6.0
 40
6.0
 40
7.0
 40
7.0
 40
7.0
 40
8.0
 40
8.0
 40
8.0
 40
9.0
 40
9.0
 40
9.0
 40
10.0
 40
10.0
 40
10.0
 40
11.0
 40
11.0
 40
11.0
 40
12.0
 40
12.0
 40
12.0
 40
13.0
 40
13.0
 40
13.0
 40
14.0
 40
14.0
 40
14.0
 40
15.0
 40
15.0
 40
15.0
 40
16.0
 40
16.0
 40
16.0
 40
17.0
 40
17.0
 40
17.0
 40
18.0
 40
18.0
 40
18.0
 40
19.0
 40
19.0
 40
19.0
 40
19.0
 10
117.7144341068561
 20
-140.2474256376812
 30
0.0
 10
117.7144341068561
 20
-140.3490559544961
 30
0.0
 10
117.6934190243961
 20
-140.581944409299
 30
0.0
 10
117.5073838681926
 20
-140.7152696045781
 30
0.0
 10
117.3950737553735
 20
-140.7945068007389
 30
0.0
 10
117.2958550053983
 20
-140.7989854248697
 30
0.0
 10
117.2111056564611
 20
-140.8034640490005
 30
0.0
 10
117.2111056564611
 20
-140.8034640490005
 30
0.0
 10
117.2111056564611
 20
-140.5685085369065
 30
0.0
 10
117.2111056564611
 20
-140.5685085369065
 30
0.0
 10
117.285175209394
 20
-140.5660969700668
 30
0.0
 10
117.5197862119395
 20
-140.5547281549655
 30
0.0
 10
117.5197862119395
 20
-140.251904261812
 30
0.0
 10
117.5197862119395
 20
-140.1047986845919
 30
0.0
 10
117.4501952831375
 20
-139.9421901776881
 30
0.0
 10
117.2217854524654
 20
-139.9421901776881
 30
0.0
 10
117.105341225064
 20
-139.9421901776881
 30
0.0
 10
117.0567653787219
 20
-139.982842304414
 30
0.0
 10
117.0250705002576
 20
-140.016948749718
 30
0.0
 10
116.9510009473248
 20
-140.0958414363302
 30
0.0
 10
116.9382540940293
 20
-140.2202093833477
 30
0.0
 10
116.9382540940293
 20
-140.2791205161455
 30
0.0
 10
116.9382540940293
 20
-140.2994465795085
 30
0.0
 10
116.9403211513205
 20
-140.3376871393947
 30
0.0
 10
116.9444552659028
 20
-140.3673149605679
 30
0.0
 10
116.9444552659028
 20
-140.3673149605679
 30
0.0
 10
116.7498073709862
 20
-140.3673149605679
 30
0.0
 10
116.7498073709862
 20
-140.3673149605679
 30
0.0
 10
116.7563530524081
 20
-140.326662833842
 30
0.0
 10
116.7584201096993
 20
-140.2811875734367
 30
0.0
 10
116.7584201096993
 20
-140.2746418920147
 30
0.0
 10
116.7584201096993
 20
-140.2043619441156
 30
0.0
 10
116.7370605176907
 20
-139.9917995526757
 30
0.0
 10
116.5003824578541
 20
-139.9917995526757
 30
0.0
 10
116.3226155308152
 20
-139.9917995526757
 30
0.0
 10
116.2674940030512
 20
-140.1320149389253
 30
0.0
 10
116.2674940030512
 20
-140.2494926949724
 30
0.0
 10
116.2674940030512
 20
-140.5323350343114
 30
0.0
 10
116.5003824578541
 20
-140.541292282573
 30
0.0
 10
116.5720404439473
 20
-140.5457709067038
 30
0.0
 10
116.5720404439473
 20
-140.5457709067038
 30
0.0
 10
116.5720404439473
 20
-140.7628119222746
 30
0.0
 10
116.5720404439473
 20
-140.7628119222746
 30
0.0
 10
116.4473279873812
 20
-140.7538546740129
 30
0.0
 10
116.0707790508434
 20
-140.7245713623883
 30
0.0
 10
116.0707790508434
 20
-140.2360568225799
 30
0.0
 10
116.0707790508434
 20
-139.9962781768065
 30
0.0
 10
116.1979030742491
 20
-139.7385850345098
 30
0.0
 10
116.4938367764321
 20
-139.7385850345098
 30
0.0
 10
116.6802164421841
 20
-139.7385850345098
 30
0.0
 10
116.7625542242816
 20
-139.8405598608732
 30
0.0
 10
116.823876923919
 20
-139.9466688018189
 30
0.0
 10
116.851437687801
 20
-139.8812119875992
 30
0.0
 10
116.9317084126073
 20
-139.6865640926825
 30
0.0
 10
117.20903859917
 20
-139.6865640926825
 30
0.0
 10
117.5473469758215
 20
-139.6865640926825
 30
0.0
 10
117.7144341068561
 20
-139.9511474259497
 30
0.0
 10
117.7144341068561
 20
-140.2474256376812
 30
0.0
  0
HATCH
  5
F2
330
ED
100
AcDbEntity
  8
_U+30EC_U+30A4_U+30E4_U+30FC 1
 62
   179
420
  2234388
100
AcDbHatch
 10
0.0
 20
0.0
 30
0.0
210
0.0
220
0.0
230
1.0
  2
SOLID
 70
     1
 71
     0
 91
        1
 92
        1
 93
        1
 72
     4
 94
        3
 73
     0
 74
     1
 95
       62
 96
       58
 40
0.0
 40
0.0
 40
0.0
 40
0.0
 40
1.0
 40
1.0
 40
1.0
 40
2.0
 40
2.0
 40
2.0
 40
3.0
 40
3.0
 40
3.0
 40
4.0
 40
4.0
 40
4.0
 40
5.0
 40
5.0
 40
5.0
 40
6.0
 40
6.0
 40
6.0
 40
7.0
 40
7.0
 40
7.0
 40
8.0
 40
8.0
 40
8.0
 40
9.0
 40
9.0
 40
9.0
 40
10.0
 40
10.0
 40
10.0
 40
11.0
 40
11.0
 40
11.0
 40
12.0
 40
12.0
 40
12.0
 40
13.0
 40
13.0
 40
13.0
 40
14.0
 40
14.0
 40
14.0
 40
15.0
 40
15.0
 40
15.0
 40
16.0
 40
16.0
 40
16.0
 40
17.0
 40
17.0
 40
17.0
 40
18.0
 40
18.0
 40
18.0
 40
19.0
 40
19.0
 40
19.0
 40
19.0
 10
117.7144341068561
 20
-140.2474256376812
 10
117.7144341068561
 20
-140.3490559544961
 10
117.6934190243961
 20
-140.581944409299
 10
117.5073838681926
 20
-140.7152696045781
 10
117.3950737553735
 20
-140.7945068007389
 10
117.2958550053983
 20
-140.7989854248697
 10
117.2111056564611
 20
-140.8034640490005
 10
117.2111056564611
 20
-140.8034640490005
 10
117.2111056564611
 20
-140.5685085369065
 10
117.2111056564611
 20
-140.5685085369065
 10
117.285175209394
 20
-140.5660969700668
 10
117.5197862119395
 20
-140.5547281549655
 10
117.5197862119395
 20
-140.251904261812
 10
117.5197862119395
 20
-140.1047986845919
 10
117.4501952831375
 20
-139.9421901776881
 10
117.2217854524654
 20
-139.9421901776881
 10
117.105341225064
 20
-139.9421901776881
 10
117.0567653787219
 20
-139.982842304414
 10
117.0250705002576
 20
-140.016948749718
 10
116.9510009473248
 20
-140.0958414363302
 10
116.9382540940293
 20
-140.2202093833477
 10
116.9382540940293
 20
-140.2791205161455
 10
116.9382540940293
 20
-140.2994465795085
 10
116.9403211513205
 20
-140.3376871393947
 10
116.9444552659028
 20
-140.3673149605679
 10
116.9444552659028
 20
-140.3673149605679
 10
116.7498073709862
 20
-140.3673149605679
 10
116.7498073709862
 20
-140.3673149605679
 10
116.7563530524081
 20
-140.326662833842
 10
116.7584201096993
 20
-140.2811875734367
 10
116.7584201096993
 20
-140.2746418920147
 10
116.7584201096993
 20
-140.2043619441156
 10
116.7370605176907
 20
-139.9917995526757
 10
116.5003824578541
 20
-139.9917995526757
 10
116.3226155308152
 20
-139.9917995526757
 10
116.2674940030512
 20
-140.1320149389253
 10
116.2674940030512
 20
-140.2494926949724
 10
116.2674940030512
 20
-140.5323350343114
 10
116.5003824578541
 20
-140.541292282573
 10
116.5720404439473
 20
-140.5457709067038
 10
116.5720404439473
 20
-140.5457709067038
 10
116.5720404439473
 20
-140.7628119222746
 10
116.5720404439473
 20
-140.7628119222746
 10
116.4473279873812
 20
-140.7538546740129
 10
116.0707790508434
 20
-140.7245713623883
 10
116.0707790508434
 20
-140.2360568225799
 10
116.0707790508434
 20
-139.9962781768065
 10
116.1979030742491
 20
-139.7385850345098
 10
116.4938367764321
 20
-139.7385850345098
 10
116.6802164421841
 20
-139.7385850345098
 10
116.7625542242816
 20
-139.8405598608732
 10
116.823876923919
 20
-139.9466688018189
 10
116.851437687801
 20
-139.8812119875992
 10
116.9317084126073
 20
-139.6865640926825
 10
117.20903859917
 20
-139.6865640926825
 10
117.5473469758215
 20
-139.6865640926825
 10
117.7144341068561
 20
-139.9511474259497
 10
117.7144341068561
 20
-140.2474256376812
 97
        0
 97
        0
 75
     2
 76
     1
 98
        0
  0
ENDBLK
  5
F0
330
ED
100
AcDbEntity
  8
0
100
AcDbBlockEnd
  0
BLOCK
  5
F5
330
F3
100
AcDbEntity
  8
0
100
AcDbBlockBegin
  2
block 5
 70
     0
 10
0.0
 20
0.0
 30
0.0
  3
block 5
  1

  0
SPLINE
  5
F7
330
F3
100
AcDbEntity
  8
_U+30EC_U+30A4_U+30E4_U+30FC 1
370
     0
100
AcDbSpline
210
0.0
220
0.0
230
1.0
 70
    11
 71
     3
 72
    26
 73
    22
 74
     0
 42
0.0000000001
 43
0.0000000001
 12
1.0
 22
0.0
 32
0.0
 13
1.0
 23
0.0
 33
0.0
 40
0.0
 40
0.0
 40
0.0
 40
0.0
 40
1.0
 40
1.0
 40
1.0
 40
2.0
 40
2.0
 40
2.0
 40
3.0
 40
3.0
 40
3.0
 40
4.0
 40
4.0
 40
4.0
 40
5.0
 40
5.0
 40
5.0
 40
6.0
 40
6.0
 40
6.0
 40
7.0
 40
7.0
 40
7.0
 40
7.0
 10
75.51821558441907
 20
-148.1900932789247
 30
0.0
 10
75.51821558441907
 20
-148.1900932789247
 30
0.0
 10
75.51821558441907
 20
-147.0855956663536
 30
0.0
 10
75.51821558441907
 20
-147.0855956663536
 30
0.0
 10
75.51821558441907
 20
-147.0855956663536
 30
0.0
 10
75.165782316278
 20
-147.0855956663536
 30
0.0
 10
75.165782316278
 20
-147.0855956663536
 30
0.0
 10
75.165782316278
 20
-147.0855956663536
 30
0.0
 10
75.165782316278
 20
-146.9378010700364
 30
0.0
 10
75.165782316278
 20
-146.9378010700364
 30
0.0
 10
75.52062715125874
 20
-146.9229871594498
 30
0.0
 10
75.57023652624633
 20
-146.7600341429975
 30
0.0
 10
75.60193140471063
 20
-146.6460014824357
 30
0.0
 10
75.60193140471063
 20
-146.6460014824357
 30
0.0
 10
75.75799423019245
 20
-146.6460014824357
 30
0.0
 10
75.75799423019245
 20
-146.6460014824357
 30
0.0
 10
75.75799423019245
 20
-146.6460014824357
 30
0.0
 10
75.75799423019245
 20
-148.1900932789247
 30
0.0
 10
75.75799423019245
 20
-148.1900932789247
 30
0.0
 10
75.75799423019245
 20
-148.1900932789247
 30
0.0
 10
75.51821558441907
 20
-148.1900932789247
 30
0.0
 10
75.51821558441907
 20
-148.1900932789247
 30
0.0
  0
HATCH
  5
F8
330
F3
100
AcDbEntity
  8
_U+30EC_U+30A4_U+30E4_U+30FC 1
 62
   179
420
  2234388
100
AcDbHatch
 10
0.0
 20
0.0
 30
0.0
210
0.0
220
0.0
230
1.0
  2
SOLID
 70
     1
 71
     0
 91
        1
 92
        1
 93
        1
 72
     4
 94
        3
 73
     0
 74
     1
 95
       26
 96
       22
 40
0.0
 40
0.0
 40
0.0
 40
0.0
 40
1.0
 40
1.0
 40
1.0
 40
2.0
 40
2.0
 40
2.0
 40
3.0
 40
3.0
 40
3.0
 40
4.0
 40
4.0
 40
4.0
 40
5.0
 40
5.0
 40
5.0
 40
6.0
 40
6.0
 40
6.0
 40
7.0
 40
7.0
 40
7.0
 40
7.0
 10
75.51821558441907
 20
-148.1900932789247
 10
75.51821558441907
 20
-148.1900932789247
 10
75.51821558441907
 20
-147.0855956663536
 10
75.51821558441907
 20
-147.0855956663536
 10
75.51821558441907
 20
-147.0855956663536
 10
75.165782316278
 20
-147.0855956663536
 10
75.165782316278
 20
-147.0855956663536
 10
75.165782316278
 20
-147.0855956663536
 10
75.165782316278
 20
-146.9378010700364
 10
75.165782316278
 20
-146.9378010700364
 10
75.52062715125874
 20
-146.9229871594498
 10
75.57023652624633
 20
-146.7600341429975
 10
75.60193140471063
 20
-146.6460014824357
 10
75.60193140471063
 20
-146.6460014824357
 10
75.75799423019245
 20
-146.6460014824357
 10
75.75799423019245
 20
-146.6460014824357
 10
75.75799423019245
 20
-146.6460014824357
 10
75.75799423019245
 20
-148.1900932789247
 10
75.75799423019245
 20
-148.1900932789247
 10
75.75799423019245
 20
-148.1900932789247
 10
75.51821558441907
 20
-148.1900932789247
 10
75.51821558441907
 20
-148.1900932789247
 97
        0
 97
        0
 75
     2
 76
     1
 98
        0
  0
SPLINE
  5
F9
330
F3
100
AcDbEntity
  8
_U+30EC_U+30A4_U+30E4_U+30FC 1
370
     0
100
AcDbSpline
210
0.0
220
0.0
230
1.0
 70
    11
 71
     3
 72
    29
 73
    25
 74
     0
 42
0.0000000001
 43
0.0000000001
 12
1.0
 22
0.0
 32
0.0
 13
1.0
 23
0.0
 33
0.0
 40
0.0
 40
0.0
 40
0.0
 40
0.0
 40
1.0
 40
1.0
 40
1.0
 40
2.0
 40
2.0
 40
2.0
 40
3.0
 40
3.0
 40
3.0
 40
4.0
 40
4.0
 40
4.0
 40
5.0
 40
5.0
 40
5.0
 40
6.0
 40
6.0
 40
6.0
 40
7.0
 40
7.0
 40
7.0
 40
8.0
 40
8.0
 40
8.0
 40
8.0
 10
77.25316567079088
 20
-148.0123263518858
 30
0.0
 10
77.13775497203501
 20
-148.221788157389
 30
0.0
 10
76.95240883492856
 20
-148.2410806921064
 30
0.0
 10
76.82804088791104
 20
-148.2410806921064
 30
0.0
 10
76.65647513274561
 20
-148.2410806921064
 30
0.0
 10
76.50489093139461
 20
-148.194227393507
 30
0.0
 10
76.40326061457975
 20
-148.0123263518858
 30
0.0
 10
76.2923285399547
 20
-147.8176784569692
 30
0.0
 10
76.27200247659172
 20
-147.5810003971325
 30
0.0
 10
76.27200247659172
 20
-147.4177028711317
 30
0.0
 10
76.27200247659172
 20
-147.2740423893968
 30
0.0
 10
76.29026148266355
 20
-147.022205909425
 30
0.0
 10
76.40326061457975
 20
-146.8234238999261
 30
0.0
 10
76.51832680378709
 20
-146.6205077758449
 30
0.0
 10
76.69023706850106
 20
-146.5970811265452
 30
0.0
 10
76.82804088791104
 20
-146.5970811265452
 30
0.0
 10
76.99788409533386
 20
-146.5970811265452
 30
0.0
 10
77.15153535397602
 20
-146.6415228583049
 30
0.0
 10
77.25316567079088
 20
-146.8234238999261
 30
0.0
 10
77.35961912128509
 20
-147.0160047375516
 30
0.0
 10
77.38442380877889
 20
-147.2444145682236
 30
0.0
 10
77.38442380877889
 20
-147.4177028711317
 30
0.0
 10
77.38442380877889
 20
-147.5892686262971
 30
0.0
 10
77.36168617857625
 20
-147.8200900238089
 30
0.0
 10
77.25316567079088
 20
-148.0123263518858
 30
0.0
  0
SPLINE
  5
FA
330
F3
100
AcDbEntity
  8
_U+30EC_U+30A4_U+30E4_U+30FC 1
370
     0
100
AcDbSpline
210
0.0
220
0.0
230
1.0
 70
    11
 71
     3
 72
    17
 73
    13
 74
     0
 42
0.0000000001
 43
0.0000000001
 12
1.0
 22
0.0
 32
0.0
 13
1.0
 23
0.0
 33
0.0
 40
0.0
 40
0.0
 40
0.0
 40
0.0
 40
1.0
 40
1.0
 40
1.0
 40
2.0
 40
2.0
 40
2.0
 40
3.0
 40
3.0
 40
3.0
 40
4.0
 40
4.0
 40
4.0
 40
4.0
 10
76.82804088791104
 20
-146.7896619641706
 30
0.0
 10
76.56139049735272
 20
-146.7896619641706
 30
0.0
 10
76.51178112236511
 20
-147.0731933226067
 30
0.0
 10
76.51178112236511
 20
-147.4177028711317
 30
0.0
 10
76.51178112236511
 20
-147.7374077321629
 30
0.0
 10
76.55002168225138
 20
-148.0460882876413
 30
0.0
 10
76.82804088791104
 20
-148.0460882876413
 30
0.0
 10
77.09262422117824
 20
-148.0460882876413
 30
0.0
 10
77.1446451630055
 20
-147.7649684960449
 30
0.0
 10
77.1446451630055
 20
-147.4177028711317
 30
0.0
 10
77.1446451630055
 20
-147.0986870291975
 30
0.0
 10
77.10399303627956
 20
-146.7896619641706
 30
0.0
 10
76.82804088791104
 20
-146.7896619641706
 30
0.0
  0
HATCH
  5
FB
330
F3
100
AcDbEntity
  8
_U+30EC_U+30A4_U+30E4_U+30FC 1
 62
   179
420
  2234388
100
AcDbHatch
 10
0.0
 20
0.0
 30
0.0
210
0.0
220
0.0
230
1.0
  2
SOLID
 70
     1
 71
     0
 91
        2
 92
        1
 93
        1
 72
     4
 94
        3
 73
     0
 74
     1
 95
       29
 96
       25
 40
0.0
 40
0.0
 40
0.0
 40
0.0
 40
1.0
 40
1.0
 40
1.0
 40
2.0
 40
2.0
 40
2.0
 40
3.0
 40
3.0
 40
3.0
 40
4.0
 40
4.0
 40
4.0
 40
5.0
 40
5.0
 40
5.0
 40
6.0
 40
6.0
 40
6.0
 40
7.0
 40
7.0
 40
7.0
 40
8.0
 40
8.0
 40
8.0
 40
8.0
 10
77.25316567079088
 20
-148.0123263518858
 10
77.13775497203501
 20
-148.221788157389
 10
76.95240883492856
 20
-148.2410806921064
 10
76.82804088791104
 20
-148.2410806921064
 10
76.65647513274561
 20
-148.2410806921064
 10
76.50489093139461
 20
-148.194227393507
 10
76.40326061457975
 20
-148.0123263518858
 10
76.2923285399547
 20
-147.8176784569692
 10
76.27200247659172
 20
-147.5810003971325
 10
76.27200247659172
 20
-147.4177028711317
 10
76.27200247659172
 20
-147.2740423893968
 10
76.29026148266355
 20
-147.022205909425
 10
76.40326061457975
 20
-146.8234238999261
 10
76.51832680378709
 20
-146.6205077758449
 10
76.69023706850106
 20
-146.5970811265452
 10
76.82804088791104
 20
-146.5970811265452
 10
76.99788409533386
 20
-146.5970811265452
 10
77.15153535397602
 20
-146.6415228583049
 10
77.25316567079088
 20
-146.8234238999261
 10
77.35961912128509
 20
-147.0160047375516
 10
77.38442380877889
 20
-147.2444145682236
 10
77.38442380877889
 20
-147.4177028711317
 10
77.38442380877889
 20
-147.5892686262971
 10
77.36168617857625
 20
-147.8200900238089
 10
77.25316567079088
 20
-148.0123263518858
 97
        0
 97
        0
 92
        1
 93
        1
 72
     4
 94
        3
 73
     0
 74
     1
 95
       17
 96
       13
 40
0.0
 40
0.0
 40
0.0
 40
0.0
 40
1.0
 40
1.0
 40
1.0
 40
2.0
 40
2.0
 40
2.0
 40
3.0
 40
3.0
 40
3.0
 40
4.0
 40
4.0
 40
4.0
 40
4.0
 10
76.82804088791104
 20
-146.7896619641706
 10
76.56139049735272
 20
-146.7896619641706
 10
76.51178112236511
 20
-147.0731933226067
 10
76.51178112236511
 20
-147.4177028711317
 10
76.51178112236511
 20
-147.7374077321629
 10
76.55002168225138
 20
-148.0460882876413
 10
76.82804088791104
 20
-148.0460882876413
 10
77.09262422117824
 20
-148.0460882876413
 10
77.1446451630055
 20
-147.7649684960449
 10
77.1446451630055
 20
-147.4177028711317
 10
77.1446451630055
 20
-147.0986870291975
 10
77.10399303627956
 20
-146.7896619641706
 10
76.82804088791104
 20
-146.7896619641706
 97
        0
 97
        0
 75
     2
 76
     1
 98
        0
  0
ENDBLK
  5
F6
330
F3
100
AcDbEntity
  8
0
100
AcDbBlockEnd
  0
BLOCK
  5
FE
330
FC
100
AcDbEntity
  8
0
100
AcDbBlockBegin
  2
block 6
 70
     0
 10
0.0
 20
0.0
 30
0.0
  3
block 6
  1

  0
POLYLINE
  5
100
330
FC
100
AcDbEntity
  8
_U+30EC_U+30A4_U+30E4_U+30FC 1
370
     0
100
AcDb2dPolyline
 66
     1
 10
0.0
 20
0.0
 30
0.0
  0
VERTEX
  5
101
330
100
100
AcDbEntity
  8
_U+30EC_U+30A4_U+30E4_U+30FC 1
370
     0
100
AcDbVertex
100
AcDb2dVertex
 10
90.9257161231019
 20
-112.3455973026428
 30
0.0
  0
VERTEX
  5
102
330
100
100
AcDbEntity
  8
_U+30EC_U+30A4_U+30E4_U+30FC 1
370
     0
100
AcDbVertex
100
AcDb2dVertex
 10
90.9257161231019
 20
-112.6925184180074
 30
0.0
  0
VERTEX
  5
103
330
100
100
AcDbEntity
  8
_U+30EC_U+30A4_U+30E4_U+30FC 1
370
     0
100
AcDbVertex
100
AcDb2dVertex
 10
90.69282766829902
 20
-112.6925184180074
 30
0.0
  0
VERTEX
  5
104
330
100
100
AcDbEntity
  8
_U+30EC_U+30A4_U+30E4_U+30FC 1
370
     0
100
AcDbVertex
100
AcDb2dVertex
 10
90.69282766829902
 20
-112.3455973026428
 30
0.0
  0
VERTEX
  5
105
330
100
100
AcDbEntity
  8
_U+30EC_U+30A4_U+30E4_U+30FC 1
370
     0
100
AcDbVertex
100
AcDb2dVertex
 10
89.99175073705068
 20
-112.3455973026428
 30
0.0
  0
VERTEX
  5
106
330
100
100
AcDbEntity
  8
_U+30EC_U+30A4_U+30E4_U+30FC 1
370
     0
100
AcDbVertex
100
AcDb2dVertex
 10
89.99175073705068
 20
-112.121321586553
 30
0.0
  0
VERTEX
  5
107
330
100
100
AcDbEntity
  8
_U+30EC_U+30A4_U+30E4_U+30FC 1
370
     0
100
AcDbVertex
100
AcDb2dVertex
 10
90.71763235579282
 20
-111.1480821119699
 30
0.0
  0
VERTEX
  5
108
330
100
100
AcDbEntity
  8
_U+30EC_U+30A4_U+30E4_U+30FC 1
370
     0
100
AcDbVertex
100
AcDb2dVertex
 10
90.9257161231019
 20
-111.1480821119699
 30
0.0
  0
VERTEX
  5
109
330
100
100
AcDbEntity
  8
_U+30EC_U+30A4_U+30E4_U+30FC 1
370
     0
100
AcDbVertex
100
AcDb2dVertex
 10
90.9257161231019
 20
-112.1468152931439
 30
0.0
  0
VERTEX
  5
10A
330
100
100
AcDbEntity
  8
_U+30EC_U+30A4_U+30E4_U+30FC 1
370
     0
100
AcDbVertex
100
AcDb2dVertex
 10
91.14723576280348
 20
-112.1468152931439
 30
0.0
  0
VERTEX
  5
10B
330
100
100
AcDbEntity
  8
_U+30EC_U+30A4_U+30E4_U+30FC 1
370
     0
100
AcDbVertex
100
AcDb2dVertex
 10
91.14723576280348
 20
-112.3455973026428
 30
0.0
  0
VERTEX
  5
10C
330
100
100
AcDbEntity
  8
_U+30EC_U+30A4_U+30E4_U+30FC 1
370
     0
100
AcDbVertex
100
AcDb2dVertex
 10
90.9257161231019
 20
-112.3455973026428
 30
0.0
  0
SEQEND
  5
10D
330
100
100
AcDbEntity
  8
_U+30EC_U+30A4_U+30E4_U+30FC 1
370
     0
  0
POLYLINE
  5
10E
330
FC
100
AcDbEntity
  8
_U+30EC_U+30A4_U+30E4_U+30FC 1
370
     0
100
AcDb2dPolyline
 66
     1
 10
0.0
 20
0.0
 30
0.0
  0
VERTEX
  5
10F
330
10E
100
AcDbEntity
  8
_U+30EC_U+30A4_U+30E4_U+30FC 1
370
     0
100
AcDbVertex
100
AcDb2dVertex
 10
90.69282766829902
 20
-111.4908691127523
 30
0.0
  0
VERTEX
  5
110
330
10E
100
AcDbEntity
  8
_U+30EC_U+30A4_U+30E4_U+30FC 1
370
     0
100
AcDbVertex
100
AcDb2dVertex
 10
90.2043131284906
 20
-112.1468152931439
 30
0.0
  0
VERTEX
  5
111
330
10E
100
AcDbEntity
  8
_U+30EC_U+30A4_U+30E4_U+30FC 1
370
     0
100
AcDbVertex
100
AcDb2dVertex
 10
90.69282766829902
 20
-112.1468152931439
 30
0.0
  0
VERTEX
  5
112
330
10E
100
AcDbEntity
  8
_U+30EC_U+30A4_U+30E4_U+30FC 1
370
     0
100
AcDbVertex
100
AcDb2dVertex
 10
90.69282766829902
 20
-111.4908691127523
 30
0.0
  0
SEQEND
  5
113
330
10E
100
AcDbEntity
  8
_U+30EC_U+30A4_U+30E4_U+30FC 1
370
     0
  0
HATCH
  5
114
330
FC
100
AcDbEntity
  8
_U+30EC_U+30A4_U+30E4_U+30FC 1
 62
   179
420
  2234388
100
AcDbHatch
 10
0.0
 20
0.0
 30
0.0
210
0.0
220
0.0
230
1.0
  2
SOLID
 70
     1
 71
     0
 91
        2
 92
        1
 93
       11
 72
     1
 10
90.9257161231019
 20
-112.3455973026428
 11
90.9257161231019
 21
-112.6925184180074
 72
     1
 10
90.9257161231019
 20
-112.6925184180074
 11
90.69282766829902
 21
-112.6925184180074
 72
     1
 10
90.69282766829902
 20
-112.6925184180074
 11
90.69282766829902
 21
-112.3455973026428
 72
     1
 10
90.69282766829902
 20
-112.3455973026428
 11
89.99175073705068
 21
-112.3455973026428
 72
     1
 10
89.99175073705068
 20
-112.3455973026428
 11
89.99175073705068
 21
-112.121321586553
 72
     1
 10
89.99175073705068
 20
-112.121321586553
 11
90.71763235579282
 21
-111.1480821119699
 72
     1
 10
90.71763235579282
 20
-111.1480821119699
 11
90.9257161231019
 21
-111.1480821119699
 72
     1
 10
90.9257161231019
 20
-111.1480821119699
 11
90.9257161231019
 21
-112.1468152931439
 72
     1
 10
90.9257161231019
 20
-112.1468152931439
 11
91.14723576280348
 21
-112.1468152931439
 72
     1
 10
91.14723576280348
 20
-112.1468152931439
 11
91.14723576280348
 21
-112.3455973026428
 72
     1
 10
91.14723576280348
 20
-112.3455973026428
 11
90.9257161231019
 21
-112.3455973026428
 97
        0
 92
        1
 93
        3
 72
     1
 10
90.69282766829902
 20
-111.4908691127523
 11
90.2043131284906
 21
-112.1468152931439
 72
     1
 10
90.2043131284906
 20
-112.1468152931439
 11
90.69282766829902
 21
-112.1468152931439
 72
     1
 10
90.69282766829902
 20
-112.1468152931439
 11
90.69282766829902
 21
-111.4908691127523
 97
        0
 75
     2
 76
     1
 98
        0
  0
SPLINE
  5
115
330
FC
100
AcDbEntity
  8
_U+30EC_U+30A4_U+30E4_U+30FC 1
370
     0
100
AcDbSpline
210
0.0
220
0.0
230
1.0
 70
    11
 71
     3
 72
    29
 73
    25
 74
     0
 42
0.0000000001
 43
0.0000000001
 12
1.0
 22
0.0
 32
0.0
 13
1.0
 23
0.0
 33
0.0
 40
0.0
 40
0.0
 40
0.0
 40
0.0
 40
1.0
 40
1.0
 40
1.0
 40
2.0
 40
2.0
 40
2.0
 40
3.0
 40
3.0
 40
3.0
 40
4.0
 40
4.0
 40
4.0
 40
5.0
 40
5.0
 40
5.0
 40
6.0
 40
6.0
 40
6.0
 40
7.0
 40
7.0
 40
7.0
 40
8.0
 40
8.0
 40
8.0
 40
8.0
 10
92.2534559231172
 20
-112.5147514909685
 30
0.0
 10
92.13804522436132
 20
-112.7242132964717
 30
0.0
 10
91.95269908725489
 20
-112.7431613216406
 30
0.0
 10
91.82833114023737
 20
-112.7431613216406
 30
0.0
 10
91.65676538507192
 20
-112.7431613216406
 30
0.0
 10
91.50518118372094
 20
-112.6966525325897
 30
0.0
 10
91.40355086690606
 20
-112.5147514909685
 30
0.0
 10
91.29261879228102
 20
-112.3201035960519
 30
0.0
 10
91.27229272891805
 20
-112.0830810266667
 30
0.0
 10
91.27229272891805
 20
-111.9204725197629
 30
0.0
 10
91.27229272891805
 20
-111.7764675284795
 30
0.0
 10
91.29020722544134
 20
-111.5246310485077
 30
0.0
 10
91.40355086690606
 20
-111.3258490390088
 30
0.0
 10
91.5186170561134
 20
-111.1229329149276
 30
0.0
 10
91.69052732082737
 20
-111.0995062656279
 30
0.0
 10
91.82833114023737
 20
-111.0995062656279
 30
0.0
 10
91.99817434766018
 20
-111.0995062656279
 30
0.0
 10
92.15182560630232
 20
-111.1439479973876
 30
0.0
 10
92.2534559231172
 20
-111.3258490390088
 30
0.0
 10
92.35990937361142
 20
-111.5184298766343
 30
0.0
 10
92.38471406110521
 20
-111.7468397073063
 30
0.0
 10
92.38471406110521
 20
-111.9204725197629
 30
0.0
 10
92.38471406110521
 20
-112.0916937653799
 30
0.0
 10
92.36197643090257
 20
-112.3221706533431
 30
0.0
 10
92.2534559231172
 20
-112.5147514909685
 30
0.0
  0
SPLINE
  5
116
330
FC
100
AcDbEntity
  8
_U+30EC_U+30A4_U+30E4_U+30FC 1
370
     0
100
AcDbSpline
210
0.0
220
0.0
230
1.0
 70
    11
 71
     3
 72
    17
 73
    13
 74
     0
 42
0.0000000001
 43
0.0000000001
 12
1.0
 22
0.0
 32
0.0
 13
1.0
 23
0.0
 33
0.0
 40
0.0
 40
0.0
 40
0.0
 40
0.0
 40
1.0
 40
1.0
 40
1.0
 40
2.0
 40
2.0
 40
2.0
 40
3.0
 40
3.0
 40
3.0
 40
4.0
 40
4.0
 40
4.0
 40
4.0
 10
91.82833114023737
 20
-111.2920871032534
 30
0.0
 10
91.56168074967903
 20
-111.2920871032534
 30
0.0
 10
91.51207137469143
 20
-111.5756184616894
 30
0.0
 10
91.51207137469143
 20
-111.9204725197629
 30
0.0
 10
91.51207137469143
 20
-112.2398328712456
 30
0.0
 10
91.5503119345777
 20
-112.548513426724
 30
0.0
 10
91.82833114023737
 20
-112.548513426724
 30
0.0
 10
92.09291447350455
 20
-112.548513426724
 30
0.0
 10
92.14493541533183
 20
-112.2673936351276
 30
0.0
 10
92.14493541533183
 20
-111.9204725197629
 30
0.0
 10
92.14493541533183
 20
-111.6007676587318
 30
0.0
 10
92.10428328860588
 20
-111.2920871032534
 30
0.0
 10
91.82833114023737
 20
-111.2920871032534
 30
0.0
  0
HATCH
  5
117
330
FC
100
AcDbEntity
  8
_U+30EC_U+30A4_U+30E4_U+30FC 1
 62
   179
420
  2234388
100
AcDbHatch
 10
0.0
 20
0.0
 30
0.0
210
0.0
220
0.0
230
1.0
  2
SOLID
 70
     1
 71
     0
 91
        2
 92
        1
 93
        1
 72
     4
 94
        3
 73
     0
 74
     1
 95
       29
 96
       25
 40
0.0
 40
0.0
 40
0.0
 40
0.0
 40
1.0
 40
1.0
 40
1.0
 40
2.0
 40
2.0
 40
2.0
 40
3.0
 40
3.0
 40
3.0
 40
4.0
 40
4.0
 40
4.0
 40
5.0
 40
5.0
 40
5.0
 40
6.0
 40
6.0
 40
6.0
 40
7.0
 40
7.0
 40
7.0
 40
8.0
 40
8.0
 40
8.0
 40
8.0
 10
92.2534559231172
 20
-112.5147514909685
 10
92.13804522436132
 20
-112.7242132964717
 10
91.95269908725489
 20
-112.7431613216406
 10
91.82833114023737
 20
-112.7431613216406
 10
91.65676538507192
 20
-112.7431613216406
 10
91.50518118372094
 20
-112.6966525325897
 10
91.40355086690606
 20
-112.5147514909685
 10
91.29261879228102
 20
-112.3201035960519
 10
91.27229272891805
 20
-112.0830810266667
 10
91.27229272891805
 20
-111.9204725197629
 10
91.27229272891805
 20
-111.7764675284795
 10
91.29020722544134
 20
-111.5246310485077
 10
91.40355086690606
 20
-111.3258490390088
 10
91.5186170561134
 20
-111.1229329149276
 10
91.69052732082737
 20
-111.0995062656279
 10
91.82833114023737
 20
-111.0995062656279
 10
91.99817434766018
 20
-111.0995062656279
 10
92.15182560630232
 20
-111.1439479973876
 10
92.2534559231172
 20
-111.3258490390088
 10
92.35990937361142
 20
-111.5184298766343
 10
92.38471406110521
 20
-111.7468397073063
 10
92.38471406110521
 20
-111.9204725197629
 10
92.38471406110521
 20
-112.0916937653799
 10
92.36197643090257
 20
-112.3221706533431
 10
92.2534559231172
 20
-112.5147514909685
 97
        0
 97
        0
 92
        1
 93
        1
 72
     4
 94
        3
 73
     0
 74
     1
 95
       17
 96
       13
 40
0.0
 40
0.0
 40
0.0
 40
0.0
 40
1.0
 40
1.0
 40
1.0
 40
2.0
 40
2.0
 40
2.0
 40
3.0
 40
3.0
 40
3.0
 40
4.0
 40
4.0
 40
4.0
 40
4.0
 10
91.82833114023737
 20
-111.2920871032534
 10
91.56168074967903
 20
-111.2920871032534
 10
91.51207137469143
 20
-111.5756184616894
 10
91.51207137469143
 20
-111.9204725197629
 10
91.51207137469143
 20
-112.2398328712456
 10
91.5503119345777
 20
-112.548513426724
 10
91.82833114023737
 20
-112.548513426724
 10
92.09291447350455
 20
-112.548513426724
 10
92.14493541533183
 20
-112.2673936351276
 10
92.14493541533183
 20
-111.9204725197629
 10
92.14493541533183
 20
-111.6007676587318
 10
92.10428328860588
 20
-111.2920871032534
 10
91.82833114023737
 20
-111.2920871032534
 97
        0
 97
        0
 75
     2
 76
     1
 98
        0
  0
ENDBLK
  5
FF
330
FC
100
AcDbEntity
  8
0
100
AcDbBlockEnd
  0
BLOCK
  5
11A
330
118
100
AcDbEntity
  8
0
100
AcDbBlockBegin
  2
block 7
 70
     0
 10
0.0
 20
0.0
 30
0.0
  3
block 7
  1

  0
SPLINE
  5
11C
330
118
100
AcDbEntity
  8
_U+30EC_U+30A4_U+30E4_U+30FC 1
370
     0
100
AcDbSpline
210
0.0
220
0.0
230
1.0
 70
    11
 71
     3
 72
    26
 73
    22
 74
     0
 42
0.0000000001
 43
0.0000000001
 12
1.0
 22
0.0
 32
0.0
 13
1.0
 23
0.0
 33
0.0
 40
0.0
 40
0.0
 40
0.0
 40
0.0
 40
1.0
 40
1.0
 40
1.0
 40
2.0
 40
2.0
 40
2.0
 40
3.0
 40
3.0
 40
3.0
 40
4.0
 40
4.0
 40
4.0
 40
5.0
 40
5.0
 40
5.0
 40
6.0
 40
6.0
 40
6.0
 40
7.0
 40
7.0
 40
7.0
 40
7.0
 10
117.6634466936744
 20
-134.0149033953157
 30
0.0
 10
117.6634466936744
 20
-134.0149033953157
 30
0.0
 10
116.5592935906518
 20
-134.0149033953157
 30
0.0
 10
116.5592935906518
 20
-134.0149033953157
 30
0.0
 10
116.5592935906518
 20
-134.0149033953157
 30
0.0
 10
116.5592935906518
 20
-134.3676811730053
 30
0.0
 10
116.5592935906518
 20
-134.3676811730053
 30
0.0
 10
116.5592935906518
 20
-134.3676811730053
 30
0.0
 10
116.4111544847861
 20
-134.3676811730053
 30
0.0
 10
116.4111544847861
 20
-134.3676811730053
 30
0.0
 10
116.3963405741995
 20
-134.0128363380246
 30
0.0
 10
116.2333875577472
 20
-133.963226963037
 30
0.0
 10
116.1190103876369
 20
-133.9315320845727
 30
0.0
 10
116.1190103876369
 20
-133.9315320845727
 30
0.0
 10
116.1190103876369
 20
-133.7754692590909
 30
0.0
 10
116.1190103876369
 20
-133.7754692590909
 30
0.0
 10
116.1190103876369
 20
-133.7754692590909
 30
0.0
 10
117.6634466936744
 20
-133.7754692590909
 30
0.0
 10
117.6634466936744
 20
-133.7754692590909
 30
0.0
 10
117.6634466936744
 20
-133.7754692590909
 30
0.0
 10
117.6634466936744
 20
-134.0149033953157
 30
0.0
 10
117.6634466936744
 20
-134.0149033953157
 30
0.0
  0
HATCH
  5
11D
330
118
100
AcDbEntity
  8
_U+30EC_U+30A4_U+30E4_U+30FC 1
 62
   179
420
  2234388
100
AcDbHatch
 10
0.0
 20
0.0
 30
0.0
210
0.0
220
0.0
230
1.0
  2
SOLID
 70
     1
 71
     0
 91
        1
 92
        1
 93
        1
 72
     4
 94
        3
 73
     0
 74
     1
 95
       26
 96
       22
 40
0.0
 40
0.0
 40
0.0
 40
0.0
 40
1.0
 40
1.0
 40
1.0
 40
2.0
 40
2.0
 40
2.0
 40
3.0
 40
3.0
 40
3.0
 40
4.0
 40
4.0
 40
4.0
 40
5.0
 40
5.0
 40
5.0
 40
6.0
 40
6.0
 40
6.0
 40
7.0
 40
7.0
 40
7.0
 40
7.0
 10
117.6634466936744
 20
-134.0149033953157
 10
117.6634466936744
 20
-134.0149033953157
 10
116.5592935906518
 20
-134.0149033953157
 10
116.5592935906518
 20
-134.0149033953157
 10
116.5592935906518
 20
-134.0149033953157
 10
116.5592935906518
 20
-134.3676811730053
 10
116.5592935906518
 20
-134.3676811730053
 10
116.5592935906518
 20
-134.3676811730053
 10
116.4111544847861
 20
-134.3676811730053
 10
116.4111544847861
 20
-134.3676811730053
 10
116.3963405741995
 20
-134.0128363380246
 10
116.2333875577472
 20
-133.963226963037
 10
116.1190103876369
 20
-133.9315320845727
 10
116.1190103876369
 20
-133.9315320845727
 10
116.1190103876369
 20
-133.7754692590909
 10
116.1190103876369
 20
-133.7754692590909
 10
116.1190103876369
 20
-133.7754692590909
 10
117.6634466936744
 20
-133.7754692590909
 10
117.6634466936744
 20
-133.7754692590909
 10
117.6634466936744
 20
-133.7754692590909
 10
117.6634466936744
 20
-134.0149033953157
 10
117.6634466936744
 20
-134.0149033953157
 97
        0
 97
        0
 75
     2
 76
     1
 98
        0
  0
SPLINE
  5
11E
330
118
100
AcDbEntity
  8
_U+30EC_U+30A4_U+30E4_U+30FC 1
370
     0
100
AcDbSpline
210
0.0
220
0.0
230
1.0
 70
    11
 71
     3
 72
    44
 73
    40
 74
     0
 42
0.0000000001
 43
0.0000000001
 12
1.0
 22
0.0
 32
0.0
 13
1.0
 23
0.0
 33
0.0
 40
0.0
 40
0.0
 40
0.0
 40
0.0
 40
1.0
 40
1.0
 40
1.0
 40
2.0
 40
2.0
 40
2.0
 40
3.0
 40
3.0
 40
3.0
 40
4.0
 40
4.0
 40
4.0
 40
5.0
 40
5.0
 40
5.0
 40
6.0
 40
6.0
 40
6.0
 40
7.0
 40
7.0
 40
7.0
 40
8.0
 40
8.0
 40
8.0
 40
9.0
 40
9.0
 40
9.0
 40
10.0
 40
10.0
 40
10.0
 40
11.0
 40
11.0
 40
11.0
 40
12.0
 40
12.0
 40
12.0
 40
13.0
 40
13.0
 40
13.0
 40
13.0
 10
117.0815700662157
 20
-132.6058593418485
 30
0.0
 10
117.2403889680857
 20
-132.8387477966514
 30
0.0
 10
117.3144585210186
 20
-132.9379665466266
 30
0.0
 10
117.4584635123021
 20
-132.9903319980024
 30
0.0
 10
117.4584635123021
 20
-132.9903319980024
 30
0.0
 10
117.4584635123021
 20
-132.1579969287661
 30
0.0
 10
117.4584635123021
 20
-132.1579969287661
 30
0.0
 10
117.4584635123021
 20
-132.1579969287661
 30
0.0
 10
117.6634466936744
 20
-132.1579969287661
 30
0.0
 10
117.6634466936744
 20
-132.1579969287661
 30
0.0
 10
117.6634466936744
 20
-132.1579969287661
 30
0.0
 10
117.6634466936744
 20
-133.2569823885608
 30
0.0
 10
117.6634466936744
 20
-133.2569823885608
 30
0.0
 10
117.3058457823055
 20
-133.2232204528053
 30
0.0
 10
117.2276421147903
 20
-133.1529405049062
 30
0.0
 10
116.9292968457677
 20
-132.7415961039674
 30
0.0
 10
116.7305148362688
 20
-132.4680555224386
 30
0.0
 10
116.6626464552093
 20
-132.3977755745395
 30
0.0
 10
116.5255316548964
 20
-132.3977755745395
 30
0.0
 10
116.4070203702038
 20
-132.3977755745395
 30
0.0
 10
116.2754177226673
 20
-132.4746012038605
 30
0.0
 10
116.2754177226673
 20
-132.6850965380093
 30
0.0
 10
116.2754177226673
 20
-132.9631157436689
 30
0.0
 10
116.506239120179
 20
-132.9720729919306
 30
0.0
 10
116.6226833475804
 20
-132.9765516160614
 30
0.0
 10
116.6226833475804
 20
-132.9765516160614
 30
0.0
 10
116.6226833475804
 20
-133.2163302618348
 30
0.0
 10
116.6226833475804
 20
-133.2163302618348
 30
0.0
 10
116.4959038337232
 20
-133.2073730135732
 30
0.0
 10
116.3835937209041
 20
-133.1956596889233
 30
0.0
 10
116.2650824362115
 20
-133.1102213208891
 30
0.0
 10
116.1045409865989
 20
-132.9923990552936
 30
0.0
 10
116.0704345412949
 20
-132.7932725362461
 30
0.0
 10
116.0704345412949
 20
-132.6692490987771
 30
0.0
 10
116.0704345412949
 20
-132.3729708870457
 30
0.0
 10
116.2547471497558
 20
-132.1514512473441
 30
0.0
 10
116.5275987121876
 20
-132.1514512473441
 30
0.0
 10
116.7556640333111
 20
-132.1514512473441
 30
0.0
 10
116.8555718023833
 20
-132.2758191943616
 30
0.0
 10
117.0815700662157
 20
-132.6058593418485
 30
0.0
  0
HATCH
  5
11F
330
118
100
AcDbEntity
  8
_U+30EC_U+30A4_U+30E4_U+30FC 1
 62
   179
420
  2234388
100
AcDbHatch
 10
0.0
 20
0.0
 30
0.0
210
0.0
220
0.0
230
1.0
  2
SOLID
 70
     1
 71
     0
 91
        1
 92
        1
 93
        1
 72
     4
 94
        3
 73
     0
 74
     1
 95
       44
 96
       40
 40
0.0
 40
0.0
 40
0.0
 40
0.0
 40
1.0
 40
1.0
 40
1.0
 40
2.0
 40
2.0
 40
2.0
 40
3.0
 40
3.0
 40
3.0
 40
4.0
 40
4.0
 40
4.0
 40
5.0
 40
5.0
 40
5.0
 40
6.0
 40
6.0
 40
6.0
 40
7.0
 40
7.0
 40
7.0
 40
8.0
 40
8.0
 40
8.0
 40
9.0
 40
9.0
 40
9.0
 40
10.0
 40
10.0
 40
10.0
 40
11.0
 40
11.0
 40
11.0
 40
12.0
 40
12.0
 40
12.0
 40
13.0
 40
13.0
 40
13.0
 40
13.0
 10
117.0815700662157
 20
-132.6058593418485
 10
117.2403889680857
 20
-132.8387477966514
 10
117.3144585210186
 20
-132.9379665466266
 10
117.4584635123021
 20
-132.9903319980024
 10
117.4584635123021
 20
-132.9903319980024
 10
117.4584635123021
 20
-132.1579969287661
 10
117.4584635123021
 20
-132.1579969287661
 10
117.4584635123021
 20
-132.1579969287661
 10
117.6634466936744
 20
-132.1579969287661
 10
117.6634466936744
 20
-132.1579969287661
 10
117.6634466936744
 20
-132.1579969287661
 10
117.6634466936744
 20
-133.2569823885608
 10
117.6634466936744
 20
-133.2569823885608
 10
117.3058457823055
 20
-133.2232204528053
 10
117.2276421147903
 20
-133.1529405049062
 10
116.9292968457677
 20
-132.7415961039674
 10
116.7305148362688
 20
-132.4680555224386
 10
116.6626464552093
 20
-132.3977755745395
 10
116.5255316548964
 20
-132.3977755745395
 10
116.4070203702038
 20
-132.3977755745395
 10
116.2754177226673
 20
-132.4746012038605
 10
116.2754177226673
 20
-132.6850965380093
 10
116.2754177226673
 20
-132.9631157436689
 10
116.506239120179
 20
-132.9720729919306
 10
116.6226833475804
 20
-132.9765516160614
 10
116.6226833475804
 20
-132.9765516160614
 10
116.6226833475804
 20
-133.2163302618348
 10
116.6226833475804
 20
-133.2163302618348
 10
116.4959038337232
 20
-133.2073730135732
 10
116.3835937209041
 20
-133.1956596889233
 10
116.2650824362115
 20
-133.1102213208891
 10
116.1045409865989
 20
-132.9923990552936
 10
116.0704345412949
 20
-132.7932725362461
 10
116.0704345412949
 20
-132.6692490987771
 10
116.0704345412949
 20
-132.3729708870457
 10
116.2547471497558
 20
-132.1514512473441
 10
116.5275987121876
 20
-132.1514512473441
 10
116.7556640333111
 20
-132.1514512473441
 10
116.8555718023833
 20
-132.2758191943616
 10
117.0815700662157
 20
-132.6058593418485
 97
        0
 97
        0
 75
     2
 76
     1
 98
        0
  0
POLYLINE
  5
120
330
118
100
AcDbEntity
  8
_U+30EC_U+30A4_U+30E4_U+30FC 1
370
     0
100
AcDb2dPolyline
 66
     1
 10
0.0
 20
0.0
 30
0.0
  0
VERTEX
  5
121
330
120
100
AcDbEntity
  8
_U+30EC_U+30A4_U+30E4_U+30FC 1
370
     0
100
AcDbVertex
100
AcDb2dVertex
 10
117.6634466936744
 20
-131.9175292638956
 30
0.0
  0
VERTEX
  5
122
330
120
100
AcDbEntity
  8
_U+30EC_U+30A4_U+30E4_U+30FC 1
370
     0
100
AcDbVertex
100
AcDb2dVertex
 10
117.4116102137027
 20
-131.9175292638956
 30
0.0
  0
VERTEX
  5
123
330
120
100
AcDbEntity
  8
_U+30EC_U+30A4_U+30E4_U+30FC 1
370
     0
100
AcDbVertex
100
AcDb2dVertex
 10
117.4116102137027
 20
-131.6488118160461
 30
0.0
  0
VERTEX
  5
124
330
120
100
AcDbEntity
  8
_U+30EC_U+30A4_U+30E4_U+30FC 1
370
     0
100
AcDbVertex
100
AcDb2dVertex
 10
117.6634466936744
 20
-131.6488118160461
 30
0.0
  0
VERTEX
  5
125
330
120
100
AcDbEntity
  8
_U+30EC_U+30A4_U+30E4_U+30FC 1
370
     0
100
AcDbVertex
100
AcDb2dVertex
 10
117.6634466936744
 20
-131.9175292638956
 30
0.0
  0
SEQEND
  5
126
330
120
100
AcDbEntity
  8
_U+30EC_U+30A4_U+30E4_U+30FC 1
370
     0
  0
HATCH
  5
127
330
118
100
AcDbEntity
  8
_U+30EC_U+30A4_U+30E4_U+30FC 1
 62
   179
420
  2234388
100
AcDbHatch
 10
0.0
 20
0.0
 30
0.0
210
0.0
220
0.0
230
1.0
  2
SOLID
 70
     1
 71
     0
 91
        1
 92
        1
 93
        4
 72
     1
 10
117.6634466936744
 20
-131.9175292638956
 11
117.4116102137027
 21
-131.9175292638956
 72
     1
 10
117.4116102137027
 20
-131.9175292638956
 11
117.4116102137027
 21
-131.6488118160461
 72
     1
 10
117.4116102137027
 20
-131.6488118160461
 11
117.6634466936744
 21
-131.6488118160461
 72
     1
 10
117.6634466936744
 20
-131.6488118160461
 11
117.6634466936744
 21
-131.9175292638956
 97
        0
 75
     2
 76
     1
 98
        0
  0
SPLINE
  5
128
330
118
100
AcDbEntity
  8
_U+30EC_U+30A4_U+30E4_U+30FC 1
370
     0
100
AcDbSpline
210
0.0
220
0.0
230
1.0
 70
    11
 71
     3
 72
    53
 73
    49
 74
     0
 42
0.0000000001
 43
0.0000000001
 12
1.0
 22
0.0
 32
0.0
 13
1.0
 23
0.0
 33
0.0
 40
0.0
 40
0.0
 40
0.0
 40
0.0
 40
1.0
 40
1.0
 40
1.0
 40
2.0
 40
2.0
 40
2.0
 40
3.0
 40
3.0
 40
3.0
 40
4.0
 40
4.0
 40
4.0
 40
5.0
 40
5.0
 40
5.0
 40
6.0
 40
6.0
 40
6.0
 40
7.0
 40
7.0
 40
7.0
 40
8.0
 40
8.0
 40
8.0
 40
9.0
 40
9.0
 40
9.0
 40
10.0
 40
10.0
 40
10.0
 40
11.0
 40
11.0
 40
11.0
 40
12.0
 40
12.0
 40
12.0
 40
13.0
 40
13.0
 40
13.0
 40
14.0
 40
14.0
 40
14.0
 40
15.0
 40
15.0
 40
15.0
 40
16.0
 40
16.0
 40
16.0
 40
16.0
 10
117.7140895973076
 20
-130.8819335610295
 30
0.0
 10
117.7140895973076
 20
-130.9653048717726
 30
0.0
 10
117.6975531389784
 20
-131.0741698891065
 30
0.0
 10
117.6338188725013
 20
-131.1823458873433
 30
0.0
 10
117.5239203265218
 20
-131.3680365339983
 30
0.0
 10
117.3926621885338
 20
-131.3904296546524
 30
0.0
 10
117.2848306998455
 20
-131.4107557180154
 30
0.0
 10
117.2848306998455
 20
-131.4107557180154
 30
0.0
 10
117.2848306998455
 20
-131.1733886390817
 30
0.0
 10
117.2848306998455
 20
-131.1733886390817
 30
0.0
 10
117.4836127093444
 20
-131.1148220158324
 30
0.0
 10
117.5132405305175
 20
-130.9790852537136
 30
0.0
 10
117.5132405305175
 20
-130.8795219941898
 30
0.0
 10
117.5132405305175
 20
-130.7303493596785
 30
0.0
 10
117.4136772709938
 20
-130.5677408527747
 30
0.0
 10
117.1811333257394
 20
-130.5677408527747
 30
0.0
 10
116.9251627311854
 20
-130.5677408527747
 30
0.0
 10
116.8555718023833
 20
-130.7596326713032
 30
0.0
 10
116.8555718023833
 20
-130.8884792424515
 30
0.0
 10
116.8555718023833
 20
-130.9225856877555
 30
0.0
 10
116.8555718023833
 20
-131.0741698891065
 30
0.0
 10
116.9844183735317
 20
-131.1689100149508
 30
0.0
 10
116.9844183735317
 20
-131.1689100149508
 30
0.0
 10
116.9651258388143
 20
-131.3566677188969
 30
0.0
 10
116.9651258388143
 20
-131.3566677188969
 30
0.0
 10
116.9651258388143
 20
-131.3566677188969
 30
0.0
 10
116.1190103876369
 20
-131.2278211477486
 30
0.0
 10
116.1190103876369
 20
-131.2278211477486
 30
0.0
 10
116.1190103876369
 20
-131.2278211477486
 30
0.0
 10
116.1190103876369
 20
-130.3958305880608
 30
0.0
 10
116.1190103876369
 20
-130.3958305880608
 30
0.0
 10
116.1190103876369
 20
-130.3958305880608
 30
0.0
 10
116.3140027921021
 20
-130.3958305880608
 30
0.0
 10
116.3140027921021
 20
-130.3958305880608
 30
0.0
 10
116.3140027921021
 20
-130.3958305880608
 30
0.0
 10
116.3140027921021
 20
-131.053499316195
 30
0.0
 10
116.3140027921021
 20
-131.053499316195
 30
0.0
 10
116.3140027921021
 20
-131.053499316195
 30
0.0
 10
116.7370605176907
 20
-131.1237792640941
 30
0.0
 10
116.7370605176907
 20
-131.1237792640941
 30
0.0
 10
116.7029540723868
 20
-131.0583224498743
 30
0.0
 10
116.6626464552093
 20
-130.9701280054519
 30
0.0
 10
116.6626464552093
 20
-130.8433484915947
 30
0.0
 10
116.6626464552093
 20
-130.5722194769056
 30
0.0
 10
116.8490261209614
 20
-130.3190049587397
 30
0.0
 10
117.1621853005706
 20
-130.3190049587397
 30
0.0
 10
117.4794785947621
 20
-130.3190049587397
 30
0.0
 10
117.7140895973076
 20
-130.5584390949646
 30
0.0
 10
117.7140895973076
 20
-130.8819335610295
 30
0.0
  0
HATCH
  5
129
330
118
100
AcDbEntity
  8
_U+30EC_U+30A4_U+30E4_U+30FC 1
 62
   179
420
  2234388
100
AcDbHatch
 10
0.0
 20
0.0
 30
0.0
210
0.0
220
0.0
230
1.0
  2
SOLID
 70
     1
 71
     0
 91
        1
 92
        1
 93
        1
 72
     4
 94
        3
 73
     0
 74
     1
 95
       53
 96
       49
 40
0.0
 40
0.0
 40
0.0
 40
0.0
 40
1.0
 40
1.0
 40
1.0
 40
2.0
 40
2.0
 40
2.0
 40
3.0
 40
3.0
 40
3.0
 40
4.0
 40
4.0
 40
4.0
 40
5.0
 40
5.0
 40
5.0
 40
6.0
 40
6.0
 40
6.0
 40
7.0
 40
7.0
 40
7.0
 40
8.0
 40
8.0
 40
8.0
 40
9.0
 40
9.0
 40
9.0
 40
10.0
 40
10.0
 40
10.0
 40
11.0
 40
11.0
 40
11.0
 40
12.0
 40
12.0
 40
12.0
 40
13.0
 40
13.0
 40
13.0
 40
14.0
 40
14.0
 40
14.0
 40
15.0
 40
15.0
 40
15.0
 40
16.0
 40
16.0
 40
16.0
 40
16.0
 10
117.7140895973076
 20
-130.8819335610295
 10
117.7140895973076
 20
-130.9653048717726
 10
117.6975531389784
 20
-131.0741698891065
 10
117.6338188725013
 20
-131.1823458873433
 10
117.5239203265218
 20
-131.3680365339983
 10
117.3926621885338
 20
-131.3904296546524
 10
117.2848306998455
 20
-131.4107557180154
 10
117.2848306998455
 20
-131.4107557180154
 10
117.2848306998455
 20
-131.1733886390817
 10
117.2848306998455
 20
-131.1733886390817
 10
117.4836127093444
 20
-131.1148220158324
 10
117.5132405305175
 20
-130.9790852537136
 10
117.5132405305175
 20
-130.8795219941898
 10
117.5132405305175
 20
-130.7303493596785
 10
117.4136772709938
 20
-130.5677408527747
 10
117.1811333257394
 20
-130.5677408527747
 10
116.9251627311854
 20
-130.5677408527747
 10
116.8555718023833
 20
-130.7596326713032
 10
116.8555718023833
 20
-130.8884792424515
 10
116.8555718023833
 20
-130.9225856877555
 10
116.8555718023833
 20
-131.0741698891065
 10
116.9844183735317
 20
-131.1689100149508
 10
116.9844183735317
 20
-131.1689100149508
 10
116.9651258388143
 20
-131.3566677188969
 10
116.9651258388143
 20
-131.3566677188969
 10
116.9651258388143
 20
-131.3566677188969
 10
116.1190103876369
 20
-131.2278211477486
 10
116.1190103876369
 20
-131.2278211477486
 10
116.1190103876369
 20
-131.2278211477486
 10
116.1190103876369
 20
-130.3958305880608
 10
116.1190103876369
 20
-130.3958305880608
 10
116.1190103876369
 20
-130.3958305880608
 10
116.3140027921021
 20
-130.3958305880608
 10
116.3140027921021
 20
-130.3958305880608
 10
116.3140027921021
 20
-130.3958305880608
 10
116.3140027921021
 20
-131.053499316195
 10
116.3140027921021
 20
-131.053499316195
 10
116.3140027921021
 20
-131.053499316195
 10
116.7370605176907
 20
-131.1237792640941
 10
116.7370605176907
 20
-131.1237792640941
 10
116.7029540723868
 20
-131.0583224498743
 10
116.6626464552093
 20
-130.9701280054519
 10
116.6626464552093
 20
-130.8433484915947
 10
116.6626464552093
 20
-130.5722194769056
 10
116.8490261209614
 20
-130.3190049587397
 10
117.1621853005706
 20
-130.3190049587397
 10
117.4794785947621
 20
-130.3190049587397
 10
117.7140895973076
 20
-130.5584390949646
 10
117.7140895973076
 20
-130.8819335610295
 97
        0
 97
        0
 75
     2
 76
     1
 98
        0
  0
ENDBLK
  5
11B
330
118
100
AcDbEntity
  8
0
100
AcDbBlockEnd
  0
BLOCK
  5
12C
330
12A
100
AcDbEntity
  8
0
100
AcDbBlockBegin
  2
block 8
 70
     0
 10
0.0
 20
0.0
 30
0.0
  3
block 8
  1

  0
SPLINE
  5
12E
330
12A
100
AcDbEntity
  8
_U+30EC_U+30A4_U+30E4_U+30FC 1
370
     0
100
AcDbSpline
210
0.0
220
0.0
230
1.0
 70
    11
 71
     3
 72
    44
 73
    40
 74
     0
 42
0.0000000001
 43
0.0000000001
 12
1.0
 22
0.0
 32
0.0
 13
1.0
 23
0.0
 33
0.0
 40
0.0
 40
0.0
 40
0.0
 40
0.0
 40
1.0
 40
1.0
 40
1.0
 40
2.0
 40
2.0
 40
2.0
 40
3.0
 40
3.0
 40
3.0
 40
4.0
 40
4.0
 40
4.0
 40
5.0
 40
5.0
 40
5.0
 40
6.0
 40
6.0
 40
6.0
 40
7.0
 40
7.0
 40
7.0
 40
8.0
 40
8.0
 40
8.0
 40
9.0
 40
9.0
 40
9.0
 40
10.0
 40
10.0
 40
10.0
 40
11.0
 40
11.0
 40
11.0
 40
12.0
 40
12.0
 40
12.0
 40
13.0
 40
13.0
 40
13.0
 40
13.0
 10
65.4366604111582
 20
-130.3107367295751
 30
0.0
 10
65.59547931302822
 20
-130.543625184378
 30
0.0
 10
65.66954886596109
 20
-130.6431884439017
 30
0.0
 10
65.813209347696
 20
-130.695209385729
 30
0.0
 10
65.813209347696
 20
-130.695209385729
 30
0.0
 10
65.813209347696
 20
-129.8628743164926
 30
0.0
 10
65.813209347696
 20
-129.8628743164926
 30
0.0
 10
65.813209347696
 20
-129.8628743164926
 30
0.0
 10
66.0185370386169
 20
-129.8628743164926
 30
0.0
 10
66.0185370386169
 20
-129.8628743164926
 30
0.0
 10
66.0185370386169
 20
-129.8628743164926
 30
0.0
 10
66.0185370386169
 20
-130.9618597762873
 30
0.0
 10
66.0185370386169
 20
-130.9618597762873
 30
0.0
 10
65.66093612724796
 20
-130.9280978405319
 30
0.0
 10
65.5827324597328
 20
-130.8578178926328
 30
0.0
 10
65.28438719071016
 20
-130.446473491694
 30
0.0
 10
65.08560518121124
 20
-130.1729329101651
 30
0.0
 10
65.01773680015182
 20
-130.102652962266
 30
0.0
 10
64.88027749029035
 20
-130.102652962266
 30
0.0
 10
64.76176620559775
 20
-130.102652962266
 30
0.0
 10
64.63085257715827
 20
-130.1794785915871
 30
0.0
 10
64.63085257715827
 20
-130.3899739257359
 30
0.0
 10
64.63085257715827
 20
-130.6679931313955
 30
0.0
 10
64.86132946512147
 20
-130.6769503796572
 30
0.0
 10
64.97777369252292
 20
-130.681429003788
 30
0.0
 10
64.97777369252292
 20
-130.681429003788
 30
0.0
 10
64.97777369252292
 20
-130.9212076495614
 30
0.0
 10
64.97777369252292
 20
-130.9212076495614
 30
0.0
 10
64.8506496691172
 20
-130.9122504012997
 30
0.0
 10
64.73868406584658
 20
-130.9005370766499
 30
0.0
 10
64.62017278115398
 20
-130.8150987086157
 30
0.0
 10
64.45928682199282
 20
-130.6972764430201
 30
0.0
 10
64.42552488623737
 20
-130.4984944335212
 30
0.0
 10
64.42552488623737
 20
-130.3741264865037
 30
0.0
 10
64.42552488623737
 20
-130.0778482747722
 30
0.0
 10
64.60949298514971
 20
-129.8563286350706
 30
0.0
 10
64.8823445475815
 20
-129.8563286350706
 30
0.0
 10
65.11109888780209
 20
-129.8563286350706
 30
0.0
 10
65.21031763777728
 20
-129.9806965820882
 30
0.0
 10
65.4366604111582
 20
-130.3107367295751
 30
0.0
  0
HATCH
  5
12F
330
12A
100
AcDbEntity
  8
_U+30EC_U+30A4_U+30E4_U+30FC 1
 62
   179
420
  2234388
100
AcDbHatch
 10
0.0
 20
0.0
 30
0.0
210
0.0
220
0.0
230
1.0
  2
SOLID
 70
     1
 71
     0
 91
        1
 92
        1
 93
        1
 72
     4
 94
        3
 73
     0
 74
     1
 95
       44
 96
       40
 40
0.0
 40
0.0
 40
0.0
 40
0.0
 40
1.0
 40
1.0
 40
1.0
 40
2.0
 40
2.0
 40
2.0
 40
3.0
 40
3.0
 40
3.0
 40
4.0
 40
4.0
 40
4.0
 40
5.0
 40
5.0
 40
5.0
 40
6.0
 40
6.0
 40
6.0
 40
7.0
 40
7.0
 40
7.0
 40
8.0
 40
8.0
 40
8.0
 40
9.0
 40
9.0
 40
9.0
 40
10.0
 40
10.0
 40
10.0
 40
11.0
 40
11.0
 40
11.0
 40
12.0
 40
12.0
 40
12.0
 40
13.0
 40
13.0
 40
13.0
 40
13.0
 10
65.4366604111582
 20
-130.3107367295751
 10
65.59547931302822
 20
-130.543625184378
 10
65.66954886596109
 20
-130.6431884439017
 10
65.813209347696
 20
-130.695209385729
 10
65.813209347696
 20
-130.695209385729
 10
65.813209347696
 20
-129.8628743164926
 10
65.813209347696
 20
-129.8628743164926
 10
65.813209347696
 20
-129.8628743164926
 10
66.0185370386169
 20
-129.8628743164926
 10
66.0185370386169
 20
-129.8628743164926
 10
66.0185370386169
 20
-129.8628743164926
 10
66.0185370386169
 20
-130.9618597762873
 10
66.0185370386169
 20
-130.9618597762873
 10
65.66093612724796
 20
-130.9280978405319
 10
65.5827324597328
 20
-130.8578178926328
 10
65.28438719071016
 20
-130.446473491694
 10
65.08560518121124
 20
-130.1729329101651
 10
65.01773680015182
 20
-130.102652962266
 10
64.88027749029035
 20
-130.102652962266
 10
64.76176620559775
 20
-130.102652962266
 10
64.63085257715827
 20
-130.1794785915871
 10
64.63085257715827
 20
-130.3899739257359
 10
64.63085257715827
 20
-130.6679931313955
 10
64.86132946512147
 20
-130.6769503796572
 10
64.97777369252292
 20
-130.681429003788
 10
64.97777369252292
 20
-130.681429003788
 10
64.97777369252292
 20
-130.9212076495614
 10
64.97777369252292
 20
-130.9212076495614
 10
64.8506496691172
 20
-130.9122504012997
 10
64.73868406584658
 20
-130.9005370766499
 10
64.62017278115398
 20
-130.8150987086157
 10
64.45928682199282
 20
-130.6972764430201
 10
64.42552488623737
 20
-130.4984944335212
 10
64.42552488623737
 20
-130.3741264865037
 10
64.42552488623737
 20
-130.0778482747722
 10
64.60949298514971
 20
-129.8563286350706
 10
64.8823445475815
 20
-129.8563286350706
 10
65.11109888780209
 20
-129.8563286350706
 10
65.21031763777728
 20
-129.9806965820882
 10
65.4366604111582
 20
-130.3107367295751
 97
        0
 97
        0
 75
     2
 76
     1
 98
        0
  0
POLYLINE
  5
130
330
12A
100
AcDbEntity
  8
_U+30EC_U+30A4_U+30E4_U+30FC 1
370
     0
100
AcDb2dPolyline
 66
     1
 10
0.0
 20
0.0
 30
0.0
  0
VERTEX
  5
131
330
130
100
AcDbEntity
  8
_U+30EC_U+30A4_U+30E4_U+30FC 1
370
     0
100
AcDbVertex
100
AcDb2dVertex
 10
65.67161592325223
 20
-128.7973062829049
 30
0.0
  0
VERTEX
  5
132
330
130
100
AcDbEntity
  8
_U+30EC_U+30A4_U+30E4_U+30FC 1
370
     0
100
AcDbVertex
100
AcDb2dVertex
 10
66.0185370386169
 20
-128.7973062829049
 30
0.0
  0
VERTEX
  5
133
330
130
100
AcDbEntity
  8
_U+30EC_U+30A4_U+30E4_U+30FC 1
370
     0
100
AcDbVertex
100
AcDb2dVertex
 10
66.0185370386169
 20
-129.0301947377077
 30
0.0
  0
VERTEX
  5
134
330
130
100
AcDbEntity
  8
_U+30EC_U+30A4_U+30E4_U+30FC 1
370
     0
100
AcDbVertex
100
AcDb2dVertex
 10
65.67161592325223
 20
-129.0301947377077
 30
0.0
  0
VERTEX
  5
135
330
130
100
AcDbEntity
  8
_U+30EC_U+30A4_U+30E4_U+30FC 1
370
     0
100
AcDbVertex
100
AcDb2dVertex
 10
65.67161592325223
 20
-129.7312716689561
 30
0.0
  0
VERTEX
  5
136
330
130
100
AcDbEntity
  8
_U+30EC_U+30A4_U+30E4_U+30FC 1
370
     0
100
AcDbVertex
100
AcDb2dVertex
 10
65.44734020716247
 20
-129.7312716689561
 30
0.0
  0
VERTEX
  5
137
330
130
100
AcDbEntity
  8
_U+30EC_U+30A4_U+30E4_U+30FC 1
370
     0
100
AcDbVertex
100
AcDb2dVertex
 10
64.47410073257939
 20
-129.0053900502139
 30
0.0
  0
VERTEX
  5
138
330
130
100
AcDbEntity
  8
_U+30EC_U+30A4_U+30E4_U+30FC 1
370
     0
100
AcDbVertex
100
AcDb2dVertex
 10
64.47410073257939
 20
-128.7973062829049
 30
0.0
  0
VERTEX
  5
139
330
130
100
AcDbEntity
  8
_U+30EC_U+30A4_U+30E4_U+30FC 1
370
     0
100
AcDbVertex
100
AcDb2dVertex
 10
65.47283391375332
 20
-128.7973062829049
 30
0.0
  0
VERTEX
  5
13A
330
130
100
AcDbEntity
  8
_U+30EC_U+30A4_U+30E4_U+30FC 1
370
     0
100
AcDbVertex
100
AcDb2dVertex
 10
65.47283391375332
 20
-128.5757866432033
 30
0.0
  0
VERTEX
  5
13B
330
130
100
AcDbEntity
  8
_U+30EC_U+30A4_U+30E4_U+30FC 1
370
     0
100
AcDbVertex
100
AcDb2dVertex
 10
65.67161592325223
 20
-128.5757866432033
 30
0.0
  0
VERTEX
  5
13C
330
130
100
AcDbEntity
  8
_U+30EC_U+30A4_U+30E4_U+30FC 1
370
     0
100
AcDbVertex
100
AcDb2dVertex
 10
65.67161592325223
 20
-128.7973062829049
 30
0.0
  0
SEQEND
  5
13D
330
130
100
AcDbEntity
  8
_U+30EC_U+30A4_U+30E4_U+30FC 1
370
     0
  0
POLYLINE
  5
13E
330
12A
100
AcDbEntity
  8
_U+30EC_U+30A4_U+30E4_U+30FC 1
370
     0
100
AcDb2dPolyline
 66
     1
 10
0.0
 20
0.0
 30
0.0
  0
VERTEX
  5
13F
330
13E
100
AcDbEntity
  8
_U+30EC_U+30A4_U+30E4_U+30FC 1
370
     0
100
AcDbVertex
100
AcDb2dVertex
 10
64.81688773336175
 20
-129.0301947377077
 30
0.0
  0
VERTEX
  5
140
330
13E
100
AcDbEntity
  8
_U+30EC_U+30A4_U+30E4_U+30FC 1
370
     0
100
AcDbVertex
100
AcDb2dVertex
 10
65.47283391375332
 20
-129.5187092775162
 30
0.0
  0
VERTEX
  5
141
330
13E
100
AcDbEntity
  8
_U+30EC_U+30A4_U+30E4_U+30FC 1
370
     0
100
AcDbVertex
100
AcDb2dVertex
 10
65.47283391375332
 20
-129.0301947377077
 30
0.0
  0
VERTEX
  5
142
330
13E
100
AcDbEntity
  8
_U+30EC_U+30A4_U+30E4_U+30FC 1
370
     0
100
AcDbVertex
100
AcDb2dVertex
 10
64.81688773336175
 20
-129.0301947377077
 30
0.0
  0
SEQEND
  5
143
330
13E
100
AcDbEntity
  8
_U+30EC_U+30A4_U+30E4_U+30FC 1
370
     0
  0
HATCH
  5
144
330
12A
100
AcDbEntity
  8
_U+30EC_U+30A4_U+30E4_U+30FC 1
 62
   179
420
  2234388
100
AcDbHatch
 10
0.0
 20
0.0
 30
0.0
210
0.0
220
0.0
230
1.0
  2
SOLID
 70
     1
 71
     0
 91
        2
 92
        1
 93
       11
 72
     1
 10
65.67161592325223
 20
-128.7973062829049
 11
66.0185370386169
 21
-128.7973062829049
 72
     1
 10
66.0185370386169
 20
-128.7973062829049
 11
66.0185370386169
 21
-129.0301947377077
 72
     1
 10
66.0185370386169
 20
-129.0301947377077
 11
65.67161592325223
 21
-129.0301947377077
 72
     1
 10
65.67161592325223
 20
-129.0301947377077
 11
65.67161592325223
 21
-129.7312716689561
 72
     1
 10
65.67161592325223
 20
-129.7312716689561
 11
65.44734020716247
 21
-129.7312716689561
 72
     1
 10
65.44734020716247
 20
-129.7312716689561
 11
64.47410073257939
 21
-129.0053900502139
 72
     1
 10
64.47410073257939
 20
-129.0053900502139
 11
64.47410073257939
 21
-128.7973062829049
 72
     1
 10
64.47410073257939
 20
-128.7973062829049
 11
65.47283391375332
 21
-128.7973062829049
 72
     1
 10
65.47283391375332
 20
-128.7973062829049
 11
65.47283391375332
 21
-128.5757866432033
 72
     1
 10
65.47283391375332
 20
-128.5757866432033
 11
65.67161592325223
 21
-128.5757866432033
 72
     1
 10
65.67161592325223
 20
-128.5757866432033
 11
65.67161592325223
 21
-128.7973062829049
 97
        0
 92
        1
 93
        3
 72
     1
 10
64.81688773336175
 20
-129.0301947377077
 11
65.47283391375332
 21
-129.5187092775162
 72
     1
 10
65.47283391375332
 20
-129.5187092775162
 11
65.47283391375332
 21
-129.0301947377077
 72
     1
 10
65.47283391375332
 20
-129.0301947377077
 11
64.81688773336175
 21
-129.0301947377077
 97
        0
 75
     2
 76
     1
 98
        0
  0
ENDBLK
  5
12D
330
12A
100
AcDbEntity
  8
0
100
AcDbBlockEnd
  0
ENDSEC
  0
SECTION
  2
ENTITIES
  0
SPLINE
  5
41
330
1F
100
AcDbEntity
  8
_U+30EC_U+30A4_U+30E4_U+30FC 1
 62
   179
420
  2234388
370
     9
100
AcDbSpline
210
0.0
220
0.0
230
1.0
 70
    11
 71
     3
 72
    17
 73
    13
 74
     0
 42
0.0000000001
 43
0.0000000001
 12
1.0
 22
0.0
 32
0.0
 13
1.0
 23
0.0
 33
0.0
 40
0.0
 40
0.0
 40
0.0
 40
0.0
 40
1.0
 40
1.0
 40
1.0
 40
2.0
 40
2.0
 40
2.0
 40
3.0
 40
3.0
 40
3.0
 40
4.0
 40
4.0
 40
4.0
 40
4.0
 10
71.1858265172316
 20
-111.4664183054669
 30
0.0
 10
71.24163596025222
 20
-111.4664183054669
 30
0.0
 10
71.28643873688699
 20
-111.5111858054554
 30
0.0
 10
71.28643873688699
 20
-111.5663249721085
 30
0.0
 10
71.28643873688699
 20
-111.6214288609834
 30
0.0
 10
71.24163596025222
 20
-111.6662316387501
 30
0.0
 10
71.1858265172316
 20
-111.6662316387501
 30
0.0
 10
71.13072262974853
 20
-111.6662316387501
 30
0.0
 10
71.08591985311377
 20
-111.6214288609834
 30
0.0
 10
71.08591985311377
 20
-111.5663249721085
 30
0.0
 10
71.08591985311377
 20
-111.5111858054554
 30
0.0
 10
71.13072262974853
 20
-111.4664183054669
 30
0.0
 10
71.1858265172316
 20
-111.4664183054669
 30
0.0
  0
SPLINE
  5
42
330
1F
100
AcDbEntity
  8
_U+30EC_U+30A4_U+30E4_U+30FC 1
 62
   179
420
  2234388
370
     9
100
AcDbSpline
210
0.0
220
0.0
230
1.0
 70
    11
 71
     3
 72
    17
 73
    13
 74
     0
 42
0.0000000001
 43
0.0000000001
 12
1.0
 22
0.0
 32
0.0
 13
1.0
 23
0.0
 33
0.0
 40
0.0
 40
0.0
 40
0.0
 40
0.0
 40
1.0
 40
1.0
 40
1.0
 40
2.0
 40
2.0
 40
2.0
 40
3.0
 40
3.0
 40
3.0
 40
4.0
 40
4.0
 40
4.0
 40
4.0
 10
74.3608264362306
 20
-111.3665116388249
 30
0.0
 10
74.41663587925123
 20
-111.3665116388249
 30
0.0
 10
74.461438655886
 20
-111.4106088610361
 30
0.0
 10
74.461438655886
 20
-111.4664183054669
 30
0.0
 10
74.461438655886
 20
-111.5215221943418
 30
0.0
 10
74.41663587925123
 20
-111.5663249721085
 30
0.0
 10
74.3608264362306
 20
-111.5663249721085
 30
0.0
 10
74.30572254874753
 20
-111.5663249721085
 30
0.0
 10
74.26091977211277
 20
-111.5215221943418
 30
0.0
 10
74.26091977211277
 20
-111.4664183054669
 30
0.0
 10
74.26091977211277
 20
-111.4106088610361
 30
0.0
 10
74.30572254874753
 20
-111.3665116388249
 30
0.0
 10
74.3608264362306
 20
-111.3665116388249
 30
0.0
  0
POLYLINE
  5
43
330
1F
100
AcDbEntity
  8
_U+30EC_U+30A4_U+30E4_U+30FC 1
 62
   179
420
  2234388
370
    25
100
AcDb2dPolyline
 66
     1
 10
0.0
 20
0.0
 30
0.0
  0
VERTEX
  5
44
330
43
100
AcDbEntity
  8
_U+30EC_U+30A4_U+30E4_U+30FC 1
 62
   179
420
  2234388
370
    25
100
AcDbVertex
100
AcDb2dVertex
 10
81.1995293173163
 20
-141.780506908999
 30
0.0
  0
VERTEX
  5
45
330
43
100
AcDbEntity
  8
_U+30EC_U+30A4_U+30E4_U+30FC 1
 62
   179
420
  2234388
370
    25
100
AcDbVertex
100
AcDb2dVertex
 10
71.19891457245325
 20
-141.780506908999
 30
0.0
  0
SEQEND
  5
46
330
43
100
AcDbEntity
  8
_U+30EC_U+30A4_U+30E4_U+30FC 1
 62
   179
420
  2234388
370
    25
  0
POLYLINE
  5
47
330
1F
100
AcDbEntity
  8
_U+30EC_U+30A4_U+30E4_U+30FC 1
 62
   179
420
  2234388
370
    25
100
AcDb2dPolyline
 66
     1
 10
0.0
 20
0.0
 30
0.0
  0
VERTEX
  5
48
330
47
100
AcDbEntity
  8
_U+30EC_U+30A4_U+30E4_U+30FC 1
 62
   179
420
  2234388
370
    25
100
AcDbVertex
100
AcDb2dVertex
 10
74.19890144036165
 20
-117.7805760816661
 30
0.0
  0
VERTEX
  5
49
330
47
100
AcDbEntity
  8
_U+30EC_U+30A4_U+30E4_U+30FC 1
 62
   179
420
  2234388
370
    25
100
AcDbVertex
100
AcDb2dVertex
 10
71.19891457245325
 20
-117.7805760816661
 30
0.0
  0
SEQEND
  5
4A
330
47
100
AcDbEntity
  8
_U+30EC_U+30A4_U+30E4_U+30FC 1
 62
   179
420
  2234388
370
    25
  0
POLYLINE
  5
4B
330
1F
100
AcDbEntity
  8
_U+30EC_U+30A4_U+30E4_U+30FC 1
 62
   179
420
  2234388
370
    25
100
AcDb2dPolyline
 66
     1
 10
0.0
 20
0.0
 30
0.0
  0
VERTEX
  5
4C
330
4B
100
AcDbEntity
  8
_U+30EC_U+30A4_U+30E4_U+30FC 1
 62
   179
420
  2234388
370
    25
100
AcDbVertex
100
AcDb2dVertex
 10
111.1993979964004
 20
-126.281003579541
 30
0.0
  0
VERTEX
  5
4D
330
4B
100
AcDbEntity
  8
_U+30EC_U+30A4_U+30E4_U+30FC 1
 62
   179
420
  2234388
370
    25
100
AcDbVertex
100
AcDb2dVertex
 10
111.1993979964004
 20
-125.2812313575687
 30
0.0
  0
SEQEND
  5
4E
330
4B
100
AcDbEntity
  8
_U+30EC_U+30A4_U+30E4_U+30FC 1
 62
   179
420
  2234388
370
    25
  0
POLYLINE
  5
4F
330
1F
100
AcDbEntity
  8
_U+30EC_U+30A4_U+30E4_U+30FC 1
 62
   179
420
  2234388
370
    25
100
AcDb2dPolyline
 66
     1
 10
0.0
 20
0.0
 30
0.0
  0
VERTEX
  5
50
330
4F
100
AcDbEntity
  8
_U+30EC_U+30A4_U+30E4_U+30FC 1
 62
   179
420
  2234388
370
    25
100
AcDbVertex
100
AcDb2dVertex
 10
71.19891457245325
 20
-141.780506908999
 30
0.0
  0
VERTEX
  5
51
330
4F
100
AcDbEntity
  8
_U+30EC_U+30A4_U+30E4_U+30FC 1
 62
   179
420
  2234388
370
    25
100
AcDbVertex
100
AcDb2dVertex
 10
71.19891457245325
 20
-117.7805760816661
 30
0.0
  0
SEQEND
  5
52
330
4F
100
AcDbEntity
  8
_U+30EC_U+30A4_U+30E4_U+30FC 1
 62
   179
420
  2234388
370
    25
  0
POLYLINE
  5
53
330
1F
100
AcDbEntity
  8
_U+30EC_U+30A4_U+30E4_U+30FC 1
 62
   179
420
  2234388
370
    25
100
AcDb2dPolyline
 66
     1
 10
0.0
 20
0.0
 30
0.0
  0
VERTEX
  5
54
330
53
100
AcDbEntity
  8
_U+30EC_U+30A4_U+30E4_U+30FC 1
 62
   179
420
  2234388
370
    25
100
AcDbVertex
100
AcDb2dVertex
 10
81.1995293173163
 20
-138.7805199653047
 30
0.0
  0
VERTEX
  5
55
330
53
100
AcDbEntity
  8
_U+30EC_U+30A4_U+30E4_U+30FC 1
 62
   179
420
  2234388
370
    25
100
AcDbVertex
100
AcDb2dVertex
 10
77.19977220292222
 20
-138.7805199653047
 30
0.0
  0
SEQEND
  5
56
330
53
100
AcDbEntity
  8
_U+30EC_U+30A4_U+30E4_U+30FC 1
 62
   179
420
  2234388
370
    25
  0
POLYLINE
  5
57
330
1F
100
AcDbEntity
  8
_U+30EC_U+30A4_U+30E4_U+30FC 1
 62
   179
420
  2234388
370
    25
100
AcDb2dPolyline
 66
     1
 10
0.0
 20
0.0
 30
0.0
  0
VERTEX
  5
58
330
57
100
AcDbEntity
  8
_U+30EC_U+30A4_U+30E4_U+30FC 1
 62
   179
420
  2234388
370
    25
100
AcDbVertex
100
AcDb2dVertex
 10
111.1993979964004
 20
-126.281003579541
 30
0.0
  0
VERTEX
  5
59
330
57
100
AcDbEntity
  8
_U+30EC_U+30A4_U+30E4_U+30FC 1
 62
   179
420
  2234388
370
    25
100
AcDbVertex
100
AcDb2dVertex
 10
72.19939232470671
 20
-126.281003579541
 30
0.0
  0
SEQEND
  5
5A
330
57
100
AcDbEntity
  8
_U+30EC_U+30A4_U+30E4_U+30FC 1
 62
   179
420
  2234388
370
    25
  0
POLYLINE
  5
5B
330
1F
100
AcDbEntity
  8
_U+30EC_U+30A4_U+30E4_U+30FC 1
 62
   179
420
  2234388
370
    25
100
AcDb2dPolyline
 66
     1
 10
0.0
 20
0.0
 30
0.0
  0
VERTEX
  5
5C
330
5B
100
AcDbEntity
  8
_U+30EC_U+30A4_U+30E4_U+30FC 1
 62
   179
420
  2234388
370
    25
100
AcDbVertex
100
AcDb2dVertex
 10
111.1993979964004
 20
-125.2812313575687
 30
0.0
  0
VERTEX
  5
5D
330
5B
100
AcDbEntity
  8
_U+30EC_U+30A4_U+30E4_U+30FC 1
 62
   179
420
  2234388
370
    25
100
AcDbVertex
100
AcDb2dVertex
 10
72.19939232470671
 20
-125.2812313575687
 30
0.0
  0
SEQEND
  5
5E
330
5B
100
AcDbEntity
  8
_U+30EC_U+30A4_U+30E4_U+30FC 1
 62
   179
420
  2234388
370
    25
  0
POLYLINE
  5
5F
330
1F
100
AcDbEntity
  8
_U+30EC_U+30A4_U+30E4_U+30FC 1
 62
   179
420
  2234388
370
    25
100
AcDb2dPolyline
 66
     1
 10
0.0
 20
0.0
 30
0.0
  0
VERTEX
  5
60
330
5F
100
AcDbEntity
  8
_U+30EC_U+30A4_U+30E4_U+30FC 1
 62
   179
420
  2234388
370
    25
100
AcDbVertex
100
AcDb2dVertex
 10
72.19939232470671
 20
-140.7807346870271
 30
0.0
  0
VERTEX
  5
61
330
5F
100
AcDbEntity
  8
_U+30EC_U+30A4_U+30E4_U+30FC 1
 62
   179
420
  2234388
370
    25
100
AcDbVertex
100
AcDb2dVertex
 10
72.19939232470671
 20
-126.281003579541
 30
0.0
  0
SEQEND
  5
62
330
5F
100
AcDbEntity
  8
_U+30EC_U+30A4_U+30E4_U+30FC 1
 62
   179
420
  2234388
370
    25
  0
POLYLINE
  5
63
330
1F
100
AcDbEntity
  8
_U+30EC_U+30A4_U+30E4_U+30FC 1
 62
   179
420
  2234388
370
    25
100
AcDb2dPolyline
 66
     1
 10
0.0
 20
0.0
 30
0.0
  0
VERTEX
  5
64
330
63
100
AcDbEntity
  8
_U+30EC_U+30A4_U+30E4_U+30FC 1
 62
   179
420
  2234388
370
    25
100
AcDbVertex
100
AcDb2dVertex
 10
74.19890144036165
 20
-118.7803483036383
 30
0.0
  0
VERTEX
  5
65
330
63
100
AcDbEntity
  8
_U+30EC_U+30A4_U+30E4_U+30FC 1
 62
   179
420
  2234388
370
    25
100
AcDbVertex
100
AcDb2dVertex
 10
72.19939232470671
 20
-118.7803483036383
 30
0.0
  0
SEQEND
  5
66
330
63
100
AcDbEntity
  8
_U+30EC_U+30A4_U+30E4_U+30FC 1
 62
   179
420
  2234388
370
    25
  0
POLYLINE
  5
67
330
1F
100
AcDbEntity
  8
_U+30EC_U+30A4_U+30E4_U+30FC 1
 62
   179
420
  2234388
370
    25
100
AcDb2dPolyline
 66
     1
 10
0.0
 20
0.0
 30
0.0
  0
VERTEX
  5
68
330
67
100
AcDbEntity
  8
_U+30EC_U+30A4_U+30E4_U+30FC 1
 62
   179
420
  2234388
370
    25
100
AcDbVertex
100
AcDb2dVertex
 10
80.19905156506285
 20
-140.7807346870271
 30
0.0
  0
VERTEX
  5
69
330
67
100
AcDbEntity
  8
_U+30EC_U+30A4_U+30E4_U+30FC 1
 62
   179
420
  2234388
370
    25
100
AcDbVertex
100
AcDb2dVertex
 10
72.19939232470671
 20
-140.7807346870271
 30
0.0
  0
SEQEND
  5
6A
330
67
100
AcDbEntity
  8
_U+30EC_U+30A4_U+30E4_U+30FC 1
 62
   179
420
  2234388
370
    25
  0
POLYLINE
  5
6B
330
1F
100
AcDbEntity
  8
_U+30EC_U+30A4_U+30E4_U+30FC 1
 62
   179
420
  2234388
370
    25
100
AcDb2dPolyline
 66
     1
 10
0.0
 20
0.0
 30
0.0
  0
VERTEX
  5
6C
330
6B
100
AcDbEntity
  8
_U+30EC_U+30A4_U+30E4_U+30FC 1
 62
   179
420
  2234388
370
    25
100
AcDbVertex
100
AcDb2dVertex
 10
81.1995293173163
 20
-141.780506908999
 30
0.0
  0
VERTEX
  5
6D
330
6B
100
AcDbEntity
  8
_U+30EC_U+30A4_U+30E4_U+30FC 1
 62
   179
420
  2234388
370
    25
100
AcDbVertex
100
AcDb2dVertex
 10
81.1995293173163
 20
-138.7805199653047
 30
0.0
  0
SEQEND
  5
6E
330
6B
100
AcDbEntity
  8
_U+30EC_U+30A4_U+30E4_U+30FC 1
 62
   179
420
  2234388
370
    25
  0
POLYLINE
  5
6F
330
1F
100
AcDbEntity
  8
_U+30EC_U+30A4_U+30E4_U+30FC 1
 62
   179
420
  2234388
370
    25
100
AcDb2dPolyline
 66
     1
 10
0.0
 20
0.0
 30
0.0
  0
VERTEX
  5
70
330
6F
100
AcDbEntity
  8
_U+30EC_U+30A4_U+30E4_U+30FC 1
 62
   179
420
  2234388
370
    25
100
AcDbVertex
100
AcDb2dVertex
 10
80.19905156506285
 20
-140.7807346870271
 30
0.0
  0
VERTEX
  5
71
330
6F
100
AcDbEntity
  8
_U+30EC_U+30A4_U+30E4_U+30FC 1
 62
   179
420
  2234388
370
    25
100
AcDbVertex
100
AcDb2dVertex
 10
80.19905156506285
 20
-139.7809624650546
 30
0.0
  0
SEQEND
  5
72
330
6F
100
AcDbEntity
  8
_U+30EC_U+30A4_U+30E4_U+30FC 1
 62
   179
420
  2234388
370
    25
  0
POLYLINE
  5
73
330
1F
100
AcDbEntity
  8
_U+30EC_U+30A4_U+30E4_U+30FC 1
 62
   179
420
  2234388
370
    25
100
AcDb2dPolyline
 66
     1
 10
0.0
 20
0.0
 30
0.0
  0
VERTEX
  5
74
330
73
100
AcDbEntity
  8
_U+30EC_U+30A4_U+30E4_U+30FC 1
 62
   179
420
  2234388
370
    25
100
AcDbVertex
100
AcDb2dVertex
 10
80.19905156506285
 20
-139.7809624650546
 30
0.0
  0
VERTEX
  5
75
330
73
100
AcDbEntity
  8
_U+30EC_U+30A4_U+30E4_U+30FC 1
 62
   179
420
  2234388
370
    25
100
AcDbVertex
100
AcDb2dVertex
 10
77.19977220292222
 20
-139.7809624650546
 30
0.0
  0
SEQEND
  5
76
330
73
100
AcDbEntity
  8
_U+30EC_U+30A4_U+30E4_U+30FC 1
 62
   179
420
  2234388
370
    25
  0
POLYLINE
  5
77
330
1F
100
AcDbEntity
  8
_U+30EC_U+30A4_U+30E4_U+30FC 1
 62
   179
420
  2234388
370
    25
100
AcDb2dPolyline
 66
     1
 10
0.0
 20
0.0
 30
0.0
  0
VERTEX
  5
78
330
77
100
AcDbEntity
  8
_U+30EC_U+30A4_U+30E4_U+30FC 1
 62
   179
420
  2234388
370
    25
100
AcDbVertex
100
AcDb2dVertex
 10
77.19977220292222
 20
-139.7809624650546
 30
0.0
  0
VERTEX
  5
79
330
77
100
AcDbEntity
  8
_U+30EC_U+30A4_U+30E4_U+30FC 1
 62
   179
420
  2234388
370
    25
100
AcDbVertex
100
AcDb2dVertex
 10
77.19977220292222
 20
-138.7805199653047
 30
0.0
  0
SEQEND
  5
7A
330
77
100
AcDbEntity
  8
_U+30EC_U+30A4_U+30E4_U+30FC 1
 62
   179
420
  2234388
370
    25
  0
POLYLINE
  5
7B
330
1F
100
AcDbEntity
  8
_U+30EC_U+30A4_U+30E4_U+30FC 1
 62
   179
420
  2234388
370
    25
100
AcDb2dPolyline
 66
     1
 10
0.0
 20
0.0
 30
0.0
  0
VERTEX
  5
7C
330
7B
100
AcDbEntity
  8
_U+30EC_U+30A4_U+30E4_U+30FC 1
 62
   179
420
  2234388
370
    25
100
AcDbVertex
100
AcDb2dVertex
 10
74.19890144036165
 20
-118.7803483036383
 30
0.0
  0
VERTEX
  5
7D
330
7B
100
AcDbEntity
  8
_U+30EC_U+30A4_U+30E4_U+30FC 1
 62
   179
420
  2234388
370
    25
100
AcDbVertex
100
AcDb2dVertex
 10
74.19890144036165
 20
-117.7805760816661
 30
0.0
  0
SEQEND
  5
7E
330
7B
100
AcDbEntity
  8
_U+30EC_U+30A4_U+30E4_U+30FC 1
 62
   179
420
  2234388
370
    25
  0
POLYLINE
  5
7F
330
1F
100
AcDbEntity
  8
_U+30EC_U+30A4_U+30E4_U+30FC 1
 62
   179
420
  2234388
370
    25
100
AcDb2dPolyline
 66
     1
 10
0.0
 20
0.0
 30
0.0
  0
VERTEX
  5
80
330
7F
100
AcDbEntity
  8
_U+30EC_U+30A4_U+30E4_U+30FC 1
 62
   179
420
  2234388
370
    25
100
AcDbVertex
100
AcDb2dVertex
 10
72.19939232470671
 20
-125.2812313575687
 30
0.0
  0
VERTEX
  5
81
330
7F
100
AcDbEntity
  8
_U+30EC_U+30A4_U+30E4_U+30FC 1
 62
   179
420
  2234388
370
    25
100
AcDbVertex
100
AcDb2dVertex
 10
72.19939232470671
 20
-118.7803483036383
 30
0.0
  0
SEQEND
  5
82
330
7F
100
AcDbEntity
  8
_U+30EC_U+30A4_U+30E4_U+30FC 1
 62
   179
420
  2234388
370
    25
  0
SPLINE
  5
83
330
1F
100
AcDbEntity
  8
_U+30EC_U+30A4_U+30E4_U+30FC 1
 62
   179
420
  2234388
370
     9
100
AcDbSpline
210
0.0
220
0.0
230
1.0
 70
    11
 71
     3
 72
    17
 73
    13
 74
     0
 42
0.0000000001
 43
0.0000000001
 12
1.0
 22
0.0
 32
0.0
 13
1.0
 23
0.0
 33
0.0
 40
0.0
 40
0.0
 40
0.0
 40
0.0
 40
1.0
 40
1.0
 40
1.0
 40
2.0
 40
2.0
 40
2.0
 40
3.0
 40
3.0
 40
3.0
 40
4.0
 40
4.0
 40
4.0
 40
4.0
 10
115.1991570610246
 20
-138.680613298663
 30
0.0
 10
115.2542962262846
 20
-138.680613298663
 30
0.0
 10
115.299066637842
 20
-138.7253807986522
 30
0.0
 10
115.299066637842
 20
-138.7805199653047
 30
0.0
 10
115.299066637842
 20
-138.8363294097351
 30
0.0
 10
115.2542962262846
 20
-138.8804266319463
 30
0.0
 10
115.1991570610246
 20
-138.8804266319463
 30
0.0
 10
115.1440531735416
 20
-138.8804266319463
 30
0.0
 10
115.0992503969068
 20
-138.8363294097351
 30
0.0
 10
115.0992503969068
 20
-138.7805199653047
 30
0.0
 10
115.0992503969068
 20
-138.7253807986522
 30
0.0
 10
115.1440531735416
 20
-138.680613298663
 30
0.0
 10
115.1991570610246
 20
-138.680613298663
 30
0.0
  0
SPLINE
  5
84
330
1F
100
AcDbEntity
  8
_U+30EC_U+30A4_U+30E4_U+30FC 1
 62
   179
420
  2234388
370
     9
100
AcDbSpline
210
0.0
220
0.0
230
1.0
 70
    11
 71
     3
 72
    17
 73
    13
 74
     0
 42
0.0000000001
 43
0.0000000001
 12
1.0
 22
0.0
 32
0.0
 13
1.0
 23
0.0
 33
0.0
 40
0.0
 40
0.0
 40
0.0
 40
0.0
 40
1.0
 40
1.0
 40
1.0
 40
2.0
 40
2.0
 40
2.0
 40
3.0
 40
3.0
 40
3.0
 40
4.0
 40
4.0
 40
4.0
 40
4.0
 10
115.1991570610246
 20
-141.6806002423574
 30
0.0
 10
115.2542962262846
 20
-141.6806002423574
 30
0.0
 10
115.299066637842
 20
-141.7253677423466
 30
0.0
 10
115.299066637842
 20
-141.780506908999
 30
0.0
 10
115.299066637842
 20
-141.8363163534301
 30
0.0
 10
115.2542962262846
 20
-141.8810838534187
 30
0.0
 10
115.1991570610246
 20
-141.8810838534187
 30
0.0
 10
115.1440531735416
 20
-141.8810838534187
 30
0.0
 10
115.0992503969068
 20
-141.8363163534301
 30
0.0
 10
115.0992503969068
 20
-141.780506908999
 30
0.0
 10
115.0992503969068
 20
-141.7253677423466
 30
0.0
 10
115.1440531735416
 20
-141.6806002423574
 30
0.0
 10
115.1991570610246
 20
-141.6806002423574
 30
0.0
  0
SPLINE
  5
85
330
1F
100
AcDbEntity
  8
_U+30EC_U+30A4_U+30E4_U+30FC 1
 62
   179
420
  2234388
370
     9
100
AcDbSpline
210
0.0
220
0.0
230
1.0
 70
    11
 71
     3
 72
    17
 73
    13
 74
     0
 42
0.0000000001
 43
0.0000000001
 12
1.0
 22
0.0
 32
0.0
 13
1.0
 23
0.0
 33
0.0
 40
0.0
 40
0.0
 40
0.0
 40
0.0
 40
1.0
 40
1.0
 40
1.0
 40
2.0
 40
2.0
 40
2.0
 40
3.0
 40
3.0
 40
3.0
 40
4.0
 40
4.0
 40
4.0
 40
4.0
 10
115.1991570610246
 20
-126.1810969128993
 30
0.0
 10
115.2542962262846
 20
-126.1810969128993
 30
0.0
 10
115.299066637842
 20
-126.2258996906657
 30
0.0
 10
115.299066637842
 20
-126.281003579541
 30
0.0
 10
115.299066637842
 20
-126.3361427461937
 30
0.0
 10
115.2542962262846
 20
-126.3809102461826
 30
0.0
 10
115.1991570610246
 20
-126.3809102461826
 30
0.0
 10
115.1440531735416
 20
-126.3809102461826
 30
0.0
 10
115.0992503969068
 20
-126.3361427461937
 30
0.0
 10
115.0992503969068
 20
-126.281003579541
 30
0.0
 10
115.0992503969068
 20
-126.2258996906657
 30
0.0
 10
115.1440531735416
 20
-126.1810969128993
 30
0.0
 10
115.1991570610246
 20
-126.1810969128993
 30
0.0
  0
SPLINE
  5
86
330
1F
100
AcDbEntity
  8
_U+30EC_U+30A4_U+30E4_U+30FC 1
 62
   179
420
  2234388
370
     9
100
AcDbSpline
210
0.0
220
0.0
230
1.0
 70
    11
 71
     3
 72
    17
 73
    13
 74
     0
 42
0.0000000001
 43
0.0000000001
 12
1.0
 22
0.0
 32
0.0
 13
1.0
 23
0.0
 33
0.0
 40
0.0
 40
0.0
 40
0.0
 40
0.0
 40
1.0
 40
1.0
 40
1.0
 40
2.0
 40
2.0
 40
2.0
 40
3.0
 40
3.0
 40
3.0
 40
4.0
 40
4.0
 40
4.0
 40
4.0
 10
115.1991570610246
 20
-125.1806544131494
 30
0.0
 10
115.2542962262846
 20
-125.1806544131494
 30
0.0
 10
115.299066637842
 20
-125.225421913138
 30
0.0
 10
115.299066637842
 20
-125.2812313575687
 30
0.0
 10
115.299066637842
 20
-125.3363705242215
 30
0.0
 10
115.2542962262846
 20
-125.3811380242104
 30
0.0
 10
115.1991570610246
 20
-125.3811380242104
 30
0.0
 10
115.1440531735416
 20
-125.3811380242104
 30
0.0
 10
115.0992503969068
 20
-125.3363705242215
 30
0.0
 10
115.0992503969068
 20
-125.2812313575687
 30
0.0
 10
115.0992503969068
 20
-125.225421913138
 30
0.0
 10
115.1440531735416
 20
-125.1806544131494
 30
0.0
 10
115.1991570610246
 20
-125.1806544131494
 30
0.0
  0
SPLINE
  5
87
330
1F
100
AcDbEntity
  8
_U+30EC_U+30A4_U+30E4_U+30FC 1
 62
   179
420
  2234388
370
     9
100
AcDbSpline
210
0.0
220
0.0
230
1.0
 70
    11
 71
     3
 72
    17
 73
    13
 74
     0
 42
0.0000000001
 43
0.0000000001
 12
1.0
 22
0.0
 32
0.0
 13
1.0
 23
0.0
 33
0.0
 40
0.0
 40
0.0
 40
0.0
 40
0.0
 40
1.0
 40
1.0
 40
1.0
 40
2.0
 40
2.0
 40
2.0
 40
3.0
 40
3.0
 40
3.0
 40
4.0
 40
4.0
 40
4.0
 40
4.0
 10
111.1993979964004
 20
-113.6809102493576
 30
0.0
 10
111.2545371616603
 20
-113.6809102493576
 30
0.0
 10
111.2993046605182
 20
-113.725713027124
 30
0.0
 10
111.2993046605182
 20
-113.7808169159992
 30
0.0
 10
111.2993046605182
 20
-113.835956082652
 30
0.0
 10
111.2545371616603
 20
-113.8807235826409
 30
0.0
 10
111.1993979964004
 20
-113.8807235826409
 30
0.0
 10
111.1442941089173
 20
-113.8807235826409
 30
0.0
 10
111.0994913322825
 20
-113.835956082652
 30
0.0
 10
111.0994913322825
 20
-113.7808169159992
 30
0.0
 10
111.0994913322825
 20
-113.725713027124
 30
0.0
 10
111.1442941089173
 20
-113.6809102493576
 30
0.0
 10
111.1993979964004
 20
-113.6809102493576
 30
0.0
  0
SPLINE
  5
88
330
1F
100
AcDbEntity
  8
_U+30EC_U+30A4_U+30E4_U+30FC 1
 62
   179
420
  2234388
370
     9
100
AcDbSpline
210
0.0
220
0.0
230
1.0
 70
    11
 71
     3
 72
    17
 73
    13
 74
     0
 42
0.0000000001
 43
0.0000000001
 12
1.0
 22
0.0
 32
0.0
 13
1.0
 23
0.0
 33
0.0
 40
0.0
 40
0.0
 40
0.0
 40
0.0
 40
1.0
 40
1.0
 40
1.0
 40
2.0
 40
2.0
 40
2.0
 40
3.0
 40
3.0
 40
3.0
 40
4.0
 40
4.0
 40
4.0
 40
4.0
 10
71.19891457245325
 20
-113.6809102493576
 30
0.0
 10
71.25405553774189
 20
-113.6809102493576
 30
0.0
 10
71.29882123657109
 20
-113.725713027124
 30
0.0
 10
71.29882123657109
 20
-113.7808169159992
 30
0.0
 10
71.29882123657109
 20
-113.835956082652
 30
0.0
 10
71.25405553774189
 20
-113.8807235826409
 30
0.0
 10
71.19891457245325
 20
-113.8807235826409
 30
0.0
 10
71.14381068497018
 20
-113.8807235826409
 30
0.0
 10
71.09900790833541
 20
-113.835956082652
 30
0.0
 10
71.09900790833541
 20
-113.7808169159992
 30
0.0
 10
71.09900790833541
 20
-113.725713027124
 30
0.0
 10
71.14381068497018
 20
-113.6809102493576
 30
0.0
 10
71.19891457245325
 20
-113.6809102493576
 30
0.0
  0
SPLINE
  5
89
330
1F
100
AcDbEntity
  8
_U+30EC_U+30A4_U+30E4_U+30FC 1
 62
   179
420
  2234388
370
     9
100
AcDbSpline
210
0.0
220
0.0
230
1.0
 70
    11
 71
     3
 72
    17
 73
    13
 74
     0
 42
0.0000000001
 43
0.0000000001
 12
1.0
 22
0.0
 32
0.0
 13
1.0
 23
0.0
 33
0.0
 40
0.0
 40
0.0
 40
0.0
 40
0.0
 40
1.0
 40
1.0
 40
1.0
 40
2.0
 40
2.0
 40
2.0
 40
3.0
 40
3.0
 40
3.0
 40
4.0
 40
4.0
 40
4.0
 40
4.0
 10
67.19933189671333
 20
-117.6806694150242
 30
0.0
 10
67.25447106197328
 20
-117.6806694150242
 30
0.0
 10
67.29923856083116
 20
-117.7254721927909
 30
0.0
 10
67.29923856083116
 20
-117.7805760816661
 30
0.0
 10
67.29923856083116
 20
-117.8357152483189
 30
0.0
 10
67.25447106197328
 20
-117.8804827483077
 30
0.0
 10
67.19933189671333
 20
-117.8804827483077
 30
0.0
 10
67.14422800923026
 20
-117.8804827483077
 30
0.0
 10
67.0994252325955
 20
-117.8357152483189
 30
0.0
 10
67.0994252325955
 20
-117.7805760816661
 30
0.0
 10
67.0994252325955
 20
-117.7254721927909
 30
0.0
 10
67.14422800923026
 20
-117.6806694150242
 30
0.0
 10
67.19933189671333
 20
-117.6806694150242
 30
0.0
  0
SPLINE
  5
8A
330
1F
100
AcDbEntity
  8
_U+30EC_U+30A4_U+30E4_U+30FC 1
 62
   179
420
  2234388
370
     9
100
AcDbSpline
210
0.0
220
0.0
230
1.0
 70
    11
 71
     3
 72
    17
 73
    13
 74
     0
 42
0.0000000001
 43
0.0000000001
 12
1.0
 22
0.0
 32
0.0
 13
1.0
 23
0.0
 33
0.0
 40
0.0
 40
0.0
 40
0.0
 40
0.0
 40
1.0
 40
1.0
 40
1.0
 40
2.0
 40
2.0
 40
2.0
 40
3.0
 40
3.0
 40
3.0
 40
4.0
 40
4.0
 40
4.0
 40
4.0
 10
67.19933189671333
 20
-141.6806002423574
 30
0.0
 10
67.25447106197328
 20
-141.6806002423574
 30
0.0
 10
67.29923856083116
 20
-141.7253677423466
 30
0.0
 10
67.29923856083116
 20
-141.780506908999
 30
0.0
 10
67.29923856083116
 20
-141.8363163534301
 30
0.0
 10
67.25447106197328
 20
-141.8810838534187
 30
0.0
 10
67.19933189671333
 20
-141.8810838534187
 30
0.0
 10
67.14422800923026
 20
-141.8810838534187
 30
0.0
 10
67.0994252325955
 20
-141.8363163534301
 30
0.0
 10
67.0994252325955
 20
-141.780506908999
 30
0.0
 10
67.0994252325955
 20
-141.7253677423466
 30
0.0
 10
67.14422800923026
 20
-141.6806002423574
 30
0.0
 10
67.19933189671333
 20
-141.6806002423574
 30
0.0
  0
SPLINE
  5
8B
330
1F
100
AcDbEntity
  8
_U+30EC_U+30A4_U+30E4_U+30FC 1
 62
   179
420
  2234388
370
     9
100
AcDbSpline
210
0.0
220
0.0
230
1.0
 70
    11
 71
     3
 72
    17
 73
    13
 74
     0
 42
0.0000000001
 43
0.0000000001
 12
1.0
 22
0.0
 32
0.0
 13
1.0
 23
0.0
 33
0.0
 40
0.0
 40
0.0
 40
0.0
 40
0.0
 40
1.0
 40
1.0
 40
1.0
 40
2.0
 40
2.0
 40
2.0
 40
3.0
 40
3.0
 40
3.0
 40
4.0
 40
4.0
 40
4.0
 40
4.0
 10
71.19891457245325
 20
-145.6810296858023
 30
0.0
 10
71.25405553774189
 20
-145.6810296858023
 30
0.0
 10
71.29882123657109
 20
-145.7258324635683
 30
0.0
 10
71.29882123657109
 20
-145.7809363524439
 30
0.0
 10
71.29882123657109
 20
-145.8360755190963
 30
0.0
 10
71.25405553774189
 20
-145.8808430190855
 30
0.0
 10
71.19891457245325
 20
-145.8808430190855
 30
0.0
 10
71.14381068497018
 20
-145.8808430190855
 30
0.0
 10
71.09900790833541
 20
-145.8360755190963
 30
0.0
 10
71.09900790833541
 20
-145.7809363524439
 30
0.0
 10
71.09900790833541
 20
-145.7258324635683
 30
0.0
 10
71.14381068497018
 20
-145.6810296858023
 30
0.0
 10
71.19891457245325
 20
-145.6810296858023
 30
0.0
  0
SPLINE
  5
8C
330
1F
100
AcDbEntity
  8
_U+30EC_U+30A4_U+30E4_U+30FC 1
 62
   179
420
  2234388
370
     9
100
AcDbSpline
210
0.0
220
0.0
230
1.0
 70
    11
 71
     3
 72
    17
 73
    13
 74
     0
 42
0.0000000001
 43
0.0000000001
 12
1.0
 22
0.0
 32
0.0
 13
1.0
 23
0.0
 33
0.0
 40
0.0
 40
0.0
 40
0.0
 40
0.0
 40
1.0
 40
1.0
 40
1.0
 40
2.0
 40
2.0
 40
2.0
 40
3.0
 40
3.0
 40
3.0
 40
4.0
 40
4.0
 40
4.0
 40
4.0
 10
81.1995293173163
 20
-145.6810296858023
 30
0.0
 10
81.25463320479939
 20
-145.6810296858023
 30
0.0
 10
81.29943598143414
 20
-145.7258324635683
 30
0.0
 10
81.29943598143414
 20
-145.7809363524439
 30
0.0
 10
81.29943598143414
 20
-145.8360755190963
 30
0.0
 10
81.25463320479939
 20
-145.8808430190855
 30
0.0
 10
81.1995293173163
 20
-145.8808430190855
 30
0.0
 10
81.14371987429568
 20
-145.8808430190855
 30
0.0
 10
81.09962265319848
 20
-145.8360755190963
 30
0.0
 10
81.09962265319848
 20
-145.7809363524439
 30
0.0
 10
81.09962265319848
 20
-145.7258324635683
 30
0.0
 10
81.14371987429568
 20
-145.6810296858023
 30
0.0
 10
81.1995293173163
 20
-145.6810296858023
 30
0.0
  0
POLYLINE
  5
8D
330
1F
100
AcDbEntity
  8
_U+30EC_U+30A4_U+30E4_U+30FC 1
 62
   179
420
  2234388
370
     9
100
AcDb2dPolyline
 66
     1
 10
0.0
 20
0.0
 30
0.0
  0
VERTEX
  5
8E
330
8D
100
AcDbEntity
  8
_U+30EC_U+30A4_U+30E4_U+30FC 1
 62
   179
420
  2234388
370
     9
100
AcDbVertex
100
AcDb2dVertex
 10
115.1991570610246
 20
-125.2812313575687
 30
0.0
  0
VERTEX
  5
8F
330
8D
100
AcDbEntity
  8
_U+30EC_U+30A4_U+30E4_U+30FC 1
 62
   179
420
  2234388
370
     9
100
AcDbVertex
100
AcDb2dVertex
 10
115.1991570610246
 20
-121.5109188585113
 30
0.0
  0
SEQEND
  5
90
330
8D
100
AcDbEntity
  8
_U+30EC_U+30A4_U+30E4_U+30FC 1
 62
   179
420
  2234388
370
     9
  0
POLYLINE
  5
91
330
1F
100
AcDbEntity
  8
_U+30EC_U+30A4_U+30E4_U+30FC 1
 62
   179
420
  2234388
370
     9
100
AcDb2dPolyline
 66
     1
 10
0.0
 20
0.0
 30
0.0
  0
VERTEX
  5
92
330
91
100
AcDbEntity
  8
_U+30EC_U+30A4_U+30E4_U+30FC 1
 62
   179
420
  2234388
370
     9
100
AcDbVertex
100
AcDb2dVertex
 10
115.1991570610246
 20
-125.2812313575687
 30
0.0
  0
VERTEX
  5
93
330
91
100
AcDbEntity
  8
_U+30EC_U+30A4_U+30E4_U+30FC 1
 62
   179
420
  2234388
370
     9
100
AcDbVertex
100
AcDb2dVertex
 10
115.1991570610246
 20
-126.281003579541
 30
0.0
  0
SEQEND
  5
94
330
91
100
AcDbEntity
  8
_U+30EC_U+30A4_U+30E4_U+30FC 1
 62
   179
420
  2234388
370
     9
  0
POLYLINE
  5
95
330
1F
100
AcDbEntity
  8
_U+30EC_U+30A4_U+30E4_U+30FC 1
 62
   179
420
  2234388
370
     9
100
AcDb2dPolyline
 66
     1
 10
0.0
 20
0.0
 30
0.0
  0
VERTEX
  5
96
330
95
100
AcDbEntity
  8
_U+30EC_U+30A4_U+30E4_U+30FC 1
 62
   179
420
  2234388
370
     9
100
AcDbVertex
100
AcDb2dVertex
 10
113.7391509871614
 20
-125.2812313575687
 30
0.0
  0
VERTEX
  5
97
330
95
100
AcDbEntity
  8
_U+30EC_U+30A4_U+30E4_U+30FC 1
 62
   179
420
  2234388
370
     9
100
AcDbVertex
100
AcDb2dVertex
 10
116.1989292577406
 20
-125.2812313575687
 30
0.0
  0
SEQEND
  5
98
330
95
100
AcDbEntity
  8
_U+30EC_U+30A4_U+30E4_U+30FC 1
 62
   179
420
  2234388
370
     9
  0
POLYLINE
  5
99
330
1F
100
AcDbEntity
  8
_U+30EC_U+30A4_U+30E4_U+30FC 1
 62
   179
420
  2234388
370
     9
100
AcDb2dPolyline
 66
     1
 10
0.0
 20
0.0
 30
0.0
  0
VERTEX
  5
9A
330
99
100
AcDbEntity
  8
_U+30EC_U+30A4_U+30E4_U+30FC 1
 62
   179
420
  2234388
370
     9
100
AcDbVertex
100
AcDb2dVertex
 10
113.7391509871614
 20
-126.281003579541
 30
0.0
  0
VERTEX
  5
9B
330
99
100
AcDbEntity
  8
_U+30EC_U+30A4_U+30E4_U+30FC 1
 62
   179
420
  2234388
370
     9
100
AcDbVertex
100
AcDb2dVertex
 10
116.1989292577406
 20
-126.281003579541
 30
0.0
  0
SEQEND
  5
9C
330
99
100
AcDbEntity
  8
_U+30EC_U+30A4_U+30E4_U+30FC 1
 62
   179
420
  2234388
370
     9
  0
POLYLINE
  5
9D
330
1F
100
AcDbEntity
  8
_U+30EC_U+30A4_U+30E4_U+30FC 1
 62
   179
420
  2234388
370
     9
100
AcDb2dPolyline
 66
     1
 10
0.0
 20
0.0
 30
0.0
  0
VERTEX
  5
9E
330
9D
100
AcDbEntity
  8
_U+30EC_U+30A4_U+30E4_U+30FC 1
 62
   179
420
  2234388
370
     9
100
AcDbVertex
100
AcDb2dVertex
 10
115.1991570610246
 20
-141.780506908999
 30
0.0
  0
VERTEX
  5
9F
330
9D
100
AcDbEntity
  8
_U+30EC_U+30A4_U+30E4_U+30FC 1
 62
   179
420
  2234388
370
     9
100
AcDbVertex
100
AcDb2dVertex
 10
115.1991570610246
 20
-138.7805199653047
 30
0.0
  0
SEQEND
  5
A0
330
9D
100
AcDbEntity
  8
_U+30EC_U+30A4_U+30E4_U+30FC 1
 62
   179
420
  2234388
370
     9
  0
POLYLINE
  5
A1
330
1F
100
AcDbEntity
  8
_U+30EC_U+30A4_U+30E4_U+30FC 1
 62
   179
420
  2234388
370
     9
100
AcDb2dPolyline
 66
     1
 10
0.0
 20
0.0
 30
0.0
  0
VERTEX
  5
A2
330
A1
100
AcDbEntity
  8
_U+30EC_U+30A4_U+30E4_U+30FC 1
 62
   179
420
  2234388
370
     9
100
AcDbVertex
100
AcDb2dVertex
 10
83.73924703030049
 20
-141.780506908999
 30
0.0
  0
VERTEX
  5
A3
330
A1
100
AcDbEntity
  8
_U+30EC_U+30A4_U+30E4_U+30FC 1
 62
   179
420
  2234388
370
     9
100
AcDbVertex
100
AcDb2dVertex
 10
116.1989292577406
 20
-141.780506908999
 30
0.0
  0
SEQEND
  5
A4
330
A1
100
AcDbEntity
  8
_U+30EC_U+30A4_U+30E4_U+30FC 1
 62
   179
420
  2234388
370
     9
  0
POLYLINE
  5
A5
330
1F
100
AcDbEntity
  8
_U+30EC_U+30A4_U+30E4_U+30FC 1
 62
   179
420
  2234388
370
     9
100
AcDb2dPolyline
 66
     1
 10
0.0
 20
0.0
 30
0.0
  0
VERTEX
  5
A6
330
A5
100
AcDbEntity
  8
_U+30EC_U+30A4_U+30E4_U+30FC 1
 62
   179
420
  2234388
370
     9
100
AcDbVertex
100
AcDb2dVertex
 10
81.1995293173163
 20
-145.7809363524439
 30
0.0
  0
VERTEX
  5
A7
330
A5
100
AcDbEntity
  8
_U+30EC_U+30A4_U+30E4_U+30FC 1
 62
   179
420
  2234388
370
     9
100
AcDbVertex
100
AcDb2dVertex
 10
71.19891457245325
 20
-145.7809363524439
 30
0.0
  0
SEQEND
  5
A8
330
A5
100
AcDbEntity
  8
_U+30EC_U+30A4_U+30E4_U+30FC 1
 62
   179
420
  2234388
370
     9
  0
POLYLINE
  5
A9
330
1F
100
AcDbEntity
  8
_U+30EC_U+30A4_U+30E4_U+30FC 1
 62
   179
420
  2234388
370
     9
100
AcDb2dPolyline
 66
     1
 10
0.0
 20
0.0
 30
0.0
  0
VERTEX
  5
AA
330
A9
100
AcDbEntity
  8
_U+30EC_U+30A4_U+30E4_U+30FC 1
 62
   179
420
  2234388
370
     9
100
AcDbVertex
100
AcDb2dVertex
 10
81.1995293173163
 20
-144.3208949639196
 30
0.0
  0
VERTEX
  5
AB
330
A9
100
AcDbEntity
  8
_U+30EC_U+30A4_U+30E4_U+30FC 1
 62
   179
420
  2234388
370
     9
100
AcDbVertex
100
AcDb2dVertex
 10
81.1995293173163
 20
-146.7807085744158
 30
0.0
  0
SEQEND
  5
AC
330
A9
100
AcDbEntity
  8
_U+30EC_U+30A4_U+30E4_U+30FC 1
 62
   179
420
  2234388
370
     9
  0
POLYLINE
  5
AD
330
1F
100
AcDbEntity
  8
_U+30EC_U+30A4_U+30E4_U+30FC 1
 62
   179
420
  2234388
370
     9
100
AcDb2dPolyline
 66
     1
 10
0.0
 20
0.0
 30
0.0
  0
VERTEX
  5
AE
330
AD
100
AcDbEntity
  8
_U+30EC_U+30A4_U+30E4_U+30FC 1
 62
   179
420
  2234388
370
     9
100
AcDbVertex
100
AcDb2dVertex
 10
71.19891457245325
 20
-144.3208949639196
 30
0.0
  0
VERTEX
  5
AF
330
AD
100
AcDbEntity
  8
_U+30EC_U+30A4_U+30E4_U+30FC 1
 62
   179
420
  2234388
370
     9
100
AcDbVertex
100
AcDb2dVertex
 10
71.19891457245325
 20
-146.7807085744158
 30
0.0
  0
SEQEND
  5
B0
330
AD
100
AcDbEntity
  8
_U+30EC_U+30A4_U+30E4_U+30FC 1
 62
   179
420
  2234388
370
     9
  0
POLYLINE
  5
B1
330
1F
100
AcDbEntity
  8
_U+30EC_U+30A4_U+30E4_U+30FC 1
 62
   179
420
  2234388
370
     9
100
AcDb2dPolyline
 66
     1
 10
0.0
 20
0.0
 30
0.0
  0
VERTEX
  5
B2
330
B1
100
AcDbEntity
  8
_U+30EC_U+30A4_U+30E4_U+30FC 1
 62
   179
420
  2234388
370
     9
100
AcDbVertex
100
AcDb2dVertex
 10
71.19891457245325
 20
-113.7808169159992
 30
0.0
  0
VERTEX
  5
B3
330
B1
100
AcDbEntity
  8
_U+30EC_U+30A4_U+30E4_U+30FC 1
 62
   179
420
  2234388
370
     9
100
AcDbVertex
100
AcDb2dVertex
 10
111.1993979964004
 20
-113.7808169159992
 30
0.0
  0
SEQEND
  5
B4
330
B1
100
AcDbEntity
  8
_U+30EC_U+30A4_U+30E4_U+30FC 1
 62
   179
420
  2234388
370
     9
  0
POLYLINE
  5
B5
330
1F
100
AcDbEntity
  8
_U+30EC_U+30A4_U+30E4_U+30FC 1
 62
   179
420
  2234388
370
     9
100
AcDb2dPolyline
 66
     1
 10
0.0
 20
0.0
 30
0.0
  0
VERTEX
  5
B6
330
B5
100
AcDbEntity
  8
_U+30EC_U+30A4_U+30E4_U+30FC 1
 62
   179
420
  2234388
370
     9
100
AcDbVertex
100
AcDb2dVertex
 10
71.19891457245325
 20
-115.2408583045233
 30
0.0
  0
VERTEX
  5
B7
330
B5
100
AcDbEntity
  8
_U+30EC_U+30A4_U+30E4_U+30FC 1
 62
   179
420
  2234388
370
     9
100
AcDbVertex
100
AcDb2dVertex
 10
71.19891457245325
 20
-112.7803744162493
 30
0.0
  0
SEQEND
  5
B8
330
B5
100
AcDbEntity
  8
_U+30EC_U+30A4_U+30E4_U+30FC 1
 62
   179
420
  2234388
370
     9
  0
POLYLINE
  5
B9
330
1F
100
AcDbEntity
  8
_U+30EC_U+30A4_U+30E4_U+30FC 1
 62
   179
420
  2234388
370
     9
100
AcDb2dPolyline
 66
     1
 10
0.0
 20
0.0
 30
0.0
  0
VERTEX
  5
BA
330
B9
100
AcDbEntity
  8
_U+30EC_U+30A4_U+30E4_U+30FC 1
 62
   179
420
  2234388
370
     9
100
AcDbVertex
100
AcDb2dVertex
 10
111.1993979964004
 20
-122.2406044138842
 30
0.0
  0
VERTEX
  5
BB
330
B9
100
AcDbEntity
  8
_U+30EC_U+30A4_U+30E4_U+30FC 1
 62
   179
420
  2234388
370
     9
100
AcDbVertex
100
AcDb2dVertex
 10
111.1993979964004
 20
-112.7803744162493
 30
0.0
  0
SEQEND
  5
BC
330
B9
100
AcDbEntity
  8
_U+30EC_U+30A4_U+30E4_U+30FC 1
 62
   179
420
  2234388
370
     9
  0
POLYLINE
  5
BD
330
1F
100
AcDbEntity
  8
_U+30EC_U+30A4_U+30E4_U+30FC 1
 62
   179
420
  2234388
370
     9
100
AcDb2dPolyline
 66
     1
 10
0.0
 20
0.0
 30
0.0
  0
VERTEX
  5
BE
330
BD
100
AcDbEntity
  8
_U+30EC_U+30A4_U+30E4_U+30FC 1
 62
   179
420
  2234388
370
     9
100
AcDbVertex
100
AcDb2dVertex
 10
115.1991570610246
 20
-138.7805199653047
 30
0.0
  0
VERTEX
  5
BF
330
BD
100
AcDbEntity
  8
_U+30EC_U+30A4_U+30E4_U+30FC 1
 62
   179
420
  2234388
370
     9
100
AcDbVertex
100
AcDb2dVertex
 10
115.1991570610246
 20
-126.281003579541
 30
0.0
  0
SEQEND
  5
C0
330
BD
100
AcDbEntity
  8
_U+30EC_U+30A4_U+30E4_U+30FC 1
 62
   179
420
  2234388
370
     9
  0
POLYLINE
  5
C1
330
1F
100
AcDbEntity
  8
_U+30EC_U+30A4_U+30E4_U+30FC 1
 62
   179
420
  2234388
370
     9
100
AcDb2dPolyline
 66
     1
 10
0.0
 20
0.0
 30
0.0
  0
VERTEX
  5
C2
330
C1
100
AcDbEntity
  8
_U+30EC_U+30A4_U+30E4_U+30FC 1
 62
   179
420
  2234388
370
     9
100
AcDbVertex
100
AcDb2dVertex
 10
83.73924703030049
 20
-138.7805199653047
 30
0.0
  0
VERTEX
  5
C3
330
C1
100
AcDbEntity
  8
_U+30EC_U+30A4_U+30E4_U+30FC 1
 62
   179
420
  2234388
370
     9
100
AcDbVertex
100
AcDb2dVertex
 10
116.1989292577406
 20
-138.7805199653047
 30
0.0
  0
SEQEND
  5
C4
330
C1
100
AcDbEntity
  8
_U+30EC_U+30A4_U+30E4_U+30FC 1
 62
   179
420
  2234388
370
     9
  0
POLYLINE
  5
C5
330
1F
100
AcDbEntity
  8
_U+30EC_U+30A4_U+30E4_U+30FC 1
 62
   179
420
  2234388
370
     9
100
AcDb2dPolyline
 66
     1
 10
0.0
 20
0.0
 30
0.0
  0
VERTEX
  5
C6
330
C5
100
AcDbEntity
  8
_U+30EC_U+30A4_U+30E4_U+30FC 1
 62
   179
420
  2234388
370
     9
100
AcDbVertex
100
AcDb2dVertex
 10
113.7391509871614
 20
-126.281003579541
 30
0.0
  0
VERTEX
  5
C7
330
C5
100
AcDbEntity
  8
_U+30EC_U+30A4_U+30E4_U+30FC 1
 62
   179
420
  2234388
370
     9
100
AcDbVertex
100
AcDb2dVertex
 10
116.1989292577406
 20
-126.281003579541
 30
0.0
  0
SEQEND
  5
C8
330
C5
100
AcDbEntity
  8
_U+30EC_U+30A4_U+30E4_U+30FC 1
 62
   179
420
  2234388
370
     9
  0
POLYLINE
  5
C9
330
1F
100
AcDbEntity
  8
_U+30EC_U+30A4_U+30E4_U+30FC 1
 62
   179
420
  2234388
370
     9
100
AcDb2dPolyline
 66
     1
 10
0.0
 20
0.0
 30
0.0
  0
VERTEX
  5
CA
330
C9
100
AcDbEntity
  8
_U+30EC_U+30A4_U+30E4_U+30FC 1
 62
   179
420
  2234388
370
     9
100
AcDbVertex
100
AcDb2dVertex
 10
67.19933189671333
 20
-141.780506908999
 30
0.0
  0
VERTEX
  5
CB
330
C9
100
AcDbEntity
  8
_U+30EC_U+30A4_U+30E4_U+30FC 1
 62
   179
420
  2234388
370
     9
100
AcDbVertex
100
AcDb2dVertex
 10
67.19933189671333
 20
-117.7805760816661
 30
0.0
  0
SEQEND
  5
CC
330
C9
100
AcDbEntity
  8
_U+30EC_U+30A4_U+30E4_U+30FC 1
 62
   179
420
  2234388
370
     9
  0
POLYLINE
  5
CD
330
1F
100
AcDbEntity
  8
_U+30EC_U+30A4_U+30E4_U+30FC 1
 62
   179
420
  2234388
370
     9
100
AcDb2dPolyline
 66
     1
 10
0.0
 20
0.0
 30
0.0
  0
VERTEX
  5
CE
330
CD
100
AcDbEntity
  8
_U+30EC_U+30A4_U+30E4_U+30FC 1
 62
   179
420
  2234388
370
     9
100
AcDbVertex
100
AcDb2dVertex
 10
68.65919685946906
 20
-141.780506908999
 30
0.0
  0
VERTEX
  5
CF
330
CD
100
AcDbEntity
  8
_U+30EC_U+30A4_U+30E4_U+30FC 1
 62
   179
420
  2234388
370
     9
100
AcDbVertex
100
AcDb2dVertex
 10
66.19955969999742
 20
-141.780506908999
 30
0.0
  0
SEQEND
  5
D0
330
CD
100
AcDbEntity
  8
_U+30EC_U+30A4_U+30E4_U+30FC 1
 62
   179
420
  2234388
370
     9
  0
POLYLINE
  5
D1
330
1F
100
AcDbEntity
  8
_U+30EC_U+30A4_U+30E4_U+30FC 1
 62
   179
420
  2234388
370
     9
100
AcDb2dPolyline
 66
     1
 10
0.0
 20
0.0
 30
0.0
  0
VERTEX
  5
D2
330
D1
100
AcDbEntity
  8
_U+30EC_U+30A4_U+30E4_U+30FC 1
 62
   179
420
  2234388
370
     9
100
AcDbVertex
100
AcDb2dVertex
 10
68.65919685946906
 20
-117.7805760816661
 30
0.0
  0
VERTEX
  5
D3
330
D1
100
AcDbEntity
  8
_U+30EC_U+30A4_U+30E4_U+30FC 1
 62
   179
420
  2234388
370
     9
100
AcDbVertex
100
AcDb2dVertex
 10
66.19955969999742
 20
-117.7805760816661
 30
0.0
  0
SEQEND
  5
D4
330
D1
100
AcDbEntity
  8
_U+30EC_U+30A4_U+30E4_U+30FC 1
 62
   179
420
  2234388
370
     9
  0
POLYLINE
  5
D5
330
1F
100
AcDbEntity
  8
_U+30EC_U+30A4_U+30E4_U+30FC 1
 62
   179
420
  2234388
370
     9
100
AcDb2dPolyline
 66
     1
 10
0.0
 20
0.0
 30
0.0
  0
VERTEX
  5
D6
330
D5
100
AcDbEntity
  8
_U+30EC_U+30A4_U+30E4_U+30FC 1
 62
   179
420
  2234388
370
     9
100
AcDbVertex
100
AcDb2dVertex
 10
74.27263199403619
 20
-112.171973860846
 30
0.0
  0
VERTEX
  5
D7
330
D5
100
AcDbEntity
  8
_U+30EC_U+30A4_U+30E4_U+30FC 1
 62
   179
420
  2234388
370
     9
100
AcDbVertex
100
AcDb2dVertex
 10
74.27263199403619
 20
-110.7608627500877
 30
0.0
  0
SEQEND
  5
D8
330
D5
100
AcDbEntity
  8
_U+30EC_U+30A4_U+30E4_U+30FC 1
 62
   179
420
  2234388
370
     9
  0
POLYLINE
  5
D9
330
1F
100
AcDbEntity
  8
_U+30EC_U+30A4_U+30E4_U+30FC 1
 62
   179
420
  2234388
370
     9
100
AcDb2dPolyline
 66
     1
 10
0.0
 20
0.0
 30
0.0
  0
VERTEX
  5
DA
330
D9
100
AcDbEntity
  8
_U+30EC_U+30A4_U+30E4_U+30FC 1
 62
   179
420
  2234388
370
     9
100
AcDbVertex
100
AcDb2dVertex
 10
71.27402095942601
 20
-112.171973860846
 30
0.0
  0
VERTEX
  5
DB
330
D9
100
AcDbEntity
  8
_U+30EC_U+30A4_U+30E4_U+30FC 1
 62
   179
420
  2234388
370
     9
100
AcDbVertex
100
AcDb2dVertex
 10
71.27402095942601
 20
-110.7608627500877
 30
0.0
  0
SEQEND
  5
DC
330
D9
100
AcDbEntity
  8
_U+30EC_U+30A4_U+30E4_U+30FC 1
 62
   179
420
  2234388
370
     9
  0
POLYLINE
  5
DD
330
1F
100
AcDbEntity
  8
_U+30EC_U+30A4_U+30E4_U+30FC 1
 62
   179
420
  2234388
370
     9
100
AcDb2dPolyline
 66
     1
 10
0.0
 20
0.0
 30
0.0
  0
VERTEX
  5
DE
330
DD
100
AcDbEntity
  8
_U+30EC_U+30A4_U+30E4_U+30FC 1
 62
   179
420
  2234388
370
     9
100
AcDbVertex
100
AcDb2dVertex
 10
70.02345904688606
 20
-111.4664183054669
 30
0.0
  0
VERTEX
  5
DF
330
DD
100
AcDbEntity
  8
_U+30EC_U+30A4_U+30E4_U+30FC 1
 62
   179
420
  2234388
370
     9
100
AcDbVertex
100
AcDb2dVertex
 10
75.40332002074548
 20
-111.4664183054669
 30
0.0
  0
SEQEND
  5
E0
330
DD
100
AcDbEntity
  8
_U+30EC_U+30A4_U+30E4_U+30FC 1
 62
   179
420
  2234388
370
     9
  0
INSERT
  5
E2
330
1F
100
AcDbEntity
  8
_U+30EC_U+30A4_U+30E4_U+30FC 1
100
AcDbBlockReference
  2
block 2
 10
0.0
 20
0.0
 30
0.0
  0
INSERT
  5
E8
330
1F
100
AcDbEntity
  8
_U+30EC_U+30A4_U+30E4_U+30FC 1
100
AcDbBlockReference
  2
block 3
 10
0.0
 20
0.0
 30
0.0
  0
INSERT
  5
EE
330
1F
100
AcDbEntity
  8
_U+30EC_U+30A4_U+30E4_U+30FC 1
100
AcDbBlockReference
  2
block 4
 10
0.0
 20
0.0
 30
0.0
  0
INSERT
  5
F4
330
1F
100
AcDbEntity
  8
_U+30EC_U+30A4_U+30E4_U+30FC 1
100
AcDbBlockReference
  2
block 5
 10
0.0
 20
0.0
 30
0.0
  0
INSERT
  5
FD
330
1F
100
AcDbEntity
  8
_U+30EC_U+30A4_U+30E4_U+30FC 1
100
AcDbBlockReference
  2
block 6
 10
0.0
 20
0.0
 30
0.0
  0
INSERT
  5
119
330
1F
100
AcDbEntity
  8
_U+30EC_U+30A4_U+30E4_U+30FC 1
100
AcDbBlockReference
  2
block 7
 10
0.0
 20
0.0
 30
0.0
  0
INSERT
  5
12B
330
1F
100
AcDbEntity
  8
_U+30EC_U+30A4_U+30E4_U+30FC 1
100
AcDbBlockReference
  2
block 8
 10
0.0
 20
0.0
 30
0.0
  0
ENDSEC
  0
SECTION
  2
OBJECTS
  0
DICTIONARY
  5
C
330
0
100
AcDbDictionary
281
     1
  3
ACAD_GROUP
350
D
  3
ACAD_LAYOUT
350
1A
  3
ACAD_MATERIAL
350
3B
  3
ACAD_MLEADERSTYLE
350
146
  3
ACAD_MLINESTYLE
350
17
  3
ACAD_PLOTSETTINGS
350
19
  3
ACAD_PLOTSTYLENAME
350
E
  3
ACAD_TABLESTYLE
350
145
  3
ACAD_VISUALSTYLE
350
2A
  0
SUN
  5
3F
330
29
100
AcDbSun
 90
        1
290
     0
 63
     7
421
 16777215
 40
1.0
291
     1
 91
  2455826
 92
 54000000
292
     0
 70
     2
 71
   256
280
     1
  0
DICTIONARY
  5
D
102
{ACAD_REACTORS
330
C
102
}
330
C
100
AcDbDictionary
281
     1
  0
DICTIONARY
  5
1A
102
{ACAD_REACTORS
330
C
102
}
330
C
100
AcDbDictionary
281
     1
  3
Layout1
350
1E
  3
Layout2
350
26
  3
Model
350
22
  0
DICTIONARY
  5
3B
102
{ACAD_REACTORS
330
C
102
}
330
C
100
AcDbDictionary
281
     1
  3
ByBlock
350
3D
  3
ByLayer
350
3C
  3
Global
350
3E
  0
DICTIONARY
  5
146
102
{ACAD_REACTORS
330
C
102
}
330
C
100
AcDbDictionary
281
     1
  0
DICTIONARY
  5
17
102
{ACAD_REACTORS
330
C
102
}
330
C
100
AcDbDictionary
281
     1
  3
Standard
350
18
  0
DICTIONARY
  5
19
102
{ACAD_REACTORS
330
C
102
}
330
C
100
AcDbDictionary
281
     1
  0
ACDBDICTIONARYWDFLT
  5
E
102
{ACAD_REACTORS
330
C
102
}
330
C
100
AcDbDictionary
281
     1
  3
Normal
350
F
100
AcDbDictionaryWithDefault
340
F
  0
DICTIONARY
  5
145
102
{ACAD_REACTORS
330
C
102
}
330
C
100
AcDbDictionary
281
     1
  0
DICTIONARY
  5
2A
102
{ACAD_REACTORS
330
C
102
}
330
C
100
AcDbDictionary
281
     1
  3
2dWireframe
350
2F
  3
3D Hidden
350
31
  3
3dWireframe
350
30
  3
Basic
350
32
  3
Brighten
350
36
  3
ColorChange
350
3A
  3
Conceptual
350
34
  3
Dim
350
35
  3
Facepattern
350
39
  3
Flat
350
2B
  3
FlatWithEdges
350
2C
  3
Gouraud
350
2D
  3
GouraudWithEdges
350
2E
  3
Linepattern
350
38
  3
Realistic
350
33
  3
Thicken
350
37
  0
LAYOUT
  5
1E
102
{ACAD_REACTORS
330
1A
102
}
330
1A
100
AcDbPlotSettings
  1

  2
none_device
  4

  6

 40
0.0
 41
0.0
 42
0.0
 43
0.0
 44
0.0
 45
0.0
 46
0.0
 47
0.0
 48
0.0
 49
0.0
140
0.0
141
0.0
142
1.0
143
1.0
 70
   688
 72
     0
 73
     0
 74
     5
  7

 75
    16
 76
     0
 77
     2
 78
   300
147
1.0
148
0.0
149
0.0
100
AcDbLayout
  1
Layout1
 70
     1
 71
     1
 10
0.0
 20
0.0
 11
12.0
 21
9.0
 12
0.0
 22
0.0
 32
0.0
 14
1.000000000000000E+20
 24
1.000000000000000E+20
 34
1.000000000000000E+20
 15
-1.000000000000000E+20
 25
-1.000000000000000E+20
 35
-1.000000000000000E+20
146
0.0
 13
0.0
 23
0.0
 33
0.0
 16
1.0
 26
0.0
 36
0.0
 17
0.0
 27
1.0
 37
0.0
 76
     0
330
1B
  0
LAYOUT
  5
26
102
{ACAD_REACTORS
330
1A
102
}
330
1A
100
AcDbPlotSettings
  1

  2
none_device
  4

  6

 40
0.0
 41
0.0
 42
0.0
 43
0.0
 44
0.0
 45
0.0
 46
0.0
 47
0.0
 48
0.0
 49
0.0
140
0.0
141
0.0
142
1.0
143
1.0
 70
   688
 72
     0
 73
     0
 74
     5
  7

 75
    16
 76
     0
 77
     2
 78
   300
147
1.0
148
0.0
149
0.0
100
AcDbLayout
  1
Layout2
 70
     1
 71
     2
 10
0.0
 20
0.0
 11
0.0
 21
0.0
 12
0.0
 22
0.0
 32
0.0
 14
0.0
 24
0.0
 34
0.0
 15
0.0
 25
0.0
 35
0.0
146
0.0
 13
0.0
 23
0.0
 33
0.0
 16
1.0
 26
0.0
 36
0.0
 17
0.0
 27
1.0
 37
0.0
 76
     0
330
23
  0
LAYOUT
  5
22
102
{ACAD_REACTORS
330
1A
102
}
330
1A
100
AcDbPlotSettings
  1

  2
none_device
  4

  6

 40
0.0
 41
0.0
 42
0.0
 43
0.0
 44
0.0
 45
0.0
 46
0.0
 47
0.0
 48
0.0
 49
0.0
140
0.0
141
0.0
142
1.0
143
1.0
 70
  1712
 72
     0
 73
     0
 74
     0
  7

 75
     0
 76
     0
 77
     2
 78
   300
147
1.0
148
0.0
149
0.0
100
AcDbLayout
  1
Model
 70
     1
 71
     0
 10
0.0
 20
0.0
 11
12.0
 21
9.0
 12
0.0
 22
0.0
 32
0.0
 14
1.000000000000000E+20
 24
1.000000000000000E+20
 34
1.000000000000000E+20
 15
-1.000000000000000E+20
 25
-1.000000000000000E+20
 35
-1.000000000000000E+20
146
0.0
 13
0.0
 23
0.0
 33
0.0
 16
1.0
 26
0.0
 36
0.0
 17
0.0
 27
1.0
 37
0.0
 76
     0
330
1F
331
29
  0
MATERIAL
  5
3D
102
{ACAD_REACTORS
330
3B
102
}
330
3B
100
AcDbMaterial
  1
ByBlock
 72
     1
 94
      127
  0
MATERIAL
  5
3C
102
{ACAD_REACTORS
330
3B
102
}
330
3B
100
AcDbMaterial
  1
ByLayer
 72
     1
 94
      127
  0
MATERIAL
  5
3E
102
{ACAD_REACTORS
330
3B
102
}
330
3B
100
AcDbMaterial
  1
Global
 72
     1
 94
      127
  0
MLINESTYLE
  5
18
102
{ACAD_REACTORS
330
17
102
}
330
17
100
AcDbMlineStyle
  2
Standard
 70
     0
  3

 62
   256
 51
90.0
 52
90.0
 71
     2
 49
0.5
 62
   256
  6
BYLAYER
 49
-0.5
 62
   256
  6
BYLAYER
  0
ACDBPLACEHOLDER
  5
F
102
{ACAD_REACTORS
330
E
102
}
330
E
  0
VISUALSTYLE
  5
2F
102
{ACAD_REACTORS
330
2A
102
}
330
2A
100
AcDbVisualStyle
  2
2dWireframe
 70
     4
177
     2
291
     0
 71
     0
176
     1
 72
     2
176
     1
 73
     0
176
     1
 90
        0
176
     1
 40
-0.6
176
     1
 41
-30.0
176
     1
 62
     5
 63
     7
421
 16777215
176
     1
 74
     1
176
     1
 91
        4
176
     1
 64
     7
176
     1
 65
   257
176
     1
 75
     1
176
     1
175
     1
176
     1
 42
1.0
176
     1
 92
        0
176
     1
 66
   257
176
     1
 43
1.0
176
     1
 76
     1
176
     1
 77
     6
176
     1
 78
     2
176
     1
 67
     7
176
     1
 79
     5
176
     1
170
     0
176
     1
171
     0
176
     1
290
     0
176
     1
 93
        1
176
     1
 44
0.0
176
     1
173
     0
176
     1
  0
VISUALSTYLE
  5
31
102
{ACAD_REACTORS
330
2A
102
}
330
2A
100
AcDbVisualStyle
  2
3D Hidden
 70
     6
177
     2
291
     0
 71
     1
176
     1
 72
     2
176
     1
 73
     2
176
     1
 90
        0
176
     1
 40
-0.6
176
     1
 41
-30.0
176
     1
 62
     5
 63
     7
421
 16777215
176
     1
 74
     2
176
     1
 91
        2
176
     1
 64
     7
176
     1
 65
   257
176
     1
 75
     2
176
     1
175
     1
176
     1
 42
40.0
176
     1
 92
        0
176
     1
 66
   257
176
     1
 43
1.0
176
     1
 76
     1
176
     1
 77
     6
176
     1
 78
     2
176
     1
 67
     7
176
     1
 79
     3
176
     1
170
     0
176
     1
171
     0
176
     1
290
     0
176
     1
 93
        1
176
     1
 44
0.0
176
     1
173
     0
176
     1
  0
VISUALSTYLE
  5
30
102
{ACAD_REACTORS
330
2A
102
}
330
2A
100
AcDbVisualStyle
  2
3dWireframe
 70
     5
177
     2
291
     0
 71
     0
176
     1
 72
     2
176
     1
 73
     0
176
     1
 90
        0
176
     1
 40
-0.6
176
     1
 41
-30.0
176
     1
 62
     5
 63
     7
421
 16777215
176
     1
 74
     1
176
     1
 91
        4
176
     1
 64
     7
176
     1
 65
   257
176
     1
 75
     1
176
     1
175
     1
176
     1
 42
1.0
176
     1
 92
        0
176
     1
 66
   257
176
     1
 43
1.0
176
     1
 76
     1
176
     1
 77
     6
176
     1
 78
     2
176
     1
 67
     7
176
     1
 79
     5
176
     1
170
     0
176
     1
171
     0
176
     1
290
     0
176
     1
 93
        1
176
     1
 44
0.0
176
     1
173
     0
176
     1
  0
VISUALSTYLE
  5
32
102
{ACAD_REACTORS
330
2A
102
}
330
2A
100
AcDbVisualStyle
  2
Basic
 70
     7
177
     2
291
     1
 71
     1
176
     1
 72
     0
176
     1
 73
     1
176
     1
 90
        0
176
     1
 40
-0.6
176
     1
 41
-30.0
176
     1
 62
     5
 63
     7
421
 16777215
176
     1
 74
     0
176
     1
 91
        4
176
     1
 64
     7
176
     1
 65
   257
176
     1
 75
     1
176
     1
175
     1
176
     1
 42
1.0
176
     1
 92
        8
176
     1
 66
     7
176
     1
 43
1.0
176
     1
 76
     1
176
     1
 77
     6
176
     1
 78
     2
176
     1
 67
     7
176
     1
 79
     5
176
     1
170
     0
176
     1
171
     0
176
     1
290
     0
176
     1
 93
        1
176
     1
 44
0.0
176
     1
173
     0
176
     1
  0
VISUALSTYLE
  5
36
102
{ACAD_REACTORS
330
2A
102
}
330
2A
100
AcDbVisualStyle
  2
Brighten
 70
    12
177
     2
291
     1
 71
     2
176
     1
 72
     2
176
     1
 73
     0
176
     1
 90
        0
176
     1
 40
-0.6
176
     1
 41
-30.0
176
     1
 62
     5
 63
     7
421
 16777215
176
     1
 74
     1
176
     1
 91
        4
176
     1
 64
     7
176
     1
 65
   257
176
     1
 75
     1
176
     1
175
     1
176
     1
 42
1.0
176
     1
 92
        8
176
     1
 66
     7
176
     1
 43
1.0
176
     1
 76
     1
176
     1
 77
     6
176
     1
 78
     2
176
     1
 67
     7
176
     1
 79
     5
176
     1
170
     0
176
     1
171
     0
176
     1
290
     0
176
     1
 93
        1
176
     1
 44
50.0
176
     1
173
     0
176
     1
  0
VISUALSTYLE
  5
3A
102
{ACAD_REACTORS
330
2A
102
}
330
2A
100
AcDbVisualStyle
  2
ColorChange
 70
    16
177
     2
291
     1
 71
     2
176
     1
 72
     2
176
     1
 73
     3
176
     1
 90
        0
176
     1
 40
-0.6
176
     1
 41
-30.0
176
     1
 62
     5
 63
     8
421
  8421504
176
     1
 74
     1
176
     1
 91
        4
176
     1
 64
     7
176
     1
 65
   257
176
     1
 75
     1
176
     1
175
     1
176
     1
 42
1.0
176
     1
 92
        8
176
     1
 66
     8
424
  8421504
176
     1
 43
1.0
176
     1
 76
     1
176
     1
 77
     6
176
     1
 78
     2
176
     1
 67
     7
176
     1
 79
     5
176
     1
170
     0
176
     1
171
     0
176
     1
290
     0
176
     1
 93
        1
176
     1
 44
0.0
176
     1
173
     0
176
     1
  0
VISUALSTYLE
  5
34
102
{ACAD_REACTORS
330
2A
102
}
330
2A
100
AcDbVisualStyle
  2
Conceptual
 70
     9
177
     2
291
     0
 71
     3
176
     1
 72
     2
176
     1
 73
     0
176
     1
 90
        0
176
     1
 40
-0.6
176
     1
 41
-30.0
176
     1
 62
     5
 63
     7
421
 16777215
176
     1
 74
     2
176
     1
 91
        2
176
     1
 64
     7
176
     1
 65
   257
176
     1
 75
     1
176
     1
175
     1
176
     1
 42
40.0
176
     1
 92
        8
176
     1
 66
     7
176
     1
 43
1.0
176
     1
 76
     1
176
     1
 77
     6
176
     1
 78
     2
176
     1
 67
     7
176
     1
 79
     3
176
     1
170
     0
176
     1
171
     0
176
     1
290
     0
176
     1
 93
        1
176
     1
 44
0.0
176
     1
173
     0
176
     1
  0
VISUALSTYLE
  5
35
102
{ACAD_REACTORS
330
2A
102
}
330
2A
100
AcDbVisualStyle
  2
Dim
 70
    11
177
     2
291
     1
 71
     2
176
     1
 72
     2
176
     1
 73
     0
176
     1
 90
        0
176
     1
 40
-0.6
176
     1
 41
-30.0
176
     1
 62
     5
 63
     7
421
 16777215
176
     1
 74
     1
176
     1
 91
        4
176
     1
 64
     7
176
     1
 65
   257
176
     1
 75
     1
176
     1
175
     1
176
     1
 42
1.0
176
     1
 92
        8
176
     1
 66
     7
176
     1
 43
1.0
176
     1
 76
     1
176
     1
 77
     6
176
     1
 78
     2
176
     1
 67
     7
176
     1
 79
     5
176
     1
170
     0
176
     1
171
     0
176
     1
290
     0
176
     1
 93
        1
176
     1
 44
-50.0
176
     1
173
     0
176
     1
  0
VISUALSTYLE
  5
39
102
{ACAD_REACTORS
330
2A
102
}
330
2A
100
AcDbVisualStyle
  2
Facepattern
 70
    15
177
     2
291
     1
 71
     2
176
     1
 72
     2
176
     1
 73
     0
176
     1
 90
        0
176
     1
 40
-0.6
176
     1
 41
-30.0
176
     1
 62
     5
 63
     7
421
 16777215
176
     1
 74
     1
176
     1
 91
        4
176
     1
 64
     7
176
     1
 65
   257
176
     1
 75
     1
176
     1
175
     1
176
     1
 42
1.0
176
     1
 92
        8
176
     1
 66
     7
176
     1
 43
1.0
176
     1
 76
     1
176
     1
 77
     6
176
     1
 78
     2
176
     1
 67
     7
176
     1
 79
     5
176
     1
170
     0
176
     1
171
     0
176
     1
290
     0
176
     1
 93
        1
176
     1
 44
0.0
176
     1
173
     0
176
     1
  0
VISUALSTYLE
  5
2B
102
{ACAD_REACTORS
330
2A
102
}
330
2A
100
AcDbVisualStyle
  2
Flat
 70
     0
177
     2
291
     1
 71
     2
176
     1
 72
     1
176
     1
 73
     1
176
     1
 90
        2
176
     1
 40
-0.6
176
     1
 41
30.0
176
     1
 62
     5
 63
     7
421
 16777215
176
     1
 74
     0
176
     1
 91
        4
176
     1
 64
     7
176
     1
 65
   257
176
     1
 75
     1
176
     1
175
     1
176
     1
 42
1.0
176
     1
 92
        8
176
     1
 66
     7
176
     1
 43
1.0
176
     1
 76
     1
176
     1
 77
     6
176
     1
 78
     2
176
     1
 67
     7
176
     1
 79
     5
176
     1
170
     0
176
     1
171
     0
176
     1
290
     0
176
     1
 93
       13
176
     1
 44
0.0
176
     1
173
     0
176
     1
  0
VISUALSTYLE
  5
2C
102
{ACAD_REACTORS
330
2A
102
}
330
2A
100
AcDbVisualStyle
  2
FlatWithEdges
 70
     1
177
     2
291
     1
 71
     2
176
     1
 72
     1
176
     1
 73
     1
176
     1
 90
        2
176
     1
 40
-0.6
176
     1
 41
30.0
176
     1
 62
     5
 63
     7
421
 16777215
176
     1
 74
     1
176
     1
 91
        4
176
     1
 64
     7
176
     1
 65
   257
176
     1
 75
     1
176
     1
175
     1
176
     1
 42
1.0
176
     1
 92
        0
176
     1
 66
   257
176
     1
 43
1.0
176
     1
 76
     1
176
     1
 77
     6
176
     1
 78
     2
176
     1
 67
     7
176
     1
 79
     5
176
     1
170
     0
176
     1
171
     0
176
     1
290
     0
176
     1
 93
       13
176
     1
 44
0.0
176
     1
173
     0
176
     1
  0
VISUALSTYLE
  5
2D
102
{ACAD_REACTORS
330
2A
102
}
330
2A
100
AcDbVisualStyle
  2
Gouraud
 70
     2
177
     2
291
     1
 71
     2
176
     1
 72
     2
176
     1
 73
     1
176
     1
 90
        2
176
     1
 40
-0.6
176
     1
 41
30.0
176
     1
 62
     5
 63
     7
421
 16777215
176
     1
 74
     0
176
     1
 91
        4
176
     1
 64
     7
176
     1
 65
   257
176
     1
 75
     1
176
     1
175
     1
176
     1
 42
1.0
176
     1
 92
        0
176
     1
 66
     7
176
     1
 43
1.0
176
     1
 76
     1
176
     1
 77
     6
176
     1
 78
     2
176
     1
 67
     7
176
     1
 79
     5
176
     1
170
     0
176
     1
171
     0
176
     1
290
     0
176
     1
 93
       13
176
     1
 44
0.0
176
     1
173
     0
176
     1
  0
VISUALSTYLE
  5
2E
102
{ACAD_REACTORS
330
2A
102
}
330
2A
100
AcDbVisualStyle
  2
GouraudWithEdges
 70
     3
177
     2
291
     1
 71
     2
176
     1
 72
     2
176
     1
 73
     1
176
     1
 90
        2
176
     1
 40
-0.6
176
     1
 41
30.0
176
     1
 62
     5
 63
     7
421
 16777215
176
     1
 74
     1
176
     1
 91
        4
176
     1
 64
     7
176
     1
 65
   257
176
     1
 75
     1
176
     1
175
     1
176
     1
 42
1.0
176
     1
 92
        0
176
     1
 66
   257
176
     1
 43
1.0
176
     1
 76
     1
176
     1
 77
     6
176
     1
 78
     2
176
     1
 67
     7
176
     1
 79
     5
176
     1
170
     0
176
     1
171
     0
176
     1
290
     0
176
     1
 93
       13
176
     1
 44
0.0
176
     1
173
     0
176
     1
  0
VISUALSTYLE
  5
38
102
{ACAD_REACTORS
330
2A
102
}
330
2A
100
AcDbVisualStyle
  2
Linepattern
 70
    14
177
     2
291
     1
 71
     2
176
     1
 72
     2
176
     1
 73
     0
176
     1
 90
        0
176
     1
 40
-0.6
176
     1
 41
-30.0
176
     1
 62
     5
 63
     7
421
 16777215
176
     1
 74
     1
176
     1
 91
        4
176
     1
 64
     7
176
     1
 65
   257
176
     1
 75
     7
176
     1
175
     7
176
     1
 42
1.0
176
     1
 92
        8
176
     1
 66
     7
176
     1
 43
1.0
176
     1
 76
     1
176
     1
 77
     6
176
     1
 78
     2
176
     1
 67
     7
176
     1
 79
     5
176
     1
170
     0
176
     1
171
     0
176
     1
290
     0
176
     1
 93
        1
176
     1
 44
0.0
176
     1
173
     0
176
     1
  0
VISUALSTYLE
  5
33
102
{ACAD_REACTORS
330
2A
102
}
330
2A
100
AcDbVisualStyle
  2
Realistic
 70
     8
177
     2
291
     0
 71
     2
176
     1
 72
     2
176
     1
 73
     0
176
     1
 90
        0
176
     1
 40
-0.6
176
     1
 41
-30.0
176
     1
 62
     5
 63
     7
421
 16777215
176
     1
 74
     1
176
     1
 91
        0
176
     1
 64
     7
176
     1
 65
   257
176
     1
 75
     1
176
     1
175
     1
176
     1
 42
1.0
176
     1
 92
        8
176
     1
 66
     8
424
  7895160
176
     1
 43
1.0
176
     1
 76
     1
176
     1
 77
     6
176
     1
 78
     2
176
     1
 67
     7
176
     1
 79
     5
176
     1
170
     0
176
     1
171
     0
176
     1
290
     0
176
     1
 93
       13
176
     1
 44
0.0
176
     1
173
     0
176
     1
  0
VISUALSTYLE
  5
37
102
{ACAD_REACTORS
330
2A
102
}
330
2A
100
AcDbVisualStyle
  2
Thicken
 70
    13
177
     2
291
     1
 71
     2
176
     1
 72
     2
176
     1
 73
     0
176
     1
 90
        0
176
     1
 40
-0.6
176
     1
 41
-30.0
176
     1
 62
     5
 63
     7
421
 16777215
176
     1
 74
     1
176
     1
 91
        4
176
     1
 64
     7
176
     1
 65
   257
176
     1
 75
     1
176
     1
175
     1
176
     1
 42
1.0
176
     1
 92
       12
176
     1
 66
     7
176
     1
 43
1.0
176
     1
 76
     1
176
     1
 77
     6
176
     1
 78
     2
176
     1
 67
     7
176
     1
 79
     5
176
     1
170
     0
176
     1
171
     0
176
     1
290
     0
176
     1
 93
        1
176
     1
 44
0.0
176
     1
173
     0
176
     1
  0
ENDSEC
  0
EOF
