  0
SECTION
  2
HEADER
  9
$ACADVER
  1
AC1024
  9
$ACADMAINTVER
 70
     6
  9
$DWGCODEPAGE
  3
UNDEFINED
  9
$INSBASE
 10
0.0
 20
0.0
 30
0.0
  9
$EXTMIN
 10
1.000000000000000E+20
 20
1.000000000000000E+20
 30
1.000000000000000E+20
  9
$EXTMAX
 10
-1.000000000000000E+20
 20
-1.000000000000000E+20
 30
-1.000000000000000E+20
  9
$LIMMIN
 10
0.0
 20
0.0
  9
$LIMMAX
 10
12.0
 20
9.0
  9
$ORTHOMODE
 70
     0
  9
$REGENMODE
 70
     1
  9
$FILLMODE
 70
     1
  9
$QTEXTMODE
 70
     0
  9
$MIRRTEXT
 70
     1
  9
$LTSCALE
 40
1.0
  9
$ATTMODE
 70
     1
  9
$TEXTSIZE
 40
0.2
  9
$TRACEWID
 40
0.05
  9
$TEXTSTYLE
  7
Standard
  9
$CLAYER
  8
0
  9
$CELTYPE
  6
ByLayer
  9
$CECOLOR
 62
   256
  9
$CELTSCALE
 40
1.0
  9
$DISPSILH
 70
     0
  9
$DIMSCALE
 40
1.0
  9
$DIMASZ
 40
0.18
  9
$DIMEXO
 40
0.0625
  9
$DIMDLI
 40
0.38
  9
$DIMRND
 40
0.0
  9
$DIMDLE
 40
0.0
  9
$DIMEXE
 40
0.18
  9
$DIMTP
 40
0.0
  9
$DIMTM
 40
0.0
  9
$DIMTXT
 40
0.18
  9
$DIMCEN
 40
0.09
  9
$DIMTSZ
 40
0.0
  9
$DIMTOL
 70
     0
  9
$DIMLIM
 70
     0
  9
$DIMTIH
 70
     1
  9
$DIMTOH
 70
     1
  9
$DIMSE1
 70
     0
  9
$DIMSE2
 70
     0
  9
$DIMTAD
 70
     0
  9
$DIMZIN
 70
     0
  9
$DIMBLK
  1

  9
$DIMASO
 70
     1
  9
$DIMSHO
 70
     1
  9
$DIMPOST
  1

  9
$DIMAPOST
  1

  9
$DIMALT
 70
     0
  9
$DIMALTD
 70
     2
  9
$DIMALTF
 40
25.4
  9
$DIMLFAC
 40
1.0
  9
$DIMTOFL
 70
     0
  9
$DIMTVP
 40
0.0
  9
$DIMTIX
 70
     0
  9
$DIMSOXD
 70
     0
  9
$DIMSAH
 70
     0
  9
$DIMBLK1
  1

  9
$DIMBLK2
  1

  9
$DIMSTYLE
  2
Standard
  9
$DIMCLRD
 70
     0
  9
$DIMCLRE
 70
     0
  9
$DIMCLRT
 70
     0
  9
$DIMTFAC
 40
1.0
  9
$DIMGAP
 40
0.09
  9
$DIMJUST
 70
     0
  9
$DIMSD1
 70
     0
  9
$DIMSD2
 70
     0
  9
$DIMTOLJ
 70
     1
  9
$DIMTZIN
 70
     0
  9
$DIMALTZ
 70
     0
  9
$DIMALTTZ
 70
     0
  9
$DIMUPT
 70
     0
  9
$DIMDEC
 70
     4
  9
$DIMTDEC
 70
     4
  9
$DIMALTU
 70
     2
  9
$DIMALTTD
 70
     2
  9
$DIMTXSTY
  7
Standard
  9
$DIMAUNIT
 70
     0
  9
$DIMADEC
 70
     0
  9
$DIMALTRND
 40
0.0
  9
$DIMAZIN
 70
     0
  9
$DIMDSEP
 70
    46
  9
$DIMATFIT
 70
     3
  9
$DIMFRAC
 70
     0
  9
$DIMLDRBLK
  1

  9
$DIMLUNIT
 70
     2
  9
$DIMLWD
 70
    -2
  9
$DIMLWE
 70
    -2
  9
$DIMTMOVE
 70
     0
  9
$DIMFXL
 40
1.0
  9
$DIMFXLON
 70
     0
  9
$DIMJOGANG
 40
0.7853981633974483
  9
$DIMTFILL
 70
     0
  9
$DIMTFILLCLR
 70
     0
  9
$DIMARCSYM
 70
     0
  9
$DIMLTYPE
  6

  9
$DIMLTEX1
  6

  9
$DIMLTEX2
  6

  9
$DIMTXTDIRECTION
 70
     0
  9
$LUNITS
 70
     2
  9
$LUPREC
 70
     4
  9
$SKETCHINC
 40
0.1
  9
$FILLETRAD
 40
0.5
  9
$AUNITS
 70
     0
  9
$AUPREC
 70
     0
  9
$MENU
  1
.
  9
$ELEVATION
 40
0.0
  9
$PELEVATION
 40
0.0
  9
$THICKNESS
 40
0.0
  9
$LIMCHECK
 70
     0
  9
$CHAMFERA
 40
0.5
  9
$CHAMFERB
 40
0.5
  9
$CHAMFERC
 40
1.0
  9
$CHAMFERD
 40
0.0
  9
$SKPOLY
 70
     0
  9
$TDCREATE
 40
2457917.614120359
  9
$TDUCREATE
 40
2457917.23912037
  9
$TDUPDATE
 40
2457917.614120359
  9
$TDUUPDATE
 40
2457917.23912037
  9
$TDINDWG
 40
0.0000000116
  9
$TDUSRTIMER
 40
0.0000000116
  9
$USRTIMER
 70
     1
  9
$ANGBASE
 50
0.0
  9
$ANGDIR
 70
     0
  9
$PDMODE
 70
     0
  9
$PDSIZE
 40
0.0
  9
$PLINEWID
 40
0.0
  9
$SPLFRAME
 70
     0
  9
$SPLINETYPE
 70
     6
  9
$SPLINESEGS
 70
     8
  9
$HANDSEED
  5
133
  9
$SURFTAB1
 70
     6
  9
$SURFTAB2
 70
     6
  9
$SURFTYPE
 70
     6
  9
$SURFU
 70
     6
  9
$SURFV
 70
     6
  9
$UCSBASE
  2

  9
$UCSNAME
  2

  9
$UCSORG
 10
0.0
 20
0.0
 30
0.0
  9
$UCSXDIR
 10
1.0
 20
0.0
 30
0.0
  9
$UCSYDIR
 10
0.0
 20
1.0
 30
0.0
  9
$UCSORTHOREF
  2

  9
$UCSORTHOVIEW
 70
     0
  9
$UCSORGTOP
 10
0.0
 20
0.0
 30
0.0
  9
$UCSORGBOTTOM
 10
0.0
 20
0.0
 30
0.0
  9
$UCSORGLEFT
 10
0.0
 20
0.0
 30
0.0
  9
$UCSORGRIGHT
 10
0.0
 20
0.0
 30
0.0
  9
$UCSORGFRONT
 10
0.0
 20
0.0
 30
0.0
  9
$UCSORGBACK
 10
0.0
 20
0.0
 30
0.0
  9
$PUCSBASE
  2

  9
$PUCSNAME
  2

  9
$PUCSORG
 10
0.0
 20
0.0
 30
0.0
  9
$PUCSXDIR
 10
1.0
 20
0.0
 30
0.0
  9
$PUCSYDIR
 10
0.0
 20
1.0
 30
0.0
  9
$PUCSORTHOREF
  2

  9
$PUCSORTHOVIEW
 70
     0
  9
$PUCSORGTOP
 10
0.0
 20
0.0
 30
0.0
  9
$PUCSORGBOTTOM
 10
0.0
 20
0.0
 30
0.0
  9
$PUCSORGLEFT
 10
0.0
 20
0.0
 30
0.0
  9
$PUCSORGRIGHT
 10
0.0
 20
0.0
 30
0.0
  9
$PUCSORGFRONT
 10
0.0
 20
0.0
 30
0.0
  9
$PUCSORGBACK
 10
0.0
 20
0.0
 30
0.0
  9
$USERI1
 70
     0
  9
$USERI2
 70
     0
  9
$USERI3
 70
     0
  9
$USERI4
 70
     0
  9
$USERI5
 70
     0
  9
$USERR1
 40
0.0
  9
$USERR2
 40
0.0
  9
$USERR3
 40
0.0
  9
$USERR4
 40
0.0
  9
$USERR5
 40
0.0
  9
$WORLDVIEW
 70
     1
  9
$SHADEDGE
 70
     3
  9
$SHADEDIF
 70
    70
  9
$TILEMODE
 70
     1
  9
$MAXACTVP
 70
    64
  9
$PINSBASE
 10
0.0
 20
0.0
 30
0.0
  9
$PLIMCHECK
 70
     0
  9
$PEXTMIN
 10
1.000000000000000E+20
 20
1.000000000000000E+20
 30
1.000000000000000E+20
  9
$PEXTMAX
 10
-1.000000000000000E+20
 20
-1.000000000000000E+20
 30
-1.000000000000000E+20
  9
$PLIMMIN
 10
0.0
 20
0.0
  9
$PLIMMAX
 10
12.0
 20
9.0
  9
$UNITMODE
 70
     0
  9
$VISRETAIN
 70
     1
  9
$PLINEGEN
 70
     0
  9
$PSLTSCALE
 70
     1
  9
$TREEDEPTH
 70
  3020
  9
$CMLSTYLE
  2
Standard
  9
$CMLJUST
 70
     0
  9
$CMLSCALE
 40
1.0
  9
$PROXYGRAPHICS
 70
     1
  9
$MEASUREMENT
 70
     0
  9
$CELWEIGHT
370
    -1
  9
$ENDCAPS
280
     0
  9
$JOINSTYLE
280
     0
  9
$LWDISPLAY
290
     1
  9
$INSUNITS
 70
     1
  9
$HYPERLINKBASE
  1

  9
$STYLESHEET
  1

  9
$XEDIT
290
     1
  9
$CEPSNTYPE
380
     0
  9
$PSTYLEMODE
290
     1
  9
$FINGERPRINTGUID
  2
{049AC38E-58EB-977B-165E-CE19A5CAE217}
  9
$VERSIONGUID
  2
{FAEB1C32-E019-11D5-929B-00C0DF256EC4}
  9
$EXTNAMES
290
     1
  9
$PSVPSCALE
 40
0.0
  9
$OLESTARTUP
290
     0
  9
$SORTENTS
280
   127
  9
$INDEXCTL
280
     0
  9
$HIDETEXT
280
     1
  9
$XCLIPFRAME
280
     2
  9
$HALOGAP
280
     0
  9
$OBSCOLOR
 70
   257
  9
$OBSLTYPE
280
     0
  9
$INTERSECTIONDISPLAY
280
     0
  9
$INTERSECTIONCOLOR
 70
   257
  9
$DIMASSOC
280
     2
  9
$PROJECTNAME
  1

  9
$CAMERADISPLAY
290
     0
  9
$LENSLENGTH
 40
50.0
  9
$CAMERAHEIGHT
 40
0.0
  9
$STEPSPERSEC
 40
2.0
  9
$STEPSIZE
 40
6.0
  9
$3DDWFPREC
 40
2.0
  9
$PSOLWIDTH
 40
0.25
  9
$PSOLHEIGHT
 40
4.0
  9
$LOFTANG1
 40
1.570796326794897
  9
$LOFTANG2
 40
1.570796326794897
  9
$LOFTMAG1
 40
0.0
  9
$LOFTMAG2
 40
0.0
  9
$LOFTPARAM
 70
     7
  9
$LOFTNORMALS
280
     1
  9
$LATITUDE
 40
37.795
  9
$LONGITUDE
 40
-122.394
  9
$NORTHDIRECTION
 40
0.0
  9
$TIMEZONE
 70
 -8000
  9
$LIGHTGLYPHDISPLAY
280
     1
  9
$TILEMODELIGHTSYNCH
280
     1
  9
$CMATERIAL
347
3C
  9
$SOLIDHIST
280
     1
  9
$SHOWHIST
280
     1
  9
$DWFFRAME
280
     2
  9
$DGNFRAME
280
     2
  9
$REALWORLDSCALE
290
     1
  9
$INTERFERECOLOR
 62
   256
  9
$CSHADOW
280
     0
  9
$SHADOWPLANELOCATION
 40
0.0
  0
ENDSEC
  0
SECTION
  2
CLASSES
  0
CLASS
  1
ACDBDICTIONARYWDFLT
  2
AcDbDictionaryWithDefault
  3
ObjectDBX Classes
 90
        0
 91
        4
280
     0
281
     0
  0
CLASS
  1
VISUALSTYLE
  2
AcDbVisualStyle
  3
ObjectDBX Classes
 90
     4095
 91
        4
280
     0
281
     0
  0
CLASS
  1
MATERIAL
  2
AcDbMaterial
  3
ObjectDBX Classes
 90
     1153
 91
        4
280
     0
281
     0
  0
CLASS
  1
SUN
  2
AcDbSun
  3
SCENEOE
 90
     1024
 91
        4
280
     0
281
     0
  0
ENDSEC
  0
SECTION
  2
TABLES
  0
TABLE
  2
VPORT
  5
8
330
0
100
AcDbSymbolTable
 70
     1
  0
VPORT
  5
29
330
8
100
AcDbSymbolTableRecord
100
AcDbViewportTableRecord
  2
*Active
 70
     0
 10
0.0
 20
0.0
 11
1.0
 21
1.0
 12
0.0
 22
0.0
 13
0.0
 23
0.0
 14
0.5
 24
0.5
 15
0.5
 25
0.5
 16
0.0
 26
0.0
 36
1.0
 17
91.00082462281999
 27
-128.4993055234307
 37
0.0
 40
256.9986110468615
 41
0.7081814508812795
 42
50.0
 43
0.0
 44
0.0
 50
0.0
 51
0.0
 71
     0
 72
   100
 73
     1
 74
     3
 75
     0
 76
     0
 77
     0
 78
     0
281
     0
 65
     1
110
0.0
120
0.0
130
0.0
111
1.0
121
0.0
131
0.0
112
0.0
122
1.0
132
0.0
 79
     0
146
0.0
 60
     3
 61
     5
292
     1
282
     1
141
0.0
142
0.0
 63
   250
361
3F
  0
ENDTAB
  0
TABLE
  2
LTYPE
  5
5
330
0
100
AcDbSymbolTable
 70
     1
  0
LTYPE
  5
14
330
5
100
AcDbSymbolTableRecord
100
AcDbLinetypeTableRecord
  2
ByBlock
 70
     0
  3

 72
    65
 73
     0
 40
0.0
  0
LTYPE
  5
15
330
5
100
AcDbSymbolTableRecord
100
AcDbLinetypeTableRecord
  2
ByLayer
 70
     0
  3

 72
    65
 73
     0
 40
0.0
  0
LTYPE
  5
16
330
5
100
AcDbSymbolTableRecord
100
AcDbLinetypeTableRecord
  2
Continuous
 70
     0
  3
Solid line
 72
    65
 73
     0
 40
0.0
  0
ENDTAB
  0
TABLE
  2
LAYER
  5
2
330
0
100
AcDbSymbolTable
 70
     2
  0
LAYER
  5
10
330
2
100
AcDbSymbolTableRecord
100
AcDbLayerTableRecord
  2
0
 70
     0
 62
     7
  6
Continuous
370
    -3
390
F
347
3E
  0
LAYER
  5
40
330
2
100
AcDbSymbolTableRecord
100
AcDbLayerTableRecord
  2
_U+30EC_U+30A4_U+30E4_U+30FC 1
 70
     0
 62
     7
  6
Continuous
370
    -3
390
F
347
3E
  0
ENDTAB
  0
TABLE
  2
STYLE
  5
3
330
0
100
AcDbSymbolTable
 70
     1
  0
STYLE
  5
11
330
3
100
AcDbSymbolTableRecord
100
AcDbTextStyleTableRecord
  2
Standard
 70
     0
 40
0.0
 41
1.0
 50
0.0
 71
     0
 42
0.2
  3
txt
  4

  0
ENDTAB
  0
TABLE
  2
VIEW
  5
6
330
0
100
AcDbSymbolTable
 70
     0
  0
ENDTAB
  0
TABLE
  2
UCS
  5
7
330
0
100
AcDbSymbolTable
 70
     0
  0
ENDTAB
  0
TABLE
  2
APPID
  5
9
330
0
100
AcDbSymbolTable
 70
     1
  0
APPID
  5
12
330
9
100
AcDbSymbolTableRecord
100
AcDbRegAppTableRecord
  2
ACAD
 70
     0
  0
ENDTAB
  0
TABLE
  2
DIMSTYLE
  5
A
330
0
100
AcDbSymbolTable
 70
     1
100
AcDbDimStyleTable
  0
DIMSTYLE
105
27
330
A
100
AcDbSymbolTableRecord
100
AcDbDimStyleTableRecord
  2
Standard
 70
     0
178
     0
340
11
  0
ENDTAB
  0
TABLE
  2
BLOCK_RECORD
  5
1
330
0
100
AcDbSymbolTable
 70
     8
  0
BLOCK_RECORD
  5
1F
330
1
100
AcDbSymbolTableRecord
100
AcDbBlockTableRecord
  2
*Model_Space
340
22
 70
     0
280
     1
281
     0
  0
BLOCK_RECORD
  5
1B
330
1
100
AcDbSymbolTableRecord
100
AcDbBlockTableRecord
  2
*Paper_Space
340
1E
 70
     0
280
     1
281
     0
  0
BLOCK_RECORD
  5
23
330
1
100
AcDbSymbolTableRecord
100
AcDbBlockTableRecord
  2
*Paper_Space0
340
26
 70
     0
280
     1
281
     0
  0
BLOCK_RECORD
  5
E1
330
1
100
AcDbSymbolTableRecord
100
AcDbBlockTableRecord
  2
block 2
340
0
102
{BLKREFS
331
E2
102
}
 70
     0
280
     1
281
     0
  0
BLOCK_RECORD
  5
E7
330
1
100
AcDbSymbolTableRecord
100
AcDbBlockTableRecord
  2
block 3
340
0
102
{BLKREFS
331
E8
102
}
 70
     0
280
     1
281
     0
  0
BLOCK_RECORD
  5
ED
330
1
100
AcDbSymbolTableRecord
100
AcDbBlockTableRecord
  2
block 4
340
0
102
{BLKREFS
331
EE
102
}
 70
     0
280
     1
281
     0
  0
BLOCK_RECORD
  5
FE
330
1
100
AcDbSymbolTableRecord
100
AcDbBlockTableRecord
  2
block 5
340
0
102
{BLKREFS
331
FF
102
}
 70
     0
280
     1
281
     0
  0
BLOCK_RECORD
  5
104
330
1
100
AcDbSymbolTableRecord
100
AcDbBlockTableRecord
  2
block 6
340
0
102
{BLKREFS
331
105
102
}
 70
     0
280
     1
281
     0
  0
BLOCK_RECORD
  5
10C
330
1
100
AcDbSymbolTableRecord
100
AcDbBlockTableRecord
  2
block 7
340
0
102
{BLKREFS
331
10D
102
}
 70
     0
280
     1
281
     0
  0
BLOCK_RECORD
  5
115
330
1
100
AcDbSymbolTableRecord
100
AcDbBlockTableRecord
  2
block 8
340
0
102
{BLKREFS
331
116
102
}
 70
     0
280
     1
281
     0
  0
ENDTAB
  0
ENDSEC
  0
SECTION
  2
BLOCKS
  0
BLOCK
  5
20
330
1F
100
AcDbEntity
  8
0
100
AcDbBlockBegin
  2
*Model_Space
 70
     0
 10
0.0
 20
0.0
 30
0.0
  3
*Model_Space
  1

  0
ENDBLK
  5
21
330
1F
100
AcDbEntity
  8
0
100
AcDbBlockEnd
  0
BLOCK
  5
1C
330
1B
100
AcDbEntity
 67
     1
  8
0
100
AcDbBlockBegin
  2
*Paper_Space
 70
     0
 10
0.0
 20
0.0
 30
0.0
  3
*Paper_Space
  1

  0
ENDBLK
  5
1D
330
1B
100
AcDbEntity
 67
     1
  8
0
100
AcDbBlockEnd
  0
BLOCK
  5
24
330
23
100
AcDbEntity
  8
0
100
AcDbBlockBegin
  2
*Paper_Space0
 70
     0
 10
0.0
 20
0.0
 30
0.0
  3
*Paper_Space0
  1

  0
ENDBLK
  5
25
330
23
100
AcDbEntity
  8
0
100
AcDbBlockEnd
  0
BLOCK
  5
E3
330
E1
100
AcDbEntity
  8
0
100
AcDbBlockBegin
  2
block 2
 70
     0
 10
0.0
 20
0.0
 30
0.0
  3
block 2
  1

  0
SPLINE
  5
E5
330
E1
100
AcDbEntity
  8
_U+30EC_U+30A4_U+30E4_U+30FC 1
370
     0
100
AcDbSpline
210
0.0
220
0.0
230
1.0
 70
    11
 71
     3
 72
    62
 73
    58
 74
     0
 42
0.0000000001
 43
0.0000000001
 12
1.0
 22
0.0
 32
0.0
 13
1.0
 23
0.0
 33
0.0
 40
0.0
 40
0.0
 40
0.0
 40
0.0
 40
1.0
 40
1.0
 40
1.0
 40
2.0
 40
2.0
 40
2.0
 40
3.0
 40
3.0
 40
3.0
 40
4.0
 40
4.0
 40
4.0
 40
5.0
 40
5.0
 40
5.0
 40
6.0
 40
6.0
 40
6.0
 40
7.0
 40
7.0
 40
7.0
 40
8.0
 40
8.0
 40
8.0
 40
9.0
 40
9.0
 40
9.0
 40
10.0
 40
10.0
 40
10.0
 40
11.0
 40
11.0
 40
11.0
 40
12.0
 40
12.0
 40
12.0
 40
13.0
 40
13.0
 40
13.0
 40
14.0
 40
14.0
 40
14.0
 40
15.0
 40
15.0
 40
15.0
 40
16.0
 40
16.0
 40
16.0
 40
17.0
 40
17.0
 40
17.0
 40
18.0
 40
18.0
 40
18.0
 40
19.0
 40
19.0
 40
19.0
 40
19.0
 10
72.72648245794686
 20
-111.4824286288134
 30
0.0
 10
72.62485214113198
 20
-111.4824286288134
 30
0.0
 10
72.39196368632909
 20
-111.4612412915791
 30
0.0
 10
72.25846623627567
 20
-111.2750338806014
 30
0.0
 10
72.17940129488917
 20
-111.1628960225565
 30
0.0
 10
72.17492267075835
 20
-111.063505017807
 30
0.0
 10
72.17027179185327
 20
-110.9789279236442
 30
0.0
 10
72.17027179185327
 20
-110.9789279236442
 30
0.0
 10
72.40557181349583
 20
-110.9789279236442
 30
0.0
 10
72.40557181349583
 20
-110.9789279236442
 30
0.0
 10
72.40781112556124
 20
-111.052997476577
 30
0.0
 10
72.4190076858883
 20
-111.2877807338968
 30
0.0
 10
72.72200383381603
 20
-111.2877807338968
 30
0.0
 10
72.86893715626194
 20
-111.2877807338968
 30
0.0
 10
73.03171791793999
 20
-111.2180175503205
 30
0.0
 10
73.03171791793999
 20
-110.9894354648742
 30
0.0
 10
73.03171791793999
 20
-110.873163492247
 30
0.0
 10
72.99106579121404
 20
-110.8244153911307
 30
0.0
 10
72.95713160068433
 20
-110.7927205126664
 30
0.0
 10
72.87806665929784
 20
-110.7186509597335
 30
0.0
 10
72.75369871228033
 20
-110.7060763612124
 30
0.0
 10
72.69495983425682
 20
-110.7060763612124
 30
0.0
 10
72.67446151611958
 20
-110.7060763612124
 30
0.0
 10
72.63604870145905
 20
-110.7081434185035
 30
0.0
 10
72.60676538983442
 20
-110.7122775330858
 30
0.0
 10
72.60676538983442
 20
-110.7122775330858
 30
0.0
 10
72.60676538983442
 20
-110.5176296381692
 30
0.0
 10
72.60676538983442
 20
-110.5176296381692
 30
0.0
 10
72.64741751656037
 20
-110.5240030648169
 30
0.0
 10
72.69254826741714
 20
-110.5262423768823
 30
0.0
 10
72.69943845838765
 20
-110.5262423768823
 30
0.0
 10
72.76954615151247
 20
-110.5262423768823
 30
0.0
 10
72.98193628817813
 20
-110.505055039648
 30
0.0
 10
72.98193628817813
 20
-110.2680324702629
 30
0.0
 10
72.98193628817813
 20
-110.0904377979982
 30
0.0
 10
72.84189315670272
 20
-110.0353162702342
 30
0.0
 10
72.72424314588145
 20
-110.0353162702342
 30
0.0
 10
72.44174531609096
 20
-110.0353162702342
 30
0.0
 10
72.43261581305504
 20
-110.2680324702629
 30
0.0
 10
72.42813718892423
 20
-110.3400349659046
 30
0.0
 10
72.42813718892423
 20
-110.3400349659046
 30
0.0
 10
72.21109617335348
 20
-110.3400349659046
 30
0.0
 10
72.21109617335348
 20
-110.3400349659046
 30
0.0
 10
72.22005342161513
 20
-110.2151502545643
 30
0.0
 10
72.24950898801401
 20
-109.8386013180265
 30
0.0
 10
72.73785127304818
 20
-109.8386013180265
 30
0.0
 10
72.97745766404731
 20
-109.8386013180265
 30
0.0
 10
73.235150806344
 20
-109.9655530866579
 30
0.0
 10
73.235150806344
 20
-110.2616590436151
 30
0.0
 10
73.235150806344
 20
-110.4478664545929
 30
0.0
 10
73.13352048952912
 20
-110.5303764914646
 30
0.0
 10
73.02723929380916
 20
-110.5916991911021
 30
0.0
 10
73.09286836280317
 20
-110.6192599549841
 30
0.0
 10
73.28717174817126
 20
-110.6997029345647
 30
0.0
 10
73.28717174817126
 20
-110.976860866353
 30
0.0
 10
73.28717174817126
 20
-111.3153414977788
 30
0.0
 10
73.02276066967833
 20
-111.4824286288134
 30
0.0
 10
72.72648245794686
 20
-111.4824286288134
 30
0.0
  0
HATCH
  5
E6
330
E1
100
AcDbEntity
  8
_U+30EC_U+30A4_U+30E4_U+30FC 1
 62
   179
420
  2234388
100
AcDbHatch
 10
0.0
 20
0.0
 30
0.0
210
0.0
220
0.0
230
1.0
  2
SOLID
 70
     1
 71
     0
 91
        1
 92
        1
 93
        1
 72
     4
 94
        3
 73
     0
 74
     1
 95
       62
 96
       58
 40
0.0
 40
0.0
 40
0.0
 40
0.0
 40
1.0
 40
1.0
 40
1.0
 40
2.0
 40
2.0
 40
2.0
 40
3.0
 40
3.0
 40
3.0
 40
4.0
 40
4.0
 40
4.0
 40
5.0
 40
5.0
 40
5.0
 40
6.0
 40
6.0
 40
6.0
 40
7.0
 40
7.0
 40
7.0
 40
8.0
 40
8.0
 40
8.0
 40
9.0
 40
9.0
 40
9.0
 40
10.0
 40
10.0
 40
10.0
 40
11.0
 40
11.0
 40
11.0
 40
12.0
 40
12.0
 40
12.0
 40
13.0
 40
13.0
 40
13.0
 40
14.0
 40
14.0
 40
14.0
 40
15.0
 40
15.0
 40
15.0
 40
16.0
 40
16.0
 40
16.0
 40
17.0
 40
17.0
 40
17.0
 40
18.0
 40
18.0
 40
18.0
 40
19.0
 40
19.0
 40
19.0
 40
19.0
 10
72.72648245794686
 20
-111.4824286288134
 10
72.62485214113198
 20
-111.4824286288134
 10
72.39196368632909
 20
-111.4612412915791
 10
72.25846623627567
 20
-111.2750338806014
 10
72.17940129488917
 20
-111.1628960225565
 10
72.17492267075835
 20
-111.063505017807
 10
72.17027179185327
 20
-110.9789279236442
 10
72.17027179185327
 20
-110.9789279236442
 10
72.40557181349583
 20
-110.9789279236442
 10
72.40557181349583
 20
-110.9789279236442
 10
72.40781112556124
 20
-111.052997476577
 10
72.4190076858883
 20
-111.2877807338968
 10
72.72200383381603
 20
-111.2877807338968
 10
72.86893715626194
 20
-111.2877807338968
 10
73.03171791793999
 20
-111.2180175503205
 10
73.03171791793999
 20
-110.9894354648742
 10
73.03171791793999
 20
-110.873163492247
 10
72.99106579121404
 20
-110.8244153911307
 10
72.95713160068433
 20
-110.7927205126664
 10
72.87806665929784
 20
-110.7186509597335
 10
72.75369871228033
 20
-110.7060763612124
 10
72.69495983425682
 20
-110.7060763612124
 10
72.67446151611958
 20
-110.7060763612124
 10
72.63604870145905
 20
-110.7081434185035
 10
72.60676538983442
 20
-110.7122775330858
 10
72.60676538983442
 20
-110.7122775330858
 10
72.60676538983442
 20
-110.5176296381692
 10
72.60676538983442
 20
-110.5176296381692
 10
72.64741751656037
 20
-110.5240030648169
 10
72.69254826741714
 20
-110.5262423768823
 10
72.69943845838765
 20
-110.5262423768823
 10
72.76954615151247
 20
-110.5262423768823
 10
72.98193628817813
 20
-110.505055039648
 10
72.98193628817813
 20
-110.2680324702629
 10
72.98193628817813
 20
-110.0904377979982
 10
72.84189315670272
 20
-110.0353162702342
 10
72.72424314588145
 20
-110.0353162702342
 10
72.44174531609096
 20
-110.0353162702342
 10
72.43261581305504
 20
-110.2680324702629
 10
72.42813718892423
 20
-110.3400349659046
 10
72.42813718892423
 20
-110.3400349659046
 10
72.21109617335348
 20
-110.3400349659046
 10
72.21109617335348
 20
-110.3400349659046
 10
72.22005342161513
 20
-110.2151502545643
 10
72.24950898801401
 20
-109.8386013180265
 10
72.73785127304818
 20
-109.8386013180265
 10
72.97745766404731
 20
-109.8386013180265
 10
73.235150806344
 20
-109.9655530866579
 10
73.235150806344
 20
-110.2616590436151
 10
73.235150806344
 20
-110.4478664545929
 10
73.13352048952912
 20
-110.5303764914646
 10
73.02723929380916
 20
-110.5916991911021
 10
73.09286836280317
 20
-110.6192599549841
 10
73.28717174817126
 20
-110.6997029345647
 10
73.28717174817126
 20
-110.976860866353
 10
73.28717174817126
 20
-111.3153414977788
 10
73.02276066967833
 20
-111.4824286288134
 10
72.72648245794686
 20
-111.4824286288134
 97
        0
 97
        0
 75
     2
 76
     1
 98
        0
  0
ENDBLK
  5
E4
330
E1
100
AcDbEntity
  8
0
100
AcDbBlockEnd
  0
BLOCK
  5
E9
330
E7
100
AcDbEntity
  8
0
100
AcDbBlockBegin
  2
block 3
 70
     0
 10
0.0
 20
0.0
 30
0.0
  3
block 3
  1

  0
SPLINE
  5
EB
330
E7
100
AcDbEntity
  8
_U+30EC_U+30A4_U+30E4_U+30FC 1
370
     0
100
AcDbSpline
210
0.0
220
0.0
230
1.0
 70
    11
 71
     3
 72
    26
 73
    22
 74
     0
 42
0.0000000001
 43
0.0000000001
 12
1.0
 22
0.0
 32
0.0
 13
1.0
 23
0.0
 33
0.0
 40
0.0
 40
0.0
 40
0.0
 40
0.0
 40
1.0
 40
1.0
 40
1.0
 40
2.0
 40
2.0
 40
2.0
 40
3.0
 40
3.0
 40
3.0
 40
4.0
 40
4.0
 40
4.0
 40
5.0
 40
5.0
 40
5.0
 40
6.0
 40
6.0
 40
6.0
 40
7.0
 40
7.0
 40
7.0
 40
7.0
 10
117.7003092153666
 20
-125.9161729285904
 30
0.0
 10
117.7003092153666
 20
-125.9161729285904
 30
0.0
 10
116.596156112344
 20
-125.9161729285904
 30
0.0
 10
116.596156112344
 20
-125.9161729285904
 30
0.0
 10
116.596156112344
 20
-125.9161729285904
 30
0.0
 10
116.596156112344
 20
-126.26895070628
 30
0.0
 10
116.596156112344
 20
-126.26895070628
 30
0.0
 10
116.596156112344
 20
-126.26895070628
 30
0.0
 10
116.4480170064783
 20
-126.26895070628
 30
0.0
 10
116.4480170064783
 20
-126.26895070628
 30
0.0
 10
116.4332030958917
 20
-125.913933616525
 30
0.0
 10
116.2702500794394
 20
-125.8641519867631
 30
0.0
 10
116.1558729093291
 20
-125.8324571082988
 30
0.0
 10
116.1558729093291
 20
-125.8324571082988
 30
0.0
 10
116.1558729093291
 20
-125.6765665375913
 30
0.0
 10
116.1558729093291
 20
-125.6765665375913
 30
0.0
 10
116.1558729093291
 20
-125.6765665375913
 30
0.0
 10
117.7003092153666
 20
-125.6765665375913
 30
0.0
 10
117.7003092153666
 20
-125.6765665375913
 30
0.0
 10
117.7003092153666
 20
-125.6765665375913
 30
0.0
 10
117.7003092153666
 20
-125.9161729285904
 30
0.0
 10
117.7003092153666
 20
-125.9161729285904
 30
0.0
  0
HATCH
  5
EC
330
E7
100
AcDbEntity
  8
_U+30EC_U+30A4_U+30E4_U+30FC 1
 62
   179
420
  2234388
100
AcDbHatch
 10
0.0
 20
0.0
 30
0.0
210
0.0
220
0.0
230
1.0
  2
SOLID
 70
     1
 71
     0
 91
        1
 92
        1
 93
        1
 72
     4
 94
        3
 73
     0
 74
     1
 95
       26
 96
       22
 40
0.0
 40
0.0
 40
0.0
 40
0.0
 40
1.0
 40
1.0
 40
1.0
 40
2.0
 40
2.0
 40
2.0
 40
3.0
 40
3.0
 40
3.0
 40
4.0
 40
4.0
 40
4.0
 40
5.0
 40
5.0
 40
5.0
 40
6.0
 40
6.0
 40
6.0
 40
7.0
 40
7.0
 40
7.0
 40
7.0
 10
117.7003092153666
 20
-125.9161729285904
 10
117.7003092153666
 20
-125.9161729285904
 10
116.596156112344
 20
-125.9161729285904
 10
116.596156112344
 20
-125.9161729285904
 10
116.596156112344
 20
-125.9161729285904
 10
116.596156112344
 20
-126.26895070628
 10
116.596156112344
 20
-126.26895070628
 10
116.596156112344
 20
-126.26895070628
 10
116.4480170064783
 20
-126.26895070628
 10
116.4480170064783
 20
-126.26895070628
 10
116.4332030958917
 20
-125.913933616525
 10
116.2702500794394
 20
-125.8641519867631
 10
116.1558729093291
 20
-125.8324571082988
 10
116.1558729093291
 20
-125.8324571082988
 10
116.1558729093291
 20
-125.6765665375913
 10
116.1558729093291
 20
-125.6765665375913
 10
116.1558729093291
 20
-125.6765665375913
 10
117.7003092153666
 20
-125.6765665375913
 10
117.7003092153666
 20
-125.6765665375913
 10
117.7003092153666
 20
-125.6765665375913
 10
117.7003092153666
 20
-125.9161729285904
 10
117.7003092153666
 20
-125.9161729285904
 97
        0
 97
        0
 75
     2
 76
     1
 98
        0
  0
ENDBLK
  5
EA
330
E7
100
AcDbEntity
  8
0
100
AcDbBlockEnd
  0
BLOCK
  5
EF
330
ED
100
AcDbEntity
  8
0
100
AcDbBlockBegin
  2
block 4
 70
     0
 10
0.0
 20
0.0
 30
0.0
  3
block 4
  1

  0
SPLINE
  5
F1
330
ED
100
AcDbEntity
  8
_U+30EC_U+30A4_U+30E4_U+30FC 1
370
     0
100
AcDbSpline
210
0.0
220
0.0
230
1.0
 70
    11
 71
     3
 72
    32
 73
    28
 74
     0
 42
0.0000000001
 43
0.0000000001
 12
1.0
 22
0.0
 32
0.0
 13
1.0
 23
0.0
 33
0.0
 40
0.0
 40
0.0
 40
0.0
 40
0.0
 40
1.0
 40
1.0
 40
1.0
 40
2.0
 40
2.0
 40
2.0
 40
3.0
 40
3.0
 40
3.0
 40
4.0
 40
4.0
 40
4.0
 40
5.0
 40
5.0
 40
5.0
 40
6.0
 40
6.0
 40
6.0
 40
7.0
 40
7.0
 40
7.0
 40
8.0
 40
8.0
 40
8.0
 40
9.0
 40
9.0
 40
9.0
 40
9.0
 10
117.7506076094512
 20
-133.459898512642
 30
0.0
 10
117.7506076094512
 20
-133.6452446497484
 30
0.0
 10
117.6806721711007
 20
-133.9074164161759
 30
0.0
 10
117.3485649663226
 20
-133.9480685429019
 30
0.0
 10
117.3485649663226
 20
-133.9480685429019
 30
0.0
 10
117.3485649663226
 20
-133.7200032217783
 30
0.0
 10
117.3485649663226
 20
-133.7200032217783
 30
0.0
 10
117.4078206086689
 20
-133.708634406677
 30
0.0
 10
117.5559597145346
 20
-133.674527961373
 30
0.0
 10
117.5559597145346
 20
-133.4574869458023
 30
0.0
 10
117.5559597145346
 20
-133.1453612948387
 30
0.0
 10
117.2259195670477
 20
-133.1047091681127
 30
0.0
 10
117.0209363856753
 20
-133.0912732957202
 30
0.0
 10
117.1008626009331
 20
-133.1887694979528
 30
0.0
 10
117.1580511859883
 20
-133.2611165031431
 30
0.0
 10
117.1580511859883
 20
-133.4554198885112
 30
0.0
 10
117.1580511859883
 20
-133.6476562165881
 30
0.0
 10
117.0526312641396
 20
-133.9708061731045
 30
0.0
 10
116.6461099968801
 20
-133.9708061731045
 30
0.0
 10
116.3267496453975
 20
-133.9708061731045
 30
0.0
 10
116.10660804389
 20
-133.7582437816646
 30
0.0
 10
116.10660804389
 20
-133.419246385916
 30
0.0
 10
116.10660804389
 20
-132.8697536560187
 30
0.0
 10
116.6612684170153
 20
-132.8583848409174
 30
0.0
 10
116.8748643371007
 20
-132.8583848409174
 30
0.0
 10
117.105341225064
 20
-132.8583848409174
 30
0.0
 10
117.7506076094512
 20
-132.8787109042803
 30
0.0
 10
117.7506076094512
 20
-133.459898512642
 30
0.0
  0
SPLINE
  5
F2
330
ED
100
AcDbEntity
  8
_U+30EC_U+30A4_U+30E4_U+30FC 1
370
     0
100
AcDbSpline
210
0.0
220
0.0
230
1.0
 70
    11
 71
     3
 72
    17
 73
    13
 74
     0
 42
0.0000000001
 43
0.0000000001
 12
1.0
 22
0.0
 32
0.0
 13
1.0
 23
0.0
 33
0.0
 40
0.0
 40
0.0
 40
0.0
 40
0.0
 40
1.0
 40
1.0
 40
1.0
 40
2.0
 40
2.0
 40
2.0
 40
3.0
 40
3.0
 40
3.0
 40
4.0
 40
4.0
 40
4.0
 40
4.0
 10
116.299533391064
 20
-133.4168348190763
 30
0.0
 10
116.299533391064
 20
-133.5436143329335
 30
0.0
 10
116.3563774665706
 20
-133.7310275273312
 30
0.0
 10
116.6419758822978
 20
-133.7310275273312
 30
0.0
 10
116.8683186556788
 20
-133.7310275273312
 30
0.0
 10
116.9637478006202
 20
-133.5818548928198
 30
0.0
 10
116.9637478006202
 20
-133.4371608824393
 30
0.0
 10
116.9637478006202
 20
-133.1570746194885
 30
0.0
 10
116.754285995117
 20
-133.1164224927626
 30
0.0
 10
116.6378417677155
 20
-133.1164224927626
 30
0.0
 10
116.4621418979678
 20
-133.1164224927626
 30
0.0
 10
116.299533391064
 20
-133.2177083000289
 30
0.0
 10
116.299533391064
 20
-133.4168348190763
 30
0.0
  0
HATCH
  5
F3
330
ED
100
AcDbEntity
  8
_U+30EC_U+30A4_U+30E4_U+30FC 1
 62
   179
420
  2234388
100
AcDbHatch
 10
0.0
 20
0.0
 30
0.0
210
0.0
220
0.0
230
1.0
  2
SOLID
 70
     1
 71
     0
 91
        2
 92
        1
 93
        1
 72
     4
 94
        3
 73
     0
 74
     1
 95
       32
 96
       28
 40
0.0
 40
0.0
 40
0.0
 40
0.0
 40
1.0
 40
1.0
 40
1.0
 40
2.0
 40
2.0
 40
2.0
 40
3.0
 40
3.0
 40
3.0
 40
4.0
 40
4.0
 40
4.0
 40
5.0
 40
5.0
 40
5.0
 40
6.0
 40
6.0
 40
6.0
 40
7.0
 40
7.0
 40
7.0
 40
8.0
 40
8.0
 40
8.0
 40
9.0
 40
9.0
 40
9.0
 40
9.0
 10
117.7506076094512
 20
-133.459898512642
 10
117.7506076094512
 20
-133.6452446497484
 10
117.6806721711007
 20
-133.9074164161759
 10
117.3485649663226
 20
-133.9480685429019
 10
117.3485649663226
 20
-133.9480685429019
 10
117.3485649663226
 20
-133.7200032217783
 10
117.3485649663226
 20
-133.7200032217783
 10
117.4078206086689
 20
-133.708634406677
 10
117.5559597145346
 20
-133.674527961373
 10
117.5559597145346
 20
-133.4574869458023
 10
117.5559597145346
 20
-133.1453612948387
 10
117.2259195670477
 20
-133.1047091681127
 10
117.0209363856753
 20
-133.0912732957202
 10
117.1008626009331
 20
-133.1887694979528
 10
117.1580511859883
 20
-133.2611165031431
 10
117.1580511859883
 20
-133.4554198885112
 10
117.1580511859883
 20
-133.6476562165881
 10
117.0526312641396
 20
-133.9708061731045
 10
116.6461099968801
 20
-133.9708061731045
 10
116.3267496453975
 20
-133.9708061731045
 10
116.10660804389
 20
-133.7582437816646
 10
116.10660804389
 20
-133.419246385916
 10
116.10660804389
 20
-132.8697536560187
 10
116.6612684170153
 20
-132.8583848409174
 10
116.8748643371007
 20
-132.8583848409174
 10
117.105341225064
 20
-132.8583848409174
 10
117.7506076094512
 20
-132.8787109042803
 10
117.7506076094512
 20
-133.459898512642
 97
        0
 97
        0
 92
        1
 93
        1
 72
     4
 94
        3
 73
     0
 74
     1
 95
       17
 96
       13
 40
0.0
 40
0.0
 40
0.0
 40
0.0
 40
1.0
 40
1.0
 40
1.0
 40
2.0
 40
2.0
 40
2.0
 40
3.0
 40
3.0
 40
3.0
 40
4.0
 40
4.0
 40
4.0
 40
4.0
 10
116.299533391064
 20
-133.4168348190763
 10
116.299533391064
 20
-133.5436143329335
 10
116.3563774665706
 20
-133.7310275273312
 10
116.6419758822978
 20
-133.7310275273312
 10
116.8683186556788
 20
-133.7310275273312
 10
116.9637478006202
 20
-133.5818548928198
 10
116.9637478006202
 20
-133.4371608824393
 10
116.9637478006202
 20
-133.1570746194885
 10
116.754285995117
 20
-133.1164224927626
 10
116.6378417677155
 20
-133.1164224927626
 10
116.4621418979678
 20
-133.1164224927626
 10
116.299533391064
 20
-133.2177083000289
 10
116.299533391064
 20
-133.4168348190763
 97
        0
 97
        0
 75
     2
 76
     1
 98
        0
  0
POLYLINE
  5
F4
330
ED
100
AcDbEntity
  8
_U+30EC_U+30A4_U+30E4_U+30FC 1
370
     0
100
AcDb2dPolyline
 66
     1
 10
0.0
 20
0.0
 30
0.0
  0
VERTEX
  5
F5
330
F4
100
AcDbEntity
  8
_U+30EC_U+30A4_U+30E4_U+30FC 1
370
     0
100
AcDbVertex
100
AcDb2dVertex
 10
117.6996201962695
 20
-132.6272189338571
 30
0.0
  0
VERTEX
  5
F6
330
F4
100
AcDbEntity
  8
_U+30EC_U+30A4_U+30E4_U+30FC 1
370
     0
100
AcDbVertex
100
AcDb2dVertex
 10
117.4481282258463
 20
-132.6272189338571
 30
0.0
  0
VERTEX
  5
F7
330
F4
100
AcDbEntity
  8
_U+30EC_U+30A4_U+30E4_U+30FC 1
370
     0
100
AcDbVertex
100
AcDb2dVertex
 10
117.4481282258463
 20
-132.3578124669106
 30
0.0
  0
VERTEX
  5
F8
330
F4
100
AcDbEntity
  8
_U+30EC_U+30A4_U+30E4_U+30FC 1
370
     0
100
AcDbVertex
100
AcDb2dVertex
 10
117.6996201962695
 20
-132.3578124669106
 30
0.0
  0
VERTEX
  5
F9
330
F4
100
AcDbEntity
  8
_U+30EC_U+30A4_U+30E4_U+30FC 1
370
     0
100
AcDbVertex
100
AcDb2dVertex
 10
117.6996201962695
 20
-132.6272189338571
 30
0.0
  0
SEQEND
  5
FA
330
F4
100
AcDbEntity
  8
_U+30EC_U+30A4_U+30E4_U+30FC 1
370
     0
  0
HATCH
  5
FB
330
ED
100
AcDbEntity
  8
_U+30EC_U+30A4_U+30E4_U+30FC 1
 62
   179
420
  2234388
100
AcDbHatch
 10
0.0
 20
0.0
 30
0.0
210
0.0
220
0.0
230
1.0
  2
SOLID
 70
     1
 71
     0
 91
        1
 92
        1
 93
        4
 72
     1
 10
117.6996201962695
 20
-132.6272189338571
 11
117.4481282258463
 21
-132.6272189338571
 72
     1
 10
117.4481282258463
 20
-132.6272189338571
 11
117.4481282258463
 21
-132.3578124669106
 72
     1
 10
117.4481282258463
 20
-132.3578124669106
 11
117.6996201962695
 21
-132.3578124669106
 72
     1
 10
117.6996201962695
 20
-132.3578124669106
 11
117.6996201962695
 21
-132.6272189338571
 97
        0
 75
     2
 76
     1
 98
        0
  0
SPLINE
  5
FC
330
ED
100
AcDbEntity
  8
_U+30EC_U+30A4_U+30E4_U+30FC 1
370
     0
100
AcDbSpline
210
0.0
220
0.0
230
1.0
 70
    11
 71
     3
 72
    53
 73
    49
 74
     0
 42
0.0000000001
 43
0.0000000001
 12
1.0
 22
0.0
 32
0.0
 13
1.0
 23
0.0
 33
0.0
 40
0.0
 40
0.0
 40
0.0
 40
0.0
 40
1.0
 40
1.0
 40
1.0
 40
2.0
 40
2.0
 40
2.0
 40
3.0
 40
3.0
 40
3.0
 40
4.0
 40
4.0
 40
4.0
 40
5.0
 40
5.0
 40
5.0
 40
6.0
 40
6.0
 40
6.0
 40
7.0
 40
7.0
 40
7.0
 40
8.0
 40
8.0
 40
8.0
 40
9.0
 40
9.0
 40
9.0
 40
10.0
 40
10.0
 40
10.0
 40
11.0
 40
11.0
 40
11.0
 40
12.0
 40
12.0
 40
12.0
 40
13.0
 40
13.0
 40
13.0
 40
14.0
 40
14.0
 40
14.0
 40
15.0
 40
15.0
 40
15.0
 40
16.0
 40
16.0
 40
16.0
 40
16.0
 10
117.7506076094512
 20
-131.5909342118939
 30
0.0
 10
117.7506076094512
 20
-131.674994541734
 30
0.0
 10
117.7337266415735
 20
-131.7831705399709
 30
0.0
 10
117.6699923750964
 20
-131.8920355573048
 30
0.0
 10
117.5600938291169
 20
-132.0773816944112
 30
0.0
 10
117.4288356911289
 20
-132.0997748150653
 30
0.0
 10
117.3213487119891
 20
-132.1201008784283
 30
0.0
 10
117.3213487119891
 20
-132.1201008784283
 30
0.0
 10
117.3213487119891
 20
-131.8827337994946
 30
0.0
 10
117.3213487119891
 20
-131.8827337994946
 30
0.0
 10
117.5197862119395
 20
-131.8238226666968
 30
0.0
 10
117.5494140331127
 20
-131.6884304141265
 30
0.0
 10
117.5494140331127
 20
-131.5888671546028
 30
0.0
 10
117.5494140331127
 20
-131.4396945200915
 30
0.0
 10
117.4501952831375
 20
-131.2767415036392
 30
0.0
 10
117.2173068283346
 20
-131.2767415036392
 30
0.0
 10
116.961680743329
 20
-131.2767415036392
 30
0.0
 10
116.8917453049785
 20
-131.4689778317161
 30
0.0
 10
116.8917453049785
 20
-131.5978244028644
 30
0.0
 10
116.8917453049785
 20
-131.6319308481684
 30
0.0
 10
116.8917453049785
 20
-131.7831705399709
 30
0.0
 10
117.0209363856753
 20
-131.8782551753638
 30
0.0
 10
117.0209363856753
 20
-131.8782551753638
 30
0.0
 10
117.0016438509579
 20
-132.0660128793099
 30
0.0
 10
117.0016438509579
 20
-132.0660128793099
 30
0.0
 10
117.0016438509579
 20
-132.0660128793099
 30
0.0
 10
116.1555283997806
 20
-131.9371663081616
 30
0.0
 10
116.1555283997806
 20
-131.9371663081616
 30
0.0
 10
116.1555283997806
 20
-131.9371663081616
 30
0.0
 10
116.1555283997806
 20
-131.1051757484737
 30
0.0
 10
116.1555283997806
 20
-131.1051757484737
 30
0.0
 10
116.1555283997806
 20
-131.1051757484737
 30
0.0
 10
116.3501762946972
 20
-131.1051757484737
 30
0.0
 10
116.3501762946972
 20
-131.1051757484737
 30
0.0
 10
116.3501762946972
 20
-131.1051757484737
 30
0.0
 10
116.3501762946972
 20
-131.7631889861564
 30
0.0
 10
116.3501762946972
 20
-131.7631889861564
 30
0.0
 10
116.3501762946972
 20
-131.7631889861564
 30
0.0
 10
116.7732340202859
 20
-131.833124424507
 30
0.0
 10
116.7732340202859
 20
-131.833124424507
 30
0.0
 10
116.7391275749819
 20
-131.7673231007387
 30
0.0
 10
116.699164467353
 20
-131.6791286563163
 30
0.0
 10
116.699164467353
 20
-131.5526936520077
 30
0.0
 10
116.699164467353
 20
-131.2815646373185
 30
0.0
 10
116.8851996235565
 20
-131.0283501191526
 30
0.0
 10
117.1983588031657
 20
-131.0283501191526
 30
0.0
 10
117.5156520973572
 20
-131.0283501191526
 30
0.0
 10
117.7506076094512
 20
-131.2677842553775
 30
0.0
 10
117.7506076094512
 20
-131.5909342118939
 30
0.0
  0
HATCH
  5
FD
330
ED
100
AcDbEntity
  8
_U+30EC_U+30A4_U+30E4_U+30FC 1
 62
   179
420
  2234388
100
AcDbHatch
 10
0.0
 20
0.0
 30
0.0
210
0.0
220
0.0
230
1.0
  2
SOLID
 70
     1
 71
     0
 91
        1
 92
        1
 93
        1
 72
     4
 94
        3
 73
     0
 74
     1
 95
       53
 96
       49
 40
0.0
 40
0.0
 40
0.0
 40
0.0
 40
1.0
 40
1.0
 40
1.0
 40
2.0
 40
2.0
 40
2.0
 40
3.0
 40
3.0
 40
3.0
 40
4.0
 40
4.0
 40
4.0
 40
5.0
 40
5.0
 40
5.0
 40
6.0
 40
6.0
 40
6.0
 40
7.0
 40
7.0
 40
7.0
 40
8.0
 40
8.0
 40
8.0
 40
9.0
 40
9.0
 40
9.0
 40
10.0
 40
10.0
 40
10.0
 40
11.0
 40
11.0
 40
11.0
 40
12.0
 40
12.0
 40
12.0
 40
13.0
 40
13.0
 40
13.0
 40
14.0
 40
14.0
 40
14.0
 40
15.0
 40
15.0
 40
15.0
 40
16.0
 40
16.0
 40
16.0
 40
16.0
 10
117.7506076094512
 20
-131.5909342118939
 10
117.7506076094512
 20
-131.674994541734
 10
117.7337266415735
 20
-131.7831705399709
 10
117.6699923750964
 20
-131.8920355573048
 10
117.5600938291169
 20
-132.0773816944112
 10
117.4288356911289
 20
-132.0997748150653
 10
117.3213487119891
 20
-132.1201008784283
 10
117.3213487119891
 20
-132.1201008784283
 10
117.3213487119891
 20
-131.8827337994946
 10
117.3213487119891
 20
-131.8827337994946
 10
117.5197862119395
 20
-131.8238226666968
 10
117.5494140331127
 20
-131.6884304141265
 10
117.5494140331127
 20
-131.5888671546028
 10
117.5494140331127
 20
-131.4396945200915
 10
117.4501952831375
 20
-131.2767415036392
 10
117.2173068283346
 20
-131.2767415036392
 10
116.961680743329
 20
-131.2767415036392
 10
116.8917453049785
 20
-131.4689778317161
 10
116.8917453049785
 20
-131.5978244028644
 10
116.8917453049785
 20
-131.6319308481684
 10
116.8917453049785
 20
-131.7831705399709
 10
117.0209363856753
 20
-131.8782551753638
 10
117.0209363856753
 20
-131.8782551753638
 10
117.0016438509579
 20
-132.0660128793099
 10
117.0016438509579
 20
-132.0660128793099
 10
117.0016438509579
 20
-132.0660128793099
 10
116.1555283997806
 20
-131.9371663081616
 10
116.1555283997806
 20
-131.9371663081616
 10
116.1555283997806
 20
-131.9371663081616
 10
116.1555283997806
 20
-131.1051757484737
 10
116.1555283997806
 20
-131.1051757484737
 10
116.1555283997806
 20
-131.1051757484737
 10
116.3501762946972
 20
-131.1051757484737
 10
116.3501762946972
 20
-131.1051757484737
 10
116.3501762946972
 20
-131.1051757484737
 10
116.3501762946972
 20
-131.7631889861564
 10
116.3501762946972
 20
-131.7631889861564
 10
116.3501762946972
 20
-131.7631889861564
 10
116.7732340202859
 20
-131.833124424507
 10
116.7732340202859
 20
-131.833124424507
 10
116.7391275749819
 20
-131.7673231007387
 10
116.699164467353
 20
-131.6791286563163
 10
116.699164467353
 20
-131.5526936520077
 10
116.699164467353
 20
-131.2815646373185
 10
116.8851996235565
 20
-131.0283501191526
 10
117.1983588031657
 20
-131.0283501191526
 10
117.5156520973572
 20
-131.0283501191526
 10
117.7506076094512
 20
-131.2677842553775
 10
117.7506076094512
 20
-131.5909342118939
 97
        0
 97
        0
 75
     2
 76
     1
 98
        0
  0
ENDBLK
  5
F0
330
ED
100
AcDbEntity
  8
0
100
AcDbBlockEnd
  0
BLOCK
  5
100
330
FE
100
AcDbEntity
  8
0
100
AcDbBlockBegin
  2
block 5
 70
     0
 10
0.0
 20
0.0
 30
0.0
  3
block 5
  1

  0
SPLINE
  5
102
330
FE
100
AcDbEntity
  8
_U+30EC_U+30A4_U+30E4_U+30FC 1
370
     0
100
AcDbSpline
210
0.0
220
0.0
230
1.0
 70
    11
 71
     3
 72
    62
 73
    58
 74
     0
 42
0.0000000001
 43
0.0000000001
 12
1.0
 22
0.0
 32
0.0
 13
1.0
 23
0.0
 33
0.0
 40
0.0
 40
0.0
 40
0.0
 40
0.0
 40
1.0
 40
1.0
 40
1.0
 40
2.0
 40
2.0
 40
2.0
 40
3.0
 40
3.0
 40
3.0
 40
4.0
 40
4.0
 40
4.0
 40
5.0
 40
5.0
 40
5.0
 40
6.0
 40
6.0
 40
6.0
 40
7.0
 40
7.0
 40
7.0
 40
8.0
 40
8.0
 40
8.0
 40
9.0
 40
9.0
 40
9.0
 40
10.0
 40
10.0
 40
10.0
 40
11.0
 40
11.0
 40
11.0
 40
12.0
 40
12.0
 40
12.0
 40
13.0
 40
13.0
 40
13.0
 40
14.0
 40
14.0
 40
14.0
 40
15.0
 40
15.0
 40
15.0
 40
16.0
 40
16.0
 40
16.0
 40
17.0
 40
17.0
 40
17.0
 40
18.0
 40
18.0
 40
18.0
 40
19.0
 40
19.0
 40
19.0
 40
19.0
 10
117.7509521189998
 20
-138.7574218403107
 30
0.0
 10
117.7509521189998
 20
-138.8590521571255
 30
0.0
 10
117.7299370365397
 20
-139.0919406119284
 30
0.0
 10
117.5439018803363
 20
-139.2252658072076
 30
0.0
 10
117.4315917675171
 20
-139.3045030033683
 30
0.0
 10
117.3323730175419
 20
-139.3089816274992
 30
0.0
 10
117.2476236686048
 20
-139.31346025163
 30
0.0
 10
117.2476236686048
 20
-139.31346025163
 30
0.0
 10
117.2476236686048
 20
-139.0785047395359
 30
0.0
 10
117.2476236686048
 20
-139.0785047395359
 30
0.0
 10
117.3216932215376
 20
-139.0760931726963
 30
0.0
 10
117.5563042240831
 20
-139.0647243575949
 30
0.0
 10
117.5563042240831
 20
-138.7619004644415
 30
0.0
 10
117.5563042240831
 20
-138.6147948872213
 30
0.0
 10
117.4867132952811
 20
-138.4521863803175
 30
0.0
 10
117.258303464609
 20
-138.4521863803175
 30
0.0
 10
117.1418592372076
 20
-138.4521863803175
 30
0.0
 10
117.0932833908656
 20
-138.4928385070435
 30
0.0
 10
117.0615885124013
 20
-138.5266004427989
 30
0.0
 10
116.9875189594684
 20
-138.6058376389597
 30
0.0
 10
116.974772106173
 20
-138.7302055859772
 30
0.0
 10
116.974772106173
 20
-138.7891167187749
 30
0.0
 10
116.974772106173
 20
-138.8094427821379
 30
0.0
 10
116.9768391634641
 20
-138.8476833420242
 30
0.0
 10
116.9809732780464
 20
-138.8773111631973
 30
0.0
 10
116.9809732780464
 20
-138.8773111631973
 30
0.0
 10
116.7863253831298
 20
-138.8773111631973
 30
0.0
 10
116.7863253831298
 20
-138.8773111631973
 30
0.0
 10
116.7928710645518
 20
-138.8366590364714
 30
0.0
 10
116.7949381218429
 20
-138.7911837760661
 30
0.0
 10
116.7949381218429
 20
-138.7846380946441
 30
0.0
 10
116.7949381218429
 20
-138.714358146745
 30
0.0
 10
116.7735785298344
 20
-138.5017957553051
 30
0.0
 10
116.5369004699977
 20
-138.5017957553051
 30
0.0
 10
116.3591335429588
 20
-138.5017957553051
 30
0.0
 10
116.3040120151948
 20
-138.6420111415548
 30
0.0
 10
116.3040120151948
 20
-138.7594888976018
 30
0.0
 10
116.3040120151948
 20
-139.0423312369408
 30
0.0
 10
116.5369004699977
 20
-139.0512884852025
 30
0.0
 10
116.6085584560909
 20
-139.0557671093333
 30
0.0
 10
116.6085584560909
 20
-139.0557671093333
 30
0.0
 10
116.6085584560909
 20
-139.272808124904
 30
0.0
 10
116.6085584560909
 20
-139.272808124904
 30
0.0
 10
116.4838459995249
 20
-139.2638508766424
 30
0.0
 10
116.1072970629871
 20
-139.2345675650178
 30
0.0
 10
116.1072970629871
 20
-138.7460530252093
 30
0.0
 10
116.1072970629871
 20
-138.506274379436
 30
0.0
 10
116.2344210863928
 20
-138.2485812371393
 30
0.0
 10
116.5303547885757
 20
-138.2485812371393
 30
0.0
 10
116.7167344543278
 20
-138.2485812371393
 30
0.0
 10
116.7990722364252
 20
-138.3505560635026
 30
0.0
 10
116.8603949360627
 20
-138.4566650044484
 30
0.0
 10
116.8879556999447
 20
-138.3912081902286
 30
0.0
 10
116.968226424751
 20
-138.196560295312
 30
0.0
 10
117.2455566113136
 20
-138.196560295312
 30
0.0
 10
117.5838649879652
 20
-138.196560295312
 30
0.0
 10
117.7509521189998
 20
-138.4611436285792
 30
0.0
 10
117.7509521189998
 20
-138.7574218403107
 30
0.0
  0
HATCH
  5
103
330
FE
100
AcDbEntity
  8
_U+30EC_U+30A4_U+30E4_U+30FC 1
 62
   179
420
  2234388
100
AcDbHatch
 10
0.0
 20
0.0
 30
0.0
210
0.0
220
0.0
230
1.0
  2
SOLID
 70
     1
 71
     0
 91
        1
 92
        1
 93
        1
 72
     4
 94
        3
 73
     0
 74
     1
 95
       62
 96
       58
 40
0.0
 40
0.0
 40
0.0
 40
0.0
 40
1.0
 40
1.0
 40
1.0
 40
2.0
 40
2.0
 40
2.0
 40
3.0
 40
3.0
 40
3.0
 40
4.0
 40
4.0
 40
4.0
 40
5.0
 40
5.0
 40
5.0
 40
6.0
 40
6.0
 40
6.0
 40
7.0
 40
7.0
 40
7.0
 40
8.0
 40
8.0
 40
8.0
 40
9.0
 40
9.0
 40
9.0
 40
10.0
 40
10.0
 40
10.0
 40
11.0
 40
11.0
 40
11.0
 40
12.0
 40
12.0
 40
12.0
 40
13.0
 40
13.0
 40
13.0
 40
14.0
 40
14.0
 40
14.0
 40
15.0
 40
15.0
 40
15.0
 40
16.0
 40
16.0
 40
16.0
 40
17.0
 40
17.0
 40
17.0
 40
18.0
 40
18.0
 40
18.0
 40
19.0
 40
19.0
 40
19.0
 40
19.0
 10
117.7509521189998
 20
-138.7574218403107
 10
117.7509521189998
 20
-138.8590521571255
 10
117.7299370365397
 20
-139.0919406119284
 10
117.5439018803363
 20
-139.2252658072076
 10
117.4315917675171
 20
-139.3045030033683
 10
117.3323730175419
 20
-139.3089816274992
 10
117.2476236686048
 20
-139.31346025163
 10
117.2476236686048
 20
-139.31346025163
 10
117.2476236686048
 20
-139.0785047395359
 10
117.2476236686048
 20
-139.0785047395359
 10
117.3216932215376
 20
-139.0760931726963
 10
117.5563042240831
 20
-139.0647243575949
 10
117.5563042240831
 20
-138.7619004644415
 10
117.5563042240831
 20
-138.6147948872213
 10
117.4867132952811
 20
-138.4521863803175
 10
117.258303464609
 20
-138.4521863803175
 10
117.1418592372076
 20
-138.4521863803175
 10
117.0932833908656
 20
-138.4928385070435
 10
117.0615885124013
 20
-138.5266004427989
 10
116.9875189594684
 20
-138.6058376389597
 10
116.974772106173
 20
-138.7302055859772
 10
116.974772106173
 20
-138.7891167187749
 10
116.974772106173
 20
-138.8094427821379
 10
116.9768391634641
 20
-138.8476833420242
 10
116.9809732780464
 20
-138.8773111631973
 10
116.9809732780464
 20
-138.8773111631973
 10
116.7863253831298
 20
-138.8773111631973
 10
116.7863253831298
 20
-138.8773111631973
 10
116.7928710645518
 20
-138.8366590364714
 10
116.7949381218429
 20
-138.7911837760661
 10
116.7949381218429
 20
-138.7846380946441
 10
116.7949381218429
 20
-138.714358146745
 10
116.7735785298344
 20
-138.5017957553051
 10
116.5369004699977
 20
-138.5017957553051
 10
116.3591335429588
 20
-138.5017957553051
 10
116.3040120151948
 20
-138.6420111415548
 10
116.3040120151948
 20
-138.7594888976018
 10
116.3040120151948
 20
-139.0423312369408
 10
116.5369004699977
 20
-139.0512884852025
 10
116.6085584560909
 20
-139.0557671093333
 10
116.6085584560909
 20
-139.0557671093333
 10
116.6085584560909
 20
-139.272808124904
 10
116.6085584560909
 20
-139.272808124904
 10
116.4838459995249
 20
-139.2638508766424
 10
116.1072970629871
 20
-139.2345675650178
 10
116.1072970629871
 20
-138.7460530252093
 10
116.1072970629871
 20
-138.506274379436
 10
116.2344210863928
 20
-138.2485812371393
 10
116.5303547885757
 20
-138.2485812371393
 10
116.7167344543278
 20
-138.2485812371393
 10
116.7990722364252
 20
-138.3505560635026
 10
116.8603949360627
 20
-138.4566650044484
 10
116.8879556999447
 20
-138.3912081902286
 10
116.968226424751
 20
-138.196560295312
 10
117.2455566113136
 20
-138.196560295312
 10
117.5838649879652
 20
-138.196560295312
 10
117.7509521189998
 20
-138.4611436285792
 10
117.7509521189998
 20
-138.7574218403107
 97
        0
 97
        0
 75
     2
 76
     1
 98
        0
  0
ENDBLK
  5
101
330
FE
100
AcDbEntity
  8
0
100
AcDbBlockEnd
  0
BLOCK
  5
106
330
104
100
AcDbEntity
  8
0
100
AcDbBlockBegin
  2
block 6
 70
     0
 10
0.0
 20
0.0
 30
0.0
  3
block 6
  1

  0
SPLINE
  5
108
330
104
100
AcDbEntity
  8
_U+30EC_U+30A4_U+30E4_U+30FC 1
370
     0
100
AcDbSpline
210
0.0
220
0.0
230
1.0
 70
    11
 71
     3
 72
    44
 73
    40
 74
     0
 42
0.0000000001
 43
0.0000000001
 12
1.0
 22
0.0
 32
0.0
 13
1.0
 23
0.0
 33
0.0
 40
0.0
 40
0.0
 40
0.0
 40
0.0
 40
1.0
 40
1.0
 40
1.0
 40
2.0
 40
2.0
 40
2.0
 40
3.0
 40
3.0
 40
3.0
 40
4.0
 40
4.0
 40
4.0
 40
5.0
 40
5.0
 40
5.0
 40
6.0
 40
6.0
 40
6.0
 40
7.0
 40
7.0
 40
7.0
 40
8.0
 40
8.0
 40
8.0
 40
9.0
 40
9.0
 40
9.0
 40
10.0
 40
10.0
 40
10.0
 40
11.0
 40
11.0
 40
11.0
 40
12.0
 40
12.0
 40
12.0
 40
13.0
 40
13.0
 40
13.0
 40
13.0
 10
65.23805065643354
 20
-130.3210720160309
 30
0.0
 10
65.39686955830356
 20
-130.5539604708337
 30
0.0
 10
65.47093911123643
 20
-130.6535237303574
 30
0.0
 10
65.61459959297136
 20
-130.7055446721847
 30
0.0
 10
65.61459959297136
 20
-130.7055446721847
 30
0.0
 10
65.61459959297136
 20
-129.8732096029484
 30
0.0
 10
65.61459959297136
 20
-129.8732096029484
 30
0.0
 10
65.61459959297136
 20
-129.8732096029484
 30
0.0
 10
65.81992728389224
 20
-129.8732096029484
 30
0.0
 10
65.81992728389224
 20
-129.8732096029484
 30
0.0
 10
65.81992728389224
 20
-129.8732096029484
 30
0.0
 10
65.81992728389224
 20
-130.9721950627431
 30
0.0
 10
65.81992728389224
 20
-130.9721950627431
 30
0.0
 10
65.46232637252331
 20
-130.9380886174391
 30
0.0
 10
65.38412270500814
 20
-130.8681531790885
 30
0.0
 10
65.0857774359855
 20
-130.4568087781497
 30
0.0
 10
64.88699542648659
 20
-130.1832681966208
 30
0.0
 10
64.81912704542717
 20
-130.1129882487218
 30
0.0
 10
64.6816677355657
 20
-130.1129882487218
 30
0.0
 10
64.56315645087311
 20
-130.1129882487218
 30
0.0
 10
64.43224282243361
 20
-130.1898138780428
 30
0.0
 10
64.43224282243361
 20
-130.4003092121916
 30
0.0
 10
64.43224282243361
 20
-130.6783284178512
 30
0.0
 10
64.66271971039683
 20
-130.6872856661129
 30
0.0
 10
64.77916393779827
 20
-130.6917642902437
 30
0.0
 10
64.77916393779827
 20
-130.6917642902437
 30
0.0
 10
64.77916393779827
 20
-130.9315429360171
 30
0.0
 10
64.77916393779827
 20
-130.9315429360171
 30
0.0
 10
64.65203991439255
 20
-130.9225856877555
 30
0.0
 10
64.54007431112193
 20
-130.9112168726541
 30
0.0
 10
64.42156302642934
 20
-130.8250894855229
 30
0.0
 10
64.26067706726816
 20
-130.7076117294759
 30
0.0
 10
64.22691513151271
 20
-130.508829719977
 30
0.0
 10
64.22691513151271
 20
-130.3844617729594
 30
0.0
 10
64.22691513151271
 20
-130.088183561228
 30
0.0
 10
64.41088323042506
 20
-129.8666639215264
 30
0.0
 10
64.68373479285685
 20
-129.8666639215264
 30
0.0
 10
64.91248913307744
 20
-129.8666639215264
 30
0.0
 10
65.01170788305264
 20
-129.9910318685439
 30
0.0
 10
65.23805065643354
 20
-130.3210720160309
 30
0.0
  0
HATCH
  5
109
330
104
100
AcDbEntity
  8
_U+30EC_U+30A4_U+30E4_U+30FC 1
 62
   179
420
  2234388
100
AcDbHatch
 10
0.0
 20
0.0
 30
0.0
210
0.0
220
0.0
230
1.0
  2
SOLID
 70
     1
 71
     0
 91
        1
 92
        1
 93
        1
 72
     4
 94
        3
 73
     0
 74
     1
 95
       44
 96
       40
 40
0.0
 40
0.0
 40
0.0
 40
0.0
 40
1.0
 40
1.0
 40
1.0
 40
2.0
 40
2.0
 40
2.0
 40
3.0
 40
3.0
 40
3.0
 40
4.0
 40
4.0
 40
4.0
 40
5.0
 40
5.0
 40
5.0
 40
6.0
 40
6.0
 40
6.0
 40
7.0
 40
7.0
 40
7.0
 40
8.0
 40
8.0
 40
8.0
 40
9.0
 40
9.0
 40
9.0
 40
10.0
 40
10.0
 40
10.0
 40
11.0
 40
11.0
 40
11.0
 40
12.0
 40
12.0
 40
12.0
 40
13.0
 40
13.0
 40
13.0
 40
13.0
 10
65.23805065643354
 20
-130.3210720160309
 10
65.39686955830356
 20
-130.5539604708337
 10
65.47093911123643
 20
-130.6535237303574
 10
65.61459959297136
 20
-130.7055446721847
 10
65.61459959297136
 20
-130.7055446721847
 10
65.61459959297136
 20
-129.8732096029484
 10
65.61459959297136
 20
-129.8732096029484
 10
65.61459959297136
 20
-129.8732096029484
 10
65.81992728389224
 20
-129.8732096029484
 10
65.81992728389224
 20
-129.8732096029484
 10
65.81992728389224
 20
-129.8732096029484
 10
65.81992728389224
 20
-130.9721950627431
 10
65.81992728389224
 20
-130.9721950627431
 10
65.46232637252331
 20
-130.9380886174391
 10
65.38412270500814
 20
-130.8681531790885
 10
65.0857774359855
 20
-130.4568087781497
 10
64.88699542648659
 20
-130.1832681966208
 10
64.81912704542717
 20
-130.1129882487218
 10
64.6816677355657
 20
-130.1129882487218
 10
64.56315645087311
 20
-130.1129882487218
 10
64.43224282243361
 20
-130.1898138780428
 10
64.43224282243361
 20
-130.4003092121916
 10
64.43224282243361
 20
-130.6783284178512
 10
64.66271971039683
 20
-130.6872856661129
 10
64.77916393779827
 20
-130.6917642902437
 10
64.77916393779827
 20
-130.6917642902437
 10
64.77916393779827
 20
-130.9315429360171
 10
64.77916393779827
 20
-130.9315429360171
 10
64.65203991439255
 20
-130.9225856877555
 10
64.54007431112193
 20
-130.9112168726541
 10
64.42156302642934
 20
-130.8250894855229
 10
64.26067706726816
 20
-130.7076117294759
 10
64.22691513151271
 20
-130.508829719977
 10
64.22691513151271
 20
-130.3844617729594
 10
64.22691513151271
 20
-130.088183561228
 10
64.41088323042506
 20
-129.8666639215264
 10
64.68373479285685
 20
-129.8666639215264
 10
64.91248913307744
 20
-129.8666639215264
 10
65.01170788305264
 20
-129.9910318685439
 10
65.23805065643354
 20
-130.3210720160309
 97
        0
 97
        0
 75
     2
 76
     1
 98
        0
  0
SPLINE
  5
10A
330
104
100
AcDbEntity
  8
_U+30EC_U+30A4_U+30E4_U+30FC 1
370
     0
100
AcDbSpline
210
0.0
220
0.0
230
1.0
 70
    11
 71
     3
 72
    26
 73
    22
 74
     0
 42
0.0000000001
 43
0.0000000001
 12
1.0
 22
0.0
 32
0.0
 13
1.0
 23
0.0
 33
0.0
 40
0.0
 40
0.0
 40
0.0
 40
0.0
 40
1.0
 40
1.0
 40
1.0
 40
2.0
 40
2.0
 40
2.0
 40
3.0
 40
3.0
 40
3.0
 40
4.0
 40
4.0
 40
4.0
 40
5.0
 40
5.0
 40
5.0
 40
6.0
 40
6.0
 40
6.0
 40
7.0
 40
7.0
 40
7.0
 40
7.0
 10
65.81992728389224
 20
-129.2148518557171
 30
0.0
 10
65.81992728389224
 20
-129.2148518557171
 30
0.0
 10
64.71577418086967
 20
-129.2148518557171
 30
0.0
 10
64.71577418086967
 20
-129.2148518557171
 30
0.0
 10
64.71577418086967
 20
-129.2148518557171
 30
0.0
 10
64.71577418086967
 20
-129.5672851238582
 30
0.0
 10
64.71577418086967
 20
-129.5672851238582
 30
0.0
 10
64.71577418086967
 20
-129.5672851238582
 30
0.0
 10
64.56763507500392
 20
-129.5672851238582
 30
0.0
 10
64.56763507500392
 20
-129.5672851238582
 30
0.0
 10
64.55282116441735
 20
-129.2124402888774
 30
0.0
 10
64.38986814796503
 20
-129.1628309138898
 30
0.0
 10
64.27549097785474
 20
-129.1311360354256
 30
0.0
 10
64.27549097785474
 20
-129.1311360354256
 30
0.0
 10
64.27549097785474
 20
-128.9750732099437
 30
0.0
 10
64.27549097785474
 20
-128.9750732099437
 30
0.0
 10
64.27549097785474
 20
-128.9750732099437
 30
0.0
 10
65.81992728389224
 20
-128.9750732099437
 30
0.0
 10
65.81992728389224
 20
-128.9750732099437
 30
0.0
 10
65.81992728389224
 20
-128.9750732099437
 30
0.0
 10
65.81992728389224
 20
-129.2148518557171
 30
0.0
 10
65.81992728389224
 20
-129.2148518557171
 30
0.0
  0
HATCH
  5
10B
330
104
100
AcDbEntity
  8
_U+30EC_U+30A4_U+30E4_U+30FC 1
 62
   179
420
  2234388
100
AcDbHatch
 10
0.0
 20
0.0
 30
0.0
210
0.0
220
0.0
230
1.0
  2
SOLID
 70
     1
 71
     0
 91
        1
 92
        1
 93
        1
 72
     4
 94
        3
 73
     0
 74
     1
 95
       26
 96
       22
 40
0.0
 40
0.0
 40
0.0
 40
0.0
 40
1.0
 40
1.0
 40
1.0
 40
2.0
 40
2.0
 40
2.0
 40
3.0
 40
3.0
 40
3.0
 40
4.0
 40
4.0
 40
4.0
 40
5.0
 40
5.0
 40
5.0
 40
6.0
 40
6.0
 40
6.0
 40
7.0
 40
7.0
 40
7.0
 40
7.0
 10
65.81992728389224
 20
-129.2148518557171
 10
65.81992728389224
 20
-129.2148518557171
 10
64.71577418086967
 20
-129.2148518557171
 10
64.71577418086967
 20
-129.2148518557171
 10
64.71577418086967
 20
-129.2148518557171
 10
64.71577418086967
 20
-129.5672851238582
 10
64.71577418086967
 20
-129.5672851238582
 10
64.71577418086967
 20
-129.5672851238582
 10
64.56763507500392
 20
-129.5672851238582
 10
64.56763507500392
 20
-129.5672851238582
 10
64.55282116441735
 20
-129.2124402888774
 10
64.38986814796503
 20
-129.1628309138898
 10
64.27549097785474
 20
-129.1311360354256
 10
64.27549097785474
 20
-129.1311360354256
 10
64.27549097785474
 20
-128.9750732099437
 10
64.27549097785474
 20
-128.9750732099437
 10
64.27549097785474
 20
-128.9750732099437
 10
65.81992728389224
 20
-128.9750732099437
 10
65.81992728389224
 20
-128.9750732099437
 10
65.81992728389224
 20
-128.9750732099437
 10
65.81992728389224
 20
-129.2148518557171
 10
65.81992728389224
 20
-129.2148518557171
 97
        0
 97
        0
 75
     2
 76
     1
 98
        0
  0
ENDBLK
  5
107
330
104
100
AcDbEntity
  8
0
100
AcDbBlockEnd
  0
BLOCK
  5
10E
330
10C
100
AcDbEntity
  8
0
100
AcDbBlockBegin
  2
block 7
 70
     0
 10
0.0
 20
0.0
 30
0.0
  3
block 7
  1

  0
SPLINE
  5
110
330
10C
100
AcDbEntity
  8
_U+30EC_U+30A4_U+30E4_U+30FC 1
370
     0
100
AcDbSpline
210
0.0
220
0.0
230
1.0
 70
    11
 71
     3
 72
    26
 73
    22
 74
     0
 42
0.0000000001
 43
0.0000000001
 12
1.0
 22
0.0
 32
0.0
 13
1.0
 23
0.0
 33
0.0
 40
0.0
 40
0.0
 40
0.0
 40
0.0
 40
1.0
 40
1.0
 40
1.0
 40
2.0
 40
2.0
 40
2.0
 40
3.0
 40
3.0
 40
3.0
 40
4.0
 40
4.0
 40
4.0
 40
5.0
 40
5.0
 40
5.0
 40
6.0
 40
6.0
 40
6.0
 40
7.0
 40
7.0
 40
7.0
 40
7.0
 10
75.55473359656271
 20
-146.8802679754327
 30
0.0
 10
75.55473359656271
 20
-146.8802679754327
 30
0.0
 10
75.55473359656271
 20
-145.7757703628616
 30
0.0
 10
75.55473359656271
 20
-145.7757703628616
 30
0.0
 10
75.55473359656271
 20
-145.7757703628616
 30
0.0
 10
75.20230032842166
 20
-145.7757703628616
 30
0.0
 10
75.20230032842166
 20
-145.7757703628616
 30
0.0
 10
75.20230032842166
 20
-145.7757703628616
 30
0.0
 10
75.20230032842166
 20
-145.6279757665444
 30
0.0
 10
75.20230032842166
 20
-145.6279757665444
 30
0.0
 10
75.55714516340238
 20
-145.6131618559578
 30
0.0
 10
75.60675453838998
 20
-145.4502088395055
 30
0.0
 10
75.63844941685429
 20
-145.3361761789437
 30
0.0
 10
75.63844941685429
 20
-145.3361761789437
 30
0.0
 10
75.7945122423361
 20
-145.3361761789437
 30
0.0
 10
75.7945122423361
 20
-145.3361761789437
 30
0.0
 10
75.7945122423361
 20
-145.3361761789437
 30
0.0
 10
75.7945122423361
 20
-146.8802679754327
 30
0.0
 10
75.7945122423361
 20
-146.8802679754327
 30
0.0
 10
75.7945122423361
 20
-146.8802679754327
 30
0.0
 10
75.55473359656271
 20
-146.8802679754327
 30
0.0
 10
75.55473359656271
 20
-146.8802679754327
 30
0.0
  0
HATCH
  5
111
330
10C
100
AcDbEntity
  8
_U+30EC_U+30A4_U+30E4_U+30FC 1
 62
   179
420
  2234388
100
AcDbHatch
 10
0.0
 20
0.0
 30
0.0
210
0.0
220
0.0
230
1.0
  2
SOLID
 70
     1
 71
     0
 91
        1
 92
        1
 93
        1
 72
     4
 94
        3
 73
     0
 74
     1
 95
       26
 96
       22
 40
0.0
 40
0.0
 40
0.0
 40
0.0
 40
1.0
 40
1.0
 40
1.0
 40
2.0
 40
2.0
 40
2.0
 40
3.0
 40
3.0
 40
3.0
 40
4.0
 40
4.0
 40
4.0
 40
5.0
 40
5.0
 40
5.0
 40
6.0
 40
6.0
 40
6.0
 40
7.0
 40
7.0
 40
7.0
 40
7.0
 10
75.55473359656271
 20
-146.8802679754327
 10
75.55473359656271
 20
-146.8802679754327
 10
75.55473359656271
 20
-145.7757703628616
 10
75.55473359656271
 20
-145.7757703628616
 10
75.55473359656271
 20
-145.7757703628616
 10
75.20230032842166
 20
-145.7757703628616
 10
75.20230032842166
 20
-145.7757703628616
 10
75.20230032842166
 20
-145.7757703628616
 10
75.20230032842166
 20
-145.6279757665444
 10
75.20230032842166
 20
-145.6279757665444
 10
75.55714516340238
 20
-145.6131618559578
 10
75.60675453838998
 20
-145.4502088395055
 10
75.63844941685429
 20
-145.3361761789437
 10
75.63844941685429
 20
-145.3361761789437
 10
75.7945122423361
 20
-145.3361761789437
 10
75.7945122423361
 20
-145.3361761789437
 10
75.7945122423361
 20
-145.3361761789437
 10
75.7945122423361
 20
-146.8802679754327
 10
75.7945122423361
 20
-146.8802679754327
 10
75.7945122423361
 20
-146.8802679754327
 10
75.55473359656271
 20
-146.8802679754327
 10
75.55473359656271
 20
-146.8802679754327
 97
        0
 97
        0
 75
     2
 76
     1
 98
        0
  0
SPLINE
  5
112
330
10C
100
AcDbEntity
  8
_U+30EC_U+30A4_U+30E4_U+30FC 1
370
     0
100
AcDbSpline
210
0.0
220
0.0
230
1.0
 70
    11
 71
     3
 72
    29
 73
    25
 74
     0
 42
0.0000000001
 43
0.0000000001
 12
1.0
 22
0.0
 32
0.0
 13
1.0
 23
0.0
 33
0.0
 40
0.0
 40
0.0
 40
0.0
 40
0.0
 40
1.0
 40
1.0
 40
1.0
 40
2.0
 40
2.0
 40
2.0
 40
3.0
 40
3.0
 40
3.0
 40
4.0
 40
4.0
 40
4.0
 40
5.0
 40
5.0
 40
5.0
 40
6.0
 40
6.0
 40
6.0
 40
7.0
 40
7.0
 40
7.0
 40
8.0
 40
8.0
 40
8.0
 40
8.0
 10
77.28968368293452
 20
-146.7025010483938
 30
0.0
 10
77.17427298417866
 20
-146.911962853897
 30
0.0
 10
76.98892684707222
 20
-146.9312553886144
 30
0.0
 10
76.8645589000547
 20
-146.9312553886144
 30
0.0
 10
76.69299314488926
 20
-146.9312553886144
 30
0.0
 10
76.54140894353826
 20
-146.884402090015
 30
0.0
 10
76.4397786267234
 20
-146.7025010483938
 30
0.0
 10
76.32884655209834
 20
-146.5078531534772
 30
0.0
 10
76.30852048873537
 20
-146.2711750936406
 30
0.0
 10
76.30852048873537
 20
-146.1078775676397
 30
0.0
 10
76.30852048873537
 20
-145.9642170859048
 30
0.0
 10
76.3267794948072
 20
-145.712380605933
 30
0.0
 10
76.4397786267234
 20
-145.5135985964341
 30
0.0
 10
76.55484481593074
 20
-145.3106824723529
 30
0.0
 10
76.72675508064471
 20
-145.2872558230532
 30
0.0
 10
76.8645589000547
 20
-145.2872558230532
 30
0.0
 10
77.03440210747752
 20
-145.2872558230532
 30
0.0
 10
77.18805336611966
 20
-145.3316975548129
 30
0.0
 10
77.28968368293452
 20
-145.5135985964341
 30
0.0
 10
77.39613713342875
 20
-145.7061794340596
 30
0.0
 10
77.42094182092255
 20
-145.9345892647316
 30
0.0
 10
77.42094182092255
 20
-146.1078775676397
 30
0.0
 10
77.42094182092255
 20
-146.2794433228052
 30
0.0
 10
77.3982041907199
 20
-146.5102647203169
 30
0.0
 10
77.28968368293452
 20
-146.7025010483938
 30
0.0
  0
SPLINE
  5
113
330
10C
100
AcDbEntity
  8
_U+30EC_U+30A4_U+30E4_U+30FC 1
370
     0
100
AcDbSpline
210
0.0
220
0.0
230
1.0
 70
    11
 71
     3
 72
    17
 73
    13
 74
     0
 42
0.0000000001
 43
0.0000000001
 12
1.0
 22
0.0
 32
0.0
 13
1.0
 23
0.0
 33
0.0
 40
0.0
 40
0.0
 40
0.0
 40
0.0
 40
1.0
 40
1.0
 40
1.0
 40
2.0
 40
2.0
 40
2.0
 40
3.0
 40
3.0
 40
3.0
 40
4.0
 40
4.0
 40
4.0
 40
4.0
 10
76.8645589000547
 20
-145.4798366606787
 30
0.0
 10
76.59790850949636
 20
-145.4798366606787
 30
0.0
 10
76.54829913450877
 20
-145.7633680191147
 30
0.0
 10
76.54829913450877
 20
-146.1078775676397
 30
0.0
 10
76.54829913450877
 20
-146.4275824286709
 30
0.0
 10
76.58653969439503
 20
-146.7362629841493
 30
0.0
 10
76.8645589000547
 20
-146.7362629841493
 30
0.0
 10
77.12914223332189
 20
-146.7362629841493
 30
0.0
 10
77.18116317514915
 20
-146.4551431925529
 30
0.0
 10
77.18116317514915
 20
-146.1078775676397
 30
0.0
 10
77.18116317514915
 20
-145.7888617257056
 30
0.0
 10
77.1405110484232
 20
-145.4798366606787
 30
0.0
 10
76.8645589000547
 20
-145.4798366606787
 30
0.0
  0
HATCH
  5
114
330
10C
100
AcDbEntity
  8
_U+30EC_U+30A4_U+30E4_U+30FC 1
 62
   179
420
  2234388
100
AcDbHatch
 10
0.0
 20
0.0
 30
0.0
210
0.0
220
0.0
230
1.0
  2
SOLID
 70
     1
 71
     0
 91
        2
 92
        1
 93
        1
 72
     4
 94
        3
 73
     0
 74
     1
 95
       29
 96
       25
 40
0.0
 40
0.0
 40
0.0
 40
0.0
 40
1.0
 40
1.0
 40
1.0
 40
2.0
 40
2.0
 40
2.0
 40
3.0
 40
3.0
 40
3.0
 40
4.0
 40
4.0
 40
4.0
 40
5.0
 40
5.0
 40
5.0
 40
6.0
 40
6.0
 40
6.0
 40
7.0
 40
7.0
 40
7.0
 40
8.0
 40
8.0
 40
8.0
 40
8.0
 10
77.28968368293452
 20
-146.7025010483938
 10
77.17427298417866
 20
-146.911962853897
 10
76.98892684707222
 20
-146.9312553886144
 10
76.8645589000547
 20
-146.9312553886144
 10
76.69299314488926
 20
-146.9312553886144
 10
76.54140894353826
 20
-146.884402090015
 10
76.4397786267234
 20
-146.7025010483938
 10
76.32884655209834
 20
-146.5078531534772
 10
76.30852048873537
 20
-146.2711750936406
 10
76.30852048873537
 20
-146.1078775676397
 10
76.30852048873537
 20
-145.9642170859048
 10
76.3267794948072
 20
-145.712380605933
 10
76.4397786267234
 20
-145.5135985964341
 10
76.55484481593074
 20
-145.3106824723529
 10
76.72675508064471
 20
-145.2872558230532
 10
76.8645589000547
 20
-145.2872558230532
 10
77.03440210747752
 20
-145.2872558230532
 10
77.18805336611966
 20
-145.3316975548129
 10
77.28968368293452
 20
-145.5135985964341
 10
77.39613713342875
 20
-145.7061794340596
 10
77.42094182092255
 20
-145.9345892647316
 10
77.42094182092255
 20
-146.1078775676397
 10
77.42094182092255
 20
-146.2794433228052
 10
77.3982041907199
 20
-146.5102647203169
 10
77.28968368293452
 20
-146.7025010483938
 97
        0
 97
        0
 92
        1
 93
        1
 72
     4
 94
        3
 73
     0
 74
     1
 95
       17
 96
       13
 40
0.0
 40
0.0
 40
0.0
 40
0.0
 40
1.0
 40
1.0
 40
1.0
 40
2.0
 40
2.0
 40
2.0
 40
3.0
 40
3.0
 40
3.0
 40
4.0
 40
4.0
 40
4.0
 40
4.0
 10
76.8645589000547
 20
-145.4798366606787
 10
76.59790850949636
 20
-145.4798366606787
 10
76.54829913450877
 20
-145.7633680191147
 10
76.54829913450877
 20
-146.1078775676397
 10
76.54829913450877
 20
-146.4275824286709
 10
76.58653969439503
 20
-146.7362629841493
 10
76.8645589000547
 20
-146.7362629841493
 10
77.12914223332189
 20
-146.7362629841493
 10
77.18116317514915
 20
-146.4551431925529
 10
77.18116317514915
 20
-146.1078775676397
 10
77.18116317514915
 20
-145.7888617257056
 10
77.1405110484232
 20
-145.4798366606787
 10
76.8645589000547
 20
-145.4798366606787
 97
        0
 97
        0
 75
     2
 76
     1
 98
        0
  0
ENDBLK
  5
10F
330
10C
100
AcDbEntity
  8
0
100
AcDbBlockEnd
  0
BLOCK
  5
117
330
115
100
AcDbEntity
  8
0
100
AcDbBlockBegin
  2
block 8
 70
     0
 10
0.0
 20
0.0
 30
0.0
  3
block 8
  1

  0
POLYLINE
  5
119
330
115
100
AcDbEntity
  8
_U+30EC_U+30A4_U+30E4_U+30FC 1
370
     0
100
AcDb2dPolyline
 66
     1
 10
0.0
 20
0.0
 30
0.0
  0
VERTEX
  5
11A
330
119
100
AcDbEntity
  8
_U+30EC_U+30A4_U+30E4_U+30FC 1
370
     0
100
AcDbVertex
100
AcDb2dVertex
 10
90.96223413524555
 20
-114.0326605617696
 30
0.0
  0
VERTEX
  5
11B
330
119
100
AcDbEntity
  8
_U+30EC_U+30A4_U+30E4_U+30FC 1
370
     0
100
AcDbVertex
100
AcDb2dVertex
 10
90.96223413524555
 20
-114.3795816771343
 30
0.0
  0
VERTEX
  5
11C
330
119
100
AcDbEntity
  8
_U+30EC_U+30A4_U+30E4_U+30FC 1
370
     0
100
AcDbVertex
100
AcDb2dVertex
 10
90.72934568044266
 20
-114.3795816771343
 30
0.0
  0
VERTEX
  5
11D
330
119
100
AcDbEntity
  8
_U+30EC_U+30A4_U+30E4_U+30FC 1
370
     0
100
AcDbVertex
100
AcDb2dVertex
 10
90.72934568044266
 20
-114.0326605617696
 30
0.0
  0
VERTEX
  5
11E
330
119
100
AcDbEntity
  8
_U+30EC_U+30A4_U+30E4_U+30FC 1
370
     0
100
AcDbVertex
100
AcDb2dVertex
 10
90.02826874919432
 20
-114.0326605617696
 30
0.0
  0
VERTEX
  5
11F
330
119
100
AcDbEntity
  8
_U+30EC_U+30A4_U+30E4_U+30FC 1
370
     0
100
AcDbVertex
100
AcDb2dVertex
 10
90.02826874919432
 20
-113.8083848456799
 30
0.0
  0
VERTEX
  5
120
330
119
100
AcDbEntity
  8
_U+30EC_U+30A4_U+30E4_U+30FC 1
370
     0
100
AcDbVertex
100
AcDb2dVertex
 10
90.75415036793646
 20
-112.8351453710968
 30
0.0
  0
VERTEX
  5
121
330
119
100
AcDbEntity
  8
_U+30EC_U+30A4_U+30E4_U+30FC 1
370
     0
100
AcDbVertex
100
AcDb2dVertex
 10
90.96223413524555
 20
-112.8351453710968
 30
0.0
  0
VERTEX
  5
122
330
119
100
AcDbEntity
  8
_U+30EC_U+30A4_U+30E4_U+30FC 1
370
     0
100
AcDbVertex
100
AcDb2dVertex
 10
90.96223413524555
 20
-113.8338785522707
 30
0.0
  0
VERTEX
  5
123
330
119
100
AcDbEntity
  8
_U+30EC_U+30A4_U+30E4_U+30FC 1
370
     0
100
AcDbVertex
100
AcDb2dVertex
 10
91.18375377494712
 20
-113.8338785522707
 30
0.0
  0
VERTEX
  5
124
330
119
100
AcDbEntity
  8
_U+30EC_U+30A4_U+30E4_U+30FC 1
370
     0
100
AcDbVertex
100
AcDb2dVertex
 10
91.18375377494712
 20
-114.0326605617696
 30
0.0
  0
VERTEX
  5
125
330
119
100
AcDbEntity
  8
_U+30EC_U+30A4_U+30E4_U+30FC 1
370
     0
100
AcDbVertex
100
AcDb2dVertex
 10
90.96223413524555
 20
-114.0326605617696
 30
0.0
  0
SEQEND
  5
126
330
119
100
AcDbEntity
  8
_U+30EC_U+30A4_U+30E4_U+30FC 1
370
     0
  0
POLYLINE
  5
127
330
115
100
AcDbEntity
  8
_U+30EC_U+30A4_U+30E4_U+30FC 1
370
     0
100
AcDb2dPolyline
 66
     1
 10
0.0
 20
0.0
 30
0.0
  0
VERTEX
  5
128
330
127
100
AcDbEntity
  8
_U+30EC_U+30A4_U+30E4_U+30FC 1
370
     0
100
AcDbVertex
100
AcDb2dVertex
 10
90.72934568044266
 20
-113.1779323718791
 30
0.0
  0
VERTEX
  5
129
330
127
100
AcDbEntity
  8
_U+30EC_U+30A4_U+30E4_U+30FC 1
370
     0
100
AcDbVertex
100
AcDb2dVertex
 10
90.24083114063424
 20
-113.8338785522707
 30
0.0
  0
VERTEX
  5
12A
330
127
100
AcDbEntity
  8
_U+30EC_U+30A4_U+30E4_U+30FC 1
370
     0
100
AcDbVertex
100
AcDb2dVertex
 10
90.72934568044266
 20
-113.8338785522707
 30
0.0
  0
VERTEX
  5
12B
330
127
100
AcDbEntity
  8
_U+30EC_U+30A4_U+30E4_U+30FC 1
370
     0
100
AcDbVertex
100
AcDb2dVertex
 10
90.72934568044266
 20
-113.1779323718791
 30
0.0
  0
SEQEND
  5
12C
330
127
100
AcDbEntity
  8
_U+30EC_U+30A4_U+30E4_U+30FC 1
370
     0
  0
HATCH
  5
12D
330
115
100
AcDbEntity
  8
_U+30EC_U+30A4_U+30E4_U+30FC 1
 62
   179
420
  2234388
100
AcDbHatch
 10
0.0
 20
0.0
 30
0.0
210
0.0
220
0.0
230
1.0
  2
SOLID
 70
     1
 71
     0
 91
        2
 92
        1
 93
       11
 72
     1
 10
90.96223413524555
 20
-114.0326605617696
 11
90.96223413524555
 21
-114.3795816771343
 72
     1
 10
90.96223413524555
 20
-114.3795816771343
 11
90.72934568044266
 21
-114.3795816771343
 72
     1
 10
90.72934568044266
 20
-114.3795816771343
 11
90.72934568044266
 21
-114.0326605617696
 72
     1
 10
90.72934568044266
 20
-114.0326605617696
 11
90.02826874919432
 21
-114.0326605617696
 72
     1
 10
90.02826874919432
 20
-114.0326605617696
 11
90.02826874919432
 21
-113.8083848456799
 72
     1
 10
90.02826874919432
 20
-113.8083848456799
 11
90.75415036793646
 21
-112.8351453710968
 72
     1
 10
90.75415036793646
 20
-112.8351453710968
 11
90.96223413524555
 21
-112.8351453710968
 72
     1
 10
90.96223413524555
 20
-112.8351453710968
 11
90.96223413524555
 21
-113.8338785522707
 72
     1
 10
90.96223413524555
 20
-113.8338785522707
 11
91.18375377494712
 21
-113.8338785522707
 72
     1
 10
91.18375377494712
 20
-113.8338785522707
 11
91.18375377494712
 21
-114.0326605617696
 72
     1
 10
91.18375377494712
 20
-114.0326605617696
 11
90.96223413524555
 21
-114.0326605617696
 97
        0
 92
        1
 93
        3
 72
     1
 10
90.72934568044266
 20
-113.1779323718791
 11
90.24083114063424
 21
-113.8338785522707
 72
     1
 10
90.24083114063424
 20
-113.8338785522707
 11
90.72934568044266
 21
-113.8338785522707
 72
     1
 10
90.72934568044266
 20
-113.8338785522707
 11
90.72934568044266
 21
-113.1779323718791
 97
        0
 75
     2
 76
     1
 98
        0
  0
SPLINE
  5
12E
330
115
100
AcDbEntity
  8
_U+30EC_U+30A4_U+30E4_U+30FC 1
370
     0
100
AcDbSpline
210
0.0
220
0.0
230
1.0
 70
    11
 71
     3
 72
    29
 73
    25
 74
     0
 42
0.0000000001
 43
0.0000000001
 12
1.0
 22
0.0
 32
0.0
 13
1.0
 23
0.0
 33
0.0
 40
0.0
 40
0.0
 40
0.0
 40
0.0
 40
1.0
 40
1.0
 40
1.0
 40
2.0
 40
2.0
 40
2.0
 40
3.0
 40
3.0
 40
3.0
 40
4.0
 40
4.0
 40
4.0
 40
5.0
 40
5.0
 40
5.0
 40
6.0
 40
6.0
 40
6.0
 40
7.0
 40
7.0
 40
7.0
 40
8.0
 40
8.0
 40
8.0
 40
8.0
 10
92.28997393526085
 20
-114.2018147500954
 30
0.0
 10
92.17456323650498
 20
-114.4112765555986
 30
0.0
 10
91.98921709939853
 20
-114.4302245807674
 30
0.0
 10
91.86484915238101
 20
-114.4302245807674
 30
0.0
 10
91.69328339721557
 20
-114.4302245807674
 30
0.0
 10
91.54169919586458
 20
-114.3837157917166
 30
0.0
 10
91.4400688790497
 20
-114.2018147500954
 30
0.0
 10
91.32913680442466
 20
-114.0071668551788
 30
0.0
 10
91.30881074106169
 20
-113.7701442857936
 30
0.0
 10
91.30881074106169
 20
-113.6075357788898
 30
0.0
 10
91.30881074106169
 20
-113.4635307876063
 30
0.0
 10
91.326725237585
 20
-113.2116943076346
 30
0.0
 10
91.4400688790497
 20
-113.0129122981357
 30
0.0
 10
91.55513506825706
 20
-112.8099961740544
 30
0.0
 10
91.72704533297102
 20
-112.7865695247548
 30
0.0
 10
91.86484915238101
 20
-112.7865695247548
 30
0.0
 10
92.03469235980383
 20
-112.7865695247548
 30
0.0
 10
92.18834361844597
 20
-112.8310112565145
 30
0.0
 10
92.28997393526085
 20
-113.0129122981357
 30
0.0
 10
92.39642738575506
 20
-113.2054931357611
 30
0.0
 10
92.42123207324886
 20
-113.4339029664332
 30
0.0
 10
92.42123207324886
 20
-113.6075357788898
 30
0.0
 10
92.42123207324886
 20
-113.7787570245067
 30
0.0
 10
92.39849444304622
 20
-114.0092339124699
 30
0.0
 10
92.28997393526085
 20
-114.2018147500954
 30
0.0
  0
SPLINE
  5
12F
330
115
100
AcDbEntity
  8
_U+30EC_U+30A4_U+30E4_U+30FC 1
370
     0
100
AcDbSpline
210
0.0
220
0.0
230
1.0
 70
    11
 71
     3
 72
    17
 73
    13
 74
     0
 42
0.0000000001
 43
0.0000000001
 12
1.0
 22
0.0
 32
0.0
 13
1.0
 23
0.0
 33
0.0
 40
0.0
 40
0.0
 40
0.0
 40
0.0
 40
1.0
 40
1.0
 40
1.0
 40
2.0
 40
2.0
 40
2.0
 40
3.0
 40
3.0
 40
3.0
 40
4.0
 40
4.0
 40
4.0
 40
4.0
 10
91.86484915238101
 20
-112.9791503623802
 30
0.0
 10
91.59819876182267
 20
-112.9791503623802
 30
0.0
 10
91.54858938683508
 20
-113.2626817208163
 30
0.0
 10
91.54858938683508
 20
-113.6075357788898
 30
0.0
 10
91.54858938683508
 20
-113.9268961303724
 30
0.0
 10
91.58682994672135
 20
-114.2355766858508
 30
0.0
 10
91.86484915238101
 20
-114.2355766858508
 30
0.0
 10
92.1294324856482
 20
-114.2355766858508
 30
0.0
 10
92.18145342747547
 20
-113.9544568942544
 30
0.0
 10
92.18145342747547
 20
-113.6075357788898
 30
0.0
 10
92.18145342747547
 20
-113.2878309178586
 30
0.0
 10
92.14080130074953
 20
-112.9791503623802
 30
0.0
 10
91.86484915238101
 20
-112.9791503623802
 30
0.0
  0
HATCH
  5
130
330
115
100
AcDbEntity
  8
_U+30EC_U+30A4_U+30E4_U+30FC 1
 62
   179
420
  2234388
100
AcDbHatch
 10
0.0
 20
0.0
 30
0.0
210
0.0
220
0.0
230
1.0
  2
SOLID
 70
     1
 71
     0
 91
        2
 92
        1
 93
        1
 72
     4
 94
        3
 73
     0
 74
     1
 95
       29
 96
       25
 40
0.0
 40
0.0
 40
0.0
 40
0.0
 40
1.0
 40
1.0
 40
1.0
 40
2.0
 40
2.0
 40
2.0
 40
3.0
 40
3.0
 40
3.0
 40
4.0
 40
4.0
 40
4.0
 40
5.0
 40
5.0
 40
5.0
 40
6.0
 40
6.0
 40
6.0
 40
7.0
 40
7.0
 40
7.0
 40
8.0
 40
8.0
 40
8.0
 40
8.0
 10
92.28997393526085
 20
-114.2018147500954
 10
92.17456323650498
 20
-114.4112765555986
 10
91.98921709939853
 20
-114.4302245807674
 10
91.86484915238101
 20
-114.4302245807674
 10
91.69328339721557
 20
-114.4302245807674
 10
91.54169919586458
 20
-114.3837157917166
 10
91.4400688790497
 20
-114.2018147500954
 10
91.32913680442466
 20
-114.0071668551788
 10
91.30881074106169
 20
-113.7701442857936
 10
91.30881074106169
 20
-113.6075357788898
 10
91.30881074106169
 20
-113.4635307876063
 10
91.326725237585
 20
-113.2116943076346
 10
91.4400688790497
 20
-113.0129122981357
 10
91.55513506825706
 20
-112.8099961740544
 10
91.72704533297102
 20
-112.7865695247548
 10
91.86484915238101
 20
-112.7865695247548
 10
92.03469235980383
 20
-112.7865695247548
 10
92.18834361844597
 20
-112.8310112565145
 10
92.28997393526085
 20
-113.0129122981357
 10
92.39642738575506
 20
-113.2054931357611
 10
92.42123207324886
 20
-113.4339029664332
 10
92.42123207324886
 20
-113.6075357788898
 10
92.42123207324886
 20
-113.7787570245067
 10
92.39849444304622
 20
-114.0092339124699
 10
92.28997393526085
 20
-114.2018147500954
 97
        0
 97
        0
 92
        1
 93
        1
 72
     4
 94
        3
 73
     0
 74
     1
 95
       17
 96
       13
 40
0.0
 40
0.0
 40
0.0
 40
0.0
 40
1.0
 40
1.0
 40
1.0
 40
2.0
 40
2.0
 40
2.0
 40
3.0
 40
3.0
 40
3.0
 40
4.0
 40
4.0
 40
4.0
 40
4.0
 10
91.86484915238101
 20
-112.9791503623802
 10
91.59819876182267
 20
-112.9791503623802
 10
91.54858938683508
 20
-113.2626817208163
 10
91.54858938683508
 20
-113.6075357788898
 10
91.54858938683508
 20
-113.9268961303724
 10
91.58682994672135
 20
-114.2355766858508
 10
91.86484915238101
 20
-114.2355766858508
 10
92.1294324856482
 20
-114.2355766858508
 10
92.18145342747547
 20
-113.9544568942544
 10
92.18145342747547
 20
-113.6075357788898
 10
92.18145342747547
 20
-113.2878309178586
 10
92.14080130074953
 20
-112.9791503623802
 10
91.86484915238101
 20
-112.9791503623802
 97
        0
 97
        0
 75
     2
 76
     1
 98
        0
  0
ENDBLK
  5
118
330
115
100
AcDbEntity
  8
0
100
AcDbBlockEnd
  0
ENDSEC
  0
SECTION
  2
ENTITIES
  0
SPLINE
  5
41
330
1F
100
AcDbEntity
  8
_U+30EC_U+30A4_U+30E4_U+30FC 1
 62
   179
420
  2234388
370
     9
100
AcDbSpline
210
0.0
220
0.0
230
1.0
 70
    11
 71
     3
 72
    17
 73
    13
 74
     0
 42
0.0000000001
 43
0.0000000001
 12
1.0
 22
0.0
 32
0.0
 13
1.0
 23
0.0
 33
0.0
 40
0.0
 40
0.0
 40
0.0
 40
0.0
 40
1.0
 40
1.0
 40
1.0
 40
2.0
 40
2.0
 40
2.0
 40
3.0
 40
3.0
 40
3.0
 40
4.0
 40
4.0
 40
4.0
 40
4.0
 10
71.22371664886083
 20
-112.3071935830343
 30
0.0
 10
71.27952429261894
 20
-112.3071935830343
 30
0.0
 10
71.32432706925371
 20
-112.3519610830232
 30
0.0
 10
71.32432706925371
 20
-112.4071002496759
 30
0.0
 10
71.32432706925371
 20
-112.4622041385511
 30
0.0
 10
71.27952429261894
 20
-112.5070069163176
 30
0.0
 10
71.22371664886083
 20
-112.5070069163176
 30
0.0
 10
71.16861096211525
 20
-112.5070069163176
 30
0.0
 10
71.12380818548048
 20
-112.4622041385511
 30
0.0
 10
71.12380818548048
 20
-112.4071002496759
 30
0.0
 10
71.12380818548048
 20
-112.3519610830232
 30
0.0
 10
71.16861096211525
 20
-112.3071935830343
 30
0.0
 10
71.22371664886083
 20
-112.3071935830343
 30
0.0
  0
SPLINE
  5
42
330
1F
100
AcDbEntity
  8
_U+30EC_U+30A4_U+30E4_U+30FC 1
 62
   179
420
  2234388
370
     9
100
AcDbSpline
210
0.0
220
0.0
230
1.0
 70
    11
 71
     3
 72
    17
 73
    13
 74
     0
 42
0.0000000001
 43
0.0000000001
 12
1.0
 22
0.0
 32
0.0
 13
1.0
 23
0.0
 33
0.0
 40
0.0
 40
0.0
 40
0.0
 40
0.0
 40
1.0
 40
1.0
 40
1.0
 40
2.0
 40
2.0
 40
2.0
 40
3.0
 40
3.0
 40
3.0
 40
4.0
 40
4.0
 40
4.0
 40
4.0
 10
74.39871664806708
 20
-112.2072869163926
 30
0.0
 10
74.45452421161795
 20
-112.2072869163926
 30
0.0
 10
74.49932698825272
 20
-112.2520544163815
 30
0.0
 10
74.49932698825272
 20
-112.3071935830343
 30
0.0
 10
74.49932698825272
 20
-112.3622974719095
 30
0.0
 10
74.45452421161795
 20
-112.4071002496759
 30
0.0
 10
74.39871664806708
 20
-112.4071002496759
 30
0.0
 10
74.34361088111424
 20
-112.4071002496759
 30
0.0
 10
74.29880810447949
 20
-112.3622974719095
 30
0.0
 10
74.29880810447949
 20
-112.3071935830343
 30
0.0
 10
74.29880810447949
 20
-112.2520544163815
 30
0.0
 10
74.34361088111424
 20
-112.2072869163926
 30
0.0
 10
74.39871664806708
 20
-112.2072869163926
 30
0.0
  0
POLYLINE
  5
43
330
1F
100
AcDbEntity
  8
_U+30EC_U+30A4_U+30E4_U+30FC 1
 62
   179
420
  2234388
370
    25
100
AcDb2dPolyline
 66
     1
 10
0.0
 20
0.0
 30
0.0
  0
VERTEX
  5
44
330
43
100
AcDbEntity
  8
_U+30EC_U+30A4_U+30E4_U+30FC 1
 62
   179
420
  2234388
370
    25
100
AcDbVertex
100
AcDb2dVertex
 10
81.2360418163848
 20
-140.2911849649275
 30
0.0
  0
VERTEX
  5
45
330
43
100
AcDbEntity
  8
_U+30EC_U+30A4_U+30E4_U+30FC 1
 62
   179
420
  2234388
370
    25
100
AcDbVertex
100
AcDb2dVertex
 10
71.23613262705929
 20
-140.2911849649275
 30
0.0
  0
SEQEND
  5
46
330
43
100
AcDbEntity
  8
_U+30EC_U+30A4_U+30E4_U+30FC 1
 62
   179
420
  2234388
370
    25
  0
POLYLINE
  5
47
330
1F
100
AcDbEntity
  8
_U+30EC_U+30A4_U+30E4_U+30FC 1
 62
   179
420
  2234388
370
    25
100
AcDb2dPolyline
 66
     1
 10
0.0
 20
0.0
 30
0.0
  0
VERTEX
  5
48
330
47
100
AcDbEntity
  8
_U+30EC_U+30A4_U+30E4_U+30FC 1
 62
   179
420
  2234388
370
    25
100
AcDbVertex
100
AcDb2dVertex
 10
74.2361194949677
 20
-119.2910646923994
 30
0.0
  0
VERTEX
  5
49
330
47
100
AcDbEntity
  8
_U+30EC_U+30A4_U+30E4_U+30FC 1
 62
   179
420
  2234388
370
    25
100
AcDbVertex
100
AcDb2dVertex
 10
71.23613262705929
 20
-119.2910646923994
 30
0.0
  0
SEQEND
  5
4A
330
47
100
AcDbEntity
  8
_U+30EC_U+30A4_U+30E4_U+30FC 1
 62
   179
420
  2234388
370
    25
  0
POLYLINE
  5
4B
330
1F
100
AcDbEntity
  8
_U+30EC_U+30A4_U+30E4_U+30FC 1
 62
   179
420
  2234388
370
    25
100
AcDb2dPolyline
 66
     1
 10
0.0
 20
0.0
 30
0.0
  0
VERTEX
  5
4C
330
4B
100
AcDbEntity
  8
_U+30EC_U+30A4_U+30E4_U+30FC 1
 62
   179
420
  2234388
370
    25
100
AcDbVertex
100
AcDb2dVertex
 10
111.2359457732457
 20
-127.7913510791632
 30
0.0
  0
VERTEX
  5
4D
330
4B
100
AcDbEntity
  8
_U+30EC_U+30A4_U+30E4_U+30FC 1
 62
   179
420
  2234388
370
    25
100
AcDbVertex
100
AcDb2dVertex
 10
111.2359457732457
 20
-126.791578857191
 30
0.0
  0
SEQEND
  5
4E
330
4B
100
AcDbEntity
  8
_U+30EC_U+30A4_U+30E4_U+30FC 1
 62
   179
420
  2234388
370
    25
  0
POLYLINE
  5
4F
330
1F
100
AcDbEntity
  8
_U+30EC_U+30A4_U+30E4_U+30FC 1
 62
   179
420
  2234388
370
    25
100
AcDb2dPolyline
 66
     1
 10
0.0
 20
0.0
 30
0.0
  0
VERTEX
  5
50
330
4F
100
AcDbEntity
  8
_U+30EC_U+30A4_U+30E4_U+30FC 1
 62
   179
420
  2234388
370
    25
100
AcDbVertex
100
AcDb2dVertex
 10
71.23613262705929
 20
-140.2911849649275
 30
0.0
  0
VERTEX
  5
51
330
4F
100
AcDbEntity
  8
_U+30EC_U+30A4_U+30E4_U+30FC 1
 62
   179
420
  2234388
370
    25
100
AcDbVertex
100
AcDb2dVertex
 10
71.23613262705929
 20
-119.2910646923994
 30
0.0
  0
SEQEND
  5
52
330
4F
100
AcDbEntity
  8
_U+30EC_U+30A4_U+30E4_U+30FC 1
 62
   179
420
  2234388
370
    25
  0
POLYLINE
  5
53
330
1F
100
AcDbEntity
  8
_U+30EC_U+30A4_U+30E4_U+30FC 1
 62
   179
420
  2234388
370
    25
100
AcDb2dPolyline
 66
     1
 10
0.0
 20
0.0
 30
0.0
  0
VERTEX
  5
54
330
53
100
AcDbEntity
  8
_U+30EC_U+30A4_U+30E4_U+30FC 1
 62
   179
420
  2234388
370
    25
100
AcDbVertex
100
AcDb2dVertex
 10
81.2360418163848
 20
-137.2911980212325
 30
0.0
  0
VERTEX
  5
55
330
53
100
AcDbEntity
  8
_U+30EC_U+30A4_U+30E4_U+30FC 1
 62
   179
420
  2234388
370
    25
100
AcDbVertex
100
AcDb2dVertex
 10
77.23628275176048
 20
-137.2911980212325
 30
0.0
  0
SEQEND
  5
56
330
53
100
AcDbEntity
  8
_U+30EC_U+30A4_U+30E4_U+30FC 1
 62
   179
420
  2234388
370
    25
  0
POLYLINE
  5
57
330
1F
100
AcDbEntity
  8
_U+30EC_U+30A4_U+30E4_U+30FC 1
 62
   179
420
  2234388
370
    25
100
AcDb2dPolyline
 66
     1
 10
0.0
 20
0.0
 30
0.0
  0
VERTEX
  5
58
330
57
100
AcDbEntity
  8
_U+30EC_U+30A4_U+30E4_U+30FC 1
 62
   179
420
  2234388
370
    25
100
AcDbVertex
100
AcDb2dVertex
 10
111.2359457732457
 20
-127.7913510791632
 30
0.0
  0
VERTEX
  5
59
330
57
100
AcDbEntity
  8
_U+30EC_U+30A4_U+30E4_U+30FC 1
 62
   179
420
  2234388
370
    25
100
AcDbVertex
100
AcDb2dVertex
 10
72.2359048237752
 20
-127.7913510791632
 30
0.0
  0
SEQEND
  5
5A
330
57
100
AcDbEntity
  8
_U+30EC_U+30A4_U+30E4_U+30FC 1
 62
   179
420
  2234388
370
    25
  0
POLYLINE
  5
5B
330
1F
100
AcDbEntity
  8
_U+30EC_U+30A4_U+30E4_U+30FC 1
 62
   179
420
  2234388
370
    25
100
AcDb2dPolyline
 66
     1
 10
0.0
 20
0.0
 30
0.0
  0
VERTEX
  5
5C
330
5B
100
AcDbEntity
  8
_U+30EC_U+30A4_U+30E4_U+30FC 1
 62
   179
420
  2234388
370
    25
100
AcDbVertex
100
AcDb2dVertex
 10
111.2359457732457
 20
-126.791578857191
 30
0.0
  0
VERTEX
  5
5D
330
5B
100
AcDbEntity
  8
_U+30EC_U+30A4_U+30E4_U+30FC 1
 62
   179
420
  2234388
370
    25
100
AcDbVertex
100
AcDb2dVertex
 10
72.2359048237752
 20
-126.791578857191
 30
0.0
  0
SEQEND
  5
5E
330
5B
100
AcDbEntity
  8
_U+30EC_U+30A4_U+30E4_U+30FC 1
 62
   179
420
  2234388
370
    25
  0
POLYLINE
  5
5F
330
1F
100
AcDbEntity
  8
_U+30EC_U+30A4_U+30E4_U+30FC 1
 62
   179
420
  2234388
370
    25
100
AcDb2dPolyline
 66
     1
 10
0.0
 20
0.0
 30
0.0
  0
VERTEX
  5
60
330
5F
100
AcDbEntity
  8
_U+30EC_U+30A4_U+30E4_U+30FC 1
 62
   179
420
  2234388
370
    25
100
AcDbVertex
100
AcDb2dVertex
 10
72.2359048237752
 20
-139.291412742955
 30
0.0
  0
VERTEX
  5
61
330
5F
100
AcDbEntity
  8
_U+30EC_U+30A4_U+30E4_U+30FC 1
 62
   179
420
  2234388
370
    25
100
AcDbVertex
100
AcDb2dVertex
 10
72.2359048237752
 20
-127.7913510791632
 30
0.0
  0
SEQEND
  5
62
330
5F
100
AcDbEntity
  8
_U+30EC_U+30A4_U+30E4_U+30FC 1
 62
   179
420
  2234388
370
    25
  0
POLYLINE
  5
63
330
1F
100
AcDbEntity
  8
_U+30EC_U+30A4_U+30E4_U+30FC 1
 62
   179
420
  2234388
370
    25
100
AcDb2dPolyline
 66
     1
 10
0.0
 20
0.0
 30
0.0
  0
VERTEX
  5
64
330
63
100
AcDbEntity
  8
_U+30EC_U+30A4_U+30E4_U+30FC 1
 62
   179
420
  2234388
370
    25
100
AcDbVertex
100
AcDb2dVertex
 10
74.2361194949677
 20
-120.2908369143717
 30
0.0
  0
VERTEX
  5
65
330
63
100
AcDbEntity
  8
_U+30EC_U+30A4_U+30E4_U+30FC 1
 62
   179
420
  2234388
370
    25
100
AcDbVertex
100
AcDb2dVertex
 10
72.2359048237752
 20
-120.2908369143717
 30
0.0
  0
SEQEND
  5
66
330
63
100
AcDbEntity
  8
_U+30EC_U+30A4_U+30E4_U+30FC 1
 62
   179
420
  2234388
370
    25
  0
POLYLINE
  5
67
330
1F
100
AcDbEntity
  8
_U+30EC_U+30A4_U+30E4_U+30FC 1
 62
   179
420
  2234388
370
    25
100
AcDb2dPolyline
 66
     1
 10
0.0
 20
0.0
 30
0.0
  0
VERTEX
  5
68
330
67
100
AcDbEntity
  8
_U+30EC_U+30A4_U+30E4_U+30FC 1
 62
   179
420
  2234388
370
    25
100
AcDbVertex
100
AcDb2dVertex
 10
80.23626961966889
 20
-139.291412742955
 30
0.0
  0
VERTEX
  5
69
330
67
100
AcDbEntity
  8
_U+30EC_U+30A4_U+30E4_U+30FC 1
 62
   179
420
  2234388
370
    25
100
AcDbVertex
100
AcDb2dVertex
 10
72.2359048237752
 20
-139.291412742955
 30
0.0
  0
SEQEND
  5
6A
330
67
100
AcDbEntity
  8
_U+30EC_U+30A4_U+30E4_U+30FC 1
 62
   179
420
  2234388
370
    25
  0
POLYLINE
  5
6B
330
1F
100
AcDbEntity
  8
_U+30EC_U+30A4_U+30E4_U+30FC 1
 62
   179
420
  2234388
370
    25
100
AcDb2dPolyline
 66
     1
 10
0.0
 20
0.0
 30
0.0
  0
VERTEX
  5
6C
330
6B
100
AcDbEntity
  8
_U+30EC_U+30A4_U+30E4_U+30FC 1
 62
   179
420
  2234388
370
    25
100
AcDbVertex
100
AcDb2dVertex
 10
81.2360418163848
 20
-140.2911849649275
 30
0.0
  0
VERTEX
  5
6D
330
6B
100
AcDbEntity
  8
_U+30EC_U+30A4_U+30E4_U+30FC 1
 62
   179
420
  2234388
370
    25
100
AcDbVertex
100
AcDb2dVertex
 10
81.2360418163848
 20
-137.2911980212325
 30
0.0
  0
SEQEND
  5
6E
330
6B
100
AcDbEntity
  8
_U+30EC_U+30A4_U+30E4_U+30FC 1
 62
   179
420
  2234388
370
    25
  0
POLYLINE
  5
6F
330
1F
100
AcDbEntity
  8
_U+30EC_U+30A4_U+30E4_U+30FC 1
 62
   179
420
  2234388
370
    25
100
AcDb2dPolyline
 66
     1
 10
0.0
 20
0.0
 30
0.0
  0
VERTEX
  5
70
330
6F
100
AcDbEntity
  8
_U+30EC_U+30A4_U+30E4_U+30FC 1
 62
   179
420
  2234388
370
    25
100
AcDbVertex
100
AcDb2dVertex
 10
80.23626961966889
 20
-139.291412742955
 30
0.0
  0
VERTEX
  5
71
330
6F
100
AcDbEntity
  8
_U+30EC_U+30A4_U+30E4_U+30FC 1
 62
   179
420
  2234388
370
    25
100
AcDbVertex
100
AcDb2dVertex
 10
80.23626961966889
 20
-138.2909702432051
 30
0.0
  0
SEQEND
  5
72
330
6F
100
AcDbEntity
  8
_U+30EC_U+30A4_U+30E4_U+30FC 1
 62
   179
420
  2234388
370
    25
  0
POLYLINE
  5
73
330
1F
100
AcDbEntity
  8
_U+30EC_U+30A4_U+30E4_U+30FC 1
 62
   179
420
  2234388
370
    25
100
AcDb2dPolyline
 66
     1
 10
0.0
 20
0.0
 30
0.0
  0
VERTEX
  5
74
330
73
100
AcDbEntity
  8
_U+30EC_U+30A4_U+30E4_U+30FC 1
 62
   179
420
  2234388
370
    25
100
AcDbVertex
100
AcDb2dVertex
 10
80.23626961966889
 20
-138.2909702432051
 30
0.0
  0
VERTEX
  5
75
330
73
100
AcDbEntity
  8
_U+30EC_U+30A4_U+30E4_U+30FC 1
 62
   179
420
  2234388
370
    25
100
AcDbVertex
100
AcDb2dVertex
 10
77.23628275176048
 20
-138.2909702432051
 30
0.0
  0
SEQEND
  5
76
330
73
100
AcDbEntity
  8
_U+30EC_U+30A4_U+30E4_U+30FC 1
 62
   179
420
  2234388
370
    25
  0
POLYLINE
  5
77
330
1F
100
AcDbEntity
  8
_U+30EC_U+30A4_U+30E4_U+30FC 1
 62
   179
420
  2234388
370
    25
100
AcDb2dPolyline
 66
     1
 10
0.0
 20
0.0
 30
0.0
  0
VERTEX
  5
78
330
77
100
AcDbEntity
  8
_U+30EC_U+30A4_U+30E4_U+30FC 1
 62
   179
420
  2234388
370
    25
100
AcDbVertex
100
AcDb2dVertex
 10
77.23628275176048
 20
-138.2909702432051
 30
0.0
  0
VERTEX
  5
79
330
77
100
AcDbEntity
  8
_U+30EC_U+30A4_U+30E4_U+30FC 1
 62
   179
420
  2234388
370
    25
100
AcDbVertex
100
AcDb2dVertex
 10
77.23628275176048
 20
-137.2911980212325
 30
0.0
  0
SEQEND
  5
7A
330
77
100
AcDbEntity
  8
_U+30EC_U+30A4_U+30E4_U+30FC 1
 62
   179
420
  2234388
370
    25
  0
POLYLINE
  5
7B
330
1F
100
AcDbEntity
  8
_U+30EC_U+30A4_U+30E4_U+30FC 1
 62
   179
420
  2234388
370
    25
100
AcDb2dPolyline
 66
     1
 10
0.0
 20
0.0
 30
0.0
  0
VERTEX
  5
7C
330
7B
100
AcDbEntity
  8
_U+30EC_U+30A4_U+30E4_U+30FC 1
 62
   179
420
  2234388
370
    25
100
AcDbVertex
100
AcDb2dVertex
 10
74.2361194949677
 20
-120.2908369143717
 30
0.0
  0
VERTEX
  5
7D
330
7B
100
AcDbEntity
  8
_U+30EC_U+30A4_U+30E4_U+30FC 1
 62
   179
420
  2234388
370
    25
100
AcDbVertex
100
AcDb2dVertex
 10
74.2361194949677
 20
-119.2910646923994
 30
0.0
  0
SEQEND
  5
7E
330
7B
100
AcDbEntity
  8
_U+30EC_U+30A4_U+30E4_U+30FC 1
 62
   179
420
  2234388
370
    25
  0
POLYLINE
  5
7F
330
1F
100
AcDbEntity
  8
_U+30EC_U+30A4_U+30E4_U+30FC 1
 62
   179
420
  2234388
370
    25
100
AcDb2dPolyline
 66
     1
 10
0.0
 20
0.0
 30
0.0
  0
VERTEX
  5
80
330
7F
100
AcDbEntity
  8
_U+30EC_U+30A4_U+30E4_U+30FC 1
 62
   179
420
  2234388
370
    25
100
AcDbVertex
100
AcDb2dVertex
 10
72.2359048237752
 20
-126.791578857191
 30
0.0
  0
VERTEX
  5
81
330
7F
100
AcDbEntity
  8
_U+30EC_U+30A4_U+30E4_U+30FC 1
 62
   179
420
  2234388
370
    25
100
AcDbVertex
100
AcDb2dVertex
 10
72.2359048237752
 20
-120.2908369143717
 30
0.0
  0
SEQEND
  5
82
330
7F
100
AcDbEntity
  8
_U+30EC_U+30A4_U+30E4_U+30FC 1
 62
   179
420
  2234388
370
    25
  0
SPLINE
  5
83
330
1F
100
AcDbEntity
  8
_U+30EC_U+30A4_U+30E4_U+30FC 1
 62
   179
420
  2234388
370
     9
100
AcDbSpline
210
0.0
220
0.0
230
1.0
 70
    11
 71
     3
 72
    17
 73
    13
 74
     0
 42
0.0000000001
 43
0.0000000001
 12
1.0
 22
0.0
 32
0.0
 13
1.0
 23
0.0
 33
0.0
 40
0.0
 40
0.0
 40
0.0
 40
0.0
 40
1.0
 40
1.0
 40
1.0
 40
2.0
 40
2.0
 40
2.0
 40
3.0
 40
3.0
 40
3.0
 40
4.0
 40
4.0
 40
4.0
 40
4.0
 10
115.2363751156307
 20
-137.1912913545909
 30
0.0
 10
115.2914790031138
 20
-137.1912913545909
 30
0.0
 10
115.3362817797485
 20
-137.2360588545801
 30
0.0
 10
115.3362817797485
 20
-137.2911980212325
 30
0.0
 10
115.3362817797485
 20
-137.3463019101081
 30
0.0
 10
115.2914790031138
 20
-137.3911046878742
 30
0.0
 10
115.2363751156307
 20
-137.3911046878742
 30
0.0
 10
115.1812388600934
 20
-137.3911046878742
 30
0.0
 10
115.1364684515129
 20
-137.3463019101081
 30
0.0
 10
115.1364684515129
 20
-137.2911980212325
 30
0.0
 10
115.1364684515129
 20
-137.2360588545801
 30
0.0
 10
115.1812388600934
 20
-137.1912913545909
 30
0.0
 10
115.2363751156307
 20
-137.1912913545909
 30
0.0
  0
SPLINE
  5
84
330
1F
100
AcDbEntity
  8
_U+30EC_U+30A4_U+30E4_U+30FC 1
 62
   179
420
  2234388
370
     9
100
AcDbSpline
210
0.0
220
0.0
230
1.0
 70
    11
 71
     3
 72
    17
 73
    13
 74
     0
 42
0.0000000001
 43
0.0000000001
 12
1.0
 22
0.0
 32
0.0
 13
1.0
 23
0.0
 33
0.0
 40
0.0
 40
0.0
 40
0.0
 40
0.0
 40
1.0
 40
1.0
 40
1.0
 40
2.0
 40
2.0
 40
2.0
 40
3.0
 40
3.0
 40
3.0
 40
4.0
 40
4.0
 40
4.0
 40
4.0
 10
115.2363751156307
 20
-140.1912782982853
 30
0.0
 10
115.2914790031138
 20
-140.1912782982853
 30
0.0
 10
115.3362817797485
 20
-140.2360457982744
 30
0.0
 10
115.3362817797485
 20
-140.2911849649275
 30
0.0
 10
115.3362817797485
 20
-140.3462888538024
 30
0.0
 10
115.2914790031138
 20
-140.3910916315692
 30
0.0
 10
115.2363751156307
 20
-140.3910916315692
 30
0.0
 10
115.1812388600934
 20
-140.3910916315692
 30
0.0
 10
115.1364684515129
 20
-140.3462888538024
 30
0.0
 10
115.1364684515129
 20
-140.2911849649275
 30
0.0
 10
115.1364684515129
 20
-140.2360457982744
 30
0.0
 10
115.1812388600934
 20
-140.1912782982853
 30
0.0
 10
115.2363751156307
 20
-140.1912782982853
 30
0.0
  0
SPLINE
  5
85
330
1F
100
AcDbEntity
  8
_U+30EC_U+30A4_U+30E4_U+30FC 1
 62
   179
420
  2234388
370
     9
100
AcDbSpline
210
0.0
220
0.0
230
1.0
 70
    11
 71
     3
 72
    17
 73
    13
 74
     0
 42
0.0000000001
 43
0.0000000001
 12
1.0
 22
0.0
 32
0.0
 13
1.0
 23
0.0
 33
0.0
 40
0.0
 40
0.0
 40
0.0
 40
0.0
 40
1.0
 40
1.0
 40
1.0
 40
2.0
 40
2.0
 40
2.0
 40
3.0
 40
3.0
 40
3.0
 40
4.0
 40
4.0
 40
4.0
 40
4.0
 10
115.2363751156307
 20
-127.6914444125216
 30
0.0
 10
115.2914790031138
 20
-127.6914444125216
 30
0.0
 10
115.3362817797485
 20
-127.7362119125105
 30
0.0
 10
115.3362817797485
 20
-127.7913510791632
 30
0.0
 10
115.3362817797485
 20
-127.8464549680385
 30
0.0
 10
115.2914790031138
 20
-127.8912577458049
 30
0.0
 10
115.2363751156307
 20
-127.8912577458049
 30
0.0
 10
115.1812388600934
 20
-127.8912577458049
 30
0.0
 10
115.1364684515129
 20
-127.8464549680385
 30
0.0
 10
115.1364684515129
 20
-127.7913510791632
 30
0.0
 10
115.1364684515129
 20
-127.7362119125105
 30
0.0
 10
115.1812388600934
 20
-127.6914444125216
 30
0.0
 10
115.2363751156307
 20
-127.6914444125216
 30
0.0
  0
SPLINE
  5
86
330
1F
100
AcDbEntity
  8
_U+30EC_U+30A4_U+30E4_U+30FC 1
 62
   179
420
  2234388
370
     9
100
AcDbSpline
210
0.0
220
0.0
230
1.0
 70
    11
 71
     3
 72
    17
 73
    13
 74
     0
 42
0.0000000001
 43
0.0000000001
 12
1.0
 22
0.0
 32
0.0
 13
1.0
 23
0.0
 33
0.0
 40
0.0
 40
0.0
 40
0.0
 40
0.0
 40
1.0
 40
1.0
 40
1.0
 40
2.0
 40
2.0
 40
2.0
 40
3.0
 40
3.0
 40
3.0
 40
4.0
 40
4.0
 40
4.0
 40
4.0
 10
115.2363751156307
 20
-126.6909666349939
 30
0.0
 10
115.2914790031138
 20
-126.6909666349939
 30
0.0
 10
115.3362817797485
 20
-126.7357694127606
 30
0.0
 10
115.3362817797485
 20
-126.791578857191
 30
0.0
 10
115.3362817797485
 20
-126.8466827460663
 30
0.0
 10
115.2914790031138
 20
-126.8914855238327
 30
0.0
 10
115.2363751156307
 20
-126.8914855238327
 30
0.0
 10
115.1812388600934
 20
-126.8914855238327
 30
0.0
 10
115.1364684515129
 20
-126.8466827460663
 30
0.0
 10
115.1364684515129
 20
-126.791578857191
 30
0.0
 10
115.1364684515129
 20
-126.7357694127606
 30
0.0
 10
115.1812388600934
 20
-126.6909666349939
 30
0.0
 10
115.2363751156307
 20
-126.6909666349939
 30
0.0
  0
SPLINE
  5
87
330
1F
100
AcDbEntity
  8
_U+30EC_U+30A4_U+30E4_U+30FC 1
 62
   179
420
  2234388
370
     9
100
AcDbSpline
210
0.0
220
0.0
230
1.0
 70
    11
 71
     3
 72
    17
 73
    13
 74
     0
 42
0.0000000001
 43
0.0000000001
 12
1.0
 22
0.0
 32
0.0
 13
1.0
 23
0.0
 33
0.0
 40
0.0
 40
0.0
 40
0.0
 40
0.0
 40
1.0
 40
1.0
 40
1.0
 40
2.0
 40
2.0
 40
2.0
 40
3.0
 40
3.0
 40
3.0
 40
4.0
 40
4.0
 40
4.0
 40
4.0
 10
111.2359457732457
 20
-115.1914341378688
 30
0.0
 10
111.2917552162663
 20
-115.1914341378688
 30
0.0
 10
111.3365227151242
 20
-115.2362016378576
 30
0.0
 10
111.3365227151242
 20
-115.2913408045104
 30
0.0
 10
111.3365227151242
 20
-115.3464446933856
 30
0.0
 10
111.2917552162663
 20
-115.3912474711524
 30
0.0
 10
111.2359457732457
 20
-115.3912474711524
 30
0.0
 10
111.1808066079858
 20
-115.3912474711524
 30
0.0
 10
111.1360391091279
 20
-115.3464446933856
 30
0.0
 10
111.1360391091279
 20
-115.2913408045104
 30
0.0
 10
111.1360391091279
 20
-115.2362016378576
 30
0.0
 10
111.1808066079858
 20
-115.1914341378688
 30
0.0
 10
111.2359457732457
 20
-115.1914341378688
 30
0.0
  0
SPLINE
  5
88
330
1F
100
AcDbEntity
  8
_U+30EC_U+30A4_U+30E4_U+30FC 1
 62
   179
420
  2234388
370
     9
100
AcDbSpline
210
0.0
220
0.0
230
1.0
 70
    11
 71
     3
 72
    17
 73
    13
 74
     0
 42
0.0000000001
 43
0.0000000001
 12
1.0
 22
0.0
 32
0.0
 13
1.0
 23
0.0
 33
0.0
 40
0.0
 40
0.0
 40
0.0
 40
0.0
 40
1.0
 40
1.0
 40
1.0
 40
2.0
 40
2.0
 40
2.0
 40
3.0
 40
3.0
 40
3.0
 40
4.0
 40
4.0
 40
4.0
 40
4.0
 10
71.23613262705929
 20
-115.1914341378688
 30
0.0
 10
71.29123651454236
 20
-115.1914341378688
 30
0.0
 10
71.33603929117713
 20
-115.2362016378576
 30
0.0
 10
71.33603929117713
 20
-115.2913408045104
 30
0.0
 10
71.33603929117713
 20
-115.3464446933856
 30
0.0
 10
71.29123651454236
 20
-115.3912474711524
 30
0.0
 10
71.23613262705929
 20
-115.3912474711524
 30
0.0
 10
71.18099346179935
 20
-115.3912474711524
 30
0.0
 10
71.13622775999363
 20
-115.3464446933856
 30
0.0
 10
71.13622775999363
 20
-115.2913408045104
 30
0.0
 10
71.13622775999363
 20
-115.2362016378576
 30
0.0
 10
71.18099346179935
 20
-115.1914341378688
 30
0.0
 10
71.23613262705929
 20
-115.1914341378688
 30
0.0
  0
SPLINE
  5
89
330
1F
100
AcDbEntity
  8
_U+30EC_U+30A4_U+30E4_U+30FC 1
 62
   179
420
  2234388
370
     9
100
AcDbSpline
210
0.0
220
0.0
230
1.0
 70
    11
 71
     3
 72
    17
 73
    13
 74
     0
 42
0.0000000001
 43
0.0000000001
 12
1.0
 22
0.0
 32
0.0
 13
1.0
 23
0.0
 33
0.0
 40
0.0
 40
0.0
 40
0.0
 40
0.0
 40
1.0
 40
1.0
 40
1.0
 40
2.0
 40
2.0
 40
2.0
 40
3.0
 40
3.0
 40
3.0
 40
4.0
 40
4.0
 40
4.0
 40
4.0
 10
67.23584439578181
 20
-119.1911580257578
 30
0.0
 10
67.2916555387325
 20
-119.1911580257578
 30
0.0
 10
67.33645831649922
 20
-119.2359608035245
 30
0.0
 10
67.33645831649922
 20
-119.2910646923994
 30
0.0
 10
67.33645831649922
 20
-119.3462038590525
 30
0.0
 10
67.2916555387325
 20
-119.3910066368189
 30
0.0
 10
67.23584439578181
 20
-119.3910066368189
 30
0.0
 10
67.18074050829874
 20
-119.3910066368189
 30
0.0
 10
67.13593773166399
 20
-119.3462038590525
 30
0.0
 10
67.13593773166399
 20
-119.2910646923994
 30
0.0
 10
67.13593773166399
 20
-119.2359608035245
 30
0.0
 10
67.18074050829874
 20
-119.1911580257578
 30
0.0
 10
67.23584439578181
 20
-119.1911580257578
 30
0.0
  0
SPLINE
  5
8A
330
1F
100
AcDbEntity
  8
_U+30EC_U+30A4_U+30E4_U+30FC 1
 62
   179
420
  2234388
370
     9
100
AcDbSpline
210
0.0
220
0.0
230
1.0
 70
    11
 71
     3
 72
    17
 73
    13
 74
     0
 42
0.0000000001
 43
0.0000000001
 12
1.0
 22
0.0
 32
0.0
 13
1.0
 23
0.0
 33
0.0
 40
0.0
 40
0.0
 40
0.0
 40
0.0
 40
1.0
 40
1.0
 40
1.0
 40
2.0
 40
2.0
 40
2.0
 40
3.0
 40
3.0
 40
3.0
 40
4.0
 40
4.0
 40
4.0
 40
4.0
 10
67.23584439578181
 20
-140.1912782982853
 30
0.0
 10
67.2916555387325
 20
-140.1912782982853
 30
0.0
 10
67.33645831649922
 20
-140.2360457982744
 30
0.0
 10
67.33645831649922
 20
-140.2911849649275
 30
0.0
 10
67.33645831649922
 20
-140.3462888538024
 30
0.0
 10
67.2916555387325
 20
-140.3910916315692
 30
0.0
 10
67.23584439578181
 20
-140.3910916315692
 30
0.0
 10
67.18074050829874
 20
-140.3910916315692
 30
0.0
 10
67.13593773166399
 20
-140.3462888538024
 30
0.0
 10
67.13593773166399
 20
-140.2911849649275
 30
0.0
 10
67.13593773166399
 20
-140.2360457982744
 30
0.0
 10
67.18074050829874
 20
-140.1912782982853
 30
0.0
 10
67.23584439578181
 20
-140.1912782982853
 30
0.0
  0
SPLINE
  5
8B
330
1F
100
AcDbEntity
  8
_U+30EC_U+30A4_U+30E4_U+30FC 1
 62
   179
420
  2234388
370
     9
100
AcDbSpline
210
0.0
220
0.0
230
1.0
 70
    11
 71
     3
 72
    17
 73
    13
 74
     0
 42
0.0000000001
 43
0.0000000001
 12
1.0
 22
0.0
 32
0.0
 13
1.0
 23
0.0
 33
0.0
 40
0.0
 40
0.0
 40
0.0
 40
0.0
 40
1.0
 40
1.0
 40
1.0
 40
2.0
 40
2.0
 40
2.0
 40
3.0
 40
3.0
 40
3.0
 40
4.0
 40
4.0
 40
4.0
 40
4.0
 10
71.23613262705929
 20
-144.1910374639521
 30
0.0
 10
71.29123651454236
 20
-144.1910374639521
 30
0.0
 10
71.33603929117713
 20
-144.2358049639413
 30
0.0
 10
71.33603929117713
 20
-144.2909441305938
 30
0.0
 10
71.33603929117713
 20
-144.3467535750242
 30
0.0
 10
71.29123651454236
 20
-144.3915210750134
 30
0.0
 10
71.23613262705929
 20
-144.3915210750134
 30
0.0
 10
71.18099346179935
 20
-144.3915210750134
 30
0.0
 10
71.13622775999363
 20
-144.3467535750242
 30
0.0
 10
71.13622775999363
 20
-144.2909441305938
 30
0.0
 10
71.13622775999363
 20
-144.2358049639413
 30
0.0
 10
71.18099346179935
 20
-144.1910374639521
 30
0.0
 10
71.23613262705929
 20
-144.1910374639521
 30
0.0
  0
SPLINE
  5
8C
330
1F
100
AcDbEntity
  8
_U+30EC_U+30A4_U+30E4_U+30FC 1
 62
   179
420
  2234388
370
     9
100
AcDbSpline
210
0.0
220
0.0
230
1.0
 70
    11
 71
     3
 72
    17
 73
    13
 74
     0
 42
0.0000000001
 43
0.0000000001
 12
1.0
 22
0.0
 32
0.0
 13
1.0
 23
0.0
 33
0.0
 40
0.0
 40
0.0
 40
0.0
 40
0.0
 40
1.0
 40
1.0
 40
1.0
 40
2.0
 40
2.0
 40
2.0
 40
3.0
 40
3.0
 40
3.0
 40
4.0
 40
4.0
 40
4.0
 40
4.0
 10
81.2360418163848
 20
-144.1910374639521
 30
0.0
 10
81.29114570386787
 20
-144.1910374639521
 30
0.0
 10
81.33594848050264
 20
-144.2358049639413
 30
0.0
 10
81.33594848050264
 20
-144.2909441305938
 30
0.0
 10
81.33594848050264
 20
-144.3467535750242
 30
0.0
 10
81.29114570386787
 20
-144.3915210750134
 30
0.0
 10
81.2360418163848
 20
-144.3915210750134
 30
0.0
 10
81.18090265112485
 20
-144.3915210750134
 30
0.0
 10
81.13613515226696
 20
-144.3467535750242
 30
0.0
 10
81.13613515226696
 20
-144.2909441305938
 30
0.0
 10
81.13613515226696
 20
-144.2358049639413
 30
0.0
 10
81.18090265112485
 20
-144.1910374639521
 30
0.0
 10
81.2360418163848
 20
-144.1910374639521
 30
0.0
  0
POLYLINE
  5
8D
330
1F
100
AcDbEntity
  8
_U+30EC_U+30A4_U+30E4_U+30FC 1
 62
   179
420
  2234388
370
     9
100
AcDb2dPolyline
 66
     1
 10
0.0
 20
0.0
 30
0.0
  0
VERTEX
  5
8E
330
8D
100
AcDbEntity
  8
_U+30EC_U+30A4_U+30E4_U+30FC 1
 62
   179
420
  2234388
370
     9
100
AcDbVertex
100
AcDb2dVertex
 10
115.2363751156307
 20
-126.791578857191
 30
0.0
  0
VERTEX
  5
8F
330
8D
100
AcDbEntity
  8
_U+30EC_U+30A4_U+30E4_U+30FC 1
 62
   179
420
  2234388
370
     9
100
AcDbVertex
100
AcDb2dVertex
 10
115.2363751156307
 20
-123.0212663581336
 30
0.0
  0
SEQEND
  5
90
330
8D
100
AcDbEntity
  8
_U+30EC_U+30A4_U+30E4_U+30FC 1
 62
   179
420
  2234388
370
     9
  0
POLYLINE
  5
91
330
1F
100
AcDbEntity
  8
_U+30EC_U+30A4_U+30E4_U+30FC 1
 62
   179
420
  2234388
370
     9
100
AcDb2dPolyline
 66
     1
 10
0.0
 20
0.0
 30
0.0
  0
VERTEX
  5
92
330
91
100
AcDbEntity
  8
_U+30EC_U+30A4_U+30E4_U+30FC 1
 62
   179
420
  2234388
370
     9
100
AcDbVertex
100
AcDb2dVertex
 10
115.2363751156307
 20
-126.791578857191
 30
0.0
  0
VERTEX
  5
93
330
91
100
AcDbEntity
  8
_U+30EC_U+30A4_U+30E4_U+30FC 1
 62
   179
420
  2234388
370
     9
100
AcDbVertex
100
AcDb2dVertex
 10
115.2363751156307
 20
-127.7913510791632
 30
0.0
  0
SEQEND
  5
94
330
91
100
AcDbEntity
  8
_U+30EC_U+30A4_U+30E4_U+30FC 1
 62
   179
420
  2234388
370
     9
  0
POLYLINE
  5
95
330
1F
100
AcDbEntity
  8
_U+30EC_U+30A4_U+30E4_U+30FC 1
 62
   179
420
  2234388
370
     9
100
AcDb2dPolyline
 66
     1
 10
0.0
 20
0.0
 30
0.0
  0
VERTEX
  5
96
330
95
100
AcDbEntity
  8
_U+30EC_U+30A4_U+30E4_U+30FC 1
 62
   179
420
  2234388
370
     9
100
AcDbVertex
100
AcDb2dVertex
 10
113.7763337639906
 20
-126.791578857191
 30
0.0
  0
VERTEX
  5
97
330
95
100
AcDbEntity
  8
_U+30EC_U+30A4_U+30E4_U+30FC 1
 62
   179
420
  2234388
370
     9
100
AcDbVertex
100
AcDb2dVertex
 10
116.2361473123466
 20
-126.791578857191
 30
0.0
  0
SEQEND
  5
98
330
95
100
AcDbEntity
  8
_U+30EC_U+30A4_U+30E4_U+30FC 1
 62
   179
420
  2234388
370
     9
  0
POLYLINE
  5
99
330
1F
100
AcDbEntity
  8
_U+30EC_U+30A4_U+30E4_U+30FC 1
 62
   179
420
  2234388
370
     9
100
AcDb2dPolyline
 66
     1
 10
0.0
 20
0.0
 30
0.0
  0
VERTEX
  5
9A
330
99
100
AcDbEntity
  8
_U+30EC_U+30A4_U+30E4_U+30FC 1
 62
   179
420
  2234388
370
     9
100
AcDbVertex
100
AcDb2dVertex
 10
113.7763337639906
 20
-127.7913510791632
 30
0.0
  0
VERTEX
  5
9B
330
99
100
AcDbEntity
  8
_U+30EC_U+30A4_U+30E4_U+30FC 1
 62
   179
420
  2234388
370
     9
100
AcDbVertex
100
AcDb2dVertex
 10
116.2361473123466
 20
-127.7913510791632
 30
0.0
  0
SEQEND
  5
9C
330
99
100
AcDbEntity
  8
_U+30EC_U+30A4_U+30E4_U+30FC 1
 62
   179
420
  2234388
370
     9
  0
POLYLINE
  5
9D
330
1F
100
AcDbEntity
  8
_U+30EC_U+30A4_U+30E4_U+30FC 1
 62
   179
420
  2234388
370
     9
100
AcDb2dPolyline
 66
     1
 10
0.0
 20
0.0
 30
0.0
  0
VERTEX
  5
9E
330
9D
100
AcDbEntity
  8
_U+30EC_U+30A4_U+30E4_U+30FC 1
 62
   179
420
  2234388
370
     9
100
AcDbVertex
100
AcDb2dVertex
 10
115.2363751156307
 20
-127.7913510791632
 30
0.0
  0
VERTEX
  5
9F
330
9D
100
AcDbEntity
  8
_U+30EC_U+30A4_U+30E4_U+30FC 1
 62
   179
420
  2234388
370
     9
100
AcDbVertex
100
AcDb2dVertex
 10
115.2363751156307
 20
-137.2911980212325
 30
0.0
  0
SEQEND
  5
A0
330
9D
100
AcDbEntity
  8
_U+30EC_U+30A4_U+30E4_U+30FC 1
 62
   179
420
  2234388
370
     9
  0
POLYLINE
  5
A1
330
1F
100
AcDbEntity
  8
_U+30EC_U+30A4_U+30E4_U+30FC 1
 62
   179
420
  2234388
370
     9
100
AcDb2dPolyline
 66
     1
 10
0.0
 20
0.0
 30
0.0
  0
VERTEX
  5
A2
330
A1
100
AcDbEntity
  8
_U+30EC_U+30A4_U+30E4_U+30FC 1
 62
   179
420
  2234388
370
     9
100
AcDbVertex
100
AcDb2dVertex
 10
113.7763337639906
 20
-127.7913510791632
 30
0.0
  0
VERTEX
  5
A3
330
A1
100
AcDbEntity
  8
_U+30EC_U+30A4_U+30E4_U+30FC 1
 62
   179
420
  2234388
370
     9
100
AcDbVertex
100
AcDb2dVertex
 10
116.2361473123466
 20
-127.7913510791632
 30
0.0
  0
SEQEND
  5
A4
330
A1
100
AcDbEntity
  8
_U+30EC_U+30A4_U+30E4_U+30FC 1
 62
   179
420
  2234388
370
     9
  0
POLYLINE
  5
A5
330
1F
100
AcDbEntity
  8
_U+30EC_U+30A4_U+30E4_U+30FC 1
 62
   179
420
  2234388
370
     9
100
AcDb2dPolyline
 66
     1
 10
0.0
 20
0.0
 30
0.0
  0
VERTEX
  5
A6
330
A5
100
AcDbEntity
  8
_U+30EC_U+30A4_U+30E4_U+30FC 1
 62
   179
420
  2234388
370
     9
100
AcDbVertex
100
AcDb2dVertex
 10
83.77646508490653
 20
-137.2911980212325
 30
0.0
  0
VERTEX
  5
A7
330
A5
100
AcDbEntity
  8
_U+30EC_U+30A4_U+30E4_U+30FC 1
 62
   179
420
  2234388
370
     9
100
AcDbVertex
100
AcDb2dVertex
 10
116.2361473123466
 20
-137.2911980212325
 30
0.0
  0
SEQEND
  5
A8
330
A5
100
AcDbEntity
  8
_U+30EC_U+30A4_U+30E4_U+30FC 1
 62
   179
420
  2234388
370
     9
  0
POLYLINE
  5
A9
330
1F
100
AcDbEntity
  8
_U+30EC_U+30A4_U+30E4_U+30FC 1
 62
   179
420
  2234388
370
     9
100
AcDb2dPolyline
 66
     1
 10
0.0
 20
0.0
 30
0.0
  0
VERTEX
  5
AA
330
A9
100
AcDbEntity
  8
_U+30EC_U+30A4_U+30E4_U+30FC 1
 62
   179
420
  2234388
370
     9
100
AcDbVertex
100
AcDb2dVertex
 10
115.2363751156307
 20
-140.2911849649275
 30
0.0
  0
VERTEX
  5
AB
330
A9
100
AcDbEntity
  8
_U+30EC_U+30A4_U+30E4_U+30FC 1
 62
   179
420
  2234388
370
     9
100
AcDbVertex
100
AcDb2dVertex
 10
115.2363751156307
 20
-137.2911980212325
 30
0.0
  0
SEQEND
  5
AC
330
A9
100
AcDbEntity
  8
_U+30EC_U+30A4_U+30E4_U+30FC 1
 62
   179
420
  2234388
370
     9
  0
POLYLINE
  5
AD
330
1F
100
AcDbEntity
  8
_U+30EC_U+30A4_U+30E4_U+30FC 1
 62
   179
420
  2234388
370
     9
100
AcDb2dPolyline
 66
     1
 10
0.0
 20
0.0
 30
0.0
  0
VERTEX
  5
AE
330
AD
100
AcDbEntity
  8
_U+30EC_U+30A4_U+30E4_U+30FC 1
 62
   179
420
  2234388
370
     9
100
AcDbVertex
100
AcDb2dVertex
 10
83.77646508490653
 20
-140.2911849649275
 30
0.0
  0
VERTEX
  5
AF
330
AD
100
AcDbEntity
  8
_U+30EC_U+30A4_U+30E4_U+30FC 1
 62
   179
420
  2234388
370
     9
100
AcDbVertex
100
AcDb2dVertex
 10
116.2361473123466
 20
-140.2911849649275
 30
0.0
  0
SEQEND
  5
B0
330
AD
100
AcDbEntity
  8
_U+30EC_U+30A4_U+30E4_U+30FC 1
 62
   179
420
  2234388
370
     9
  0
POLYLINE
  5
B1
330
1F
100
AcDbEntity
  8
_U+30EC_U+30A4_U+30E4_U+30FC 1
 62
   179
420
  2234388
370
     9
100
AcDb2dPolyline
 66
     1
 10
0.0
 20
0.0
 30
0.0
  0
VERTEX
  5
B2
330
B1
100
AcDbEntity
  8
_U+30EC_U+30A4_U+30E4_U+30FC 1
 62
   179
420
  2234388
370
     9
100
AcDbVertex
100
AcDb2dVertex
 10
67.23584439578181
 20
-140.2911849649275
 30
0.0
  0
VERTEX
  5
B3
330
B1
100
AcDbEntity
  8
_U+30EC_U+30A4_U+30E4_U+30FC 1
 62
   179
420
  2234388
370
     9
100
AcDbVertex
100
AcDb2dVertex
 10
67.23584439578181
 20
-119.2910646923994
 30
0.0
  0
SEQEND
  5
B4
330
B1
100
AcDbEntity
  8
_U+30EC_U+30A4_U+30E4_U+30FC 1
 62
   179
420
  2234388
370
     9
  0
POLYLINE
  5
B5
330
1F
100
AcDbEntity
  8
_U+30EC_U+30A4_U+30E4_U+30FC 1
 62
   179
420
  2234388
370
     9
100
AcDb2dPolyline
 66
     1
 10
0.0
 20
0.0
 30
0.0
  0
VERTEX
  5
B6
330
B5
100
AcDbEntity
  8
_U+30EC_U+30A4_U+30E4_U+30FC 1
 62
   179
420
  2234388
370
     9
100
AcDbVertex
100
AcDb2dVertex
 10
68.6957110939372
 20
-140.2911849649275
 30
0.0
  0
VERTEX
  5
B7
330
B5
100
AcDbEntity
  8
_U+30EC_U+30A4_U+30E4_U+30FC 1
 62
   179
420
  2234388
370
     9
100
AcDbVertex
100
AcDb2dVertex
 10
66.23610747684279
 20
-140.2911849649275
 30
0.0
  0
SEQEND
  5
B8
330
B5
100
AcDbEntity
  8
_U+30EC_U+30A4_U+30E4_U+30FC 1
 62
   179
420
  2234388
370
     9
  0
POLYLINE
  5
B9
330
1F
100
AcDbEntity
  8
_U+30EC_U+30A4_U+30E4_U+30FC 1
 62
   179
420
  2234388
370
     9
100
AcDb2dPolyline
 66
     1
 10
0.0
 20
0.0
 30
0.0
  0
VERTEX
  5
BA
330
B9
100
AcDbEntity
  8
_U+30EC_U+30A4_U+30E4_U+30FC 1
 62
   179
420
  2234388
370
     9
100
AcDbVertex
100
AcDb2dVertex
 10
68.6957110939372
 20
-119.2910646923994
 30
0.0
  0
VERTEX
  5
BB
330
B9
100
AcDbEntity
  8
_U+30EC_U+30A4_U+30E4_U+30FC 1
 62
   179
420
  2234388
370
     9
100
AcDbVertex
100
AcDb2dVertex
 10
66.23610747684279
 20
-119.2910646923994
 30
0.0
  0
SEQEND
  5
BC
330
B9
100
AcDbEntity
  8
_U+30EC_U+30A4_U+30E4_U+30FC 1
 62
   179
420
  2234388
370
     9
  0
POLYLINE
  5
BD
330
1F
100
AcDbEntity
  8
_U+30EC_U+30A4_U+30E4_U+30FC 1
 62
   179
420
  2234388
370
     9
100
AcDb2dPolyline
 66
     1
 10
0.0
 20
0.0
 30
0.0
  0
VERTEX
  5
BE
330
BD
100
AcDbEntity
  8
_U+30EC_U+30A4_U+30E4_U+30FC 1
 62
   179
420
  2234388
370
     9
100
AcDbVertex
100
AcDb2dVertex
 10
81.2360418163848
 20
-144.2909441305938
 30
0.0
  0
VERTEX
  5
BF
330
BD
100
AcDbEntity
  8
_U+30EC_U+30A4_U+30E4_U+30FC 1
 62
   179
420
  2234388
370
     9
100
AcDbVertex
100
AcDb2dVertex
 10
71.23613262705929
 20
-144.2909441305938
 30
0.0
  0
SEQEND
  5
C0
330
BD
100
AcDbEntity
  8
_U+30EC_U+30A4_U+30E4_U+30FC 1
 62
   179
420
  2234388
370
     9
  0
POLYLINE
  5
C1
330
1F
100
AcDbEntity
  8
_U+30EC_U+30A4_U+30E4_U+30FC 1
 62
   179
420
  2234388
370
     9
100
AcDb2dPolyline
 66
     1
 10
0.0
 20
0.0
 30
0.0
  0
VERTEX
  5
C2
330
C1
100
AcDbEntity
  8
_U+30EC_U+30A4_U+30E4_U+30FC 1
 62
   179
420
  2234388
370
     9
100
AcDbVertex
100
AcDb2dVertex
 10
81.2360418163848
 20
-142.8316082976256
 30
0.0
  0
VERTEX
  5
C3
330
C1
100
AcDbEntity
  8
_U+30EC_U+30A4_U+30E4_U+30FC 1
 62
   179
420
  2234388
370
     9
100
AcDbVertex
100
AcDb2dVertex
 10
81.2360418163848
 20
-145.2913866303437
 30
0.0
  0
SEQEND
  5
C4
330
C1
100
AcDbEntity
  8
_U+30EC_U+30A4_U+30E4_U+30FC 1
 62
   179
420
  2234388
370
     9
  0
POLYLINE
  5
C5
330
1F
100
AcDbEntity
  8
_U+30EC_U+30A4_U+30E4_U+30FC 1
 62
   179
420
  2234388
370
     9
100
AcDb2dPolyline
 66
     1
 10
0.0
 20
0.0
 30
0.0
  0
VERTEX
  5
C6
330
C5
100
AcDbEntity
  8
_U+30EC_U+30A4_U+30E4_U+30FC 1
 62
   179
420
  2234388
370
     9
100
AcDbVertex
100
AcDb2dVertex
 10
71.23613262705929
 20
-142.8316082976256
 30
0.0
  0
VERTEX
  5
C7
330
C5
100
AcDbEntity
  8
_U+30EC_U+30A4_U+30E4_U+30FC 1
 62
   179
420
  2234388
370
     9
100
AcDbVertex
100
AcDb2dVertex
 10
71.23613262705929
 20
-145.2913866303437
 30
0.0
  0
SEQEND
  5
C8
330
C5
100
AcDbEntity
  8
_U+30EC_U+30A4_U+30E4_U+30FC 1
 62
   179
420
  2234388
370
     9
  0
POLYLINE
  5
C9
330
1F
100
AcDbEntity
  8
_U+30EC_U+30A4_U+30E4_U+30FC 1
 62
   179
420
  2234388
370
     9
100
AcDb2dPolyline
 66
     1
 10
0.0
 20
0.0
 30
0.0
  0
VERTEX
  5
CA
330
C9
100
AcDbEntity
  8
_U+30EC_U+30A4_U+30E4_U+30FC 1
 62
   179
420
  2234388
370
     9
100
AcDbVertex
100
AcDb2dVertex
 10
71.23613262705929
 20
-115.2913408045104
 30
0.0
  0
VERTEX
  5
CB
330
C9
100
AcDbEntity
  8
_U+30EC_U+30A4_U+30E4_U+30FC 1
 62
   179
420
  2234388
370
     9
100
AcDbVertex
100
AcDb2dVertex
 10
111.2359457732457
 20
-115.2913408045104
 30
0.0
  0
SEQEND
  5
CC
330
C9
100
AcDbEntity
  8
_U+30EC_U+30A4_U+30E4_U+30FC 1
 62
   179
420
  2234388
370
     9
  0
POLYLINE
  5
CD
330
1F
100
AcDbEntity
  8
_U+30EC_U+30A4_U+30E4_U+30FC 1
 62
   179
420
  2234388
370
     9
100
AcDb2dPolyline
 66
     1
 10
0.0
 20
0.0
 30
0.0
  0
VERTEX
  5
CE
330
CD
100
AcDbEntity
  8
_U+30EC_U+30A4_U+30E4_U+30FC 1
 62
   179
420
  2234388
370
     9
100
AcDbVertex
100
AcDb2dVertex
 10
71.23613262705929
 20
-116.7513469152566
 30
0.0
  0
VERTEX
  5
CF
330
CD
100
AcDbEntity
  8
_U+30EC_U+30A4_U+30E4_U+30FC 1
 62
   179
420
  2234388
370
     9
100
AcDbVertex
100
AcDb2dVertex
 10
71.23613262705929
 20
-114.290863026983
 30
0.0
  0
SEQEND
  5
D0
330
CD
100
AcDbEntity
  8
_U+30EC_U+30A4_U+30E4_U+30FC 1
 62
   179
420
  2234388
370
     9
  0
POLYLINE
  5
D1
330
1F
100
AcDbEntity
  8
_U+30EC_U+30A4_U+30E4_U+30FC 1
 62
   179
420
  2234388
370
     9
100
AcDb2dPolyline
 66
     1
 10
0.0
 20
0.0
 30
0.0
  0
VERTEX
  5
D2
330
D1
100
AcDbEntity
  8
_U+30EC_U+30A4_U+30E4_U+30FC 1
 62
   179
420
  2234388
370
     9
100
AcDbVertex
100
AcDb2dVertex
 10
111.2359457732457
 20
-123.7510930246178
 30
0.0
  0
VERTEX
  5
D3
330
D1
100
AcDbEntity
  8
_U+30EC_U+30A4_U+30E4_U+30FC 1
 62
   179
420
  2234388
370
     9
100
AcDbVertex
100
AcDb2dVertex
 10
111.2359457732457
 20
-114.290863026983
 30
0.0
  0
SEQEND
  5
D4
330
D1
100
AcDbEntity
  8
_U+30EC_U+30A4_U+30E4_U+30FC 1
 62
   179
420
  2234388
370
     9
  0
POLYLINE
  5
D5
330
1F
100
AcDbEntity
  8
_U+30EC_U+30A4_U+30E4_U+30FC 1
 62
   179
420
  2234388
370
     9
100
AcDb2dPolyline
 66
     1
 10
0.0
 20
0.0
 30
0.0
  0
VERTEX
  5
D6
330
D5
100
AcDbEntity
  8
_U+30EC_U+30A4_U+30E4_U+30FC 1
 62
   179
420
  2234388
370
     9
100
AcDbVertex
100
AcDb2dVertex
 10
74.31052220364468
 20
-113.0127491384134
 30
0.0
  0
VERTEX
  5
D7
330
D5
100
AcDbEntity
  8
_U+30EC_U+30A4_U+30E4_U+30FC 1
 62
   179
420
  2234388
370
     9
100
AcDbVertex
100
AcDb2dVertex
 10
74.31052220364468
 20
-111.6016380276551
 30
0.0
  0
SEQEND
  5
D8
330
D5
100
AcDbEntity
  8
_U+30EC_U+30A4_U+30E4_U+30FC 1
 62
   179
420
  2234388
370
     9
  0
POLYLINE
  5
D9
330
1F
100
AcDbEntity
  8
_U+30EC_U+30A4_U+30E4_U+30FC 1
 62
   179
420
  2234388
370
     9
100
AcDb2dPolyline
 66
     1
 10
0.0
 20
0.0
 30
0.0
  0
VERTEX
  5
DA
330
D9
100
AcDbEntity
  8
_U+30EC_U+30A4_U+30E4_U+30FC 1
 62
   179
420
  2234388
370
     9
100
AcDbVertex
100
AcDb2dVertex
 10
71.31191109328321
 20
-113.0127491384134
 30
0.0
  0
VERTEX
  5
DB
330
D9
100
AcDbEntity
  8
_U+30EC_U+30A4_U+30E4_U+30FC 1
 62
   179
420
  2234388
370
     9
100
AcDbVertex
100
AcDb2dVertex
 10
71.31191109328321
 20
-111.6016380276551
 30
0.0
  0
SEQEND
  5
DC
330
D9
100
AcDbEntity
  8
_U+30EC_U+30A4_U+30E4_U+30FC 1
 62
   179
420
  2234388
370
     9
  0
POLYLINE
  5
DD
330
1F
100
AcDbEntity
  8
_U+30EC_U+30A4_U+30E4_U+30FC 1
 62
   179
420
  2234388
370
     9
100
AcDb2dPolyline
 66
     1
 10
0.0
 20
0.0
 30
0.0
  0
VERTEX
  5
DE
330
DD
100
AcDbEntity
  8
_U+30EC_U+30A4_U+30E4_U+30FC 1
 62
   179
420
  2234388
370
     9
100
AcDbVertex
100
AcDb2dVertex
 10
69.90079998252489
 20
-112.3071935830343
 30
0.0
  0
VERTEX
  5
DF
330
DD
100
AcDbEntity
  8
_U+30EC_U+30A4_U+30E4_U+30FC 1
 62
   179
420
  2234388
370
     9
100
AcDbVertex
100
AcDb2dVertex
 10
75.4412083531122
 20
-112.3071935830343
 30
0.0
  0
SEQEND
  5
E0
330
DD
100
AcDbEntity
  8
_U+30EC_U+30A4_U+30E4_U+30FC 1
 62
   179
420
  2234388
370
     9
  0
INSERT
  5
E2
330
1F
100
AcDbEntity
  8
_U+30EC_U+30A4_U+30E4_U+30FC 1
100
AcDbBlockReference
  2
block 2
 10
0.0
 20
0.0
 30
0.0
  0
INSERT
  5
E8
330
1F
100
AcDbEntity
  8
_U+30EC_U+30A4_U+30E4_U+30FC 1
100
AcDbBlockReference
  2
block 3
 10
0.0
 20
0.0
 30
0.0
  0
INSERT
  5
EE
330
1F
100
AcDbEntity
  8
_U+30EC_U+30A4_U+30E4_U+30FC 1
100
AcDbBlockReference
  2
block 4
 10
0.0
 20
0.0
 30
0.0
  0
INSERT
  5
FF
330
1F
100
AcDbEntity
  8
_U+30EC_U+30A4_U+30E4_U+30FC 1
100
AcDbBlockReference
  2
block 5
 10
0.0
 20
0.0
 30
0.0
  0
INSERT
  5
105
330
1F
100
AcDbEntity
  8
_U+30EC_U+30A4_U+30E4_U+30FC 1
100
AcDbBlockReference
  2
block 6
 10
0.0
 20
0.0
 30
0.0
  0
INSERT
  5
10D
330
1F
100
AcDbEntity
  8
_U+30EC_U+30A4_U+30E4_U+30FC 1
100
AcDbBlockReference
  2
block 7
 10
0.0
 20
0.0
 30
0.0
  0
INSERT
  5
116
330
1F
100
AcDbEntity
  8
_U+30EC_U+30A4_U+30E4_U+30FC 1
100
AcDbBlockReference
  2
block 8
 10
0.0
 20
0.0
 30
0.0
  0
ENDSEC
  0
SECTION
  2
OBJECTS
  0
DICTIONARY
  5
C
330
0
100
AcDbDictionary
281
     1
  3
ACAD_GROUP
350
D
  3
ACAD_LAYOUT
350
1A
  3
ACAD_MATERIAL
350
3B
  3
ACAD_MLEADERSTYLE
350
132
  3
ACAD_MLINESTYLE
350
17
  3
ACAD_PLOTSETTINGS
350
19
  3
ACAD_PLOTSTYLENAME
350
E
  3
ACAD_TABLESTYLE
350
131
  3
ACAD_VISUALSTYLE
350
2A
  0
SUN
  5
3F
330
29
100
AcDbSun
 90
        1
290
     0
 63
     7
421
 16777215
 40
1.0
291
     1
 91
  2455826
 92
 54000000
292
     0
 70
     2
 71
   256
280
     1
  0
DICTIONARY
  5
D
102
{ACAD_REACTORS
330
C
102
}
330
C
100
AcDbDictionary
281
     1
  0
DICTIONARY
  5
1A
102
{ACAD_REACTORS
330
C
102
}
330
C
100
AcDbDictionary
281
     1
  3
Layout1
350
1E
  3
Layout2
350
26
  3
Model
350
22
  0
DICTIONARY
  5
3B
102
{ACAD_REACTORS
330
C
102
}
330
C
100
AcDbDictionary
281
     1
  3
ByBlock
350
3D
  3
ByLayer
350
3C
  3
Global
350
3E
  0
DICTIONARY
  5
132
102
{ACAD_REACTORS
330
C
102
}
330
C
100
AcDbDictionary
281
     1
  0
DICTIONARY
  5
17
102
{ACAD_REACTORS
330
C
102
}
330
C
100
AcDbDictionary
281
     1
  3
Standard
350
18
  0
DICTIONARY
  5
19
102
{ACAD_REACTORS
330
C
102
}
330
C
100
AcDbDictionary
281
     1
  0
ACDBDICTIONARYWDFLT
  5
E
102
{ACAD_REACTORS
330
C
102
}
330
C
100
AcDbDictionary
281
     1
  3
Normal
350
F
100
AcDbDictionaryWithDefault
340
F
  0
DICTIONARY
  5
131
102
{ACAD_REACTORS
330
C
102
}
330
C
100
AcDbDictionary
281
     1
  0
DICTIONARY
  5
2A
102
{ACAD_REACTORS
330
C
102
}
330
C
100
AcDbDictionary
281
     1
  3
2dWireframe
350
2F
  3
3D Hidden
350
31
  3
3dWireframe
350
30
  3
Basic
350
32
  3
Brighten
350
36
  3
ColorChange
350
3A
  3
Conceptual
350
34
  3
Dim
350
35
  3
Facepattern
350
39
  3
Flat
350
2B
  3
FlatWithEdges
350
2C
  3
Gouraud
350
2D
  3
GouraudWithEdges
350
2E
  3
Linepattern
350
38
  3
Realistic
350
33
  3
Thicken
350
37
  0
LAYOUT
  5
1E
102
{ACAD_REACTORS
330
1A
102
}
330
1A
100
AcDbPlotSettings
  1

  2
none_device
  4

  6

 40
0.0
 41
0.0
 42
0.0
 43
0.0
 44
0.0
 45
0.0
 46
0.0
 47
0.0
 48
0.0
 49
0.0
140
0.0
141
0.0
142
1.0
143
1.0
 70
   688
 72
     0
 73
     0
 74
     5
  7

 75
    16
 76
     0
 77
     2
 78
   300
147
1.0
148
0.0
149
0.0
100
AcDbLayout
  1
Layout1
 70
     1
 71
     1
 10
0.0
 20
0.0
 11
12.0
 21
9.0
 12
0.0
 22
0.0
 32
0.0
 14
1.000000000000000E+20
 24
1.000000000000000E+20
 34
1.000000000000000E+20
 15
-1.000000000000000E+20
 25
-1.000000000000000E+20
 35
-1.000000000000000E+20
146
0.0
 13
0.0
 23
0.0
 33
0.0
 16
1.0
 26
0.0
 36
0.0
 17
0.0
 27
1.0
 37
0.0
 76
     0
330
1B
  0
LAYOUT
  5
26
102
{ACAD_REACTORS
330
1A
102
}
330
1A
100
AcDbPlotSettings
  1

  2
none_device
  4

  6

 40
0.0
 41
0.0
 42
0.0
 43
0.0
 44
0.0
 45
0.0
 46
0.0
 47
0.0
 48
0.0
 49
0.0
140
0.0
141
0.0
142
1.0
143
1.0
 70
   688
 72
     0
 73
     0
 74
     5
  7

 75
    16
 76
     0
 77
     2
 78
   300
147
1.0
148
0.0
149
0.0
100
AcDbLayout
  1
Layout2
 70
     1
 71
     2
 10
0.0
 20
0.0
 11
0.0
 21
0.0
 12
0.0
 22
0.0
 32
0.0
 14
0.0
 24
0.0
 34
0.0
 15
0.0
 25
0.0
 35
0.0
146
0.0
 13
0.0
 23
0.0
 33
0.0
 16
1.0
 26
0.0
 36
0.0
 17
0.0
 27
1.0
 37
0.0
 76
     0
330
23
  0
LAYOUT
  5
22
102
{ACAD_REACTORS
330
1A
102
}
330
1A
100
AcDbPlotSettings
  1

  2
none_device
  4

  6

 40
0.0
 41
0.0
 42
0.0
 43
0.0
 44
0.0
 45
0.0
 46
0.0
 47
0.0
 48
0.0
 49
0.0
140
0.0
141
0.0
142
1.0
143
1.0
 70
  1712
 72
     0
 73
     0
 74
     0
  7

 75
     0
 76
     0
 77
     2
 78
   300
147
1.0
148
0.0
149
0.0
100
AcDbLayout
  1
Model
 70
     1
 71
     0
 10
0.0
 20
0.0
 11
12.0
 21
9.0
 12
0.0
 22
0.0
 32
0.0
 14
1.000000000000000E+20
 24
1.000000000000000E+20
 34
1.000000000000000E+20
 15
-1.000000000000000E+20
 25
-1.000000000000000E+20
 35
-1.000000000000000E+20
146
0.0
 13
0.0
 23
0.0
 33
0.0
 16
1.0
 26
0.0
 36
0.0
 17
0.0
 27
1.0
 37
0.0
 76
     0
330
1F
331
29
  0
MATERIAL
  5
3D
102
{ACAD_REACTORS
330
3B
102
}
330
3B
100
AcDbMaterial
  1
ByBlock
 72
     1
 94
      127
  0
MATERIAL
  5
3C
102
{ACAD_REACTORS
330
3B
102
}
330
3B
100
AcDbMaterial
  1
ByLayer
 72
     1
 94
      127
  0
MATERIAL
  5
3E
102
{ACAD_REACTORS
330
3B
102
}
330
3B
100
AcDbMaterial
  1
Global
 72
     1
 94
      127
  0
MLINESTYLE
  5
18
102
{ACAD_REACTORS
330
17
102
}
330
17
100
AcDbMlineStyle
  2
Standard
 70
     0
  3

 62
   256
 51
90.0
 52
90.0
 71
     2
 49
0.5
 62
   256
  6
BYLAYER
 49
-0.5
 62
   256
  6
BYLAYER
  0
ACDBPLACEHOLDER
  5
F
102
{ACAD_REACTORS
330
E
102
}
330
E
  0
VISUALSTYLE
  5
2F
102
{ACAD_REACTORS
330
2A
102
}
330
2A
100
AcDbVisualStyle
  2
2dWireframe
 70
     4
177
     2
291
     0
 71
     0
176
     1
 72
     2
176
     1
 73
     0
176
     1
 90
        0
176
     1
 40
-0.6
176
     1
 41
-30.0
176
     1
 62
     5
 63
     7
421
 16777215
176
     1
 74
     1
176
     1
 91
        4
176
     1
 64
     7
176
     1
 65
   257
176
     1
 75
     1
176
     1
175
     1
176
     1
 42
1.0
176
     1
 92
        0
176
     1
 66
   257
176
     1
 43
1.0
176
     1
 76
     1
176
     1
 77
     6
176
     1
 78
     2
176
     1
 67
     7
176
     1
 79
     5
176
     1
170
     0
176
     1
171
     0
176
     1
290
     0
176
     1
 93
        1
176
     1
 44
0.0
176
     1
173
     0
176
     1
  0
VISUALSTYLE
  5
31
102
{ACAD_REACTORS
330
2A
102
}
330
2A
100
AcDbVisualStyle
  2
3D Hidden
 70
     6
177
     2
291
     0
 71
     1
176
     1
 72
     2
176
     1
 73
     2
176
     1
 90
        0
176
     1
 40
-0.6
176
     1
 41
-30.0
176
     1
 62
     5
 63
     7
421
 16777215
176
     1
 74
     2
176
     1
 91
        2
176
     1
 64
     7
176
     1
 65
   257
176
     1
 75
     2
176
     1
175
     1
176
     1
 42
40.0
176
     1
 92
        0
176
     1
 66
   257
176
     1
 43
1.0
176
     1
 76
     1
176
     1
 77
     6
176
     1
 78
     2
176
     1
 67
     7
176
     1
 79
     3
176
     1
170
     0
176
     1
171
     0
176
     1
290
     0
176
     1
 93
        1
176
     1
 44
0.0
176
     1
173
     0
176
     1
  0
VISUALSTYLE
  5
30
102
{ACAD_REACTORS
330
2A
102
}
330
2A
100
AcDbVisualStyle
  2
3dWireframe
 70
     5
177
     2
291
     0
 71
     0
176
     1
 72
     2
176
     1
 73
     0
176
     1
 90
        0
176
     1
 40
-0.6
176
     1
 41
-30.0
176
     1
 62
     5
 63
     7
421
 16777215
176
     1
 74
     1
176
     1
 91
        4
176
     1
 64
     7
176
     1
 65
   257
176
     1
 75
     1
176
     1
175
     1
176
     1
 42
1.0
176
     1
 92
        0
176
     1
 66
   257
176
     1
 43
1.0
176
     1
 76
     1
176
     1
 77
     6
176
     1
 78
     2
176
     1
 67
     7
176
     1
 79
     5
176
     1
170
     0
176
     1
171
     0
176
     1
290
     0
176
     1
 93
        1
176
     1
 44
0.0
176
     1
173
     0
176
     1
  0
VISUALSTYLE
  5
32
102
{ACAD_REACTORS
330
2A
102
}
330
2A
100
AcDbVisualStyle
  2
Basic
 70
     7
177
     2
291
     1
 71
     1
176
     1
 72
     0
176
     1
 73
     1
176
     1
 90
        0
176
     1
 40
-0.6
176
     1
 41
-30.0
176
     1
 62
     5
 63
     7
421
 16777215
176
     1
 74
     0
176
     1
 91
        4
176
     1
 64
     7
176
     1
 65
   257
176
     1
 75
     1
176
     1
175
     1
176
     1
 42
1.0
176
     1
 92
        8
176
     1
 66
     7
176
     1
 43
1.0
176
     1
 76
     1
176
     1
 77
     6
176
     1
 78
     2
176
     1
 67
     7
176
     1
 79
     5
176
     1
170
     0
176
     1
171
     0
176
     1
290
     0
176
     1
 93
        1
176
     1
 44
0.0
176
     1
173
     0
176
     1
  0
VISUALSTYLE
  5
36
102
{ACAD_REACTORS
330
2A
102
}
330
2A
100
AcDbVisualStyle
  2
Brighten
 70
    12
177
     2
291
     1
 71
     2
176
     1
 72
     2
176
     1
 73
     0
176
     1
 90
        0
176
     1
 40
-0.6
176
     1
 41
-30.0
176
     1
 62
     5
 63
     7
421
 16777215
176
     1
 74
     1
176
     1
 91
        4
176
     1
 64
     7
176
     1
 65
   257
176
     1
 75
     1
176
     1
175
     1
176
     1
 42
1.0
176
     1
 92
        8
176
     1
 66
     7
176
     1
 43
1.0
176
     1
 76
     1
176
     1
 77
     6
176
     1
 78
     2
176
     1
 67
     7
176
     1
 79
     5
176
     1
170
     0
176
     1
171
     0
176
     1
290
     0
176
     1
 93
        1
176
     1
 44
50.0
176
     1
173
     0
176
     1
  0
VISUALSTYLE
  5
3A
102
{ACAD_REACTORS
330
2A
102
}
330
2A
100
AcDbVisualStyle
  2
ColorChange
 70
    16
177
     2
291
     1
 71
     2
176
     1
 72
     2
176
     1
 73
     3
176
     1
 90
        0
176
     1
 40
-0.6
176
     1
 41
-30.0
176
     1
 62
     5
 63
     8
421
  8421504
176
     1
 74
     1
176
     1
 91
        4
176
     1
 64
     7
176
     1
 65
   257
176
     1
 75
     1
176
     1
175
     1
176
     1
 42
1.0
176
     1
 92
        8
176
     1
 66
     8
424
  8421504
176
     1
 43
1.0
176
     1
 76
     1
176
     1
 77
     6
176
     1
 78
     2
176
     1
 67
     7
176
     1
 79
     5
176
     1
170
     0
176
     1
171
     0
176
     1
290
     0
176
     1
 93
        1
176
     1
 44
0.0
176
     1
173
     0
176
     1
  0
VISUALSTYLE
  5
34
102
{ACAD_REACTORS
330
2A
102
}
330
2A
100
AcDbVisualStyle
  2
Conceptual
 70
     9
177
     2
291
     0
 71
     3
176
     1
 72
     2
176
     1
 73
     0
176
     1
 90
        0
176
     1
 40
-0.6
176
     1
 41
-30.0
176
     1
 62
     5
 63
     7
421
 16777215
176
     1
 74
     2
176
     1
 91
        2
176
     1
 64
     7
176
     1
 65
   257
176
     1
 75
     1
176
     1
175
     1
176
     1
 42
40.0
176
     1
 92
        8
176
     1
 66
     7
176
     1
 43
1.0
176
     1
 76
     1
176
     1
 77
     6
176
     1
 78
     2
176
     1
 67
     7
176
     1
 79
     3
176
     1
170
     0
176
     1
171
     0
176
     1
290
     0
176
     1
 93
        1
176
     1
 44
0.0
176
     1
173
     0
176
     1
  0
VISUALSTYLE
  5
35
102
{ACAD_REACTORS
330
2A
102
}
330
2A
100
AcDbVisualStyle
  2
Dim
 70
    11
177
     2
291
     1
 71
     2
176
     1
 72
     2
176
     1
 73
     0
176
     1
 90
        0
176
     1
 40
-0.6
176
     1
 41
-30.0
176
     1
 62
     5
 63
     7
421
 16777215
176
     1
 74
     1
176
     1
 91
        4
176
     1
 64
     7
176
     1
 65
   257
176
     1
 75
     1
176
     1
175
     1
176
     1
 42
1.0
176
     1
 92
        8
176
     1
 66
     7
176
     1
 43
1.0
176
     1
 76
     1
176
     1
 77
     6
176
     1
 78
     2
176
     1
 67
     7
176
     1
 79
     5
176
     1
170
     0
176
     1
171
     0
176
     1
290
     0
176
     1
 93
        1
176
     1
 44
-50.0
176
     1
173
     0
176
     1
  0
VISUALSTYLE
  5
39
102
{ACAD_REACTORS
330
2A
102
}
330
2A
100
AcDbVisualStyle
  2
Facepattern
 70
    15
177
     2
291
     1
 71
     2
176
     1
 72
     2
176
     1
 73
     0
176
     1
 90
        0
176
     1
 40
-0.6
176
     1
 41
-30.0
176
     1
 62
     5
 63
     7
421
 16777215
176
     1
 74
     1
176
     1
 91
        4
176
     1
 64
     7
176
     1
 65
   257
176
     1
 75
     1
176
     1
175
     1
176
     1
 42
1.0
176
     1
 92
        8
176
     1
 66
     7
176
     1
 43
1.0
176
     1
 76
     1
176
     1
 77
     6
176
     1
 78
     2
176
     1
 67
     7
176
     1
 79
     5
176
     1
170
     0
176
     1
171
     0
176
     1
290
     0
176
     1
 93
        1
176
     1
 44
0.0
176
     1
173
     0
176
     1
  0
VISUALSTYLE
  5
2B
102
{ACAD_REACTORS
330
2A
102
}
330
2A
100
AcDbVisualStyle
  2
Flat
 70
     0
177
     2
291
     1
 71
     2
176
     1
 72
     1
176
     1
 73
     1
176
     1
 90
        2
176
     1
 40
-0.6
176
     1
 41
30.0
176
     1
 62
     5
 63
     7
421
 16777215
176
     1
 74
     0
176
     1
 91
        4
176
     1
 64
     7
176
     1
 65
   257
176
     1
 75
     1
176
     1
175
     1
176
     1
 42
1.0
176
     1
 92
        8
176
     1
 66
     7
176
     1
 43
1.0
176
     1
 76
     1
176
     1
 77
     6
176
     1
 78
     2
176
     1
 67
     7
176
     1
 79
     5
176
     1
170
     0
176
     1
171
     0
176
     1
290
     0
176
     1
 93
       13
176
     1
 44
0.0
176
     1
173
     0
176
     1
  0
VISUALSTYLE
  5
2C
102
{ACAD_REACTORS
330
2A
102
}
330
2A
100
AcDbVisualStyle
  2
FlatWithEdges
 70
     1
177
     2
291
     1
 71
     2
176
     1
 72
     1
176
     1
 73
     1
176
     1
 90
        2
176
     1
 40
-0.6
176
     1
 41
30.0
176
     1
 62
     5
 63
     7
421
 16777215
176
     1
 74
     1
176
     1
 91
        4
176
     1
 64
     7
176
     1
 65
   257
176
     1
 75
     1
176
     1
175
     1
176
     1
 42
1.0
176
     1
 92
        0
176
     1
 66
   257
176
     1
 43
1.0
176
     1
 76
     1
176
     1
 77
     6
176
     1
 78
     2
176
     1
 67
     7
176
     1
 79
     5
176
     1
170
     0
176
     1
171
     0
176
     1
290
     0
176
     1
 93
       13
176
     1
 44
0.0
176
     1
173
     0
176
     1
  0
VISUALSTYLE
  5
2D
102
{ACAD_REACTORS
330
2A
102
}
330
2A
100
AcDbVisualStyle
  2
Gouraud
 70
     2
177
     2
291
     1
 71
     2
176
     1
 72
     2
176
     1
 73
     1
176
     1
 90
        2
176
     1
 40
-0.6
176
     1
 41
30.0
176
     1
 62
     5
 63
     7
421
 16777215
176
     1
 74
     0
176
     1
 91
        4
176
     1
 64
     7
176
     1
 65
   257
176
     1
 75
     1
176
     1
175
     1
176
     1
 42
1.0
176
     1
 92
        0
176
     1
 66
     7
176
     1
 43
1.0
176
     1
 76
     1
176
     1
 77
     6
176
     1
 78
     2
176
     1
 67
     7
176
     1
 79
     5
176
     1
170
     0
176
     1
171
     0
176
     1
290
     0
176
     1
 93
       13
176
     1
 44
0.0
176
     1
173
     0
176
     1
  0
VISUALSTYLE
  5
2E
102
{ACAD_REACTORS
330
2A
102
}
330
2A
100
AcDbVisualStyle
  2
GouraudWithEdges
 70
     3
177
     2
291
     1
 71
     2
176
     1
 72
     2
176
     1
 73
     1
176
     1
 90
        2
176
     1
 40
-0.6
176
     1
 41
30.0
176
     1
 62
     5
 63
     7
421
 16777215
176
     1
 74
     1
176
     1
 91
        4
176
     1
 64
     7
176
     1
 65
   257
176
     1
 75
     1
176
     1
175
     1
176
     1
 42
1.0
176
     1
 92
        0
176
     1
 66
   257
176
     1
 43
1.0
176
     1
 76
     1
176
     1
 77
     6
176
     1
 78
     2
176
     1
 67
     7
176
     1
 79
     5
176
     1
170
     0
176
     1
171
     0
176
     1
290
     0
176
     1
 93
       13
176
     1
 44
0.0
176
     1
173
     0
176
     1
  0
VISUALSTYLE
  5
38
102
{ACAD_REACTORS
330
2A
102
}
330
2A
100
AcDbVisualStyle
  2
Linepattern
 70
    14
177
     2
291
     1
 71
     2
176
     1
 72
     2
176
     1
 73
     0
176
     1
 90
        0
176
     1
 40
-0.6
176
     1
 41
-30.0
176
     1
 62
     5
 63
     7
421
 16777215
176
     1
 74
     1
176
     1
 91
        4
176
     1
 64
     7
176
     1
 65
   257
176
     1
 75
     7
176
     1
175
     7
176
     1
 42
1.0
176
     1
 92
        8
176
     1
 66
     7
176
     1
 43
1.0
176
     1
 76
     1
176
     1
 77
     6
176
     1
 78
     2
176
     1
 67
     7
176
     1
 79
     5
176
     1
170
     0
176
     1
171
     0
176
     1
290
     0
176
     1
 93
        1
176
     1
 44
0.0
176
     1
173
     0
176
     1
  0
VISUALSTYLE
  5
33
102
{ACAD_REACTORS
330
2A
102
}
330
2A
100
AcDbVisualStyle
  2
Realistic
 70
     8
177
     2
291
     0
 71
     2
176
     1
 72
     2
176
     1
 73
     0
176
     1
 90
        0
176
     1
 40
-0.6
176
     1
 41
-30.0
176
     1
 62
     5
 63
     7
421
 16777215
176
     1
 74
     1
176
     1
 91
        0
176
     1
 64
     7
176
     1
 65
   257
176
     1
 75
     1
176
     1
175
     1
176
     1
 42
1.0
176
     1
 92
        8
176
     1
 66
     8
424
  7895160
176
     1
 43
1.0
176
     1
 76
     1
176
     1
 77
     6
176
     1
 78
     2
176
     1
 67
     7
176
     1
 79
     5
176
     1
170
     0
176
     1
171
     0
176
     1
290
     0
176
     1
 93
       13
176
     1
 44
0.0
176
     1
173
     0
176
     1
  0
VISUALSTYLE
  5
37
102
{ACAD_REACTORS
330
2A
102
}
330
2A
100
AcDbVisualStyle
  2
Thicken
 70
    13
177
     2
291
     1
 71
     2
176
     1
 72
     2
176
     1
 73
     0
176
     1
 90
        0
176
     1
 40
-0.6
176
     1
 41
-30.0
176
     1
 62
     5
 63
     7
421
 16777215
176
     1
 74
     1
176
     1
 91
        4
176
     1
 64
     7
176
     1
 65
   257
176
     1
 75
     1
176
     1
175
     1
176
     1
 42
1.0
176
     1
 92
       12
176
     1
 66
     7
176
     1
 43
1.0
176
     1
 76
     1
176
     1
 77
     6
176
     1
 78
     2
176
     1
 67
     7
176
     1
 79
     5
176
     1
170
     0
176
     1
171
     0
176
     1
290
     0
176
     1
 93
        1
176
     1
 44
0.0
176
     1
173
     0
176
     1
  0
ENDSEC
  0
EOF
