  0
SECTION
  2
HEADER
  9
$ACADVER
  1
AC1024
  9
$ACADMAINTVER
 70
     6
  9
$DWGCODEPAGE
  3
UNDEFINED
  9
$INSBASE
 10
0.0
 20
0.0
 30
0.0
  9
$EXTMIN
 10
1.000000000000000E+20
 20
1.000000000000000E+20
 30
1.000000000000000E+20
  9
$EXTMAX
 10
-1.000000000000000E+20
 20
-1.000000000000000E+20
 30
-1.000000000000000E+20
  9
$LIMMIN
 10
0.0
 20
0.0
  9
$LIMMAX
 10
12.0
 20
9.0
  9
$ORTHOMODE
 70
     0
  9
$REGENMODE
 70
     1
  9
$FILLMODE
 70
     1
  9
$QTEXTMODE
 70
     0
  9
$MIRRTEXT
 70
     1
  9
$LTSCALE
 40
1.0
  9
$ATTMODE
 70
     1
  9
$TEXTSIZE
 40
0.2
  9
$TRACEWID
 40
0.05
  9
$TEXTSTYLE
  7
Standard
  9
$CLAYER
  8
0
  9
$CELTYPE
  6
ByLayer
  9
$CECOLOR
 62
   256
  9
$CELTSCALE
 40
1.0
  9
$DISPSILH
 70
     0
  9
$DIMSCALE
 40
1.0
  9
$DIMASZ
 40
0.18
  9
$DIMEXO
 40
0.0625
  9
$DIMDLI
 40
0.38
  9
$DIMRND
 40
0.0
  9
$DIMDLE
 40
0.0
  9
$DIMEXE
 40
0.18
  9
$DIMTP
 40
0.0
  9
$DIMTM
 40
0.0
  9
$DIMTXT
 40
0.18
  9
$DIMCEN
 40
0.09
  9
$DIMTSZ
 40
0.0
  9
$DIMTOL
 70
     0
  9
$DIMLIM
 70
     0
  9
$DIMTIH
 70
     1
  9
$DIMTOH
 70
     1
  9
$DIMSE1
 70
     0
  9
$DIMSE2
 70
     0
  9
$DIMTAD
 70
     0
  9
$DIMZIN
 70
     0
  9
$DIMBLK
  1

  9
$DIMASO
 70
     1
  9
$DIMSHO
 70
     1
  9
$DIMPOST
  1

  9
$DIMAPOST
  1

  9
$DIMALT
 70
     0
  9
$DIMALTD
 70
     2
  9
$DIMALTF
 40
25.4
  9
$DIMLFAC
 40
1.0
  9
$DIMTOFL
 70
     0
  9
$DIMTVP
 40
0.0
  9
$DIMTIX
 70
     0
  9
$DIMSOXD
 70
     0
  9
$DIMSAH
 70
     0
  9
$DIMBLK1
  1

  9
$DIMBLK2
  1

  9
$DIMSTYLE
  2
Standard
  9
$DIMCLRD
 70
     0
  9
$DIMCLRE
 70
     0
  9
$DIMCLRT
 70
     0
  9
$DIMTFAC
 40
1.0
  9
$DIMGAP
 40
0.09
  9
$DIMJUST
 70
     0
  9
$DIMSD1
 70
     0
  9
$DIMSD2
 70
     0
  9
$DIMTOLJ
 70
     1
  9
$DIMTZIN
 70
     0
  9
$DIMALTZ
 70
     0
  9
$DIMALTTZ
 70
     0
  9
$DIMUPT
 70
     0
  9
$DIMDEC
 70
     4
  9
$DIMTDEC
 70
     4
  9
$DIMALTU
 70
     2
  9
$DIMALTTD
 70
     2
  9
$DIMTXSTY
  7
Standard
  9
$DIMAUNIT
 70
     0
  9
$DIMADEC
 70
     0
  9
$DIMALTRND
 40
0.0
  9
$DIMAZIN
 70
     0
  9
$DIMDSEP
 70
    46
  9
$DIMATFIT
 70
     3
  9
$DIMFRAC
 70
     0
  9
$DIMLDRBLK
  1

  9
$DIMLUNIT
 70
     2
  9
$DIMLWD
 70
    -2
  9
$DIMLWE
 70
    -2
  9
$DIMTMOVE
 70
     0
  9
$DIMFXL
 40
1.0
  9
$DIMFXLON
 70
     0
  9
$DIMJOGANG
 40
0.7853981633974483
  9
$DIMTFILL
 70
     0
  9
$DIMTFILLCLR
 70
     0
  9
$DIMARCSYM
 70
     0
  9
$DIMLTYPE
  6

  9
$DIMLTEX1
  6

  9
$DIMLTEX2
  6

  9
$DIMTXTDIRECTION
 70
     0
  9
$LUNITS
 70
     2
  9
$LUPREC
 70
     4
  9
$SKETCHINC
 40
0.1
  9
$FILLETRAD
 40
0.5
  9
$AUNITS
 70
     0
  9
$AUPREC
 70
     0
  9
$MENU
  1
.
  9
$ELEVATION
 40
0.0
  9
$PELEVATION
 40
0.0
  9
$THICKNESS
 40
0.0
  9
$LIMCHECK
 70
     0
  9
$CHAMFERA
 40
0.5
  9
$CHAMFERB
 40
0.5
  9
$CHAMFERC
 40
1.0
  9
$CHAMFERD
 40
0.0
  9
$SKPOLY
 70
     0
  9
$TDCREATE
 40
2457917.614108785
  9
$TDUCREATE
 40
2457917.239108796
  9
$TDUPDATE
 40
2457917.614108785
  9
$TDUUPDATE
 40
2457917.239108796
  9
$TDINDWG
 40
0.0000000116
  9
$TDUSRTIMER
 40
0.0000000116
  9
$USRTIMER
 70
     1
  9
$ANGBASE
 50
0.0
  9
$ANGDIR
 70
     0
  9
$PDMODE
 70
     0
  9
$PDSIZE
 40
0.0
  9
$PLINEWID
 40
0.0
  9
$SPLFRAME
 70
     0
  9
$SPLINETYPE
 70
     6
  9
$SPLINESEGS
 70
     8
  9
$HANDSEED
  5
172
  9
$SURFTAB1
 70
     6
  9
$SURFTAB2
 70
     6
  9
$SURFTYPE
 70
     6
  9
$SURFU
 70
     6
  9
$SURFV
 70
     6
  9
$UCSBASE
  2

  9
$UCSNAME
  2

  9
$UCSORG
 10
0.0
 20
0.0
 30
0.0
  9
$UCSXDIR
 10
1.0
 20
0.0
 30
0.0
  9
$UCSYDIR
 10
0.0
 20
1.0
 30
0.0
  9
$UCSORTHOREF
  2

  9
$UCSORTHOVIEW
 70
     0
  9
$UCSORGTOP
 10
0.0
 20
0.0
 30
0.0
  9
$UCSORGBOTTOM
 10
0.0
 20
0.0
 30
0.0
  9
$UCSORGLEFT
 10
0.0
 20
0.0
 30
0.0
  9
$UCSORGRIGHT
 10
0.0
 20
0.0
 30
0.0
  9
$UCSORGFRONT
 10
0.0
 20
0.0
 30
0.0
  9
$UCSORGBACK
 10
0.0
 20
0.0
 30
0.0
  9
$PUCSBASE
  2

  9
$PUCSNAME
  2

  9
$PUCSORG
 10
0.0
 20
0.0
 30
0.0
  9
$PUCSXDIR
 10
1.0
 20
0.0
 30
0.0
  9
$PUCSYDIR
 10
0.0
 20
1.0
 30
0.0
  9
$PUCSORTHOREF
  2

  9
$PUCSORTHOVIEW
 70
     0
  9
$PUCSORGTOP
 10
0.0
 20
0.0
 30
0.0
  9
$PUCSORGBOTTOM
 10
0.0
 20
0.0
 30
0.0
  9
$PUCSORGLEFT
 10
0.0
 20
0.0
 30
0.0
  9
$PUCSORGRIGHT
 10
0.0
 20
0.0
 30
0.0
  9
$PUCSORGFRONT
 10
0.0
 20
0.0
 30
0.0
  9
$PUCSORGBACK
 10
0.0
 20
0.0
 30
0.0
  9
$USERI1
 70
     0
  9
$USERI2
 70
     0
  9
$USERI3
 70
     0
  9
$USERI4
 70
     0
  9
$USERI5
 70
     0
  9
$USERR1
 40
0.0
  9
$USERR2
 40
0.0
  9
$USERR3
 40
0.0
  9
$USERR4
 40
0.0
  9
$USERR5
 40
0.0
  9
$WORLDVIEW
 70
     1
  9
$SHADEDGE
 70
     3
  9
$SHADEDIF
 70
    70
  9
$TILEMODE
 70
     1
  9
$MAXACTVP
 70
    64
  9
$PINSBASE
 10
0.0
 20
0.0
 30
0.0
  9
$PLIMCHECK
 70
     0
  9
$PEXTMIN
 10
1.000000000000000E+20
 20
1.000000000000000E+20
 30
1.000000000000000E+20
  9
$PEXTMAX
 10
-1.000000000000000E+20
 20
-1.000000000000000E+20
 30
-1.000000000000000E+20
  9
$PLIMMIN
 10
0.0
 20
0.0
  9
$PLIMMAX
 10
12.0
 20
9.0
  9
$UNITMODE
 70
     0
  9
$VISRETAIN
 70
     1
  9
$PLINEGEN
 70
     0
  9
$PSLTSCALE
 70
     1
  9
$TREEDEPTH
 70
  3020
  9
$CMLSTYLE
  2
Standard
  9
$CMLJUST
 70
     0
  9
$CMLSCALE
 40
1.0
  9
$PROXYGRAPHICS
 70
     1
  9
$MEASUREMENT
 70
     0
  9
$CELWEIGHT
370
    -1
  9
$ENDCAPS
280
     0
  9
$JOINSTYLE
280
     0
  9
$LWDISPLAY
290
     1
  9
$INSUNITS
 70
     1
  9
$HYPERLINKBASE
  1

  9
$STYLESHEET
  1

  9
$XEDIT
290
     1
  9
$CEPSNTYPE
380
     0
  9
$PSTYLEMODE
290
     1
  9
$FINGERPRINTGUID
  2
{B4E09E0D-A310-F032-4545-881C48F3112B}
  9
$VERSIONGUID
  2
{FAEB1C32-E019-11D5-929B-00C0DF256EC4}
  9
$EXTNAMES
290
     1
  9
$PSVPSCALE
 40
0.0
  9
$OLESTARTUP
290
     0
  9
$SORTENTS
280
   127
  9
$INDEXCTL
280
     0
  9
$HIDETEXT
280
     1
  9
$XCLIPFRAME
280
     2
  9
$HALOGAP
280
     0
  9
$OBSCOLOR
 70
   257
  9
$OBSLTYPE
280
     0
  9
$INTERSECTIONDISPLAY
280
     0
  9
$INTERSECTIONCOLOR
 70
   257
  9
$DIMASSOC
280
     2
  9
$PROJECTNAME
  1

  9
$CAMERADISPLAY
290
     0
  9
$LENSLENGTH
 40
50.0
  9
$CAMERAHEIGHT
 40
0.0
  9
$STEPSPERSEC
 40
2.0
  9
$STEPSIZE
 40
6.0
  9
$3DDWFPREC
 40
2.0
  9
$PSOLWIDTH
 40
0.25
  9
$PSOLHEIGHT
 40
4.0
  9
$LOFTANG1
 40
1.570796326794897
  9
$LOFTANG2
 40
1.570796326794897
  9
$LOFTMAG1
 40
0.0
  9
$LOFTMAG2
 40
0.0
  9
$LOFTPARAM
 70
     7
  9
$LOFTNORMALS
280
     1
  9
$LATITUDE
 40
37.795
  9
$LONGITUDE
 40
-122.394
  9
$NORTHDIRECTION
 40
0.0
  9
$TIMEZONE
 70
 -8000
  9
$LIGHTGLYPHDISPLAY
280
     1
  9
$TILEMODELIGHTSYNCH
280
     1
  9
$CMATERIAL
347
3C
  9
$SOLIDHIST
280
     1
  9
$SHOWHIST
280
     1
  9
$DWFFRAME
280
     2
  9
$DGNFRAME
280
     2
  9
$REALWORLDSCALE
290
     1
  9
$INTERFERECOLOR
 62
   256
  9
$CSHADOW
280
     0
  9
$SHADOWPLANELOCATION
 40
0.0
  0
ENDSEC
  0
SECTION
  2
CLASSES
  0
CLASS
  1
ACDBDICTIONARYWDFLT
  2
AcDbDictionaryWithDefault
  3
ObjectDBX Classes
 90
        0
 91
        4
280
     0
281
     0
  0
CLASS
  1
VISUALSTYLE
  2
AcDbVisualStyle
  3
ObjectDBX Classes
 90
     4095
 91
        4
280
     0
281
     0
  0
CLASS
  1
MATERIAL
  2
AcDbMaterial
  3
ObjectDBX Classes
 90
     1153
 91
        4
280
     0
281
     0
  0
CLASS
  1
SUN
  2
AcDbSun
  3
SCENEOE
 90
     1024
 91
        4
280
     0
281
     0
  0
ENDSEC
  0
SECTION
  2
TABLES
  0
TABLE
  2
VPORT
  5
8
330
0
100
AcDbSymbolTable
 70
     1
  0
VPORT
  5
29
330
8
100
AcDbSymbolTableRecord
100
AcDbViewportTableRecord
  2
*Active
 70
     0
 10
0.0
 20
0.0
 11
1.0
 21
1.0
 12
0.0
 22
0.0
 13
0.0
 23
0.0
 14
0.5
 24
0.5
 15
0.5
 25
0.5
 16
0.0
 26
0.0
 36
1.0
 17
91.00082462281999
 27
-128.4993055234307
 37
0.0
 40
256.9986110468615
 41
0.7081814508812795
 42
50.0
 43
0.0
 44
0.0
 50
0.0
 51
0.0
 71
     0
 72
   100
 73
     1
 74
     3
 75
     0
 76
     0
 77
     0
 78
     0
281
     0
 65
     1
110
0.0
120
0.0
130
0.0
111
1.0
121
0.0
131
0.0
112
0.0
122
1.0
132
0.0
 79
     0
146
0.0
 60
     3
 61
     5
292
     1
282
     1
141
0.0
142
0.0
 63
   250
361
3F
  0
ENDTAB
  0
TABLE
  2
LTYPE
  5
5
330
0
100
AcDbSymbolTable
 70
     1
  0
LTYPE
  5
14
330
5
100
AcDbSymbolTableRecord
100
AcDbLinetypeTableRecord
  2
ByBlock
 70
     0
  3

 72
    65
 73
     0
 40
0.0
  0
LTYPE
  5
15
330
5
100
AcDbSymbolTableRecord
100
AcDbLinetypeTableRecord
  2
ByLayer
 70
     0
  3

 72
    65
 73
     0
 40
0.0
  0
LTYPE
  5
16
330
5
100
AcDbSymbolTableRecord
100
AcDbLinetypeTableRecord
  2
Continuous
 70
     0
  3
Solid line
 72
    65
 73
     0
 40
0.0
  0
ENDTAB
  0
TABLE
  2
LAYER
  5
2
330
0
100
AcDbSymbolTable
 70
     2
  0
LAYER
  5
10
330
2
100
AcDbSymbolTableRecord
100
AcDbLayerTableRecord
  2
0
 70
     0
 62
     7
  6
Continuous
370
    -3
390
F
347
3E
  0
LAYER
  5
40
330
2
100
AcDbSymbolTableRecord
100
AcDbLayerTableRecord
  2
_U+30EC_U+30A4_U+30E4_U+30FC 1
 70
     0
 62
     7
  6
Continuous
370
    -3
390
F
347
3E
  0
ENDTAB
  0
TABLE
  2
STYLE
  5
3
330
0
100
AcDbSymbolTable
 70
     1
  0
STYLE
  5
11
330
3
100
AcDbSymbolTableRecord
100
AcDbTextStyleTableRecord
  2
Standard
 70
     0
 40
0.0
 41
1.0
 50
0.0
 71
     0
 42
0.2
  3
txt
  4

  0
ENDTAB
  0
TABLE
  2
VIEW
  5
6
330
0
100
AcDbSymbolTable
 70
     0
  0
ENDTAB
  0
TABLE
  2
UCS
  5
7
330
0
100
AcDbSymbolTable
 70
     0
  0
ENDTAB
  0
TABLE
  2
APPID
  5
9
330
0
100
AcDbSymbolTable
 70
     1
  0
APPID
  5
12
330
9
100
AcDbSymbolTableRecord
100
AcDbRegAppTableRecord
  2
ACAD
 70
     0
  0
ENDTAB
  0
TABLE
  2
DIMSTYLE
  5
A
330
0
100
AcDbSymbolTable
 70
     1
100
AcDbDimStyleTable
  0
DIMSTYLE
105
27
330
A
100
AcDbSymbolTableRecord
100
AcDbDimStyleTableRecord
  2
Standard
 70
     0
178
     0
340
11
  0
ENDTAB
  0
TABLE
  2
BLOCK_RECORD
  5
1
330
0
100
AcDbSymbolTable
 70
    15
  0
BLOCK_RECORD
  5
1F
330
1
100
AcDbSymbolTableRecord
100
AcDbBlockTableRecord
  2
*Model_Space
340
22
 70
     0
280
     1
281
     0
  0
BLOCK_RECORD
  5
1B
330
1
100
AcDbSymbolTableRecord
100
AcDbBlockTableRecord
  2
*Paper_Space
340
1E
 70
     0
280
     1
281
     0
  0
BLOCK_RECORD
  5
23
330
1
100
AcDbSymbolTableRecord
100
AcDbBlockTableRecord
  2
*Paper_Space0
340
26
 70
     0
280
     1
281
     0
  0
BLOCK_RECORD
  5
52
330
1
100
AcDbSymbolTableRecord
100
AcDbBlockTableRecord
  2
block 2
340
0
102
{BLKREFS
331
53
102
}
 70
     0
280
     1
281
     0
  0
BLOCK_RECORD
  5
95
330
1
100
AcDbSymbolTableRecord
100
AcDbBlockTableRecord
  2
block 3
340
0
102
{BLKREFS
331
96
102
}
 70
     0
280
     1
281
     0
  0
BLOCK_RECORD
  5
A5
330
1
100
AcDbSymbolTableRecord
100
AcDbBlockTableRecord
  2
block 4
340
0
102
{BLKREFS
331
A6
102
}
 70
     0
280
     1
281
     0
  0
BLOCK_RECORD
  5
AB
330
1
100
AcDbSymbolTableRecord
100
AcDbBlockTableRecord
  2
block 5
340
0
102
{BLKREFS
331
AC
102
}
 70
     0
280
     1
281
     0
  0
BLOCK_RECORD
  5
BB
330
1
100
AcDbSymbolTableRecord
100
AcDbBlockTableRecord
  2
block 6
340
0
102
{BLKREFS
331
BC
102
}
 70
     0
280
     1
281
     0
  0
BLOCK_RECORD
  5
C1
330
1
100
AcDbSymbolTableRecord
100
AcDbBlockTableRecord
  2
block 7
340
0
102
{BLKREFS
331
C2
102
}
 70
     0
280
     1
281
     0
  0
BLOCK_RECORD
  5
D1
330
1
100
AcDbSymbolTableRecord
100
AcDbBlockTableRecord
  2
block 8
340
0
102
{BLKREFS
331
D2
102
}
 70
     0
280
     1
281
     0
  0
BLOCK_RECORD
  5
ED
330
1
100
AcDbSymbolTableRecord
100
AcDbBlockTableRecord
  2
block 9
340
0
102
{BLKREFS
331
EE
102
}
 70
     0
280
     1
281
     0
  0
BLOCK_RECORD
  5
FD
330
1
100
AcDbSymbolTableRecord
100
AcDbBlockTableRecord
  2
block 10
340
0
102
{BLKREFS
331
FE
102
}
 70
     0
280
     1
281
     0
  0
BLOCK_RECORD
  5
106
330
1
100
AcDbSymbolTableRecord
100
AcDbBlockTableRecord
  2
block 11
340
0
102
{BLKREFS
331
107
102
}
 70
     0
280
     1
281
     0
  0
BLOCK_RECORD
  5
116
330
1
100
AcDbSymbolTableRecord
100
AcDbBlockTableRecord
  2
block 12
340
0
102
{BLKREFS
331
117
102
}
 70
     0
280
     1
281
     0
  0
BLOCK_RECORD
  5
128
330
1
100
AcDbSymbolTableRecord
100
AcDbBlockTableRecord
  2
block 13
340
0
102
{BLKREFS
331
129
102
}
 70
     0
280
     1
281
     0
  0
BLOCK_RECORD
  5
139
330
1
100
AcDbSymbolTableRecord
100
AcDbBlockTableRecord
  2
block 14
340
0
102
{BLKREFS
331
13A
102
}
 70
     0
280
     1
281
     0
  0
BLOCK_RECORD
  5
14B
330
1
100
AcDbSymbolTableRecord
100
AcDbBlockTableRecord
  2
block 15
340
0
102
{BLKREFS
331
14C
102
}
 70
     0
280
     1
281
     0
  0
ENDTAB
  0
ENDSEC
  0
SECTION
  2
BLOCKS
  0
BLOCK
  5
20
330
1F
100
AcDbEntity
  8
0
100
AcDbBlockBegin
  2
*Model_Space
 70
     0
 10
0.0
 20
0.0
 30
0.0
  3
*Model_Space
  1

  0
ENDBLK
  5
21
330
1F
100
AcDbEntity
  8
0
100
AcDbBlockEnd
  0
BLOCK
  5
1C
330
1B
100
AcDbEntity
 67
     1
  8
0
100
AcDbBlockBegin
  2
*Paper_Space
 70
     0
 10
0.0
 20
0.0
 30
0.0
  3
*Paper_Space
  1

  0
ENDBLK
  5
1D
330
1B
100
AcDbEntity
 67
     1
  8
0
100
AcDbBlockEnd
  0
BLOCK
  5
24
330
23
100
AcDbEntity
  8
0
100
AcDbBlockBegin
  2
*Paper_Space0
 70
     0
 10
0.0
 20
0.0
 30
0.0
  3
*Paper_Space0
  1

  0
ENDBLK
  5
25
330
23
100
AcDbEntity
  8
0
100
AcDbBlockEnd
  0
BLOCK
  5
54
330
52
100
AcDbEntity
  8
0
100
AcDbBlockBegin
  2
block 2
 70
     0
 10
0.0
 20
0.0
 30
0.0
  3
block 2
  1

  0
POLYLINE
  5
56
330
52
100
AcDbEntity
  8
_U+30EC_U+30A4_U+30E4_U+30FC 1
 62
   179
420
  2234388
370
    25
100
AcDb2dPolyline
 66
     1
 10
0.0
 20
0.0
 30
0.0
  0
VERTEX
  5
57
330
56
100
AcDbEntity
  8
_U+30EC_U+30A4_U+30E4_U+30FC 1
 62
   179
420
  2234388
370
    25
100
AcDbVertex
100
AcDb2dVertex
 10
79.07630103815104
 20
-140.7114844092668
 30
0.0
  0
VERTEX
  5
58
330
56
100
AcDbEntity
  8
_U+30EC_U+30A4_U+30E4_U+30FC 1
 62
   179
420
  2234388
370
    25
100
AcDbVertex
100
AcDb2dVertex
 10
82.07628790605945
 20
-140.7114844092668
 30
0.0
  0
SEQEND
  5
59
330
56
100
AcDbEntity
  8
_U+30EC_U+30A4_U+30E4_U+30FC 1
 62
   179
420
  2234388
370
    25
  0
POLYLINE
  5
5A
330
52
100
AcDbEntity
  8
_U+30EC_U+30A4_U+30E4_U+30FC 1
 62
   179
420
  2234388
370
    25
100
AcDb2dPolyline
 66
     1
 10
0.0
 20
0.0
 30
0.0
  0
VERTEX
  5
5B
330
5A
100
AcDbEntity
  8
_U+30EC_U+30A4_U+30E4_U+30FC 1
 62
   179
420
  2234388
370
    25
100
AcDbVertex
100
AcDb2dVertex
 10
72.07588482785765
 20
-143.7114713529611
 30
0.0
  0
VERTEX
  5
5C
330
5A
100
AcDbEntity
  8
_U+30EC_U+30A4_U+30E4_U+30FC 1
 62
   179
420
  2234388
370
    25
100
AcDbVertex
100
AcDb2dVertex
 10
82.07628790605945
 20
-143.7114713529611
 30
0.0
  0
SEQEND
  5
5D
330
5A
100
AcDbEntity
  8
_U+30EC_U+30A4_U+30E4_U+30FC 1
 62
   179
420
  2234388
370
    25
  0
POLYLINE
  5
5E
330
52
100
AcDbEntity
  8
_U+30EC_U+30A4_U+30E4_U+30FC 1
 62
   179
420
  2234388
370
    25
100
AcDb2dPolyline
 66
     1
 10
0.0
 20
0.0
 30
0.0
  0
VERTEX
  5
5F
330
5E
100
AcDbEntity
  8
_U+30EC_U+30A4_U+30E4_U+30FC 1
 62
   179
420
  2234388
370
    25
100
AcDbVertex
100
AcDb2dVertex
 10
72.07588482785765
 20
-120.2114266366139
 30
0.0
  0
VERTEX
  5
60
330
5E
100
AcDbEntity
  8
_U+30EC_U+30A4_U+30E4_U+30FC 1
 62
   179
420
  2234388
370
    25
100
AcDbVertex
100
AcDb2dVertex
 10
72.07588482785765
 20
-143.7114713529611
 30
0.0
  0
SEQEND
  5
61
330
5E
100
AcDbEntity
  8
_U+30EC_U+30A4_U+30E4_U+30FC 1
 62
   179
420
  2234388
370
    25
  0
POLYLINE
  5
62
330
52
100
AcDbEntity
  8
_U+30EC_U+30A4_U+30E4_U+30FC 1
 62
   179
420
  2234388
370
    25
100
AcDb2dPolyline
 66
     1
 10
0.0
 20
0.0
 30
0.0
  0
VERTEX
  5
63
330
62
100
AcDbEntity
  8
_U+30EC_U+30A4_U+30E4_U+30FC 1
 62
   179
420
  2234388
370
    25
100
AcDbVertex
100
AcDb2dVertex
 10
72.07588482785765
 20
-120.2114266366139
 30
0.0
  0
VERTEX
  5
64
330
62
100
AcDbEntity
  8
_U+30EC_U+30A4_U+30E4_U+30FC 1
 62
   179
420
  2234388
370
    25
100
AcDbVertex
100
AcDb2dVertex
 10
75.07587169576605
 20
-120.2114266366139
 30
0.0
  0
SEQEND
  5
65
330
62
100
AcDbEntity
  8
_U+30EC_U+30A4_U+30E4_U+30FC 1
 62
   179
420
  2234388
370
    25
  0
POLYLINE
  5
66
330
52
100
AcDbEntity
  8
_U+30EC_U+30A4_U+30E4_U+30FC 1
 62
   179
420
  2234388
370
    25
100
AcDb2dPolyline
 66
     1
 10
0.0
 20
0.0
 30
0.0
  0
VERTEX
  5
67
330
66
100
AcDbEntity
  8
_U+30EC_U+30A4_U+30E4_U+30FC 1
 62
   179
420
  2234388
370
    25
100
AcDbVertex
100
AcDb2dVertex
 10
75.07587169576605
 20
-120.2114266366139
 30
0.0
  0
VERTEX
  5
68
330
66
100
AcDbEntity
  8
_U+30EC_U+30A4_U+30E4_U+30FC 1
 62
   179
420
  2234388
370
    25
100
AcDbVertex
100
AcDb2dVertex
 10
75.07587169576605
 20
-121.2111988585861
 30
0.0
  0
SEQEND
  5
69
330
66
100
AcDbEntity
  8
_U+30EC_U+30A4_U+30E4_U+30FC 1
 62
   179
420
  2234388
370
    25
  0
POLYLINE
  5
6A
330
52
100
AcDbEntity
  8
_U+30EC_U+30A4_U+30E4_U+30FC 1
 62
   179
420
  2234388
370
    25
100
AcDb2dPolyline
 66
     1
 10
0.0
 20
0.0
 30
0.0
  0
VERTEX
  5
6B
330
6A
100
AcDbEntity
  8
_U+30EC_U+30A4_U+30E4_U+30FC 1
 62
   179
420
  2234388
370
    25
100
AcDbVertex
100
AcDb2dVertex
 10
72.97606786044763
 20
-121.2111988585861
 30
0.0
  0
VERTEX
  5
6C
330
6A
100
AcDbEntity
  8
_U+30EC_U+30A4_U+30E4_U+30FC 1
 62
   179
420
  2234388
370
    25
100
AcDbVertex
100
AcDb2dVertex
 10
75.07587169576605
 20
-121.2111988585861
 30
0.0
  0
SEQEND
  5
6D
330
6A
100
AcDbEntity
  8
_U+30EC_U+30A4_U+30E4_U+30FC 1
 62
   179
420
  2234388
370
    25
  0
POLYLINE
  5
6E
330
52
100
AcDbEntity
  8
_U+30EC_U+30A4_U+30E4_U+30FC 1
 62
   179
420
  2234388
370
    25
100
AcDb2dPolyline
 66
     1
 10
0.0
 20
0.0
 30
0.0
  0
VERTEX
  5
6F
330
6E
100
AcDbEntity
  8
_U+30EC_U+30A4_U+30E4_U+30FC 1
 62
   179
420
  2234388
370
    25
100
AcDbVertex
100
AcDb2dVertex
 10
82.07628790605945
 20
-140.7114844092668
 30
0.0
  0
VERTEX
  5
70
330
6E
100
AcDbEntity
  8
_U+30EC_U+30A4_U+30E4_U+30FC 1
 62
   179
420
  2234388
370
    25
100
AcDbVertex
100
AcDb2dVertex
 10
82.07628790605945
 20
-143.7114713529611
 30
0.0
  0
SEQEND
  5
71
330
6E
100
AcDbEntity
  8
_U+30EC_U+30A4_U+30E4_U+30FC 1
 62
   179
420
  2234388
370
    25
  0
POLYLINE
  5
72
330
52
100
AcDbEntity
  8
_U+30EC_U+30A4_U+30E4_U+30FC 1
 62
   179
420
  2234388
370
    25
100
AcDb2dPolyline
 66
     1
 10
0.0
 20
0.0
 30
0.0
  0
VERTEX
  5
73
330
72
100
AcDbEntity
  8
_U+30EC_U+30A4_U+30E4_U+30FC 1
 62
   179
420
  2234388
370
    25
100
AcDbVertex
100
AcDb2dVertex
 10
79.07630103815104
 20
-140.7114844092668
 30
0.0
  0
VERTEX
  5
74
330
72
100
AcDbEntity
  8
_U+30EC_U+30A4_U+30E4_U+30FC 1
 62
   179
420
  2234388
370
    25
100
AcDbVertex
100
AcDb2dVertex
 10
79.07630103815104
 20
-141.7112566312387
 30
0.0
  0
SEQEND
  5
75
330
72
100
AcDbEntity
  8
_U+30EC_U+30A4_U+30E4_U+30FC 1
 62
   179
420
  2234388
370
    25
  0
POLYLINE
  5
76
330
52
100
AcDbEntity
  8
_U+30EC_U+30A4_U+30E4_U+30FC 1
 62
   179
420
  2234388
370
    25
100
AcDb2dPolyline
 66
     1
 10
0.0
 20
0.0
 30
0.0
  0
VERTEX
  5
77
330
76
100
AcDbEntity
  8
_U+30EC_U+30A4_U+30E4_U+30FC 1
 62
   179
420
  2234388
370
    25
100
AcDbVertex
100
AcDb2dVertex
 10
79.07630103815104
 20
-141.7112566312387
 30
0.0
  0
VERTEX
  5
78
330
76
100
AcDbEntity
  8
_U+30EC_U+30A4_U+30E4_U+30FC 1
 62
   179
420
  2234388
370
    25
100
AcDbVertex
100
AcDb2dVertex
 10
81.07584543158286
 20
-141.7112566312387
 30
0.0
  0
SEQEND
  5
79
330
76
100
AcDbEntity
  8
_U+30EC_U+30A4_U+30E4_U+30FC 1
 62
   179
420
  2234388
370
    25
  0
POLYLINE
  5
7A
330
52
100
AcDbEntity
  8
_U+30EC_U+30A4_U+30E4_U+30FC 1
 62
   179
420
  2234388
370
    25
100
AcDb2dPolyline
 66
     1
 10
0.0
 20
0.0
 30
0.0
  0
VERTEX
  5
7B
330
7A
100
AcDbEntity
  8
_U+30EC_U+30A4_U+30E4_U+30FC 1
 62
   179
420
  2234388
370
    25
100
AcDbVertex
100
AcDb2dVertex
 10
72.97606786044763
 20
-142.7116991309886
 30
0.0
  0
VERTEX
  5
7C
330
7A
100
AcDbEntity
  8
_U+30EC_U+30A4_U+30E4_U+30FC 1
 62
   179
420
  2234388
370
    25
100
AcDbVertex
100
AcDb2dVertex
 10
81.07584543158286
 20
-142.7116991309886
 30
0.0
  0
SEQEND
  5
7D
330
7A
100
AcDbEntity
  8
_U+30EC_U+30A4_U+30E4_U+30FC 1
 62
   179
420
  2234388
370
    25
  0
POLYLINE
  5
7E
330
52
100
AcDbEntity
  8
_U+30EC_U+30A4_U+30E4_U+30FC 1
 62
   179
420
  2234388
370
    25
100
AcDb2dPolyline
 66
     1
 10
0.0
 20
0.0
 30
0.0
  0
VERTEX
  5
7F
330
7E
100
AcDbEntity
  8
_U+30EC_U+30A4_U+30E4_U+30FC 1
 62
   179
420
  2234388
370
    25
100
AcDbVertex
100
AcDb2dVertex
 10
81.07584543158286
 20
-141.7112566312387
 30
0.0
  0
VERTEX
  5
80
330
7E
100
AcDbEntity
  8
_U+30EC_U+30A4_U+30E4_U+30FC 1
 62
   179
420
  2234388
370
    25
100
AcDbVertex
100
AcDb2dVertex
 10
81.07584543158286
 20
-142.7116991309886
 30
0.0
  0
SEQEND
  5
81
330
7E
100
AcDbEntity
  8
_U+30EC_U+30A4_U+30E4_U+30FC 1
 62
   179
420
  2234388
370
    25
  0
POLYLINE
  5
82
330
52
100
AcDbEntity
  8
_U+30EC_U+30A4_U+30E4_U+30FC 1
 62
   179
420
  2234388
370
    25
100
AcDb2dPolyline
 66
     1
 10
0.0
 20
0.0
 30
0.0
  0
VERTEX
  5
83
330
82
100
AcDbEntity
  8
_U+30EC_U+30A4_U+30E4_U+30FC 1
 62
   179
420
  2234388
370
    25
100
AcDbVertex
100
AcDb2dVertex
 10
72.97606786044763
 20
-121.2111988585861
 30
0.0
  0
VERTEX
  5
84
330
82
100
AcDbEntity
  8
_U+30EC_U+30A4_U+30E4_U+30FC 1
 62
   179
420
  2234388
370
    25
100
AcDbVertex
100
AcDb2dVertex
 10
72.97606786044763
 20
-127.3110794126167
 30
0.0
  0
SEQEND
  5
85
330
82
100
AcDbEntity
  8
_U+30EC_U+30A4_U+30E4_U+30FC 1
 62
   179
420
  2234388
370
    25
  0
POLYLINE
  5
86
330
52
100
AcDbEntity
  8
_U+30EC_U+30A4_U+30E4_U+30FC 1
 62
   179
420
  2234388
370
    25
100
AcDb2dPolyline
 66
     1
 10
0.0
 20
0.0
 30
0.0
  0
VERTEX
  5
87
330
86
100
AcDbEntity
  8
_U+30EC_U+30A4_U+30E4_U+30FC 1
 62
   179
420
  2234388
370
    25
100
AcDbVertex
100
AcDb2dVertex
 10
72.97606786044763
 20
-128.2116505235025
 30
0.0
  0
VERTEX
  5
88
330
86
100
AcDbEntity
  8
_U+30EC_U+30A4_U+30E4_U+30FC 1
 62
   179
420
  2234388
370
    25
100
AcDbVertex
100
AcDb2dVertex
 10
72.97606786044763
 20
-142.7116991309886
 30
0.0
  0
SEQEND
  5
89
330
86
100
AcDbEntity
  8
_U+30EC_U+30A4_U+30E4_U+30FC 1
 62
   179
420
  2234388
370
    25
  0
SPLINE
  5
8A
330
52
100
AcDbEntity
  8
_U+30EC_U+30A4_U+30E4_U+30FC 1
 62
   179
420
  2234388
370
     9
100
AcDbSpline
210
0.0
220
0.0
230
1.0
 70
    11
 71
     3
 72
    17
 73
    13
 74
     0
 42
0.0000000001
 43
0.0000000001
 12
1.0
 22
0.0
 32
0.0
 13
1.0
 23
0.0
 33
0.0
 40
0.0
 40
0.0
 40
0.0
 40
0.0
 40
1.0
 40
1.0
 40
1.0
 40
2.0
 40
2.0
 40
2.0
 40
3.0
 40
3.0
 40
3.0
 40
4.0
 40
4.0
 40
4.0
 40
4.0
 10
72.17614426974427
 20
-112.2117671941694
 30
0.0
 10
72.17614426974427
 20
-112.1562752497389
 30
0.0
 10
72.1313414931095
 20
-112.1118605275277
 30
0.0
 10
72.07588482785765
 20
-112.1118605275277
 30
0.0
 10
72.0207456625977
 20
-112.1118605275277
 30
0.0
 10
71.97597816373981
 20
-112.1562752497389
 30
0.0
 10
71.97597816373981
 20
-112.2117671941694
 30
0.0
 10
71.97597816373981
 20
-112.267223860822
 30
0.0
 10
72.0207456625977
 20
-112.3119913608109
 30
0.0
 10
72.07588482785765
 20
-112.3119913608109
 30
0.0
 10
72.1313414931095
 20
-112.3119913608109
 30
0.0
 10
72.17614426974427
 20
-112.267223860822
 30
0.0
 10
72.17614426974427
 20
-112.2117671941694
 30
0.0
  0
SPLINE
  5
8B
330
52
100
AcDbEntity
  8
_U+30EC_U+30A4_U+30E4_U+30FC 1
 62
   179
420
  2234388
370
     9
100
AcDbSpline
210
0.0
220
0.0
230
1.0
 70
    11
 71
     3
 72
    17
 73
    13
 74
     0
 42
0.0000000001
 43
0.0000000001
 12
1.0
 22
0.0
 32
0.0
 13
1.0
 23
0.0
 33
0.0
 40
0.0
 40
0.0
 40
0.0
 40
0.0
 40
1.0
 40
1.0
 40
1.0
 40
2.0
 40
2.0
 40
2.0
 40
3.0
 40
3.0
 40
3.0
 40
4.0
 40
4.0
 40
4.0
 40
4.0
 10
72.17614426974427
 20
-116.211667470947
 30
0.0
 10
72.17614426974427
 20
-116.1565635820721
 30
0.0
 10
72.1313414931095
 20
-116.1117608043053
 30
0.0
 10
72.07588482785765
 20
-116.1117608043053
 30
0.0
 10
72.0207456625977
 20
-116.1117608043053
 30
0.0
 10
71.97597816373981
 20
-116.1565635820721
 30
0.0
 10
71.97597816373981
 20
-116.211667470947
 30
0.0
 10
71.97597816373981
 20
-116.2668066376001
 30
0.0
 10
72.0207456625977
 20
-116.3115741375889
 30
0.0
 10
72.07588482785765
 20
-116.3115741375889
 30
0.0
 10
72.1313414931095
 20
-116.3115741375889
 30
0.0
 10
72.17614426974427
 20
-116.2668066376001
 30
0.0
 10
72.17614426974427
 20
-116.211667470947
 30
0.0
  0
SPLINE
  5
8C
330
52
100
AcDbEntity
  8
_U+30EC_U+30A4_U+30E4_U+30FC 1
 62
   179
420
  2234388
370
     9
100
AcDbSpline
210
0.0
220
0.0
230
1.0
 70
    11
 71
     3
 72
    17
 73
    13
 74
     0
 42
0.0000000001
 43
0.0000000001
 12
1.0
 22
0.0
 32
0.0
 13
1.0
 23
0.0
 33
0.0
 40
0.0
 40
0.0
 40
0.0
 40
0.0
 40
1.0
 40
1.0
 40
1.0
 40
2.0
 40
2.0
 40
2.0
 40
3.0
 40
3.0
 40
3.0
 40
4.0
 40
4.0
 40
4.0
 40
4.0
 10
75.17613113765267
 20
-116.211667470947
 30
0.0
 10
75.17613113765267
 20
-116.1565635820721
 30
0.0
 10
75.1313283610179
 20
-116.1117608043053
 30
0.0
 10
75.07587169576605
 20
-116.1117608043053
 30
0.0
 10
75.02073253050611
 20
-116.1117608043053
 30
0.0
 10
74.97596503164822
 20
-116.1565635820721
 30
0.0
 10
74.97596503164822
 20
-116.211667470947
 30
0.0
 10
74.97596503164822
 20
-116.2668066376001
 30
0.0
 10
75.02073253050611
 20
-116.3115741375889
 30
0.0
 10
75.07587169576605
 20
-116.3115741375889
 30
0.0
 10
75.1313283610179
 20
-116.3115741375889
 30
0.0
 10
75.17613113765267
 20
-116.2668066376001
 30
0.0
 10
75.17613113765267
 20
-116.211667470947
 30
0.0
  0
SPLINE
  5
8D
330
52
100
AcDbEntity
  8
_U+30EC_U+30A4_U+30E4_U+30FC 1
 62
   179
420
  2234388
370
     9
100
AcDbSpline
210
0.0
220
0.0
230
1.0
 70
    11
 71
     3
 72
    17
 73
    13
 74
     0
 42
0.0000000001
 43
0.0000000001
 12
1.0
 22
0.0
 32
0.0
 13
1.0
 23
0.0
 33
0.0
 40
0.0
 40
0.0
 40
0.0
 40
0.0
 40
1.0
 40
1.0
 40
1.0
 40
2.0
 40
2.0
 40
2.0
 40
3.0
 40
3.0
 40
3.0
 40
4.0
 40
4.0
 40
4.0
 40
4.0
 10
112.1757457492694
 20
-112.2117671941694
 30
0.0
 10
112.1757457492694
 20
-112.1562752497389
 30
0.0
 10
112.1309782504115
 20
-112.1118605275277
 30
0.0
 10
112.0758390851516
 20
-112.1118605275277
 30
0.0
 10
112.0207351976685
 20
-112.1118605275277
 30
0.0
 10
111.9759324210337
 20
-112.1562752497389
 30
0.0
 10
111.9759324210337
 20
-112.2117671941694
 30
0.0
 10
111.9759324210337
 20
-112.267223860822
 30
0.0
 10
112.0207351976685
 20
-112.3119913608109
 30
0.0
 10
112.0758390851516
 20
-112.3119913608109
 30
0.0
 10
112.1309782504115
 20
-112.3119913608109
 30
0.0
 10
112.1757457492694
 20
-112.267223860822
 30
0.0
 10
112.1757457492694
 20
-112.2117671941694
 30
0.0
  0
SPLINE
  5
8E
330
52
100
AcDbEntity
  8
_U+30EC_U+30A4_U+30E4_U+30FC 1
 62
   179
420
  2234388
370
     9
100
AcDbSpline
210
0.0
220
0.0
230
1.0
 70
    11
 71
     3
 72
    17
 73
    13
 74
     0
 42
0.0000000001
 43
0.0000000001
 12
1.0
 22
0.0
 32
0.0
 13
1.0
 23
0.0
 33
0.0
 40
0.0
 40
0.0
 40
0.0
 40
0.0
 40
1.0
 40
1.0
 40
1.0
 40
2.0
 40
2.0
 40
2.0
 40
3.0
 40
3.0
 40
3.0
 40
4.0
 40
4.0
 40
4.0
 40
4.0
 10
116.1755048138937
 20
-128.2116505235025
 30
0.0
 10
116.1755048138937
 20
-128.1558410790721
 30
0.0
 10
116.1307373150358
 20
-128.1110383013057
 30
0.0
 10
116.0755981497759
 20
-128.1110383013057
 30
0.0
 10
116.0204971932173
 20
-128.1110383013057
 30
0.0
 10
115.9756944154505
 20
-128.1558410790721
 30
0.0
 10
115.9756944154505
 20
-128.2116505235025
 30
0.0
 10
115.9756944154505
 20
-128.2667544123777
 30
0.0
 10
116.0204971932173
 20
-128.3115571901445
 30
0.0
 10
116.0755981497759
 20
-128.3115571901445
 30
0.0
 10
116.1307373150358
 20
-128.3115571901445
 30
0.0
 10
116.1755048138937
 20
-128.2667544123777
 30
0.0
 10
116.1755048138937
 20
-128.2116505235025
 30
0.0
  0
SPLINE
  5
8F
330
52
100
AcDbEntity
  8
_U+30EC_U+30A4_U+30E4_U+30FC 1
 62
   179
420
  2234388
370
     9
100
AcDbSpline
210
0.0
220
0.0
230
1.0
 70
    11
 71
     3
 72
    17
 73
    13
 74
     0
 42
0.0000000001
 43
0.0000000001
 12
1.0
 22
0.0
 32
0.0
 13
1.0
 23
0.0
 33
0.0
 40
0.0
 40
0.0
 40
0.0
 40
0.0
 40
1.0
 40
1.0
 40
1.0
 40
2.0
 40
2.0
 40
2.0
 40
3.0
 40
3.0
 40
3.0
 40
4.0
 40
4.0
 40
4.0
 40
4.0
 10
116.1755048138937
 20
-140.7114844092668
 30
0.0
 10
116.1755048138937
 20
-140.6563452426137
 30
0.0
 10
116.1307373150358
 20
-140.6115777426251
 30
0.0
 10
116.0755981497759
 20
-140.6115777426251
 30
0.0
 10
116.0204971932173
 20
-140.6115777426251
 30
0.0
 10
115.9756944154505
 20
-140.6563452426137
 30
0.0
 10
115.9756944154505
 20
-140.7114844092668
 30
0.0
 10
115.9756944154505
 20
-140.7665882981417
 30
0.0
 10
116.0204971932173
 20
-140.8113910759084
 30
0.0
 10
116.0755981497759
 20
-140.8113910759084
 30
0.0
 10
116.1307373150358
 20
-140.8113910759084
 30
0.0
 10
116.1755048138937
 20
-140.7665882981417
 30
0.0
 10
116.1755048138937
 20
-140.7114844092668
 30
0.0
  0
SPLINE
  5
90
330
52
100
AcDbEntity
  8
_U+30EC_U+30A4_U+30E4_U+30FC 1
 62
   179
420
  2234388
370
     9
100
AcDbSpline
210
0.0
220
0.0
230
1.0
 70
    11
 71
     3
 72
    17
 73
    13
 74
     0
 42
0.0000000001
 43
0.0000000001
 12
1.0
 22
0.0
 32
0.0
 13
1.0
 23
0.0
 33
0.0
 40
0.0
 40
0.0
 40
0.0
 40
0.0
 40
1.0
 40
1.0
 40
1.0
 40
2.0
 40
2.0
 40
2.0
 40
3.0
 40
3.0
 40
3.0
 40
4.0
 40
4.0
 40
4.0
 40
4.0
 10
116.1755048138937
 20
-143.7114713529611
 30
0.0
 10
116.1755048138937
 20
-143.656332186308
 30
0.0
 10
116.1307373150358
 20
-143.6115646863195
 30
0.0
 10
116.0755981497759
 20
-143.6115646863195
 30
0.0
 10
116.0204971932173
 20
-143.6115646863195
 30
0.0
 10
115.9756944154505
 20
-143.656332186308
 30
0.0
 10
115.9756944154505
 20
-143.7114713529611
 30
0.0
 10
115.9756944154505
 20
-143.7665752418361
 30
0.0
 10
116.0204971932173
 20
-143.8113780196028
 30
0.0
 10
116.0755981497759
 20
-143.8113780196028
 30
0.0
 10
116.1307373150358
 20
-143.8113780196028
 30
0.0
 10
116.1755048138937
 20
-143.7665752418361
 30
0.0
 10
116.1755048138937
 20
-143.7114713529611
 30
0.0
  0
SPLINE
  5
91
330
52
100
AcDbEntity
  8
_U+30EC_U+30A4_U+30E4_U+30FC 1
 62
   179
420
  2234388
370
     9
100
AcDbSpline
210
0.0
220
0.0
230
1.0
 70
    11
 71
     3
 72
    17
 73
    13
 74
     0
 42
0.0000000001
 43
0.0000000001
 12
1.0
 22
0.0
 32
0.0
 13
1.0
 23
0.0
 33
0.0
 40
0.0
 40
0.0
 40
0.0
 40
0.0
 40
1.0
 40
1.0
 40
1.0
 40
2.0
 40
2.0
 40
2.0
 40
3.0
 40
3.0
 40
3.0
 40
4.0
 40
4.0
 40
4.0
 40
4.0
 10
72.17614426974427
 20
-147.711230518628
 30
0.0
 10
72.17614426974427
 20
-147.6560913519749
 30
0.0
 10
72.1313414931095
 20
-147.6113238519864
 30
0.0
 10
72.07588482785765
 20
-147.6113238519864
 30
0.0
 10
72.0207456625977
 20
-147.6113238519864
 30
0.0
 10
71.97597816373981
 20
-147.6560913519749
 30
0.0
 10
71.97597816373981
 20
-147.711230518628
 30
0.0
 10
71.97597816373981
 20
-147.7670399630585
 30
0.0
 10
72.0207456625977
 20
-147.811807463047
 30
0.0
 10
72.07588482785765
 20
-147.811807463047
 30
0.0
 10
72.1313414931095
 20
-147.811807463047
 30
0.0
 10
72.17614426974427
 20
-147.7670399630585
 30
0.0
 10
72.17614426974427
 20
-147.711230518628
 30
0.0
  0
SPLINE
  5
92
330
52
100
AcDbEntity
  8
_U+30EC_U+30A4_U+30E4_U+30FC 1
 62
   179
420
  2234388
370
     9
100
AcDbSpline
210
0.0
220
0.0
230
1.0
 70
    11
 71
     3
 72
    17
 73
    13
 74
     0
 42
0.0000000001
 43
0.0000000001
 12
1.0
 22
0.0
 32
0.0
 13
1.0
 23
0.0
 33
0.0
 40
0.0
 40
0.0
 40
0.0
 40
0.0
 40
1.0
 40
1.0
 40
1.0
 40
2.0
 40
2.0
 40
2.0
 40
3.0
 40
3.0
 40
3.0
 40
4.0
 40
4.0
 40
4.0
 40
4.0
 10
82.17619457017729
 20
-147.711230518628
 30
0.0
 10
82.17619457017729
 20
-147.6560913519749
 30
0.0
 10
82.1314270713194
 20
-147.6113238519864
 30
0.0
 10
82.07628790605945
 20
-147.6113238519864
 30
0.0
 10
82.0211860906059
 20
-147.6113238519864
 30
0.0
 10
81.97638331283918
 20
-147.6560913519749
 30
0.0
 10
81.97638331283918
 20
-147.711230518628
 30
0.0
 10
81.97638331283918
 20
-147.7670399630585
 30
0.0
 10
82.0211860906059
 20
-147.811807463047
 30
0.0
 10
82.07628790605945
 20
-147.811807463047
 30
0.0
 10
82.1314270713194
 20
-147.811807463047
 30
0.0
 10
82.17619457017729
 20
-147.7670399630585
 30
0.0
 10
82.17619457017729
 20
-147.711230518628
 30
0.0
  0
SPLINE
  5
93
330
52
100
AcDbEntity
  8
_U+30EC_U+30A4_U+30E4_U+30FC 1
 62
   179
420
  2234388
370
     9
100
AcDbSpline
210
0.0
220
0.0
230
1.0
 70
    11
 71
     3
 72
    17
 73
    13
 74
     0
 42
0.0000000001
 43
0.0000000001
 12
1.0
 22
0.0
 32
0.0
 13
1.0
 23
0.0
 33
0.0
 40
0.0
 40
0.0
 40
0.0
 40
0.0
 40
1.0
 40
1.0
 40
1.0
 40
2.0
 40
2.0
 40
2.0
 40
3.0
 40
3.0
 40
3.0
 40
4.0
 40
4.0
 40
4.0
 40
4.0
 10
68.17603242735117
 20
-120.2114266366139
 30
0.0
 10
68.17603242735117
 20
-120.1563227477386
 30
0.0
 10
68.1312296507164
 20
-120.1115199699722
 30
0.0
 10
68.07612576323334
 20
-120.1115199699722
 30
0.0
 10
68.02098659797339
 20
-120.1115199699722
 30
0.0
 10
67.97621909911551
 20
-120.1563227477386
 30
0.0
 10
67.97621909911551
 20
-120.2114266366139
 30
0.0
 10
67.97621909911551
 20
-120.2665658032666
 30
0.0
 10
68.02098659797339
 20
-120.3113333032555
 30
0.0
 10
68.07612576323334
 20
-120.3113333032555
 30
0.0
 10
68.1312296507164
 20
-120.3113333032555
 30
0.0
 10
68.17603242735117
 20
-120.2665658032666
 30
0.0
 10
68.17603242735117
 20
-120.2114266366139
 30
0.0
  0
SPLINE
  5
94
330
52
100
AcDbEntity
  8
_U+30EC_U+30A4_U+30E4_U+30FC 1
 62
   179
420
  2234388
370
     9
100
AcDbSpline
210
0.0
220
0.0
230
1.0
 70
    11
 71
     3
 72
    17
 73
    13
 74
     0
 42
0.0000000001
 43
0.0000000001
 12
1.0
 22
0.0
 32
0.0
 13
1.0
 23
0.0
 33
0.0
 40
0.0
 40
0.0
 40
0.0
 40
0.0
 40
1.0
 40
1.0
 40
1.0
 40
2.0
 40
2.0
 40
2.0
 40
3.0
 40
3.0
 40
3.0
 40
4.0
 40
4.0
 40
4.0
 40
4.0
 10
68.17603242735117
 20
-143.7114713529611
 30
0.0
 10
68.17603242735117
 20
-143.656332186308
 30
0.0
 10
68.1312296507164
 20
-143.6115646863195
 30
0.0
 10
68.07612576323334
 20
-143.6115646863195
 30
0.0
 10
68.02098659797339
 20
-143.6115646863195
 30
0.0
 10
67.97621909911551
 20
-143.656332186308
 30
0.0
 10
67.97621909911551
 20
-143.7114713529611
 30
0.0
 10
67.97621909911551
 20
-143.7665752418361
 30
0.0
 10
68.02098659797339
 20
-143.8113780196028
 30
0.0
 10
68.07612576323334
 20
-143.8113780196028
 30
0.0
 10
68.1312296507164
 20
-143.8113780196028
 30
0.0
 10
68.17603242735117
 20
-143.7665752418361
 30
0.0
 10
68.17603242735117
 20
-143.7114713529611
 30
0.0
  0
INSERT
  5
96
330
52
100
AcDbEntity
  8
_U+30EC_U+30A4_U+30E4_U+30FC 1
100
AcDbBlockReference
  2
block 3
 10
0.0
 20
0.0
 30
0.0
  0
INSERT
  5
AC
330
52
100
AcDbEntity
  8
_U+30EC_U+30A4_U+30E4_U+30FC 1
100
AcDbBlockReference
  2
block 5
 10
0.0
 20
0.0
 30
0.0
  0
INSERT
  5
C2
330
52
100
AcDbEntity
  8
_U+30EC_U+30A4_U+30E4_U+30FC 1
100
AcDbBlockReference
  2
block 7
 10
0.0
 20
0.0
 30
0.0
  0
INSERT
  5
EE
330
52
100
AcDbEntity
  8
_U+30EC_U+30A4_U+30E4_U+30FC 1
100
AcDbBlockReference
  2
block 9
 10
0.0
 20
0.0
 30
0.0
  0
INSERT
  5
107
330
52
100
AcDbEntity
  8
_U+30EC_U+30A4_U+30E4_U+30FC 1
100
AcDbBlockReference
  2
block 11
 10
0.0
 20
0.0
 30
0.0
  0
INSERT
  5
129
330
52
100
AcDbEntity
  8
_U+30EC_U+30A4_U+30E4_U+30FC 1
100
AcDbBlockReference
  2
block 13
 10
0.0
 20
0.0
 30
0.0
  0
ENDBLK
  5
55
330
52
100
AcDbEntity
  8
0
100
AcDbBlockEnd
  0
BLOCK
  5
97
330
95
100
AcDbEntity
  8
0
100
AcDbBlockBegin
  2
block 3
 70
     0
 10
0.0
 20
0.0
 30
0.0
  3
block 3
  1

  0
POLYLINE
  5
99
330
95
100
AcDbEntity
  8
_U+30EC_U+30A4_U+30E4_U+30FC 1
 62
   179
420
  2234388
370
     9
100
AcDb2dPolyline
 66
     1
 10
0.0
 20
0.0
 30
0.0
  0
VERTEX
  5
9A
330
99
100
AcDbEntity
  8
_U+30EC_U+30A4_U+30E4_U+30FC 1
 62
   179
420
  2234388
370
     9
100
AcDbVertex
100
AcDb2dVertex
 10
116.0755981497759
 20
-140.7114844092668
 30
0.0
  0
VERTEX
  5
9B
330
99
100
AcDbEntity
  8
_U+30EC_U+30A4_U+30E4_U+30FC 1
 62
   179
420
  2234388
370
     9
100
AcDbVertex
100
AcDb2dVertex
 10
116.0755981497759
 20
-143.7114713529611
 30
0.0
  0
SEQEND
  5
9C
330
99
100
AcDbEntity
  8
_U+30EC_U+30A4_U+30E4_U+30FC 1
 62
   179
420
  2234388
370
     9
  0
POLYLINE
  5
9D
330
95
100
AcDbEntity
  8
_U+30EC_U+30A4_U+30E4_U+30FC 1
 62
   179
420
  2234388
370
     9
100
AcDb2dPolyline
 66
     1
 10
0.0
 20
0.0
 30
0.0
  0
VERTEX
  5
9E
330
9D
100
AcDbEntity
  8
_U+30EC_U+30A4_U+30E4_U+30FC 1
 62
   179
420
  2234388
370
     9
100
AcDbVertex
100
AcDb2dVertex
 10
84.61600561904363
 20
-140.7114844092668
 30
0.0
  0
VERTEX
  5
9F
330
9D
100
AcDbEntity
  8
_U+30EC_U+30A4_U+30E4_U+30FC 1
 62
   179
420
  2234388
370
     9
100
AcDbVertex
100
AcDb2dVertex
 10
117.0760406242525
 20
-140.7114844092668
 30
0.0
  0
SEQEND
  5
A0
330
9D
100
AcDbEntity
  8
_U+30EC_U+30A4_U+30E4_U+30FC 1
 62
   179
420
  2234388
370
     9
  0
POLYLINE
  5
A1
330
95
100
AcDbEntity
  8
_U+30EC_U+30A4_U+30E4_U+30FC 1
 62
   179
420
  2234388
370
     9
100
AcDb2dPolyline
 66
     1
 10
0.0
 20
0.0
 30
0.0
  0
VERTEX
  5
A2
330
A1
100
AcDbEntity
  8
_U+30EC_U+30A4_U+30E4_U+30FC 1
 62
   179
420
  2234388
370
     9
100
AcDbVertex
100
AcDb2dVertex
 10
84.61600561904363
 20
-143.7114713529611
 30
0.0
  0
VERTEX
  5
A3
330
A1
100
AcDbEntity
  8
_U+30EC_U+30A4_U+30E4_U+30FC 1
 62
   179
420
  2234388
370
     9
100
AcDbVertex
100
AcDb2dVertex
 10
117.0760406242525
 20
-143.7114713529611
 30
0.0
  0
SEQEND
  5
A4
330
A1
100
AcDbEntity
  8
_U+30EC_U+30A4_U+30E4_U+30FC 1
 62
   179
420
  2234388
370
     9
  0
INSERT
  5
A6
330
95
100
AcDbEntity
  8
_U+30EC_U+30A4_U+30E4_U+30FC 1
100
AcDbBlockReference
  2
block 4
 10
0.0
 20
0.0
 30
0.0
  0
ENDBLK
  5
98
330
95
100
AcDbEntity
  8
0
100
AcDbBlockEnd
  0
BLOCK
  5
A7
330
A5
100
AcDbEntity
  8
0
100
AcDbBlockBegin
  2
block 4
 70
     0
 10
0.0
 20
0.0
 30
0.0
  3
block 4
  1

  0
SPLINE
  5
A9
330
A5
100
AcDbEntity
  8
_U+30EC_U+30A4_U+30E4_U+30FC 1
370
     0
100
AcDbSpline
210
0.0
220
0.0
230
1.0
 70
    11
 71
     3
 72
    62
 73
    58
 74
     0
 42
0.0000000001
 43
0.0000000001
 12
1.0
 22
0.0
 32
0.0
 13
1.0
 23
0.0
 33
0.0
 40
0.0
 40
0.0
 40
0.0
 40
0.0
 40
1.0
 40
1.0
 40
1.0
 40
2.0
 40
2.0
 40
2.0
 40
3.0
 40
3.0
 40
3.0
 40
4.0
 40
4.0
 40
4.0
 40
5.0
 40
5.0
 40
5.0
 40
6.0
 40
6.0
 40
6.0
 40
7.0
 40
7.0
 40
7.0
 40
8.0
 40
8.0
 40
8.0
 40
9.0
 40
9.0
 40
9.0
 40
10.0
 40
10.0
 40
10.0
 40
11.0
 40
11.0
 40
11.0
 40
12.0
 40
12.0
 40
12.0
 40
13.0
 40
13.0
 40
13.0
 40
14.0
 40
14.0
 40
14.0
 40
15.0
 40
15.0
 40
15.0
 40
16.0
 40
16.0
 40
16.0
 40
17.0
 40
17.0
 40
17.0
 40
18.0
 40
18.0
 40
18.0
 40
19.0
 40
19.0
 40
19.0
 40
19.0
 10
115.4799451751231
 20
-142.2207763316323
 30
0.0
 10
115.4799451751231
 20
-142.3224066484472
 30
0.0
 10
115.4589300926631
 20
-142.5552951032501
 30
0.0
 10
115.2728949364596
 20
-142.6886202985292
 30
0.0
 10
115.1605848236404
 20
-142.76785749469
 30
0.0
 10
115.0613660736652
 20
-142.7723361188208
 30
0.0
 10
114.9766167247281
 20
-142.7768147429516
 30
0.0
 10
114.9766167247281
 20
-142.7768147429516
 30
0.0
 10
114.9766167247281
 20
-142.5418592308576
 30
0.0
 10
114.9766167247281
 20
-142.5418592308576
 30
0.0
 10
115.0506862776609
 20
-142.5394476640179
 30
0.0
 10
115.2852972802065
 20
-142.5280788489166
 30
0.0
 10
115.2852972802065
 20
-142.2252549557631
 30
0.0
 10
115.2852972802065
 20
-142.078149378543
 30
0.0
 10
115.2157063514044
 20
-141.9155408716392
 30
0.0
 10
114.9872965207323
 20
-141.9155408716392
 30
0.0
 10
114.8708522933309
 20
-141.9155408716392
 30
0.0
 10
114.8222764469889
 20
-141.9561929983651
 30
0.0
 10
114.7905815685246
 20
-141.9902994436691
 30
0.0
 10
114.7165120155917
 20
-142.0691921302813
 30
0.0
 10
114.7037651622963
 20
-142.1935600772988
 30
0.0
 10
114.7037651622963
 20
-142.2524712100966
 30
0.0
 10
114.7037651622963
 20
-142.2727972734596
 30
0.0
 10
114.7058322195874
 20
-142.3110378333459
 30
0.0
 10
114.7099663341697
 20
-142.340665654519
 30
0.0
 10
114.7099663341697
 20
-142.340665654519
 30
0.0
 10
114.5153184392531
 20
-142.340665654519
 30
0.0
 10
114.5153184392531
 20
-142.340665654519
 30
0.0
 10
114.5218641206751
 20
-142.3000135277931
 30
0.0
 10
114.5239311779662
 20
-142.2545382673878
 30
0.0
 10
114.5239311779662
 20
-142.2479925859658
 30
0.0
 10
114.5239311779662
 20
-142.1777126380667
 30
0.0
 10
114.5025715859577
 20
-141.9651502466268
 30
0.0
 10
114.265893526121
 20
-141.9651502466268
 30
0.0
 10
114.0881265990821
 20
-141.9651502466268
 30
0.0
 10
114.0330050713181
 20
-142.1053656328764
 30
0.0
 10
114.0330050713181
 20
-142.2228433889235
 30
0.0
 10
114.0330050713181
 20
-142.5056857282625
 30
0.0
 10
114.265893526121
 20
-142.5146429765241
 30
0.0
 10
114.3375515122142
 20
-142.519121600655
 30
0.0
 10
114.3375515122142
 20
-142.519121600655
 30
0.0
 10
114.3375515122142
 20
-142.7361626162257
 30
0.0
 10
114.3375515122142
 20
-142.7361626162257
 30
0.0
 10
114.2128390556482
 20
-142.727205367964
 30
0.0
 10
113.8362901191104
 20
-142.6979220563394
 30
0.0
 10
113.8362901191104
 20
-142.209407516531
 30
0.0
 10
113.8362901191104
 20
-141.9696288707576
 30
0.0
 10
113.9634141425161
 20
-141.7119357284609
 30
0.0
 10
114.2593478446991
 20
-141.7119357284609
 30
0.0
 10
114.4457275104511
 20
-141.7119357284609
 30
0.0
 10
114.5280652925485
 20
-141.8139105548243
 30
0.0
 10
114.589387992186
 20
-141.92001949577
 30
0.0
 10
114.616948756068
 20
-141.8545626815502
 30
0.0
 10
114.6972194808743
 20
-141.6599147866336
 30
0.0
 10
114.9745496674369
 20
-141.6599147866336
 30
0.0
 10
115.3128580440885
 20
-141.6599147866336
 30
0.0
 10
115.4799451751231
 20
-141.9244981199008
 30
0.0
 10
115.4799451751231
 20
-142.2207763316323
 30
0.0
  0
HATCH
  5
AA
330
A5
100
AcDbEntity
  8
_U+30EC_U+30A4_U+30E4_U+30FC 1
 62
   179
420
  2234388
100
AcDbHatch
 10
0.0
 20
0.0
 30
0.0
210
0.0
220
0.0
230
1.0
  2
SOLID
 70
     1
 71
     0
 91
        1
 92
        1
 93
        1
 72
     4
 94
        3
 73
     0
 74
     1
 95
       62
 96
       58
 40
0.0
 40
0.0
 40
0.0
 40
0.0
 40
1.0
 40
1.0
 40
1.0
 40
2.0
 40
2.0
 40
2.0
 40
3.0
 40
3.0
 40
3.0
 40
4.0
 40
4.0
 40
4.0
 40
5.0
 40
5.0
 40
5.0
 40
6.0
 40
6.0
 40
6.0
 40
7.0
 40
7.0
 40
7.0
 40
8.0
 40
8.0
 40
8.0
 40
9.0
 40
9.0
 40
9.0
 40
10.0
 40
10.0
 40
10.0
 40
11.0
 40
11.0
 40
11.0
 40
12.0
 40
12.0
 40
12.0
 40
13.0
 40
13.0
 40
13.0
 40
14.0
 40
14.0
 40
14.0
 40
15.0
 40
15.0
 40
15.0
 40
16.0
 40
16.0
 40
16.0
 40
17.0
 40
17.0
 40
17.0
 40
18.0
 40
18.0
 40
18.0
 40
19.0
 40
19.0
 40
19.0
 40
19.0
 10
115.4799451751231
 20
-142.2207763316323
 10
115.4799451751231
 20
-142.3224066484472
 10
115.4589300926631
 20
-142.5552951032501
 10
115.2728949364596
 20
-142.6886202985292
 10
115.1605848236404
 20
-142.76785749469
 10
115.0613660736652
 20
-142.7723361188208
 10
114.9766167247281
 20
-142.7768147429516
 10
114.9766167247281
 20
-142.7768147429516
 10
114.9766167247281
 20
-142.5418592308576
 10
114.9766167247281
 20
-142.5418592308576
 10
115.0506862776609
 20
-142.5394476640179
 10
115.2852972802065
 20
-142.5280788489166
 10
115.2852972802065
 20
-142.2252549557631
 10
115.2852972802065
 20
-142.078149378543
 10
115.2157063514044
 20
-141.9155408716392
 10
114.9872965207323
 20
-141.9155408716392
 10
114.8708522933309
 20
-141.9155408716392
 10
114.8222764469889
 20
-141.9561929983651
 10
114.7905815685246
 20
-141.9902994436691
 10
114.7165120155917
 20
-142.0691921302813
 10
114.7037651622963
 20
-142.1935600772988
 10
114.7037651622963
 20
-142.2524712100966
 10
114.7037651622963
 20
-142.2727972734596
 10
114.7058322195874
 20
-142.3110378333459
 10
114.7099663341697
 20
-142.340665654519
 10
114.7099663341697
 20
-142.340665654519
 10
114.5153184392531
 20
-142.340665654519
 10
114.5153184392531
 20
-142.340665654519
 10
114.5218641206751
 20
-142.3000135277931
 10
114.5239311779662
 20
-142.2545382673878
 10
114.5239311779662
 20
-142.2479925859658
 10
114.5239311779662
 20
-142.1777126380667
 10
114.5025715859577
 20
-141.9651502466268
 10
114.265893526121
 20
-141.9651502466268
 10
114.0881265990821
 20
-141.9651502466268
 10
114.0330050713181
 20
-142.1053656328764
 10
114.0330050713181
 20
-142.2228433889235
 10
114.0330050713181
 20
-142.5056857282625
 10
114.265893526121
 20
-142.5146429765241
 10
114.3375515122142
 20
-142.519121600655
 10
114.3375515122142
 20
-142.519121600655
 10
114.3375515122142
 20
-142.7361626162257
 10
114.3375515122142
 20
-142.7361626162257
 10
114.2128390556482
 20
-142.727205367964
 10
113.8362901191104
 20
-142.6979220563394
 10
113.8362901191104
 20
-142.209407516531
 10
113.8362901191104
 20
-141.9696288707576
 10
113.9634141425161
 20
-141.7119357284609
 10
114.2593478446991
 20
-141.7119357284609
 10
114.4457275104511
 20
-141.7119357284609
 10
114.5280652925485
 20
-141.8139105548243
 10
114.589387992186
 20
-141.92001949577
 10
114.616948756068
 20
-141.8545626815502
 10
114.6972194808743
 20
-141.6599147866336
 10
114.9745496674369
 20
-141.6599147866336
 10
115.3128580440885
 20
-141.6599147866336
 10
115.4799451751231
 20
-141.9244981199008
 10
115.4799451751231
 20
-142.2207763316323
 97
        0
 97
        0
 75
     2
 76
     1
 98
        0
  0
ENDBLK
  5
A8
330
A5
100
AcDbEntity
  8
0
100
AcDbBlockEnd
  0
BLOCK
  5
AD
330
AB
100
AcDbEntity
  8
0
100
AcDbBlockBegin
  2
block 5
 70
     0
 10
0.0
 20
0.0
 30
0.0
  3
block 5
  1

  0
POLYLINE
  5
AF
330
AB
100
AcDbEntity
  8
_U+30EC_U+30A4_U+30E4_U+30FC 1
 62
   179
420
  2234388
370
     9
100
AcDb2dPolyline
 66
     1
 10
0.0
 20
0.0
 30
0.0
  0
VERTEX
  5
B0
330
AF
100
AcDbEntity
  8
_U+30EC_U+30A4_U+30E4_U+30FC 1
 62
   179
420
  2234388
370
     9
100
AcDbVertex
100
AcDb2dVertex
 10
72.07588482785765
 20
-116.211667470947
 30
0.0
  0
VERTEX
  5
B1
330
AF
100
AcDbEntity
  8
_U+30EC_U+30A4_U+30E4_U+30FC 1
 62
   179
420
  2234388
370
     9
100
AcDbVertex
100
AcDb2dVertex
 10
75.07587169576605
 20
-116.211667470947
 30
0.0
  0
SEQEND
  5
B2
330
AF
100
AcDbEntity
  8
_U+30EC_U+30A4_U+30E4_U+30FC 1
 62
   179
420
  2234388
370
     9
  0
POLYLINE
  5
B3
330
AB
100
AcDbEntity
  8
_U+30EC_U+30A4_U+30E4_U+30FC 1
 62
   179
420
  2234388
370
     9
100
AcDb2dPolyline
 66
     1
 10
0.0
 20
0.0
 30
0.0
  0
VERTEX
  5
B4
330
B3
100
AcDbEntity
  8
_U+30EC_U+30A4_U+30E4_U+30FC 1
 62
   179
420
  2234388
370
     9
100
AcDbVertex
100
AcDb2dVertex
 10
72.07588482785765
 20
-117.6710385816933
 30
0.0
  0
VERTEX
  5
B5
330
B3
100
AcDbEntity
  8
_U+30EC_U+30A4_U+30E4_U+30FC 1
 62
   179
420
  2234388
370
     9
100
AcDbVertex
100
AcDb2dVertex
 10
72.07588482785765
 20
-115.2112249711971
 30
0.0
  0
SEQEND
  5
B6
330
B3
100
AcDbEntity
  8
_U+30EC_U+30A4_U+30E4_U+30FC 1
 62
   179
420
  2234388
370
     9
  0
POLYLINE
  5
B7
330
AB
100
AcDbEntity
  8
_U+30EC_U+30A4_U+30E4_U+30FC 1
 62
   179
420
  2234388
370
     9
100
AcDb2dPolyline
 66
     1
 10
0.0
 20
0.0
 30
0.0
  0
VERTEX
  5
B8
330
B7
100
AcDbEntity
  8
_U+30EC_U+30A4_U+30E4_U+30FC 1
 62
   179
420
  2234388
370
     9
100
AcDbVertex
100
AcDb2dVertex
 10
75.07587169576605
 20
-117.6710385816933
 30
0.0
  0
VERTEX
  5
B9
330
B7
100
AcDbEntity
  8
_U+30EC_U+30A4_U+30E4_U+30FC 1
 62
   179
420
  2234388
370
     9
100
AcDbVertex
100
AcDb2dVertex
 10
75.07587169576605
 20
-115.2112249711971
 30
0.0
  0
SEQEND
  5
BA
330
B7
100
AcDbEntity
  8
_U+30EC_U+30A4_U+30E4_U+30FC 1
 62
   179
420
  2234388
370
     9
  0
INSERT
  5
BC
330
AB
100
AcDbEntity
  8
_U+30EC_U+30A4_U+30E4_U+30FC 1
100
AcDbBlockReference
  2
block 6
 10
0.0
 20
0.0
 30
0.0
  0
ENDBLK
  5
AE
330
AB
100
AcDbEntity
  8
0
100
AcDbBlockEnd
  0
BLOCK
  5
BD
330
BB
100
AcDbEntity
  8
0
100
AcDbBlockBegin
  2
block 6
 70
     0
 10
0.0
 20
0.0
 30
0.0
  3
block 6
  1

  0
SPLINE
  5
BF
330
BB
100
AcDbEntity
  8
_U+30EC_U+30A4_U+30E4_U+30FC 1
370
     0
100
AcDbSpline
210
0.0
220
0.0
230
1.0
 70
    11
 71
     3
 72
    62
 73
    58
 74
     0
 42
0.0000000001
 43
0.0000000001
 12
1.0
 22
0.0
 32
0.0
 13
1.0
 23
0.0
 33
0.0
 40
0.0
 40
0.0
 40
0.0
 40
0.0
 40
1.0
 40
1.0
 40
1.0
 40
2.0
 40
2.0
 40
2.0
 40
3.0
 40
3.0
 40
3.0
 40
4.0
 40
4.0
 40
4.0
 40
5.0
 40
5.0
 40
5.0
 40
6.0
 40
6.0
 40
6.0
 40
7.0
 40
7.0
 40
7.0
 40
8.0
 40
8.0
 40
8.0
 40
9.0
 40
9.0
 40
9.0
 40
10.0
 40
10.0
 40
10.0
 40
11.0
 40
11.0
 40
11.0
 40
12.0
 40
12.0
 40
12.0
 40
13.0
 40
13.0
 40
13.0
 40
14.0
 40
14.0
 40
14.0
 40
15.0
 40
15.0
 40
15.0
 40
16.0
 40
16.0
 40
16.0
 40
17.0
 40
17.0
 40
17.0
 40
18.0
 40
18.0
 40
18.0
 40
19.0
 40
19.0
 40
19.0
 40
19.0
 10
73.5662244824765
 20
-115.6167154658875
 30
0.0
 10
73.46459416566164
 20
-115.6167154658875
 30
0.0
 10
73.23170571085875
 20
-115.5955281286532
 30
0.0
 10
73.09820826080531
 20
-115.4093207176755
 30
0.0
 10
73.01914331941883
 20
-115.2971828596306
 30
0.0
 10
73.014664695288
 20
-115.1977918548811
 30
0.0
 10
73.01018607115718
 20
-115.1132147607182
 30
0.0
 10
73.01018607115718
 20
-115.1132147607182
 30
0.0
 10
73.24514158325121
 20
-115.1132147607182
 30
0.0
 10
73.24514158325121
 20
-115.1132147607182
 30
0.0
 10
73.2475531500909
 20
-115.1872843136511
 30
0.0
 10
73.25874971041796
 20
-115.4220675709709
 30
0.0
 10
73.56174585834567
 20
-115.4220675709709
 30
0.0
 10
73.70867918079158
 20
-115.4220675709709
 30
0.0
 10
73.87145994246964
 20
-115.3523043873946
 30
0.0
 10
73.87145994246964
 20
-115.1237223019482
 30
0.0
 10
73.87145994246964
 20
-115.0074503293211
 30
0.0
 10
73.8308078157437
 20
-114.9587022282048
 30
0.0
 10
73.79687362521398
 20
-114.9270073497405
 30
0.0
 10
73.7178086838275
 20
-114.8529377968076
 30
0.0
 10
73.59344073680998
 20
-114.8403631982864
 30
0.0
 10
73.5345296040122
 20
-114.8403631982864
 30
0.0
 10
73.51420354064923
 20
-114.8403631982864
 30
0.0
 10
73.47579072598869
 20
-114.8424302555776
 30
0.0
 10
73.44650741436408
 20
-114.8465643701599
 30
0.0
 10
73.44650741436408
 20
-114.8465643701599
 30
0.0
 10
73.44650741436408
 20
-114.6519164752433
 30
0.0
 10
73.44650741436408
 20
-114.6519164752433
 30
0.0
 10
73.48715954109002
 20
-114.658289901891
 30
0.0
 10
73.5322902919468
 20
-114.6605292139564
 30
0.0
 10
73.53918048291729
 20
-114.6605292139564
 30
0.0
 10
73.60928817604213
 20
-114.6605292139564
 30
0.0
 10
73.82167831270777
 20
-114.6393418767221
 30
0.0
 10
73.82167831270777
 20
-114.4023193073369
 30
0.0
 10
73.82167831270777
 20
-114.2247246350723
 30
0.0
 10
73.68163518123237
 20
-114.1696031073083
 30
0.0
 10
73.56398517041109
 20
-114.1696031073083
 30
0.0
 10
73.28131508584634
 20
-114.1696031073083
 30
0.0
 10
73.27235783758469
 20
-114.4023193073369
 30
0.0
 10
73.26787921345387
 20
-114.4743218029787
 30
0.0
 10
73.26787921345387
 20
-114.4743218029787
 30
0.0
 10
73.05083819788312
 20
-114.4743218029787
 30
0.0
 10
73.05083819788312
 20
-114.4743218029787
 30
0.0
 10
73.05979544614478
 20
-114.3494370916383
 30
0.0
 10
73.08925101254366
 20
-113.9728881551005
 30
0.0
 10
73.57759329757782
 20
-113.9728881551005
 30
0.0
 10
73.81719968857695
 20
-113.9728881551005
 30
0.0
 10
74.07489283087364
 20
-114.099839923732
 30
0.0
 10
74.07489283087364
 20
-114.3959458806892
 30
0.0
 10
74.07489283087364
 20
-114.582153291667
 30
0.0
 10
73.97326251405877
 20
-114.6646633285387
 30
0.0
 10
73.86698131833882
 20
-114.7259860281762
 30
0.0
 10
73.93243813255856
 20
-114.7535467920581
 30
0.0
 10
74.12691377270092
 20
-114.8339897716387
 30
0.0
 10
74.12691377270092
 20
-115.1111477034271
 30
0.0
 10
74.12691377270092
 20
-115.4496283348529
 30
0.0
 10
73.86250269420799
 20
-115.6167154658875
 30
0.0
 10
73.5662244824765
 20
-115.6167154658875
 30
0.0
  0
HATCH
  5
C0
330
BB
100
AcDbEntity
  8
_U+30EC_U+30A4_U+30E4_U+30FC 1
 62
   179
420
  2234388
100
AcDbHatch
 10
0.0
 20
0.0
 30
0.0
210
0.0
220
0.0
230
1.0
  2
SOLID
 70
     1
 71
     0
 91
        1
 92
        1
 93
        1
 72
     4
 94
        3
 73
     0
 74
     1
 95
       62
 96
       58
 40
0.0
 40
0.0
 40
0.0
 40
0.0
 40
1.0
 40
1.0
 40
1.0
 40
2.0
 40
2.0
 40
2.0
 40
3.0
 40
3.0
 40
3.0
 40
4.0
 40
4.0
 40
4.0
 40
5.0
 40
5.0
 40
5.0
 40
6.0
 40
6.0
 40
6.0
 40
7.0
 40
7.0
 40
7.0
 40
8.0
 40
8.0
 40
8.0
 40
9.0
 40
9.0
 40
9.0
 40
10.0
 40
10.0
 40
10.0
 40
11.0
 40
11.0
 40
11.0
 40
12.0
 40
12.0
 40
12.0
 40
13.0
 40
13.0
 40
13.0
 40
14.0
 40
14.0
 40
14.0
 40
15.0
 40
15.0
 40
15.0
 40
16.0
 40
16.0
 40
16.0
 40
17.0
 40
17.0
 40
17.0
 40
18.0
 40
18.0
 40
18.0
 40
19.0
 40
19.0
 40
19.0
 40
19.0
 10
73.5662244824765
 20
-115.6167154658875
 10
73.46459416566164
 20
-115.6167154658875
 10
73.23170571085875
 20
-115.5955281286532
 10
73.09820826080531
 20
-115.4093207176755
 10
73.01914331941883
 20
-115.2971828596306
 10
73.014664695288
 20
-115.1977918548811
 10
73.01018607115718
 20
-115.1132147607182
 10
73.01018607115718
 20
-115.1132147607182
 10
73.24514158325121
 20
-115.1132147607182
 10
73.24514158325121
 20
-115.1132147607182
 10
73.2475531500909
 20
-115.1872843136511
 10
73.25874971041796
 20
-115.4220675709709
 10
73.56174585834567
 20
-115.4220675709709
 10
73.70867918079158
 20
-115.4220675709709
 10
73.87145994246964
 20
-115.3523043873946
 10
73.87145994246964
 20
-115.1237223019482
 10
73.87145994246964
 20
-115.0074503293211
 10
73.8308078157437
 20
-114.9587022282048
 10
73.79687362521398
 20
-114.9270073497405
 10
73.7178086838275
 20
-114.8529377968076
 10
73.59344073680998
 20
-114.8403631982864
 10
73.5345296040122
 20
-114.8403631982864
 10
73.51420354064923
 20
-114.8403631982864
 10
73.47579072598869
 20
-114.8424302555776
 10
73.44650741436408
 20
-114.8465643701599
 10
73.44650741436408
 20
-114.8465643701599
 10
73.44650741436408
 20
-114.6519164752433
 10
73.44650741436408
 20
-114.6519164752433
 10
73.48715954109002
 20
-114.658289901891
 10
73.5322902919468
 20
-114.6605292139564
 10
73.53918048291729
 20
-114.6605292139564
 10
73.60928817604213
 20
-114.6605292139564
 10
73.82167831270777
 20
-114.6393418767221
 10
73.82167831270777
 20
-114.4023193073369
 10
73.82167831270777
 20
-114.2247246350723
 10
73.68163518123237
 20
-114.1696031073083
 10
73.56398517041109
 20
-114.1696031073083
 10
73.28131508584634
 20
-114.1696031073083
 10
73.27235783758469
 20
-114.4023193073369
 10
73.26787921345387
 20
-114.4743218029787
 10
73.26787921345387
 20
-114.4743218029787
 10
73.05083819788312
 20
-114.4743218029787
 10
73.05083819788312
 20
-114.4743218029787
 10
73.05979544614478
 20
-114.3494370916383
 10
73.08925101254366
 20
-113.9728881551005
 10
73.57759329757782
 20
-113.9728881551005
 10
73.81719968857695
 20
-113.9728881551005
 10
74.07489283087364
 20
-114.099839923732
 10
74.07489283087364
 20
-114.3959458806892
 10
74.07489283087364
 20
-114.582153291667
 10
73.97326251405877
 20
-114.6646633285387
 10
73.86698131833882
 20
-114.7259860281762
 10
73.93243813255856
 20
-114.7535467920581
 10
74.12691377270092
 20
-114.8339897716387
 10
74.12691377270092
 20
-115.1111477034271
 10
74.12691377270092
 20
-115.4496283348529
 10
73.86250269420799
 20
-115.6167154658875
 10
73.5662244824765
 20
-115.6167154658875
 97
        0
 97
        0
 75
     2
 76
     1
 98
        0
  0
ENDBLK
  5
BE
330
BB
100
AcDbEntity
  8
0
100
AcDbBlockEnd
  0
BLOCK
  5
C3
330
C1
100
AcDbEntity
  8
0
100
AcDbBlockBegin
  2
block 7
 70
     0
 10
0.0
 20
0.0
 30
0.0
  3
block 7
  1

  0
POLYLINE
  5
C5
330
C1
100
AcDbEntity
  8
_U+30EC_U+30A4_U+30E4_U+30FC 1
 62
   179
420
  2234388
370
     9
100
AcDb2dPolyline
 66
     1
 10
0.0
 20
0.0
 30
0.0
  0
VERTEX
  5
C6
330
C5
100
AcDbEntity
  8
_U+30EC_U+30A4_U+30E4_U+30FC 1
 62
   179
420
  2234388
370
     9
100
AcDbVertex
100
AcDb2dVertex
 10
72.07588482785765
 20
-112.2117671941694
 30
0.0
  0
VERTEX
  5
C7
330
C5
100
AcDbEntity
  8
_U+30EC_U+30A4_U+30E4_U+30FC 1
 62
   179
420
  2234388
370
     9
100
AcDbVertex
100
AcDb2dVertex
 10
112.0758390851516
 20
-112.2117671941694
 30
0.0
  0
SEQEND
  5
C8
330
C5
100
AcDbEntity
  8
_U+30EC_U+30A4_U+30E4_U+30FC 1
 62
   179
420
  2234388
370
     9
  0
POLYLINE
  5
C9
330
C1
100
AcDbEntity
  8
_U+30EC_U+30A4_U+30E4_U+30FC 1
 62
   179
420
  2234388
370
     9
100
AcDb2dPolyline
 66
     1
 10
0.0
 20
0.0
 30
0.0
  0
VERTEX
  5
CA
330
C9
100
AcDbEntity
  8
_U+30EC_U+30A4_U+30E4_U+30FC 1
 62
   179
420
  2234388
370
     9
100
AcDbVertex
100
AcDb2dVertex
 10
72.07588482785765
 20
-117.6710385816933
 30
0.0
  0
VERTEX
  5
CB
330
C9
100
AcDbEntity
  8
_U+30EC_U+30A4_U+30E4_U+30FC 1
 62
   179
420
  2234388
370
     9
100
AcDbVertex
100
AcDb2dVertex
 10
72.07588482785765
 20
-111.2116421944194
 30
0.0
  0
SEQEND
  5
CC
330
C9
100
AcDbEntity
  8
_U+30EC_U+30A4_U+30E4_U+30FC 1
 62
   179
420
  2234388
370
     9
  0
POLYLINE
  5
CD
330
C1
100
AcDbEntity
  8
_U+30EC_U+30A4_U+30E4_U+30FC 1
 62
   179
420
  2234388
370
     9
100
AcDb2dPolyline
 66
     1
 10
0.0
 20
0.0
 30
0.0
  0
VERTEX
  5
CE
330
CD
100
AcDbEntity
  8
_U+30EC_U+30A4_U+30E4_U+30FC 1
 62
   179
420
  2234388
370
     9
100
AcDbVertex
100
AcDb2dVertex
 10
112.0758390851516
 20
-124.7713616354739
 30
0.0
  0
VERTEX
  5
CF
330
CD
100
AcDbEntity
  8
_U+30EC_U+30A4_U+30E4_U+30FC 1
 62
   179
420
  2234388
370
     9
100
AcDbVertex
100
AcDb2dVertex
 10
112.0758390851516
 20
-111.2116421944194
 30
0.0
  0
SEQEND
  5
D0
330
CD
100
AcDbEntity
  8
_U+30EC_U+30A4_U+30E4_U+30FC 1
 62
   179
420
  2234388
370
     9
  0
INSERT
  5
D2
330
C1
100
AcDbEntity
  8
_U+30EC_U+30A4_U+30E4_U+30FC 1
100
AcDbBlockReference
  2
block 8
 10
0.0
 20
0.0
 30
0.0
  0
ENDBLK
  5
C4
330
C1
100
AcDbEntity
  8
0
100
AcDbBlockEnd
  0
BLOCK
  5
D3
330
D1
100
AcDbEntity
  8
0
100
AcDbBlockBegin
  2
block 8
 70
     0
 10
0.0
 20
0.0
 30
0.0
  3
block 8
  1

  0
POLYLINE
  5
D5
330
D1
100
AcDbEntity
  8
_U+30EC_U+30A4_U+30E4_U+30FC 1
370
     0
100
AcDb2dPolyline
 66
     1
 10
0.0
 20
0.0
 30
0.0
  0
VERTEX
  5
D6
330
D5
100
AcDbEntity
  8
_U+30EC_U+30A4_U+30E4_U+30FC 1
370
     0
100
AcDbVertex
100
AcDb2dVertex
 10
91.80111488590389
 20
-111.2188788241918
 30
0.0
  0
VERTEX
  5
D7
330
D5
100
AcDbEntity
  8
_U+30EC_U+30A4_U+30E4_U+30FC 1
370
     0
100
AcDbVertex
100
AcDb2dVertex
 10
91.80111488590389
 20
-111.5657999395565
 30
0.0
  0
VERTEX
  5
D8
330
D5
100
AcDbEntity
  8
_U+30EC_U+30A4_U+30E4_U+30FC 1
370
     0
100
AcDbVertex
100
AcDb2dVertex
 10
91.56822643110101
 20
-111.5657999395565
 30
0.0
  0
VERTEX
  5
D9
330
D5
100
AcDbEntity
  8
_U+30EC_U+30A4_U+30E4_U+30FC 1
370
     0
100
AcDbVertex
100
AcDb2dVertex
 10
91.56822643110101
 20
-111.2188788241918
 30
0.0
  0
VERTEX
  5
DA
330
D5
100
AcDbEntity
  8
_U+30EC_U+30A4_U+30E4_U+30FC 1
370
     0
100
AcDbVertex
100
AcDb2dVertex
 10
90.86732175462693
 20
-111.2188788241918
 30
0.0
  0
VERTEX
  5
DB
330
D5
100
AcDbEntity
  8
_U+30EC_U+30A4_U+30E4_U+30FC 1
370
     0
100
AcDbVertex
100
AcDb2dVertex
 10
90.86732175462693
 20
-110.9946031081021
 30
0.0
  0
VERTEX
  5
DC
330
D5
100
AcDbEntity
  8
_U+30EC_U+30A4_U+30E4_U+30FC 1
370
     0
100
AcDbVertex
100
AcDb2dVertex
 10
91.59303111859481
 20
-110.0215358882932
 30
0.0
  0
VERTEX
  5
DD
330
D5
100
AcDbEntity
  8
_U+30EC_U+30A4_U+30E4_U+30FC 1
370
     0
100
AcDbVertex
100
AcDb2dVertex
 10
91.80111488590389
 20
-110.0215358882932
 30
0.0
  0
VERTEX
  5
DE
330
D5
100
AcDbEntity
  8
_U+30EC_U+30A4_U+30E4_U+30FC 1
370
     0
100
AcDbVertex
100
AcDb2dVertex
 10
91.80111488590389
 20
-111.0199245599186
 30
0.0
  0
VERTEX
  5
DF
330
D5
100
AcDbEntity
  8
_U+30EC_U+30A4_U+30E4_U+30FC 1
370
     0
100
AcDbVertex
100
AcDb2dVertex
 10
92.02263452560545
 20
-111.0199245599186
 30
0.0
  0
VERTEX
  5
E0
330
D5
100
AcDbEntity
  8
_U+30EC_U+30A4_U+30E4_U+30FC 1
370
     0
100
AcDbVertex
100
AcDb2dVertex
 10
92.02263452560545
 20
-111.2188788241918
 30
0.0
  0
VERTEX
  5
E1
330
D5
100
AcDbEntity
  8
_U+30EC_U+30A4_U+30E4_U+30FC 1
370
     0
100
AcDbVertex
100
AcDb2dVertex
 10
91.80111488590389
 20
-111.2188788241918
 30
0.0
  0
SEQEND
  5
E2
330
D5
100
AcDbEntity
  8
_U+30EC_U+30A4_U+30E4_U+30FC 1
370
     0
  0
POLYLINE
  5
E3
330
D1
100
AcDbEntity
  8
_U+30EC_U+30A4_U+30E4_U+30FC 1
370
     0
100
AcDb2dPolyline
 66
     1
 10
0.0
 20
0.0
 30
0.0
  0
VERTEX
  5
E4
330
E3
100
AcDbEntity
  8
_U+30EC_U+30A4_U+30E4_U+30FC 1
370
     0
100
AcDbVertex
100
AcDb2dVertex
 10
91.56822643110101
 20
-110.3641506343013
 30
0.0
  0
VERTEX
  5
E5
330
E3
100
AcDbEntity
  8
_U+30EC_U+30A4_U+30E4_U+30FC 1
370
     0
100
AcDbVertex
100
AcDb2dVertex
 10
91.07971189129258
 20
-111.0199245599186
 30
0.0
  0
VERTEX
  5
E6
330
E3
100
AcDbEntity
  8
_U+30EC_U+30A4_U+30E4_U+30FC 1
370
     0
100
AcDbVertex
100
AcDb2dVertex
 10
91.56822643110101
 20
-111.0199245599186
 30
0.0
  0
VERTEX
  5
E7
330
E3
100
AcDbEntity
  8
_U+30EC_U+30A4_U+30E4_U+30FC 1
370
     0
100
AcDbVertex
100
AcDb2dVertex
 10
91.56822643110101
 20
-110.3641506343013
 30
0.0
  0
SEQEND
  5
E8
330
E3
100
AcDbEntity
  8
_U+30EC_U+30A4_U+30E4_U+30FC 1
370
     0
  0
HATCH
  5
E9
330
D1
100
AcDbEntity
  8
_U+30EC_U+30A4_U+30E4_U+30FC 1
 62
   179
420
  2234388
100
AcDbHatch
 10
0.0
 20
0.0
 30
0.0
210
0.0
220
0.0
230
1.0
  2
SOLID
 70
     1
 71
     0
 91
        2
 92
        1
 93
       11
 72
     1
 10
91.80111488590389
 20
-111.2188788241918
 11
91.80111488590389
 21
-111.5657999395565
 72
     1
 10
91.80111488590389
 20
-111.5657999395565
 11
91.56822643110101
 21
-111.5657999395565
 72
     1
 10
91.56822643110101
 20
-111.5657999395565
 11
91.56822643110101
 21
-111.2188788241918
 72
     1
 10
91.56822643110101
 20
-111.2188788241918
 11
90.86732175462693
 21
-111.2188788241918
 72
     1
 10
90.86732175462693
 20
-111.2188788241918
 11
90.86732175462693
 21
-110.9946031081021
 72
     1
 10
90.86732175462693
 20
-110.9946031081021
 11
91.59303111859481
 21
-110.0215358882932
 72
     1
 10
91.59303111859481
 20
-110.0215358882932
 11
91.80111488590389
 21
-110.0215358882932
 72
     1
 10
91.80111488590389
 20
-110.0215358882932
 11
91.80111488590389
 21
-111.0199245599186
 72
     1
 10
91.80111488590389
 20
-111.0199245599186
 11
92.02263452560545
 21
-111.0199245599186
 72
     1
 10
92.02263452560545
 20
-111.0199245599186
 11
92.02263452560545
 21
-111.2188788241918
 72
     1
 10
92.02263452560545
 20
-111.2188788241918
 11
91.80111488590389
 21
-111.2188788241918
 97
        0
 92
        1
 93
        3
 72
     1
 10
91.56822643110101
 20
-110.3641506343013
 11
91.07971189129258
 21
-111.0199245599186
 72
     1
 10
91.07971189129258
 20
-111.0199245599186
 11
91.56822643110101
 21
-111.0199245599186
 72
     1
 10
91.56822643110101
 20
-111.0199245599186
 11
91.56822643110101
 21
-110.3641506343013
 97
        0
 75
     2
 76
     1
 98
        0
  0
SPLINE
  5
EA
330
D1
100
AcDbEntity
  8
_U+30EC_U+30A4_U+30E4_U+30FC 1
370
     0
100
AcDbSpline
210
0.0
220
0.0
230
1.0
 70
    11
 71
     3
 72
    29
 73
    25
 74
     0
 42
0.0000000001
 43
0.0000000001
 12
1.0
 22
0.0
 32
0.0
 13
1.0
 23
0.0
 33
0.0
 40
0.0
 40
0.0
 40
0.0
 40
0.0
 40
1.0
 40
1.0
 40
1.0
 40
2.0
 40
2.0
 40
2.0
 40
3.0
 40
3.0
 40
3.0
 40
4.0
 40
4.0
 40
4.0
 40
5.0
 40
5.0
 40
5.0
 40
6.0
 40
6.0
 40
6.0
 40
7.0
 40
7.0
 40
7.0
 40
8.0
 40
8.0
 40
8.0
 40
8.0
 10
93.12885468591918
 20
-111.3880330125176
 30
0.0
 10
93.01344398716331
 20
-111.5974948180208
 30
0.0
 10
92.82809785005686
 20
-111.6166150979639
 30
0.0
 10
92.70407441258787
 20
-111.6166150979639
 30
0.0
 10
92.53216414787391
 20
-111.6166150979639
 30
0.0
 10
92.38057994652291
 20
-111.570106308913
 30
0.0
 10
92.27894962970804
 20
-111.3880330125176
 30
0.0
 10
92.168017555083
 20
-111.193385117601
 30
0.0
 10
92.14769149172002
 20
-110.95653480299
 30
0.0
 10
92.14769149172002
 20
-110.7935817865377
 30
0.0
 10
92.14769149172002
 20
-110.6497490500285
 30
0.0
 10
92.16595049779185
 20
-110.398084824831
 30
0.0
 10
92.27894962970804
 20
-110.1991305605579
 30
0.0
 10
92.39436032846392
 20
-109.9960421817024
 30
0.0
 10
92.56592608362935
 20
-109.9727877871769
 30
0.0
 10
92.70407441258787
 20
-109.9727877871769
 30
0.0
 10
92.87357311046216
 20
-109.9727877871769
 30
0.0
 10
93.0272243691043
 20
-110.0172295189367
 30
0.0
 10
93.12885468591918
 20
-110.1991305605579
 30
0.0
 10
93.2353081364134
 20
-110.3917113981833
 30
0.0
 10
93.26011282390719
 20
-110.6201212288554
 30
0.0
 10
93.26011282390719
 20
-110.7935817865377
 30
0.0
 10
93.26011282390719
 20
-110.9649752869289
 30
0.0
 10
93.23737519370455
 20
-111.1956244296664
 30
0.0
 10
93.12885468591918
 20
-111.3880330125176
 30
0.0
  0
SPLINE
  5
EB
330
D1
100
AcDbEntity
  8
_U+30EC_U+30A4_U+30E4_U+30FC 1
370
     0
100
AcDbSpline
210
0.0
220
0.0
230
1.0
 70
    11
 71
     3
 72
    17
 73
    13
 74
     0
 42
0.0000000001
 43
0.0000000001
 12
1.0
 22
0.0
 32
0.0
 13
1.0
 23
0.0
 33
0.0
 40
0.0
 40
0.0
 40
0.0
 40
0.0
 40
1.0
 40
1.0
 40
1.0
 40
2.0
 40
2.0
 40
2.0
 40
3.0
 40
3.0
 40
3.0
 40
4.0
 40
4.0
 40
4.0
 40
4.0
 10
92.70407441258787
 20
-110.1653686248024
 30
0.0
 10
92.437079512481
 20
-110.1653686248024
 30
0.0
 10
92.38747013749341
 20
-110.4488999832385
 30
0.0
 10
92.38747013749341
 20
-110.7935817865377
 30
0.0
 10
92.38747013749341
 20
-111.1131143927946
 30
0.0
 10
92.42571069737969
 20
-111.4219672030473
 30
0.0
 10
92.70407441258787
 20
-111.4219672030473
 30
0.0
 10
92.96831323630654
 20
-111.4219672030473
 30
0.0
 10
93.02033417813381
 20
-111.1405029019024
 30
0.0
 10
93.02033417813381
 20
-110.7935817865377
 30
0.0
 10
93.02033417813381
 20
-110.4742214350551
 30
0.0
 10
92.97968205140786
 20
-110.1653686248024
 30
0.0
 10
92.70407441258787
 20
-110.1653686248024
 30
0.0
  0
HATCH
  5
EC
330
D1
100
AcDbEntity
  8
_U+30EC_U+30A4_U+30E4_U+30FC 1
 62
   179
420
  2234388
100
AcDbHatch
 10
0.0
 20
0.0
 30
0.0
210
0.0
220
0.0
230
1.0
  2
SOLID
 70
     1
 71
     0
 91
        2
 92
        1
 93
        1
 72
     4
 94
        3
 73
     0
 74
     1
 95
       29
 96
       25
 40
0.0
 40
0.0
 40
0.0
 40
0.0
 40
1.0
 40
1.0
 40
1.0
 40
2.0
 40
2.0
 40
2.0
 40
3.0
 40
3.0
 40
3.0
 40
4.0
 40
4.0
 40
4.0
 40
5.0
 40
5.0
 40
5.0
 40
6.0
 40
6.0
 40
6.0
 40
7.0
 40
7.0
 40
7.0
 40
8.0
 40
8.0
 40
8.0
 40
8.0
 10
93.12885468591918
 20
-111.3880330125176
 10
93.01344398716331
 20
-111.5974948180208
 10
92.82809785005686
 20
-111.6166150979639
 10
92.70407441258787
 20
-111.6166150979639
 10
92.53216414787391
 20
-111.6166150979639
 10
92.38057994652291
 20
-111.570106308913
 10
92.27894962970804
 20
-111.3880330125176
 10
92.168017555083
 20
-111.193385117601
 10
92.14769149172002
 20
-110.95653480299
 10
92.14769149172002
 20
-110.7935817865377
 10
92.14769149172002
 20
-110.6497490500285
 10
92.16595049779185
 20
-110.398084824831
 10
92.27894962970804
 20
-110.1991305605579
 10
92.39436032846392
 20
-109.9960421817024
 10
92.56592608362935
 20
-109.9727877871769
 10
92.70407441258787
 20
-109.9727877871769
 10
92.87357311046216
 20
-109.9727877871769
 10
93.0272243691043
 20
-110.0172295189367
 10
93.12885468591918
 20
-110.1991305605579
 10
93.2353081364134
 20
-110.3917113981833
 10
93.26011282390719
 20
-110.6201212288554
 10
93.26011282390719
 20
-110.7935817865377
 10
93.26011282390719
 20
-110.9649752869289
 10
93.23737519370455
 20
-111.1956244296664
 10
93.12885468591918
 20
-111.3880330125176
 97
        0
 97
        0
 92
        1
 93
        1
 72
     4
 94
        3
 73
     0
 74
     1
 95
       17
 96
       13
 40
0.0
 40
0.0
 40
0.0
 40
0.0
 40
1.0
 40
1.0
 40
1.0
 40
2.0
 40
2.0
 40
2.0
 40
3.0
 40
3.0
 40
3.0
 40
4.0
 40
4.0
 40
4.0
 40
4.0
 10
92.70407441258787
 20
-110.1653686248024
 10
92.437079512481
 20
-110.1653686248024
 10
92.38747013749341
 20
-110.4488999832385
 10
92.38747013749341
 20
-110.7935817865377
 10
92.38747013749341
 20
-111.1131143927946
 10
92.42571069737969
 20
-111.4219672030473
 10
92.70407441258787
 20
-111.4219672030473
 10
92.96831323630654
 20
-111.4219672030473
 10
93.02033417813381
 20
-111.1405029019024
 10
93.02033417813381
 20
-110.7935817865377
 10
93.02033417813381
 20
-110.4742214350551
 10
92.97968205140786
 20
-110.1653686248024
 10
92.70407441258787
 20
-110.1653686248024
 97
        0
 97
        0
 75
     2
 76
     1
 98
        0
  0
ENDBLK
  5
D4
330
D1
100
AcDbEntity
  8
0
100
AcDbBlockEnd
  0
BLOCK
  5
EF
330
ED
100
AcDbEntity
  8
0
100
AcDbBlockBegin
  2
block 9
 70
     0
 10
0.0
 20
0.0
 30
0.0
  3
block 9
  1

  0
POLYLINE
  5
F1
330
ED
100
AcDbEntity
  8
_U+30EC_U+30A4_U+30E4_U+30FC 1
 62
   179
420
  2234388
370
     9
100
AcDb2dPolyline
 66
     1
 10
0.0
 20
0.0
 30
0.0
  0
VERTEX
  5
F2
330
F1
100
AcDbEntity
  8
_U+30EC_U+30A4_U+30E4_U+30FC 1
 62
   179
420
  2234388
370
     9
100
AcDbVertex
100
AcDb2dVertex
 10
72.07588482785765
 20
-147.711230518628
 30
0.0
  0
VERTEX
  5
F3
330
F1
100
AcDbEntity
  8
_U+30EC_U+30A4_U+30E4_U+30FC 1
 62
   179
420
  2234388
370
     9
100
AcDbVertex
100
AcDb2dVertex
 10
82.07628790605945
 20
-147.711230518628
 30
0.0
  0
SEQEND
  5
F4
330
F1
100
AcDbEntity
  8
_U+30EC_U+30A4_U+30E4_U+30FC 1
 62
   179
420
  2234388
370
     9
  0
POLYLINE
  5
F5
330
ED
100
AcDbEntity
  8
_U+30EC_U+30A4_U+30E4_U+30FC 1
 62
   179
420
  2234388
370
     9
100
AcDb2dPolyline
 66
     1
 10
0.0
 20
0.0
 30
0.0
  0
VERTEX
  5
F6
330
F5
100
AcDbEntity
  8
_U+30EC_U+30A4_U+30E4_U+30FC 1
 62
   179
420
  2234388
370
     9
100
AcDbVertex
100
AcDb2dVertex
 10
72.07588482785765
 20
-146.2511891301037
 30
0.0
  0
VERTEX
  5
F7
330
F5
100
AcDbEntity
  8
_U+30EC_U+30A4_U+30E4_U+30FC 1
 62
   179
420
  2234388
370
     9
100
AcDbVertex
100
AcDb2dVertex
 10
72.07588482785765
 20
-148.7116730183779
 30
0.0
  0
SEQEND
  5
F8
330
F5
100
AcDbEntity
  8
_U+30EC_U+30A4_U+30E4_U+30FC 1
 62
   179
420
  2234388
370
     9
  0
POLYLINE
  5
F9
330
ED
100
AcDbEntity
  8
_U+30EC_U+30A4_U+30E4_U+30FC 1
 62
   179
420
  2234388
370
     9
100
AcDb2dPolyline
 66
     1
 10
0.0
 20
0.0
 30
0.0
  0
VERTEX
  5
FA
330
F9
100
AcDbEntity
  8
_U+30EC_U+30A4_U+30E4_U+30FC 1
 62
   179
420
  2234388
370
     9
100
AcDbVertex
100
AcDb2dVertex
 10
82.07628790605945
 20
-146.2511891301037
 30
0.0
  0
VERTEX
  5
FB
330
F9
100
AcDbEntity
  8
_U+30EC_U+30A4_U+30E4_U+30FC 1
 62
   179
420
  2234388
370
     9
100
AcDbVertex
100
AcDb2dVertex
 10
82.07628790605945
 20
-148.7116730183779
 30
0.0
  0
SEQEND
  5
FC
330
F9
100
AcDbEntity
  8
_U+30EC_U+30A4_U+30E4_U+30FC 1
 62
   179
420
  2234388
370
     9
  0
INSERT
  5
FE
330
ED
100
AcDbEntity
  8
_U+30EC_U+30A4_U+30E4_U+30FC 1
100
AcDbBlockReference
  2
block 10
 10
0.0
 20
0.0
 30
0.0
  0
ENDBLK
  5
F0
330
ED
100
AcDbEntity
  8
0
100
AcDbBlockEnd
  0
BLOCK
  5
FF
330
FD
100
AcDbEntity
  8
0
100
AcDbBlockBegin
  2
block 10
 70
     0
 10
0.0
 20
0.0
 30
0.0
  3
block 10
  1

  0
SPLINE
  5
101
330
FD
100
AcDbEntity
  8
_U+30EC_U+30A4_U+30E4_U+30FC 1
370
     0
100
AcDbSpline
210
0.0
220
0.0
230
1.0
 70
    11
 71
     3
 72
    26
 73
    22
 74
     0
 42
0.0000000001
 43
0.0000000001
 12
1.0
 22
0.0
 32
0.0
 13
1.0
 23
0.0
 33
0.0
 40
0.0
 40
0.0
 40
0.0
 40
0.0
 40
1.0
 40
1.0
 40
1.0
 40
2.0
 40
2.0
 40
2.0
 40
3.0
 40
3.0
 40
3.0
 40
4.0
 40
4.0
 40
4.0
 40
5.0
 40
5.0
 40
5.0
 40
6.0
 40
6.0
 40
6.0
 40
7.0
 40
7.0
 40
7.0
 40
7.0
 10
76.39447562109235
 20
-147.0656141125392
 30
0.0
 10
76.39447562109235
 20
-147.0656141125392
 30
0.0
 10
76.39447562109235
 20
-145.9611164999681
 30
0.0
 10
76.39447562109235
 20
-145.9611164999681
 30
0.0
 10
76.39447562109235
 20
-145.9611164999681
 30
0.0
 10
76.04169784340277
 20
-145.9611164999681
 30
0.0
 10
76.04169784340277
 20
-145.9611164999681
 30
0.0
 10
76.04169784340277
 20
-145.9611164999681
 30
0.0
 10
76.04169784340277
 20
-145.8129773941023
 30
0.0
 10
76.04169784340277
 20
-145.8129773941023
 30
0.0
 10
76.39671493315777
 20
-145.7985079930643
 30
0.0
 10
76.44649656291963
 20
-145.6352104670634
 30
0.0
 10
76.47801918660967
 20
-145.5208332969531
 30
0.0
 10
76.47801918660967
 20
-145.5208332969531
 30
0.0
 10
76.63408201209148
 20
-145.5208332969531
 30
0.0
 10
76.63408201209148
 20
-145.5208332969531
 30
0.0
 10
76.63408201209148
 20
-145.5208332969531
 30
0.0
 10
76.63408201209148
 20
-147.0656141125392
 30
0.0
 10
76.63408201209148
 20
-147.0656141125392
 30
0.0
 10
76.63408201209148
 20
-147.0656141125392
 30
0.0
 10
76.39447562109235
 20
-147.0656141125392
 30
0.0
 10
76.39447562109235
 20
-147.0656141125392
 30
0.0
  0
HATCH
  5
102
330
FD
100
AcDbEntity
  8
_U+30EC_U+30A4_U+30E4_U+30FC 1
 62
   179
420
  2234388
100
AcDbHatch
 10
0.0
 20
0.0
 30
0.0
210
0.0
220
0.0
230
1.0
  2
SOLID
 70
     1
 71
     0
 91
        1
 92
        1
 93
        1
 72
     4
 94
        3
 73
     0
 74
     1
 95
       26
 96
       22
 40
0.0
 40
0.0
 40
0.0
 40
0.0
 40
1.0
 40
1.0
 40
1.0
 40
2.0
 40
2.0
 40
2.0
 40
3.0
 40
3.0
 40
3.0
 40
4.0
 40
4.0
 40
4.0
 40
5.0
 40
5.0
 40
5.0
 40
6.0
 40
6.0
 40
6.0
 40
7.0
 40
7.0
 40
7.0
 40
7.0
 10
76.39447562109235
 20
-147.0656141125392
 10
76.39447562109235
 20
-147.0656141125392
 10
76.39447562109235
 20
-145.9611164999681
 10
76.39447562109235
 20
-145.9611164999681
 10
76.39447562109235
 20
-145.9611164999681
 10
76.04169784340277
 20
-145.9611164999681
 10
76.04169784340277
 20
-145.9611164999681
 10
76.04169784340277
 20
-145.9611164999681
 10
76.04169784340277
 20
-145.8129773941023
 10
76.04169784340277
 20
-145.8129773941023
 10
76.39671493315777
 20
-145.7985079930643
 10
76.44649656291963
 20
-145.6352104670634
 10
76.47801918660967
 20
-145.5208332969531
 10
76.47801918660967
 20
-145.5208332969531
 10
76.63408201209148
 20
-145.5208332969531
 10
76.63408201209148
 20
-145.5208332969531
 10
76.63408201209148
 20
-145.5208332969531
 10
76.63408201209148
 20
-147.0656141125392
 10
76.63408201209148
 20
-147.0656141125392
 10
76.63408201209148
 20
-147.0656141125392
 10
76.39447562109235
 20
-147.0656141125392
 10
76.39447562109235
 20
-147.0656141125392
 97
        0
 97
        0
 75
     2
 76
     1
 98
        0
  0
SPLINE
  5
103
330
FD
100
AcDbEntity
  8
_U+30EC_U+30A4_U+30E4_U+30FC 1
370
     0
100
AcDbSpline
210
0.0
220
0.0
230
1.0
 70
    11
 71
     3
 72
    29
 73
    25
 74
     0
 42
0.0000000001
 43
0.0000000001
 12
1.0
 22
0.0
 32
0.0
 13
1.0
 23
0.0
 33
0.0
 40
0.0
 40
0.0
 40
0.0
 40
0.0
 40
1.0
 40
1.0
 40
1.0
 40
2.0
 40
2.0
 40
2.0
 40
3.0
 40
3.0
 40
3.0
 40
4.0
 40
4.0
 40
4.0
 40
5.0
 40
5.0
 40
5.0
 40
6.0
 40
6.0
 40
6.0
 40
7.0
 40
7.0
 40
7.0
 40
8.0
 40
8.0
 40
8.0
 40
8.0
 10
78.12925345268991
 20
-146.8878471855003
 30
0.0
 10
78.0140150087083
 20
-147.0973089910034
 30
0.0
 10
77.82866887160186
 20
-147.1159125066238
 30
0.0
 10
77.70430092458435
 20
-147.1159125066238
 30
0.0
 10
77.53239065987037
 20
-147.1159125066238
 30
0.0
 10
77.38097871329364
 20
-147.0697482271215
 30
0.0
 10
77.27917614170451
 20
-146.8878471855003
 30
0.0
 10
77.16841632185373
 20
-146.6928547810351
 30
0.0
 10
77.14809025849075
 20
-146.4558322116499
 30
0.0
 10
77.14809025849075
 20
-146.2932237047461
 30
0.0
 10
77.14809025849075
 20
-146.1492187134627
 30
0.0
 10
77.16617700978831
 20
-145.8977267430395
 30
0.0
 10
77.27917614170451
 20
-145.698600223992
 30
0.0
 10
77.39458684046039
 20
-145.4960286094593
 30
0.0
 10
77.5663248504001
 20
-145.4726019601596
 30
0.0
 10
77.70430092458435
 20
-145.4726019601596
 30
0.0
 10
77.87379962245863
 20
-145.4726019601596
 30
0.0
 10
78.02762313587505
 20
-145.5166991823708
 30
0.0
 10
78.12925345268991
 20
-145.698600223992
 30
0.0
 10
78.23553464840987
 20
-145.891525571166
 30
0.0
 10
78.26051159067794
 20
-146.1195908922896
 30
0.0
 10
78.26051159067794
 20
-146.2932237047461
 30
0.0
 10
78.26051159067794
 20
-146.4647894599116
 30
0.0
 10
78.23777396047528
 20
-146.6949218383263
 30
0.0
 10
78.12925345268991
 20
-146.8878471855003
 30
0.0
  0
SPLINE
  5
104
330
FD
100
AcDbEntity
  8
_U+30EC_U+30A4_U+30E4_U+30FC 1
370
     0
100
AcDbSpline
210
0.0
220
0.0
230
1.0
 70
    11
 71
     3
 72
    17
 73
    13
 74
     0
 42
0.0000000001
 43
0.0000000001
 12
1.0
 22
0.0
 32
0.0
 13
1.0
 23
0.0
 33
0.0
 40
0.0
 40
0.0
 40
0.0
 40
0.0
 40
1.0
 40
1.0
 40
1.0
 40
2.0
 40
2.0
 40
2.0
 40
3.0
 40
3.0
 40
3.0
 40
4.0
 40
4.0
 40
4.0
 40
4.0
 10
77.70430092458435
 20
-145.6648382882366
 30
0.0
 10
77.43747827925175
 20
-145.6648382882366
 30
0.0
 10
77.38769664948988
 20
-145.9487141562212
 30
0.0
 10
77.38769664948988
 20
-146.2932237047461
 30
0.0
 10
77.38769664948988
 20
-146.6129285657773
 30
0.0
 10
77.42610946415041
 20
-146.9216091212557
 30
0.0
 10
77.70430092458435
 20
-146.9216091212557
 30
0.0
 10
77.96871200307727
 20
-146.9216091212557
 30
0.0
 10
78.02073294490454
 20
-146.6404893296593
 30
0.0
 10
78.02073294490454
 20
-146.2932237047461
 30
0.0
 10
78.02073294490454
 20
-145.973518843715
 30
0.0
 10
77.98008081817859
 20
-145.6648382882366
 30
0.0
 10
77.70430092458435
 20
-145.6648382882366
 30
0.0
  0
HATCH
  5
105
330
FD
100
AcDbEntity
  8
_U+30EC_U+30A4_U+30E4_U+30FC 1
 62
   179
420
  2234388
100
AcDbHatch
 10
0.0
 20
0.0
 30
0.0
210
0.0
220
0.0
230
1.0
  2
SOLID
 70
     1
 71
     0
 91
        2
 92
        1
 93
        1
 72
     4
 94
        3
 73
     0
 74
     1
 95
       29
 96
       25
 40
0.0
 40
0.0
 40
0.0
 40
0.0
 40
1.0
 40
1.0
 40
1.0
 40
2.0
 40
2.0
 40
2.0
 40
3.0
 40
3.0
 40
3.0
 40
4.0
 40
4.0
 40
4.0
 40
5.0
 40
5.0
 40
5.0
 40
6.0
 40
6.0
 40
6.0
 40
7.0
 40
7.0
 40
7.0
 40
8.0
 40
8.0
 40
8.0
 40
8.0
 10
78.12925345268991
 20
-146.8878471855003
 10
78.0140150087083
 20
-147.0973089910034
 10
77.82866887160186
 20
-147.1159125066238
 10
77.70430092458435
 20
-147.1159125066238
 10
77.53239065987037
 20
-147.1159125066238
 10
77.38097871329364
 20
-147.0697482271215
 10
77.27917614170451
 20
-146.8878471855003
 10
77.16841632185373
 20
-146.6928547810351
 10
77.14809025849075
 20
-146.4558322116499
 10
77.14809025849075
 20
-146.2932237047461
 10
77.14809025849075
 20
-146.1492187134627
 10
77.16617700978831
 20
-145.8977267430395
 10
77.27917614170451
 20
-145.698600223992
 10
77.39458684046039
 20
-145.4960286094593
 10
77.5663248504001
 20
-145.4726019601596
 10
77.70430092458435
 20
-145.4726019601596
 10
77.87379962245863
 20
-145.4726019601596
 10
78.02762313587505
 20
-145.5166991823708
 10
78.12925345268991
 20
-145.698600223992
 10
78.23553464840987
 20
-145.891525571166
 10
78.26051159067794
 20
-146.1195908922896
 10
78.26051159067794
 20
-146.2932237047461
 10
78.26051159067794
 20
-146.4647894599116
 10
78.23777396047528
 20
-146.6949218383263
 10
78.12925345268991
 20
-146.8878471855003
 97
        0
 97
        0
 92
        1
 93
        1
 72
     4
 94
        3
 73
     0
 74
     1
 95
       17
 96
       13
 40
0.0
 40
0.0
 40
0.0
 40
0.0
 40
1.0
 40
1.0
 40
1.0
 40
2.0
 40
2.0
 40
2.0
 40
3.0
 40
3.0
 40
3.0
 40
4.0
 40
4.0
 40
4.0
 40
4.0
 10
77.70430092458435
 20
-145.6648382882366
 10
77.43747827925175
 20
-145.6648382882366
 10
77.38769664948988
 20
-145.9487141562212
 10
77.38769664948988
 20
-146.2932237047461
 10
77.38769664948988
 20
-146.6129285657773
 10
77.42610946415041
 20
-146.9216091212557
 10
77.70430092458435
 20
-146.9216091212557
 10
77.96871200307727
 20
-146.9216091212557
 10
78.02073294490454
 20
-146.6404893296593
 10
78.02073294490454
 20
-146.2932237047461
 10
78.02073294490454
 20
-145.973518843715
 10
77.98008081817859
 20
-145.6648382882366
 10
77.70430092458435
 20
-145.6648382882366
 97
        0
 97
        0
 75
     2
 76
     1
 98
        0
  0
ENDBLK
  5
100
330
FD
100
AcDbEntity
  8
0
100
AcDbBlockEnd
  0
BLOCK
  5
108
330
106
100
AcDbEntity
  8
0
100
AcDbBlockBegin
  2
block 11
 70
     0
 10
0.0
 20
0.0
 30
0.0
  3
block 11
  1

  0
POLYLINE
  5
10A
330
106
100
AcDbEntity
  8
_U+30EC_U+30A4_U+30E4_U+30FC 1
 62
   179
420
  2234388
370
     9
100
AcDb2dPolyline
 66
     1
 10
0.0
 20
0.0
 30
0.0
  0
VERTEX
  5
10B
330
10A
100
AcDbEntity
  8
_U+30EC_U+30A4_U+30E4_U+30FC 1
 62
   179
420
  2234388
370
     9
100
AcDbVertex
100
AcDb2dVertex
 10
68.07612576323334
 20
-120.2114266366139
 30
0.0
  0
VERTEX
  5
10C
330
10A
100
AcDbEntity
  8
_U+30EC_U+30A4_U+30E4_U+30FC 1
 62
   179
420
  2234388
370
     9
100
AcDbVertex
100
AcDb2dVertex
 10
68.07612576323334
 20
-143.7114713529611
 30
0.0
  0
SEQEND
  5
10D
330
10A
100
AcDbEntity
  8
_U+30EC_U+30A4_U+30E4_U+30FC 1
 62
   179
420
  2234388
370
     9
  0
POLYLINE
  5
10E
330
106
100
AcDbEntity
  8
_U+30EC_U+30A4_U+30E4_U+30FC 1
 62
   179
420
  2234388
370
     9
100
AcDb2dPolyline
 66
     1
 10
0.0
 20
0.0
 30
0.0
  0
VERTEX
  5
10F
330
10E
100
AcDbEntity
  8
_U+30EC_U+30A4_U+30E4_U+30FC 1
 62
   179
420
  2234388
370
     9
100
AcDbVertex
100
AcDb2dVertex
 10
69.53616711487346
 20
-120.2114266366139
 30
0.0
  0
VERTEX
  5
110
330
10E
100
AcDbEntity
  8
_U+30EC_U+30A4_U+30E4_U+30FC 1
 62
   179
420
  2234388
370
     9
100
AcDbVertex
100
AcDb2dVertex
 10
67.07600078874866
 20
-120.2114266366139
 30
0.0
  0
SEQEND
  5
111
330
10E
100
AcDbEntity
  8
_U+30EC_U+30A4_U+30E4_U+30FC 1
 62
   179
420
  2234388
370
     9
  0
POLYLINE
  5
112
330
106
100
AcDbEntity
  8
_U+30EC_U+30A4_U+30E4_U+30FC 1
 62
   179
420
  2234388
370
     9
100
AcDb2dPolyline
 66
     1
 10
0.0
 20
0.0
 30
0.0
  0
VERTEX
  5
113
330
112
100
AcDbEntity
  8
_U+30EC_U+30A4_U+30E4_U+30FC 1
 62
   179
420
  2234388
370
     9
100
AcDbVertex
100
AcDb2dVertex
 10
69.53616711487346
 20
-143.7114713529611
 30
0.0
  0
VERTEX
  5
114
330
112
100
AcDbEntity
  8
_U+30EC_U+30A4_U+30E4_U+30FC 1
 62
   179
420
  2234388
370
     9
100
AcDbVertex
100
AcDb2dVertex
 10
67.07600078874866
 20
-143.7114713529611
 30
0.0
  0
SEQEND
  5
115
330
112
100
AcDbEntity
  8
_U+30EC_U+30A4_U+30E4_U+30FC 1
 62
   179
420
  2234388
370
     9
  0
INSERT
  5
117
330
106
100
AcDbEntity
  8
_U+30EC_U+30A4_U+30E4_U+30FC 1
100
AcDbBlockReference
  2
block 12
 10
0.0
 20
0.0
 30
0.0
  0
ENDBLK
  5
109
330
106
100
AcDbEntity
  8
0
100
AcDbBlockEnd
  0
BLOCK
  5
118
330
116
100
AcDbEntity
  8
0
100
AcDbBlockBegin
  2
block 12
 70
     0
 10
0.0
 20
0.0
 30
0.0
  3
block 12
  1

  0
SPLINE
  5
11A
330
116
100
AcDbEntity
  8
_U+30EC_U+30A4_U+30E4_U+30FC 1
370
     0
100
AcDbSpline
210
0.0
220
0.0
230
1.0
 70
    11
 71
     3
 72
    44
 73
    40
 74
     0
 42
0.0000000001
 43
0.0000000001
 12
1.0
 22
0.0
 32
0.0
 13
1.0
 23
0.0
 33
0.0
 40
0.0
 40
0.0
 40
0.0
 40
0.0
 40
1.0
 40
1.0
 40
1.0
 40
2.0
 40
2.0
 40
2.0
 40
3.0
 40
3.0
 40
3.0
 40
4.0
 40
4.0
 40
4.0
 40
5.0
 40
5.0
 40
5.0
 40
6.0
 40
6.0
 40
6.0
 40
7.0
 40
7.0
 40
7.0
 40
8.0
 40
8.0
 40
8.0
 40
9.0
 40
9.0
 40
9.0
 40
10.0
 40
10.0
 40
10.0
 40
11.0
 40
11.0
 40
11.0
 40
12.0
 40
12.0
 40
12.0
 40
13.0
 40
13.0
 40
13.0
 40
13.0
 10
66.84759926714227
 20
-133.6638481653688
 30
0.0
 10
67.00641816901229
 20
-133.8967366201717
 30
0.0
 10
67.08048772194516
 20
-133.9962998796954
 30
0.0
 10
67.22414820368007
 20
-134.0479763119741
 30
0.0
 10
67.22414820368007
 20
-134.0479763119741
 30
0.0
 10
67.22414820368007
 20
-133.2163302618348
 30
0.0
 10
67.22414820368007
 20
-133.2163302618348
 30
0.0
 10
67.22414820368007
 20
-133.2163302618348
 30
0.0
 10
67.42947589460097
 20
-133.2163302618348
 30
0.0
 10
67.42947589460097
 20
-133.2163302618348
 30
0.0
 10
67.42947589460097
 20
-133.2163302618348
 30
0.0
 10
67.42947589460097
 20
-134.314971212081
 30
0.0
 10
67.42947589460097
 20
-134.314971212081
 30
0.0
 10
67.07187498323204
 20
-134.280864766777
 30
0.0
 10
66.99367131571687
 20
-134.2109293284264
 30
0.0
 10
66.69532604669423
 20
-133.7995849274876
 30
0.0
 10
66.4965440371953
 20
-133.5260443459588
 30
0.0
 10
66.4286756561359
 20
-133.4557643980597
 30
0.0
 10
66.29121634627442
 20
-133.4557643980597
 30
0.0
 10
66.17270506158182
 20
-133.4557643980597
 30
0.0
 10
66.04179143314234
 20
-133.5325900273807
 30
0.0
 10
66.04179143314234
 20
-133.7430853615295
 30
0.0
 10
66.04179143314234
 20
-134.0211045671892
 30
0.0
 10
66.27226832110554
 20
-134.0300618154508
 30
0.0
 10
66.38871254850699
 20
-134.0345404395817
 30
0.0
 10
66.38871254850699
 20
-134.0345404395817
 30
0.0
 10
66.38871254850699
 20
-134.274319085355
 30
0.0
 10
66.38871254850699
 20
-134.274319085355
 30
0.0
 10
66.26158852510127
 20
-134.2650173275449
 30
0.0
 10
66.14962292183066
 20
-134.2539930219921
 30
0.0
 10
66.03111163713805
 20
-134.1678656348608
 30
0.0
 10
65.87022567797689
 20
-134.0503878788138
 30
0.0
 10
65.83646374222144
 20
-133.8516058693149
 30
0.0
 10
65.83646374222144
 20
-133.7272379222974
 30
0.0
 10
65.83646374222144
 20
-133.4309597105659
 30
0.0
 10
66.02043184113379
 20
-133.2094400708643
 30
0.0
 10
66.29328340356557
 20
-133.2094400708643
 30
0.0
 10
66.52203774378616
 20
-133.2094400708643
 30
0.0
 10
66.62125649376135
 20
-133.3338080178818
 30
0.0
 10
66.84759926714227
 20
-133.6638481653688
 30
0.0
  0
HATCH
  5
11B
330
116
100
AcDbEntity
  8
_U+30EC_U+30A4_U+30E4_U+30FC 1
 62
   179
420
  2234388
100
AcDbHatch
 10
0.0
 20
0.0
 30
0.0
210
0.0
220
0.0
230
1.0
  2
SOLID
 70
     1
 71
     0
 91
        1
 92
        1
 93
        1
 72
     4
 94
        3
 73
     0
 74
     1
 95
       44
 96
       40
 40
0.0
 40
0.0
 40
0.0
 40
0.0
 40
1.0
 40
1.0
 40
1.0
 40
2.0
 40
2.0
 40
2.0
 40
3.0
 40
3.0
 40
3.0
 40
4.0
 40
4.0
 40
4.0
 40
5.0
 40
5.0
 40
5.0
 40
6.0
 40
6.0
 40
6.0
 40
7.0
 40
7.0
 40
7.0
 40
8.0
 40
8.0
 40
8.0
 40
9.0
 40
9.0
 40
9.0
 40
10.0
 40
10.0
 40
10.0
 40
11.0
 40
11.0
 40
11.0
 40
12.0
 40
12.0
 40
12.0
 40
13.0
 40
13.0
 40
13.0
 40
13.0
 10
66.84759926714227
 20
-133.6638481653688
 10
67.00641816901229
 20
-133.8967366201717
 10
67.08048772194516
 20
-133.9962998796954
 10
67.22414820368007
 20
-134.0479763119741
 10
67.22414820368007
 20
-134.0479763119741
 10
67.22414820368007
 20
-133.2163302618348
 10
67.22414820368007
 20
-133.2163302618348
 10
67.22414820368007
 20
-133.2163302618348
 10
67.42947589460097
 20
-133.2163302618348
 10
67.42947589460097
 20
-133.2163302618348
 10
67.42947589460097
 20
-133.2163302618348
 10
67.42947589460097
 20
-134.314971212081
 10
67.42947589460097
 20
-134.314971212081
 10
67.07187498323204
 20
-134.280864766777
 10
66.99367131571687
 20
-134.2109293284264
 10
66.69532604669423
 20
-133.7995849274876
 10
66.4965440371953
 20
-133.5260443459588
 10
66.4286756561359
 20
-133.4557643980597
 10
66.29121634627442
 20
-133.4557643980597
 10
66.17270506158182
 20
-133.4557643980597
 10
66.04179143314234
 20
-133.5325900273807
 10
66.04179143314234
 20
-133.7430853615295
 10
66.04179143314234
 20
-134.0211045671892
 10
66.27226832110554
 20
-134.0300618154508
 10
66.38871254850699
 20
-134.0345404395817
 10
66.38871254850699
 20
-134.0345404395817
 10
66.38871254850699
 20
-134.274319085355
 10
66.38871254850699
 20
-134.274319085355
 10
66.26158852510127
 20
-134.2650173275449
 10
66.14962292183066
 20
-134.2539930219921
 10
66.03111163713805
 20
-134.1678656348608
 10
65.87022567797689
 20
-134.0503878788138
 10
65.83646374222144
 20
-133.8516058693149
 10
65.83646374222144
 20
-133.7272379222974
 10
65.83646374222144
 20
-133.4309597105659
 10
66.02043184113379
 20
-133.2094400708643
 10
66.29328340356557
 20
-133.2094400708643
 10
66.52203774378616
 20
-133.2094400708643
 10
66.62125649376135
 20
-133.3338080178818
 10
66.84759926714227
 20
-133.6638481653688
 97
        0
 97
        0
 75
     2
 76
     1
 98
        0
  0
SPLINE
  5
11C
330
116
100
AcDbEntity
  8
_U+30EC_U+30A4_U+30E4_U+30FC 1
370
     0
100
AcDbSpline
210
0.0
220
0.0
230
1.0
 70
    11
 71
     3
 72
    62
 73
    58
 74
     0
 42
0.0000000001
 43
0.0000000001
 12
1.0
 22
0.0
 32
0.0
 13
1.0
 23
0.0
 33
0.0
 40
0.0
 40
0.0
 40
0.0
 40
0.0
 40
1.0
 40
1.0
 40
1.0
 40
2.0
 40
2.0
 40
2.0
 40
3.0
 40
3.0
 40
3.0
 40
4.0
 40
4.0
 40
4.0
 40
5.0
 40
5.0
 40
5.0
 40
6.0
 40
6.0
 40
6.0
 40
7.0
 40
7.0
 40
7.0
 40
8.0
 40
8.0
 40
8.0
 40
9.0
 40
9.0
 40
9.0
 40
10.0
 40
10.0
 40
10.0
 40
11.0
 40
11.0
 40
11.0
 40
12.0
 40
12.0
 40
12.0
 40
13.0
 40
13.0
 40
13.0
 40
14.0
 40
14.0
 40
14.0
 40
15.0
 40
15.0
 40
15.0
 40
16.0
 40
16.0
 40
16.0
 40
17.0
 40
17.0
 40
17.0
 40
18.0
 40
18.0
 40
18.0
 40
19.0
 40
19.0
 40
19.0
 40
19.0
 10
67.48011879823414
 20
-132.5145643114894
 30
0.0
 10
67.48011879823414
 20
-132.6161946283043
 30
0.0
 10
67.45910371577412
 20
-132.8490830831072
 30
0.0
 10
67.27306855957063
 20
-132.9824082783863
 30
0.0
 10
67.16075844675149
 20
-133.0616454745471
 30
0.0
 10
67.06153969677628
 20
-133.0661240986779
 30
0.0
 10
66.97679034783914
 20
-133.0706027228088
 30
0.0
 10
66.97679034783914
 20
-133.0706027228088
 30
0.0
 10
66.97679034783914
 20
-132.8356472107147
 30
0.0
 10
66.97679034783914
 20
-132.8356472107147
 30
0.0
 10
67.05085990077201
 20
-132.833235643875
 30
0.0
 10
67.28547090331753
 20
-132.8218668287737
 30
0.0
 10
67.28547090331753
 20
-132.5190429356202
 30
0.0
 10
67.28547090331753
 20
-132.3719373584001
 30
0.0
 10
67.21587997451547
 20
-132.2093288514963
 30
0.0
 10
66.98747014384341
 20
-132.2093288514963
 30
0.0
 10
66.87102591644197
 20
-132.2093288514963
 30
0.0
 10
66.82245007009995
 20
-132.2499809782222
 30
0.0
 10
66.79075519163565
 20
-132.2840874235262
 30
0.0
 10
66.71668563870277
 20
-132.3629801101384
 30
0.0
 10
66.70393878540735
 20
-132.4873480571559
 30
0.0
 10
66.70393878540735
 20
-132.5462591899537
 30
0.0
 10
66.70393878540735
 20
-132.5665852533167
 30
0.0
 10
66.7060058426985
 20
-132.604825813203
 30
0.0
 10
66.7101399572808
 20
-132.6344536343761
 30
0.0
 10
66.7101399572808
 20
-132.6344536343761
 30
0.0
 10
66.51549206236419
 20
-132.6344536343761
 30
0.0
 10
66.51549206236419
 20
-132.6344536343761
 30
0.0
 10
66.52203774378616
 20
-132.5938015076502
 30
0.0
 10
66.52410480107731
 20
-132.5483262472449
 30
0.0
 10
66.52410480107731
 20
-132.5417805658229
 30
0.0
 10
66.52410480107731
 20
-132.4715006179238
 30
0.0
 10
66.50274520906876
 20
-132.2589382264839
 30
0.0
 10
66.2660671492321
 20
-132.2589382264839
 30
0.0
 10
66.08830022219321
 20
-132.2589382264839
 30
0.0
 10
66.03317869442921
 20
-132.3991536127336
 30
0.0
 10
66.03317869442921
 20
-132.5166313687806
 30
0.0
 10
66.03317869442921
 20
-132.7994737081196
 30
0.0
 10
66.2660671492321
 20
-132.8084309563812
 30
0.0
 10
66.3377251353253
 20
-132.8129095805121
 30
0.0
 10
66.3377251353253
 20
-132.8129095805121
 30
0.0
 10
66.3377251353253
 20
-133.0299505960828
 30
0.0
 10
66.3377251353253
 20
-133.0299505960828
 30
0.0
 10
66.21301267875926
 20
-133.0209933478211
 30
0.0
 10
65.83646374222144
 20
-132.9917100361965
 30
0.0
 10
65.83646374222144
 20
-132.5031954963881
 30
0.0
 10
65.83646374222144
 20
-132.2634168506147
 30
0.0
 10
65.96358776562717
 20
-132.005723708318
 30
0.0
 10
66.25952146781012
 20
-132.005723708318
 30
0.0
 10
66.44590113356215
 20
-132.005723708318
 30
0.0
 10
66.52823891565961
 20
-132.1076985346814
 30
0.0
 10
66.58956161529706
 20
-132.2138074756271
 30
0.0
 10
66.61712237917905
 20
-132.1483506614074
 30
0.0
 10
66.69739310398538
 20
-131.9537027664907
 30
0.0
 10
66.97472329054798
 20
-131.9537027664907
 30
0.0
 10
67.31303166719952
 20
-131.9537027664907
 30
0.0
 10
67.48011879823414
 20
-132.2182860997579
 30
0.0
 10
67.48011879823414
 20
-132.5145643114894
 30
0.0
  0
HATCH
  5
11D
330
116
100
AcDbEntity
  8
_U+30EC_U+30A4_U+30E4_U+30FC 1
 62
   179
420
  2234388
100
AcDbHatch
 10
0.0
 20
0.0
 30
0.0
210
0.0
220
0.0
230
1.0
  2
SOLID
 70
     1
 71
     0
 91
        1
 92
        1
 93
        1
 72
     4
 94
        3
 73
     0
 74
     1
 95
       62
 96
       58
 40
0.0
 40
0.0
 40
0.0
 40
0.0
 40
1.0
 40
1.0
 40
1.0
 40
2.0
 40
2.0
 40
2.0
 40
3.0
 40
3.0
 40
3.0
 40
4.0
 40
4.0
 40
4.0
 40
5.0
 40
5.0
 40
5.0
 40
6.0
 40
6.0
 40
6.0
 40
7.0
 40
7.0
 40
7.0
 40
8.0
 40
8.0
 40
8.0
 40
9.0
 40
9.0
 40
9.0
 40
10.0
 40
10.0
 40
10.0
 40
11.0
 40
11.0
 40
11.0
 40
12.0
 40
12.0
 40
12.0
 40
13.0
 40
13.0
 40
13.0
 40
14.0
 40
14.0
 40
14.0
 40
15.0
 40
15.0
 40
15.0
 40
16.0
 40
16.0
 40
16.0
 40
17.0
 40
17.0
 40
17.0
 40
18.0
 40
18.0
 40
18.0
 40
19.0
 40
19.0
 40
19.0
 40
19.0
 10
67.48011879823414
 20
-132.5145643114894
 10
67.48011879823414
 20
-132.6161946283043
 10
67.45910371577412
 20
-132.8490830831072
 10
67.27306855957063
 20
-132.9824082783863
 10
67.16075844675149
 20
-133.0616454745471
 10
67.06153969677628
 20
-133.0661240986779
 10
66.97679034783914
 20
-133.0706027228088
 10
66.97679034783914
 20
-133.0706027228088
 10
66.97679034783914
 20
-132.8356472107147
 10
66.97679034783914
 20
-132.8356472107147
 10
67.05085990077201
 20
-132.833235643875
 10
67.28547090331753
 20
-132.8218668287737
 10
67.28547090331753
 20
-132.5190429356202
 10
67.28547090331753
 20
-132.3719373584001
 10
67.21587997451547
 20
-132.2093288514963
 10
66.98747014384341
 20
-132.2093288514963
 10
66.87102591644197
 20
-132.2093288514963
 10
66.82245007009995
 20
-132.2499809782222
 10
66.79075519163565
 20
-132.2840874235262
 10
66.71668563870277
 20
-132.3629801101384
 10
66.70393878540735
 20
-132.4873480571559
 10
66.70393878540735
 20
-132.5462591899537
 10
66.70393878540735
 20
-132.5665852533167
 10
66.7060058426985
 20
-132.604825813203
 10
66.7101399572808
 20
-132.6344536343761
 10
66.7101399572808
 20
-132.6344536343761
 10
66.51549206236419
 20
-132.6344536343761
 10
66.51549206236419
 20
-132.6344536343761
 10
66.52203774378616
 20
-132.5938015076502
 10
66.52410480107731
 20
-132.5483262472449
 10
66.52410480107731
 20
-132.5417805658229
 10
66.52410480107731
 20
-132.4715006179238
 10
66.50274520906876
 20
-132.2589382264839
 10
66.2660671492321
 20
-132.2589382264839
 10
66.08830022219321
 20
-132.2589382264839
 10
66.03317869442921
 20
-132.3991536127336
 10
66.03317869442921
 20
-132.5166313687806
 10
66.03317869442921
 20
-132.7994737081196
 10
66.2660671492321
 20
-132.8084309563812
 10
66.3377251353253
 20
-132.8129095805121
 10
66.3377251353253
 20
-132.8129095805121
 10
66.3377251353253
 20
-133.0299505960828
 10
66.3377251353253
 20
-133.0299505960828
 10
66.21301267875926
 20
-133.0209933478211
 10
65.83646374222144
 20
-132.9917100361965
 10
65.83646374222144
 20
-132.5031954963881
 10
65.83646374222144
 20
-132.2634168506147
 10
65.96358776562717
 20
-132.005723708318
 10
66.25952146781012
 20
-132.005723708318
 10
66.44590113356215
 20
-132.005723708318
 10
66.52823891565961
 20
-132.1076985346814
 10
66.58956161529706
 20
-132.2138074756271
 10
66.61712237917905
 20
-132.1483506614074
 10
66.69739310398538
 20
-131.9537027664907
 10
66.97472329054798
 20
-131.9537027664907
 10
67.31303166719952
 20
-131.9537027664907
 10
67.48011879823414
 20
-132.2182860997579
 10
67.48011879823414
 20
-132.5145643114894
 97
        0
 97
        0
 75
     2
 76
     1
 98
        0
  0
POLYLINE
  5
11E
330
116
100
AcDbEntity
  8
_U+30EC_U+30A4_U+30E4_U+30FC 1
370
     0
100
AcDb2dPolyline
 66
     1
 10
0.0
 20
0.0
 30
0.0
  0
VERTEX
  5
11F
330
11E
100
AcDbEntity
  8
_U+30EC_U+30A4_U+30E4_U+30FC 1
370
     0
100
AcDbVertex
100
AcDb2dVertex
 10
67.42947589460097
 20
-131.7180582352997
 30
0.0
  0
VERTEX
  5
120
330
11E
100
AcDbEntity
  8
_U+30EC_U+30A4_U+30E4_U+30FC 1
370
     0
100
AcDbVertex
100
AcDb2dVertex
 10
67.1776394146292
 20
-131.7180582352997
 30
0.0
  0
VERTEX
  5
121
330
11E
100
AcDbEntity
  8
_U+30EC_U+30A4_U+30E4_U+30FC 1
370
     0
100
AcDbVertex
100
AcDb2dVertex
 10
67.1776394146292
 20
-131.4489962779016
 30
0.0
  0
VERTEX
  5
122
330
11E
100
AcDbEntity
  8
_U+30EC_U+30A4_U+30E4_U+30FC 1
370
     0
100
AcDbVertex
100
AcDb2dVertex
 10
67.42947589460097
 20
-131.4489962779016
 30
0.0
  0
VERTEX
  5
123
330
11E
100
AcDbEntity
  8
_U+30EC_U+30A4_U+30E4_U+30FC 1
370
     0
100
AcDbVertex
100
AcDb2dVertex
 10
67.42947589460097
 20
-131.7180582352997
 30
0.0
  0
SEQEND
  5
124
330
11E
100
AcDbEntity
  8
_U+30EC_U+30A4_U+30E4_U+30FC 1
370
     0
  0
HATCH
  5
125
330
116
100
AcDbEntity
  8
_U+30EC_U+30A4_U+30E4_U+30FC 1
 62
   179
420
  2234388
100
AcDbHatch
 10
0.0
 20
0.0
 30
0.0
210
0.0
220
0.0
230
1.0
  2
SOLID
 70
     1
 71
     0
 91
        1
 92
        1
 93
        4
 72
     1
 10
67.42947589460097
 20
-131.7180582352997
 11
67.1776394146292
 21
-131.7180582352997
 72
     1
 10
67.1776394146292
 20
-131.7180582352997
 11
67.1776394146292
 21
-131.4489962779016
 72
     1
 10
67.1776394146292
 20
-131.4489962779016
 11
67.42947589460097
 21
-131.4489962779016
 72
     1
 10
67.42947589460097
 20
-131.4489962779016
 11
67.42947589460097
 21
-131.7180582352997
 97
        0
 75
     2
 76
     1
 98
        0
  0
SPLINE
  5
126
330
116
100
AcDbEntity
  8
_U+30EC_U+30A4_U+30E4_U+30FC 1
370
     0
100
AcDbSpline
210
0.0
220
0.0
230
1.0
 70
    11
 71
     3
 72
    53
 73
    49
 74
     0
 42
0.0000000001
 43
0.0000000001
 12
1.0
 22
0.0
 32
0.0
 13
1.0
 23
0.0
 33
0.0
 40
0.0
 40
0.0
 40
0.0
 40
0.0
 40
1.0
 40
1.0
 40
1.0
 40
2.0
 40
2.0
 40
2.0
 40
3.0
 40
3.0
 40
3.0
 40
4.0
 40
4.0
 40
4.0
 40
5.0
 40
5.0
 40
5.0
 40
6.0
 40
6.0
 40
6.0
 40
7.0
 40
7.0
 40
7.0
 40
8.0
 40
8.0
 40
8.0
 40
9.0
 40
9.0
 40
9.0
 40
10.0
 40
10.0
 40
10.0
 40
11.0
 40
11.0
 40
11.0
 40
12.0
 40
12.0
 40
12.0
 40
13.0
 40
13.0
 40
13.0
 40
14.0
 40
14.0
 40
14.0
 40
15.0
 40
15.0
 40
15.0
 40
16.0
 40
16.0
 40
16.0
 40
16.0
 10
67.48011879823414
 20
-130.682118022885
 30
0.0
 10
67.48011879823414
 20
-130.7654893336281
 30
0.0
 10
67.46323783035642
 20
-130.874354350962
 30
0.0
 10
67.39984807342782
 20
-130.9825303491988
 30
0.0
 10
67.28994952744834
 20
-131.1682209958538
 30
0.0
 10
67.15869138946033
 20
-131.1906141165079
 30
0.0
 10
67.05085990077201
 20
-131.2109401798709
 30
0.0
 10
67.05085990077201
 20
-131.2109401798709
 30
0.0
 10
67.05085990077201
 20
-130.9735731009372
 30
0.0
 10
67.05085990077201
 20
-130.9735731009372
 30
0.0
 10
67.24964191027092
 20
-130.9150064776879
 30
0.0
 10
67.27926973144407
 20
-130.7792697155691
 30
0.0
 10
67.27926973144407
 20
-130.6797064560454
 30
0.0
 10
67.27926973144407
 20
-130.530533821534
 30
0.0
 10
67.17970647192035
 20
-130.3679253146302
 30
0.0
 10
66.94716252666599
 20
-130.3679253146302
 30
0.0
 10
66.69119193211193
 20
-130.3679253146302
 30
0.0
 10
66.62125649376135
 20
-130.5598171331587
 30
0.0
 10
66.62125649376135
 20
-130.688663704307
 30
0.0
 10
66.62125649376135
 20
-130.722770149611
 30
0.0
 10
66.62125649376135
 20
-130.874354350962
 30
0.0
 10
66.75044757445822
 20
-130.9690944768063
 30
0.0
 10
66.75044757445822
 20
-130.9690944768063
 30
0.0
 10
66.73149954928935
 20
-131.1568521807525
 30
0.0
 10
66.73149954928935
 20
-131.1568521807525
 30
0.0
 10
66.73149954928935
 20
-131.1568521807525
 30
0.0
 10
65.88503958856346
 20
-131.0280056096041
 30
0.0
 10
65.88503958856346
 20
-131.0280056096041
 30
0.0
 10
65.88503958856346
 20
-131.0280056096041
 30
0.0
 10
65.88503958856346
 20
-130.1960150499163
 30
0.0
 10
65.88503958856346
 20
-130.1960150499163
 30
0.0
 10
65.88503958856346
 20
-130.1960150499163
 30
0.0
 10
66.07968748348009
 20
-130.1960150499163
 30
0.0
 10
66.07968748348009
 20
-130.1960150499163
 30
0.0
 10
66.07968748348009
 20
-130.1960150499163
 30
0.0
 10
66.07968748348009
 20
-130.8536837780505
 30
0.0
 10
66.07968748348009
 20
-130.8536837780505
 30
0.0
 10
66.07968748348009
 20
-130.8536837780505
 30
0.0
 10
66.50274520906876
 20
-130.9239637259496
 30
0.0
 10
66.50274520906876
 20
-130.9239637259496
 30
0.0
 10
66.46898327331331
 20
-130.8585069117298
 30
0.0
 10
66.4286756561359
 20
-130.7703124673074
 30
0.0
 10
66.4286756561359
 20
-130.6435329534502
 30
0.0
 10
66.4286756561359
 20
-130.3724039387611
 30
0.0
 10
66.61505532188791
 20
-130.1191894205952
 30
0.0
 10
66.92821450149711
 20
-130.1191894205952
 30
0.0
 10
67.24550779568862
 20
-130.1191894205952
 30
0.0
 10
67.48011879823414
 20
-130.3586235568201
 30
0.0
 10
67.48011879823414
 20
-130.682118022885
 30
0.0
  0
HATCH
  5
127
330
116
100
AcDbEntity
  8
_U+30EC_U+30A4_U+30E4_U+30FC 1
 62
   179
420
  2234388
100
AcDbHatch
 10
0.0
 20
0.0
 30
0.0
210
0.0
220
0.0
230
1.0
  2
SOLID
 70
     1
 71
     0
 91
        1
 92
        1
 93
        1
 72
     4
 94
        3
 73
     0
 74
     1
 95
       53
 96
       49
 40
0.0
 40
0.0
 40
0.0
 40
0.0
 40
1.0
 40
1.0
 40
1.0
 40
2.0
 40
2.0
 40
2.0
 40
3.0
 40
3.0
 40
3.0
 40
4.0
 40
4.0
 40
4.0
 40
5.0
 40
5.0
 40
5.0
 40
6.0
 40
6.0
 40
6.0
 40
7.0
 40
7.0
 40
7.0
 40
8.0
 40
8.0
 40
8.0
 40
9.0
 40
9.0
 40
9.0
 40
10.0
 40
10.0
 40
10.0
 40
11.0
 40
11.0
 40
11.0
 40
12.0
 40
12.0
 40
12.0
 40
13.0
 40
13.0
 40
13.0
 40
14.0
 40
14.0
 40
14.0
 40
15.0
 40
15.0
 40
15.0
 40
16.0
 40
16.0
 40
16.0
 40
16.0
 10
67.48011879823414
 20
-130.682118022885
 10
67.48011879823414
 20
-130.7654893336281
 10
67.46323783035642
 20
-130.874354350962
 10
67.39984807342782
 20
-130.9825303491988
 10
67.28994952744834
 20
-131.1682209958538
 10
67.15869138946033
 20
-131.1906141165079
 10
67.05085990077201
 20
-131.2109401798709
 10
67.05085990077201
 20
-131.2109401798709
 10
67.05085990077201
 20
-130.9735731009372
 10
67.05085990077201
 20
-130.9735731009372
 10
67.24964191027092
 20
-130.9150064776879
 10
67.27926973144407
 20
-130.7792697155691
 10
67.27926973144407
 20
-130.6797064560454
 10
67.27926973144407
 20
-130.530533821534
 10
67.17970647192035
 20
-130.3679253146302
 10
66.94716252666599
 20
-130.3679253146302
 10
66.69119193211193
 20
-130.3679253146302
 10
66.62125649376135
 20
-130.5598171331587
 10
66.62125649376135
 20
-130.688663704307
 10
66.62125649376135
 20
-130.722770149611
 10
66.62125649376135
 20
-130.874354350962
 10
66.75044757445822
 20
-130.9690944768063
 10
66.75044757445822
 20
-130.9690944768063
 10
66.73149954928935
 20
-131.1568521807525
 10
66.73149954928935
 20
-131.1568521807525
 10
66.73149954928935
 20
-131.1568521807525
 10
65.88503958856346
 20
-131.0280056096041
 10
65.88503958856346
 20
-131.0280056096041
 10
65.88503958856346
 20
-131.0280056096041
 10
65.88503958856346
 20
-130.1960150499163
 10
65.88503958856346
 20
-130.1960150499163
 10
65.88503958856346
 20
-130.1960150499163
 10
66.07968748348009
 20
-130.1960150499163
 10
66.07968748348009
 20
-130.1960150499163
 10
66.07968748348009
 20
-130.1960150499163
 10
66.07968748348009
 20
-130.8536837780505
 10
66.07968748348009
 20
-130.8536837780505
 10
66.07968748348009
 20
-130.8536837780505
 10
66.50274520906876
 20
-130.9239637259496
 10
66.50274520906876
 20
-130.9239637259496
 10
66.46898327331331
 20
-130.8585069117298
 10
66.4286756561359
 20
-130.7703124673074
 10
66.4286756561359
 20
-130.6435329534502
 10
66.4286756561359
 20
-130.3724039387611
 10
66.61505532188791
 20
-130.1191894205952
 10
66.92821450149711
 20
-130.1191894205952
 10
67.24550779568862
 20
-130.1191894205952
 10
67.48011879823414
 20
-130.3586235568201
 10
67.48011879823414
 20
-130.682118022885
 97
        0
 97
        0
 75
     2
 76
     1
 98
        0
  0
ENDBLK
  5
119
330
116
100
AcDbEntity
  8
0
100
AcDbBlockEnd
  0
BLOCK
  5
12A
330
128
100
AcDbEntity
  8
0
100
AcDbBlockBegin
  2
block 13
 70
     0
 10
0.0
 20
0.0
 30
0.0
  3
block 13
  1

  0
POLYLINE
  5
12C
330
128
100
AcDbEntity
  8
_U+30EC_U+30A4_U+30E4_U+30FC 1
 62
   179
420
  2234388
370
     9
100
AcDb2dPolyline
 66
     1
 10
0.0
 20
0.0
 30
0.0
  0
VERTEX
  5
12D
330
12C
100
AcDbEntity
  8
_U+30EC_U+30A4_U+30E4_U+30FC 1
 62
   179
420
  2234388
370
     9
100
AcDbVertex
100
AcDb2dVertex
 10
116.0755981497759
 20
-125.7118671907944
 30
0.0
  0
VERTEX
  5
12E
330
12C
100
AcDbEntity
  8
_U+30EC_U+30A4_U+30E4_U+30FC 1
 62
   179
420
  2234388
370
     9
100
AcDbVertex
100
AcDb2dVertex
 10
116.0755981497759
 20
-140.7114844092668
 30
0.0
  0
SEQEND
  5
12F
330
12C
100
AcDbEntity
  8
_U+30EC_U+30A4_U+30E4_U+30FC 1
 62
   179
420
  2234388
370
     9
  0
POLYLINE
  5
130
330
128
100
AcDbEntity
  8
_U+30EC_U+30A4_U+30E4_U+30FC 1
 62
   179
420
  2234388
370
     9
100
AcDb2dPolyline
 66
     1
 10
0.0
 20
0.0
 30
0.0
  0
VERTEX
  5
131
330
130
100
AcDbEntity
  8
_U+30EC_U+30A4_U+30E4_U+30FC 1
 62
   179
420
  2234388
370
     9
100
AcDbVertex
100
AcDb2dVertex
 10
114.6155567981358
 20
-128.2116505235025
 30
0.0
  0
VERTEX
  5
132
330
130
100
AcDbEntity
  8
_U+30EC_U+30A4_U+30E4_U+30FC 1
 62
   179
420
  2234388
370
     9
100
AcDbVertex
100
AcDb2dVertex
 10
117.0760406242525
 20
-128.2116505235025
 30
0.0
  0
SEQEND
  5
133
330
130
100
AcDbEntity
  8
_U+30EC_U+30A4_U+30E4_U+30FC 1
 62
   179
420
  2234388
370
     9
  0
SPLINE
  5
134
330
128
100
AcDbEntity
  8
_U+30EC_U+30A4_U+30E4_U+30FC 1
 62
   179
420
  2234388
370
     9
100
AcDbSpline
210
0.0
220
0.0
230
1.0
 70
    11
 71
     3
 72
    17
 73
    13
 74
     0
 42
0.0000000001
 43
0.0000000001
 12
1.0
 22
0.0
 32
0.0
 13
1.0
 23
0.0
 33
0.0
 40
0.0
 40
0.0
 40
0.0
 40
0.0
 40
1.0
 40
1.0
 40
1.0
 40
2.0
 40
2.0
 40
2.0
 40
3.0
 40
3.0
 40
3.0
 40
4.0
 40
4.0
 40
4.0
 40
4.0
 10
116.1755048138937
 20
-127.2118783015303
 30
0.0
 10
116.1755048138937
 20
-127.1560688570998
 30
0.0
 10
116.1307373150358
 20
-127.1112660793334
 30
0.0
 10
116.0755981497759
 20
-127.1112660793334
 30
0.0
 10
116.0204971932173
 20
-127.1112660793334
 30
0.0
 10
115.9756944154505
 20
-127.1560688570998
 30
0.0
 10
115.9756944154505
 20
-127.2118783015303
 30
0.0
 10
115.9756944154505
 20
-127.2669821904055
 30
0.0
 10
116.0204971932173
 20
-127.3117849681719
 30
0.0
 10
116.0755981497759
 20
-127.3117849681719
 30
0.0
 10
116.1307373150358
 20
-127.3117849681719
 30
0.0
 10
116.1755048138937
 20
-127.2669821904055
 30
0.0
 10
116.1755048138937
 20
-127.2118783015303
 30
0.0
  0
POLYLINE
  5
135
330
128
100
AcDbEntity
  8
_U+30EC_U+30A4_U+30E4_U+30FC 1
 62
   179
420
  2234388
370
     9
100
AcDb2dPolyline
 66
     1
 10
0.0
 20
0.0
 30
0.0
  0
VERTEX
  5
136
330
135
100
AcDbEntity
  8
_U+30EC_U+30A4_U+30E4_U+30FC 1
 62
   179
420
  2234388
370
     9
100
AcDbVertex
100
AcDb2dVertex
 10
114.6155567981358
 20
-127.2118783015303
 30
0.0
  0
VERTEX
  5
137
330
135
100
AcDbEntity
  8
_U+30EC_U+30A4_U+30E4_U+30FC 1
 62
   179
420
  2234388
370
     9
100
AcDbVertex
100
AcDb2dVertex
 10
117.0760406242525
 20
-127.2118783015303
 30
0.0
  0
SEQEND
  5
138
330
135
100
AcDbEntity
  8
_U+30EC_U+30A4_U+30E4_U+30FC 1
 62
   179
420
  2234388
370
     9
  0
INSERT
  5
13A
330
128
100
AcDbEntity
  8
_U+30EC_U+30A4_U+30E4_U+30FC 1
100
AcDbBlockReference
  2
block 14
 10
0.0
 20
0.0
 30
0.0
  0
INSERT
  5
14C
330
128
100
AcDbEntity
  8
_U+30EC_U+30A4_U+30E4_U+30FC 1
100
AcDbBlockReference
  2
block 15
 10
0.0
 20
0.0
 30
0.0
  0
ENDBLK
  5
12B
330
128
100
AcDbEntity
  8
0
100
AcDbBlockEnd
  0
BLOCK
  5
13B
330
139
100
AcDbEntity
  8
0
100
AcDbBlockBegin
  2
block 14
 70
     0
 10
0.0
 20
0.0
 30
0.0
  3
block 14
  1

  0
SPLINE
  5
13D
330
139
100
AcDbEntity
  8
_U+30EC_U+30A4_U+30E4_U+30FC 1
370
     0
100
AcDbSpline
210
0.0
220
0.0
230
1.0
 70
    11
 71
     3
 72
    26
 73
    22
 74
     0
 42
0.0000000001
 43
0.0000000001
 12
1.0
 22
0.0
 32
0.0
 13
1.0
 23
0.0
 33
0.0
 40
0.0
 40
0.0
 40
0.0
 40
0.0
 40
1.0
 40
1.0
 40
1.0
 40
2.0
 40
2.0
 40
2.0
 40
3.0
 40
3.0
 40
3.0
 40
4.0
 40
4.0
 40
4.0
 40
5.0
 40
5.0
 40
5.0
 40
6.0
 40
6.0
 40
6.0
 40
7.0
 40
7.0
 40
7.0
 40
7.0
 10
115.4293022714899
 20
-136.3155381603656
 30
0.0
 10
115.4293022714899
 20
-136.3155381603656
 30
0.0
 10
114.3251491684673
 20
-136.3155381603656
 30
0.0
 10
114.3251491684673
 20
-136.3155381603656
 30
0.0
 10
114.3251491684673
 20
-136.3155381603656
 30
0.0
 10
114.3251491684673
 20
-136.6679714285066
 30
0.0
 10
114.3251491684673
 20
-136.6679714285066
 30
0.0
 10
114.3251491684673
 20
-136.6679714285066
 30
0.0
 10
114.1770100626016
 20
-136.6679714285066
 30
0.0
 10
114.1770100626016
 20
-136.6679714285066
 30
0.0
 10
114.162196152015
 20
-136.3131265935259
 30
0.0
 10
113.9992431355627
 20
-136.2635172185383
 30
0.0
 10
113.8848659654524
 20
-136.231822340074
 30
0.0
 10
113.8848659654524
 20
-136.231822340074
 30
0.0
 10
113.8848659654524
 20
-136.0757595145922
 30
0.0
 10
113.8848659654524
 20
-136.0757595145922
 30
0.0
 10
113.8848659654524
 20
-136.0757595145922
 30
0.0
 10
115.4293022714899
 20
-136.0757595145922
 30
0.0
 10
115.4293022714899
 20
-136.0757595145922
 30
0.0
 10
115.4293022714899
 20
-136.0757595145922
 30
0.0
 10
115.4293022714899
 20
-136.3155381603656
 30
0.0
 10
115.4293022714899
 20
-136.3155381603656
 30
0.0
  0
HATCH
  5
13E
330
139
100
AcDbEntity
  8
_U+30EC_U+30A4_U+30E4_U+30FC 1
 62
   179
420
  2234388
100
AcDbHatch
 10
0.0
 20
0.0
 30
0.0
210
0.0
220
0.0
230
1.0
  2
SOLID
 70
     1
 71
     0
 91
        1
 92
        1
 93
        1
 72
     4
 94
        3
 73
     0
 74
     1
 95
       26
 96
       22
 40
0.0
 40
0.0
 40
0.0
 40
0.0
 40
1.0
 40
1.0
 40
1.0
 40
2.0
 40
2.0
 40
2.0
 40
3.0
 40
3.0
 40
3.0
 40
4.0
 40
4.0
 40
4.0
 40
5.0
 40
5.0
 40
5.0
 40
6.0
 40
6.0
 40
6.0
 40
7.0
 40
7.0
 40
7.0
 40
7.0
 10
115.4293022714899
 20
-136.3155381603656
 10
115.4293022714899
 20
-136.3155381603656
 10
114.3251491684673
 20
-136.3155381603656
 10
114.3251491684673
 20
-136.3155381603656
 10
114.3251491684673
 20
-136.3155381603656
 10
114.3251491684673
 20
-136.6679714285066
 10
114.3251491684673
 20
-136.6679714285066
 10
114.3251491684673
 20
-136.6679714285066
 10
114.1770100626016
 20
-136.6679714285066
 10
114.1770100626016
 20
-136.6679714285066
 10
114.162196152015
 20
-136.3131265935259
 10
113.9992431355627
 20
-136.2635172185383
 10
113.8848659654524
 20
-136.231822340074
 10
113.8848659654524
 20
-136.231822340074
 10
113.8848659654524
 20
-136.0757595145922
 10
113.8848659654524
 20
-136.0757595145922
 10
113.8848659654524
 20
-136.0757595145922
 10
115.4293022714899
 20
-136.0757595145922
 10
115.4293022714899
 20
-136.0757595145922
 10
115.4293022714899
 20
-136.0757595145922
 10
115.4293022714899
 20
-136.3155381603656
 10
115.4293022714899
 20
-136.3155381603656
 97
        0
 97
        0
 75
     2
 76
     1
 98
        0
  0
SPLINE
  5
13F
330
139
100
AcDbEntity
  8
_U+30EC_U+30A4_U+30E4_U+30FC 1
370
     0
100
AcDbSpline
210
0.0
220
0.0
230
1.0
 70
    11
 71
     3
 72
    44
 73
    40
 74
     0
 42
0.0000000001
 43
0.0000000001
 12
1.0
 22
0.0
 32
0.0
 13
1.0
 23
0.0
 33
0.0
 40
0.0
 40
0.0
 40
0.0
 40
0.0
 40
1.0
 40
1.0
 40
1.0
 40
2.0
 40
2.0
 40
2.0
 40
3.0
 40
3.0
 40
3.0
 40
4.0
 40
4.0
 40
4.0
 40
5.0
 40
5.0
 40
5.0
 40
6.0
 40
6.0
 40
6.0
 40
7.0
 40
7.0
 40
7.0
 40
8.0
 40
8.0
 40
8.0
 40
9.0
 40
9.0
 40
9.0
 40
10.0
 40
10.0
 40
10.0
 40
11.0
 40
11.0
 40
11.0
 40
12.0
 40
12.0
 40
12.0
 40
13.0
 40
13.0
 40
13.0
 40
13.0
 10
114.8474256440312
 20
-134.9061495973499
 30
0.0
 10
115.0062445459012
 20
-135.1390380521528
 30
0.0
 10
115.0803140988341
 20
-135.2386013116765
 30
0.0
 10
115.223974580569
 20
-135.2902777439552
 30
0.0
 10
115.223974580569
 20
-135.2902777439552
 30
0.0
 10
115.223974580569
 20
-134.4586316938159
 30
0.0
 10
115.223974580569
 20
-134.4586316938159
 30
0.0
 10
115.223974580569
 20
-134.4586316938159
 30
0.0
 10
115.4293022714899
 20
-134.4586316938159
 30
0.0
 10
115.4293022714899
 20
-134.4586316938159
 30
0.0
 10
115.4293022714899
 20
-134.4586316938159
 30
0.0
 10
115.4293022714899
 20
-135.5572726440621
 30
0.0
 10
115.4293022714899
 20
-135.5572726440621
 30
0.0
 10
115.071701360121
 20
-135.5231661987581
 30
0.0
 10
114.9934976926058
 20
-135.4532307604075
 30
0.0
 10
114.6951524235832
 20
-135.0418863594687
 30
0.0
 10
114.4963704140842
 20
-134.7683457779399
 30
0.0
 10
114.4285020330248
 20
-134.6980658300408
 30
0.0
 10
114.2910427231634
 20
-134.6980658300408
 30
0.0
 10
114.1725314384708
 20
-134.6980658300408
 30
0.0
 10
114.0416178100313
 20
-134.7748914593618
 30
0.0
 10
114.0416178100313
 20
-134.9853867935106
 30
0.0
 10
114.0416178100313
 20
-135.2634059991703
 30
0.0
 10
114.2720946979945
 20
-135.2723632474319
 30
0.0
 10
114.3885389253959
 20
-135.2768418715627
 30
0.0
 10
114.3885389253959
 20
-135.2768418715627
 30
0.0
 10
114.3885389253959
 20
-135.5166205173361
 30
0.0
 10
114.3885389253959
 20
-135.5166205173361
 30
0.0
 10
114.2614149019902
 20
-135.507318759526
 30
0.0
 10
114.1494492987196
 20
-135.4962944539731
 30
0.0
 10
114.030938014027
 20
-135.4101670668419
 30
0.0
 10
113.8700520548658
 20
-135.2926893107949
 30
0.0
 10
113.8362901191104
 20
-135.093907301296
 30
0.0
 10
113.8362901191104
 20
-134.9695393542785
 30
0.0
 10
113.8362901191104
 20
-134.673261142547
 30
0.0
 10
114.0202582180227
 20
-134.4517415028454
 30
0.0
 10
114.2931097804545
 20
-134.4517415028454
 30
0.0
 10
114.5218641206751
 20
-134.4517415028454
 30
0.0
 10
114.6210828706503
 20
-134.5761094498629
 30
0.0
 10
114.8474256440312
 20
-134.9061495973499
 30
0.0
  0
HATCH
  5
140
330
139
100
AcDbEntity
  8
_U+30EC_U+30A4_U+30E4_U+30FC 1
 62
   179
420
  2234388
100
AcDbHatch
 10
0.0
 20
0.0
 30
0.0
210
0.0
220
0.0
230
1.0
  2
SOLID
 70
     1
 71
     0
 91
        1
 92
        1
 93
        1
 72
     4
 94
        3
 73
     0
 74
     1
 95
       44
 96
       40
 40
0.0
 40
0.0
 40
0.0
 40
0.0
 40
1.0
 40
1.0
 40
1.0
 40
2.0
 40
2.0
 40
2.0
 40
3.0
 40
3.0
 40
3.0
 40
4.0
 40
4.0
 40
4.0
 40
5.0
 40
5.0
 40
5.0
 40
6.0
 40
6.0
 40
6.0
 40
7.0
 40
7.0
 40
7.0
 40
8.0
 40
8.0
 40
8.0
 40
9.0
 40
9.0
 40
9.0
 40
10.0
 40
10.0
 40
10.0
 40
11.0
 40
11.0
 40
11.0
 40
12.0
 40
12.0
 40
12.0
 40
13.0
 40
13.0
 40
13.0
 40
13.0
 10
114.8474256440312
 20
-134.9061495973499
 10
115.0062445459012
 20
-135.1390380521528
 10
115.0803140988341
 20
-135.2386013116765
 10
115.223974580569
 20
-135.2902777439552
 10
115.223974580569
 20
-135.2902777439552
 10
115.223974580569
 20
-134.4586316938159
 10
115.223974580569
 20
-134.4586316938159
 10
115.223974580569
 20
-134.4586316938159
 10
115.4293022714899
 20
-134.4586316938159
 10
115.4293022714899
 20
-134.4586316938159
 10
115.4293022714899
 20
-134.4586316938159
 10
115.4293022714899
 20
-135.5572726440621
 10
115.4293022714899
 20
-135.5572726440621
 10
115.071701360121
 20
-135.5231661987581
 10
114.9934976926058
 20
-135.4532307604075
 10
114.6951524235832
 20
-135.0418863594687
 10
114.4963704140842
 20
-134.7683457779399
 10
114.4285020330248
 20
-134.6980658300408
 10
114.2910427231634
 20
-134.6980658300408
 10
114.1725314384708
 20
-134.6980658300408
 10
114.0416178100313
 20
-134.7748914593618
 10
114.0416178100313
 20
-134.9853867935106
 10
114.0416178100313
 20
-135.2634059991703
 10
114.2720946979945
 20
-135.2723632474319
 10
114.3885389253959
 20
-135.2768418715627
 10
114.3885389253959
 20
-135.2768418715627
 10
114.3885389253959
 20
-135.5166205173361
 10
114.3885389253959
 20
-135.5166205173361
 10
114.2614149019902
 20
-135.507318759526
 10
114.1494492987196
 20
-135.4962944539731
 10
114.030938014027
 20
-135.4101670668419
 10
113.8700520548658
 20
-135.2926893107949
 10
113.8362901191104
 20
-135.093907301296
 10
113.8362901191104
 20
-134.9695393542785
 10
113.8362901191104
 20
-134.673261142547
 10
114.0202582180227
 20
-134.4517415028454
 10
114.2931097804545
 20
-134.4517415028454
 10
114.5218641206751
 20
-134.4517415028454
 10
114.6210828706503
 20
-134.5761094498629
 10
114.8474256440312
 20
-134.9061495973499
 97
        0
 97
        0
 75
     2
 76
     1
 98
        0
  0
POLYLINE
  5
141
330
139
100
AcDbEntity
  8
_U+30EC_U+30A4_U+30E4_U+30FC 1
370
     0
100
AcDb2dPolyline
 66
     1
 10
0.0
 20
0.0
 30
0.0
  0
VERTEX
  5
142
330
141
100
AcDbEntity
  8
_U+30EC_U+30A4_U+30E4_U+30FC 1
370
     0
100
AcDbVertex
100
AcDb2dVertex
 10
115.4293022714899
 20
-134.2181640289455
 30
0.0
  0
VERTEX
  5
143
330
141
100
AcDbEntity
  8
_U+30EC_U+30A4_U+30E4_U+30FC 1
370
     0
100
AcDbVertex
100
AcDb2dVertex
 10
115.1774657915181
 20
-134.2181640289455
 30
0.0
  0
VERTEX
  5
144
330
141
100
AcDbEntity
  8
_U+30EC_U+30A4_U+30E4_U+30FC 1
370
     0
100
AcDbVertex
100
AcDb2dVertex
 10
115.1774657915181
 20
-133.9491020715475
 30
0.0
  0
VERTEX
  5
145
330
141
100
AcDbEntity
  8
_U+30EC_U+30A4_U+30E4_U+30FC 1
370
     0
100
AcDbVertex
100
AcDb2dVertex
 10
115.4293022714899
 20
-133.9491020715475
 30
0.0
  0
VERTEX
  5
146
330
141
100
AcDbEntity
  8
_U+30EC_U+30A4_U+30E4_U+30FC 1
370
     0
100
AcDbVertex
100
AcDb2dVertex
 10
115.4293022714899
 20
-134.2181640289455
 30
0.0
  0
SEQEND
  5
147
330
141
100
AcDbEntity
  8
_U+30EC_U+30A4_U+30E4_U+30FC 1
370
     0
  0
HATCH
  5
148
330
139
100
AcDbEntity
  8
_U+30EC_U+30A4_U+30E4_U+30FC 1
 62
   179
420
  2234388
100
AcDbHatch
 10
0.0
 20
0.0
 30
0.0
210
0.0
220
0.0
230
1.0
  2
SOLID
 70
     1
 71
     0
 91
        1
 92
        1
 93
        4
 72
     1
 10
115.4293022714899
 20
-134.2181640289455
 11
115.1774657915181
 21
-134.2181640289455
 72
     1
 10
115.1774657915181
 20
-134.2181640289455
 11
115.1774657915181
 21
-133.9491020715475
 72
     1
 10
115.1774657915181
 20
-133.9491020715475
 11
115.4293022714899
 21
-133.9491020715475
 72
     1
 10
115.4293022714899
 20
-133.9491020715475
 11
115.4293022714899
 21
-134.2181640289455
 97
        0
 75
     2
 76
     1
 98
        0
  0
SPLINE
  5
149
330
139
100
AcDbEntity
  8
_U+30EC_U+30A4_U+30E4_U+30FC 1
370
     0
100
AcDbSpline
210
0.0
220
0.0
230
1.0
 70
    11
 71
     3
 72
    53
 73
    49
 74
     0
 42
0.0000000001
 43
0.0000000001
 12
1.0
 22
0.0
 32
0.0
 13
1.0
 23
0.0
 33
0.0
 40
0.0
 40
0.0
 40
0.0
 40
0.0
 40
1.0
 40
1.0
 40
1.0
 40
2.0
 40
2.0
 40
2.0
 40
3.0
 40
3.0
 40
3.0
 40
4.0
 40
4.0
 40
4.0
 40
5.0
 40
5.0
 40
5.0
 40
6.0
 40
6.0
 40
6.0
 40
7.0
 40
7.0
 40
7.0
 40
8.0
 40
8.0
 40
8.0
 40
9.0
 40
9.0
 40
9.0
 40
10.0
 40
10.0
 40
10.0
 40
11.0
 40
11.0
 40
11.0
 40
12.0
 40
12.0
 40
12.0
 40
13.0
 40
13.0
 40
13.0
 40
14.0
 40
14.0
 40
14.0
 40
15.0
 40
15.0
 40
15.0
 40
16.0
 40
16.0
 40
16.0
 40
16.0
 10
115.4799451751231
 20
-133.1822238165308
 30
0.0
 10
115.4799451751231
 20
-133.2659396368224
 30
0.0
 10
115.4630642072454
 20
-133.3741156350593
 30
0.0
 10
115.3996744503168
 20
-133.4829806523931
 30
0.0
 10
115.2897759043373
 20
-133.6683267894996
 30
0.0
 10
115.1585177663493
 20
-133.6907199101537
 30
0.0
 10
115.0506862776609
 20
-133.7110459735167
 30
0.0
 10
115.0506862776609
 20
-133.7110459735167
 30
0.0
 10
115.0506862776609
 20
-133.473678894583
 30
0.0
 10
115.0506862776609
 20
-133.473678894583
 30
0.0
 10
115.2494682871599
 20
-133.4151122713337
 30
0.0
 10
115.279096108333
 20
-133.2793755092149
 30
0.0
 10
115.279096108333
 20
-133.1798122496912
 30
0.0
 10
115.279096108333
 20
-133.0306396151798
 30
0.0
 10
115.1795328488093
 20
-132.8676865987275
 30
0.0
 10
114.9469889035549
 20
-132.8676865987275
 30
0.0
 10
114.6910183090009
 20
-132.8676865987275
 30
0.0
 10
114.6210828706503
 20
-133.0599229268045
 30
0.0
 10
114.6210828706503
 20
-133.1887694979528
 30
0.0
 10
114.6210828706503
 20
-133.2228759432568
 30
0.0
 10
114.6210828706503
 20
-133.3741156350593
 30
0.0
 10
114.7502739513472
 20
-133.4692002704521
 30
0.0
 10
114.7502739513472
 20
-133.4692002704521
 30
0.0
 10
114.7313259261783
 20
-133.6569579743983
 30
0.0
 10
114.7313259261783
 20
-133.6569579743983
 30
0.0
 10
114.7313259261783
 20
-133.6569579743983
 30
0.0
 10
113.8848659654524
 20
-133.5281114032499
 30
0.0
 10
113.8848659654524
 20
-133.5281114032499
 30
0.0
 10
113.8848659654524
 20
-133.5281114032499
 30
0.0
 10
113.8848659654524
 20
-132.6961208435621
 30
0.0
 10
113.8848659654524
 20
-132.6961208435621
 30
0.0
 10
113.8848659654524
 20
-132.6961208435621
 30
0.0
 10
114.079513860369
 20
-132.6961208435621
 30
0.0
 10
114.079513860369
 20
-132.6961208435621
 30
0.0
 10
114.079513860369
 20
-132.6961208435621
 30
0.0
 10
114.079513860369
 20
-133.3537895716963
 30
0.0
 10
114.079513860369
 20
-133.3537895716963
 30
0.0
 10
114.079513860369
 20
-133.3537895716963
 30
0.0
 10
114.5025715859577
 20
-133.4240695195954
 30
0.0
 10
114.5025715859577
 20
-133.4240695195954
 30
0.0
 10
114.4688096502022
 20
-133.3586127053756
 30
0.0
 10
114.4285020330248
 20
-133.2704182609532
 30
0.0
 10
114.4285020330248
 20
-133.143638747096
 30
0.0
 10
114.4285020330248
 20
-132.8725097324069
 30
0.0
 10
114.6148816987768
 20
-132.619295214241
 30
0.0
 10
114.9280408783861
 20
-132.619295214241
 30
0.0
 10
115.2453341725776
 20
-132.619295214241
 30
0.0
 10
115.4799451751231
 20
-132.8587293504659
 30
0.0
 10
115.4799451751231
 20
-133.1822238165308
 30
0.0
  0
HATCH
  5
14A
330
139
100
AcDbEntity
  8
_U+30EC_U+30A4_U+30E4_U+30FC 1
 62
   179
420
  2234388
100
AcDbHatch
 10
0.0
 20
0.0
 30
0.0
210
0.0
220
0.0
230
1.0
  2
SOLID
 70
     1
 71
     0
 91
        1
 92
        1
 93
        1
 72
     4
 94
        3
 73
     0
 74
     1
 95
       53
 96
       49
 40
0.0
 40
0.0
 40
0.0
 40
0.0
 40
1.0
 40
1.0
 40
1.0
 40
2.0
 40
2.0
 40
2.0
 40
3.0
 40
3.0
 40
3.0
 40
4.0
 40
4.0
 40
4.0
 40
5.0
 40
5.0
 40
5.0
 40
6.0
 40
6.0
 40
6.0
 40
7.0
 40
7.0
 40
7.0
 40
8.0
 40
8.0
 40
8.0
 40
9.0
 40
9.0
 40
9.0
 40
10.0
 40
10.0
 40
10.0
 40
11.0
 40
11.0
 40
11.0
 40
12.0
 40
12.0
 40
12.0
 40
13.0
 40
13.0
 40
13.0
 40
14.0
 40
14.0
 40
14.0
 40
15.0
 40
15.0
 40
15.0
 40
16.0
 40
16.0
 40
16.0
 40
16.0
 10
115.4799451751231
 20
-133.1822238165308
 10
115.4799451751231
 20
-133.2659396368224
 10
115.4630642072454
 20
-133.3741156350593
 10
115.3996744503168
 20
-133.4829806523931
 10
115.2897759043373
 20
-133.6683267894996
 10
115.1585177663493
 20
-133.6907199101537
 10
115.0506862776609
 20
-133.7110459735167
 10
115.0506862776609
 20
-133.7110459735167
 10
115.0506862776609
 20
-133.473678894583
 10
115.0506862776609
 20
-133.473678894583
 10
115.2494682871599
 20
-133.4151122713337
 10
115.279096108333
 20
-133.2793755092149
 10
115.279096108333
 20
-133.1798122496912
 10
115.279096108333
 20
-133.0306396151798
 10
115.1795328488093
 20
-132.8676865987275
 10
114.9469889035549
 20
-132.8676865987275
 10
114.6910183090009
 20
-132.8676865987275
 10
114.6210828706503
 20
-133.0599229268045
 10
114.6210828706503
 20
-133.1887694979528
 10
114.6210828706503
 20
-133.2228759432568
 10
114.6210828706503
 20
-133.3741156350593
 10
114.7502739513472
 20
-133.4692002704521
 10
114.7502739513472
 20
-133.4692002704521
 10
114.7313259261783
 20
-133.6569579743983
 10
114.7313259261783
 20
-133.6569579743983
 10
114.7313259261783
 20
-133.6569579743983
 10
113.8848659654524
 20
-133.5281114032499
 10
113.8848659654524
 20
-133.5281114032499
 10
113.8848659654524
 20
-133.5281114032499
 10
113.8848659654524
 20
-132.6961208435621
 10
113.8848659654524
 20
-132.6961208435621
 10
113.8848659654524
 20
-132.6961208435621
 10
114.079513860369
 20
-132.6961208435621
 10
114.079513860369
 20
-132.6961208435621
 10
114.079513860369
 20
-132.6961208435621
 10
114.079513860369
 20
-133.3537895716963
 10
114.079513860369
 20
-133.3537895716963
 10
114.079513860369
 20
-133.3537895716963
 10
114.5025715859577
 20
-133.4240695195954
 10
114.5025715859577
 20
-133.4240695195954
 10
114.4688096502022
 20
-133.3586127053756
 10
114.4285020330248
 20
-133.2704182609532
 10
114.4285020330248
 20
-133.143638747096
 10
114.4285020330248
 20
-132.8725097324069
 10
114.6148816987768
 20
-132.619295214241
 10
114.9280408783861
 20
-132.619295214241
 10
115.2453341725776
 20
-132.619295214241
 10
115.4799451751231
 20
-132.8587293504659
 10
115.4799451751231
 20
-133.1822238165308
 97
        0
 97
        0
 75
     2
 76
     1
 98
        0
  0
ENDBLK
  5
13C
330
139
100
AcDbEntity
  8
0
100
AcDbBlockEnd
  0
BLOCK
  5
14D
330
14B
100
AcDbEntity
  8
0
100
AcDbBlockBegin
  2
block 15
 70
     0
 10
0.0
 20
0.0
 30
0.0
  3
block 15
  1

  0
SPLINE
  5
14F
330
14B
100
AcDbEntity
  8
_U+30EC_U+30A4_U+30E4_U+30FC 1
370
     0
100
AcDbSpline
210
0.0
220
0.0
230
1.0
 70
    11
 71
     3
 72
    26
 73
    22
 74
     0
 42
0.0000000001
 43
0.0000000001
 12
1.0
 22
0.0
 32
0.0
 13
1.0
 23
0.0
 33
0.0
 40
0.0
 40
0.0
 40
0.0
 40
0.0
 40
1.0
 40
1.0
 40
1.0
 40
2.0
 40
2.0
 40
2.0
 40
3.0
 40
3.0
 40
3.0
 40
4.0
 40
4.0
 40
4.0
 40
5.0
 40
5.0
 40
5.0
 40
6.0
 40
6.0
 40
6.0
 40
7.0
 40
7.0
 40
7.0
 40
7.0
 10
115.4293022714899
 20
-126.2923773555797
 30
0.0
 10
115.4293022714899
 20
-126.2923773555797
 30
0.0
 10
114.3251491684673
 20
-126.2923773555797
 30
0.0
 10
114.3251491684673
 20
-126.2923773555797
 30
0.0
 10
114.3251491684673
 20
-126.2923773555797
 30
0.0
 10
114.3251491684673
 20
-126.6448106237207
 30
0.0
 10
114.3251491684673
 20
-126.6448106237207
 30
0.0
 10
114.3251491684673
 20
-126.6448106237207
 30
0.0
 10
114.1770100626016
 20
-126.6448106237207
 30
0.0
 10
114.1770100626016
 20
-126.6448106237207
 30
0.0
 10
114.162196152015
 20
-126.28996578874
 30
0.0
 10
113.9992431355627
 20
-126.2403564137524
 30
0.0
 10
113.8848659654524
 20
-126.2086615352881
 30
0.0
 10
113.8848659654524
 20
-126.2086615352881
 30
0.0
 10
113.8848659654524
 20
-126.0525987098063
 30
0.0
 10
113.8848659654524
 20
-126.0525987098063
 30
0.0
 10
113.8848659654524
 20
-126.0525987098063
 30
0.0
 10
115.4293022714899
 20
-126.0525987098063
 30
0.0
 10
115.4293022714899
 20
-126.0525987098063
 30
0.0
 10
115.4293022714899
 20
-126.0525987098063
 30
0.0
 10
115.4293022714899
 20
-126.2923773555797
 30
0.0
 10
115.4293022714899
 20
-126.2923773555797
 30
0.0
  0
HATCH
  5
150
330
14B
100
AcDbEntity
  8
_U+30EC_U+30A4_U+30E4_U+30FC 1
 62
   179
420
  2234388
100
AcDbHatch
 10
0.0
 20
0.0
 30
0.0
210
0.0
220
0.0
230
1.0
  2
SOLID
 70
     1
 71
     0
 91
        1
 92
        1
 93
        1
 72
     4
 94
        3
 73
     0
 74
     1
 95
       26
 96
       22
 40
0.0
 40
0.0
 40
0.0
 40
0.0
 40
1.0
 40
1.0
 40
1.0
 40
2.0
 40
2.0
 40
2.0
 40
3.0
 40
3.0
 40
3.0
 40
4.0
 40
4.0
 40
4.0
 40
5.0
 40
5.0
 40
5.0
 40
6.0
 40
6.0
 40
6.0
 40
7.0
 40
7.0
 40
7.0
 40
7.0
 10
115.4293022714899
 20
-126.2923773555797
 10
115.4293022714899
 20
-126.2923773555797
 10
114.3251491684673
 20
-126.2923773555797
 10
114.3251491684673
 20
-126.2923773555797
 10
114.3251491684673
 20
-126.2923773555797
 10
114.3251491684673
 20
-126.6448106237207
 10
114.3251491684673
 20
-126.6448106237207
 10
114.3251491684673
 20
-126.6448106237207
 10
114.1770100626016
 20
-126.6448106237207
 10
114.1770100626016
 20
-126.6448106237207
 10
114.162196152015
 20
-126.28996578874
 10
113.9992431355627
 20
-126.2403564137524
 10
113.8848659654524
 20
-126.2086615352881
 10
113.8848659654524
 20
-126.2086615352881
 10
113.8848659654524
 20
-126.0525987098063
 10
113.8848659654524
 20
-126.0525987098063
 10
113.8848659654524
 20
-126.0525987098063
 10
115.4293022714899
 20
-126.0525987098063
 10
115.4293022714899
 20
-126.0525987098063
 10
115.4293022714899
 20
-126.0525987098063
 10
115.4293022714899
 20
-126.2923773555797
 10
115.4293022714899
 20
-126.2923773555797
 97
        0
 97
        0
 75
     2
 76
     1
 98
        0
  0
ENDBLK
  5
14E
330
14B
100
AcDbEntity
  8
0
100
AcDbBlockEnd
  0
ENDSEC
  0
SECTION
  2
ENTITIES
  0
POLYLINE
  5
41
330
1F
100
AcDbEntity
  8
_U+30EC_U+30A4_U+30E4_U+30FC 1
370
     0
100
AcDb2dPolyline
 66
     1
 10
0.0
 20
0.0
 30
0.0
  0
VERTEX
  5
42
330
41
100
AcDbEntity
  8
_U+30EC_U+30A4_U+30E4_U+30FC 1
370
     0
100
AcDbVertex
100
AcDb2dVertex
 10
72.97606786044763
 20
-127.3110794126167
 30
0.0
  0
VERTEX
  5
43
330
41
100
AcDbEntity
  8
_U+30EC_U+30A4_U+30E4_U+30FC 1
370
     0
100
AcDbVertex
100
AcDb2dVertex
 10
72.97606786044763
 20
-121.2111988585861
 30
0.0
  0
VERTEX
  5
44
330
41
100
AcDbEntity
  8
_U+30EC_U+30A4_U+30E4_U+30FC 1
370
     0
100
AcDbVertex
100
AcDb2dVertex
 10
75.07587169576605
 20
-121.2111988585861
 30
0.0
  0
VERTEX
  5
45
330
41
100
AcDbEntity
  8
_U+30EC_U+30A4_U+30E4_U+30FC 1
370
     0
100
AcDbVertex
100
AcDb2dVertex
 10
75.07587169576605
 20
-120.2114266366139
 30
0.0
  0
VERTEX
  5
46
330
41
100
AcDbEntity
  8
_U+30EC_U+30A4_U+30E4_U+30FC 1
370
     0
100
AcDbVertex
100
AcDb2dVertex
 10
72.07588482785765
 20
-120.2114266366139
 30
0.0
  0
VERTEX
  5
47
330
41
100
AcDbEntity
  8
_U+30EC_U+30A4_U+30E4_U+30FC 1
370
     0
100
AcDbVertex
100
AcDb2dVertex
 10
72.07588482785765
 20
-143.7111185751834
 30
0.0
  0
VERTEX
  5
48
330
41
100
AcDbEntity
  8
_U+30EC_U+30A4_U+30E4_U+30FC 1
370
     0
100
AcDbVertex
100
AcDb2dVertex
 10
82.07628790605945
 20
-143.7111185751834
 30
0.0
  0
VERTEX
  5
49
330
41
100
AcDbEntity
  8
_U+30EC_U+30A4_U+30E4_U+30FC 1
370
     0
100
AcDbVertex
100
AcDb2dVertex
 10
82.07628790605945
 20
-140.711131631489
 30
0.0
  0
VERTEX
  5
4A
330
41
100
AcDbEntity
  8
_U+30EC_U+30A4_U+30E4_U+30FC 1
370
     0
100
AcDbVertex
100
AcDb2dVertex
 10
79.07630103815104
 20
-140.711131631489
 30
0.0
  0
VERTEX
  5
4B
330
41
100
AcDbEntity
  8
_U+30EC_U+30A4_U+30E4_U+30FC 1
370
     0
100
AcDbVertex
100
AcDb2dVertex
 10
79.07630103815104
 20
-141.7109038534609
 30
0.0
  0
VERTEX
  5
4C
330
41
100
AcDbEntity
  8
_U+30EC_U+30A4_U+30E4_U+30FC 1
370
     0
100
AcDbVertex
100
AcDb2dVertex
 10
81.07584543158286
 20
-141.7109038534609
 30
0.0
  0
VERTEX
  5
4D
330
41
100
AcDbEntity
  8
_U+30EC_U+30A4_U+30E4_U+30FC 1
370
     0
100
AcDbVertex
100
AcDb2dVertex
 10
81.07584543158286
 20
-142.7113463532108
 30
0.0
  0
VERTEX
  5
4E
330
41
100
AcDbEntity
  8
_U+30EC_U+30A4_U+30E4_U+30FC 1
370
     0
100
AcDbVertex
100
AcDb2dVertex
 10
72.97606786044763
 20
-142.7113463532108
 30
0.0
  0
VERTEX
  5
4F
330
41
100
AcDbEntity
  8
_U+30EC_U+30A4_U+30E4_U+30FC 1
370
     0
100
AcDbVertex
100
AcDb2dVertex
 10
72.97606786044763
 20
-128.2116505235025
 30
0.0
  0
SEQEND
  5
51
330
41
100
AcDbEntity
  8
_U+30EC_U+30A4_U+30E4_U+30FC 1
370
     0
  0
HATCH
  5
50
330
1F
100
AcDbEntity
  8
_U+30EC_U+30A4_U+30E4_U+30FC 1
 62
   253
420
 11711154
100
AcDbHatch
 10
0.0
 20
0.0
 30
0.0
210
0.0
220
0.0
230
1.0
  2
SOLID
 70
     1
 71
     0
 91
        1
 92
        1
 93
       14
 72
     1
 10
72.97606786044763
 20
-127.3110794126167
 11
72.97606786044763
 21
-121.2111988585861
 72
     1
 10
72.97606786044763
 20
-121.2111988585861
 11
75.07587169576605
 21
-121.2111988585861
 72
     1
 10
75.07587169576605
 20
-121.2111988585861
 11
75.07587169576605
 21
-120.2114266366139
 72
     1
 10
75.07587169576605
 20
-120.2114266366139
 11
72.07588482785765
 21
-120.2114266366139
 72
     1
 10
72.07588482785765
 20
-120.2114266366139
 11
72.07588482785765
 21
-143.7111185751834
 72
     1
 10
72.07588482785765
 20
-143.7111185751834
 11
82.07628790605945
 21
-143.7111185751834
 72
     1
 10
82.07628790605945
 20
-143.7111185751834
 11
82.07628790605945
 21
-140.711131631489
 72
     1
 10
82.07628790605945
 20
-140.711131631489
 11
79.07630103815104
 21
-140.711131631489
 72
     1
 10
79.07630103815104
 20
-140.711131631489
 11
79.07630103815104
 21
-141.7109038534609
 72
     1
 10
79.07630103815104
 20
-141.7109038534609
 11
81.07584543158286
 21
-141.7109038534609
 72
     1
 10
81.07584543158286
 20
-141.7109038534609
 11
81.07584543158286
 21
-142.7113463532108
 72
     1
 10
81.07584543158286
 20
-142.7113463532108
 11
72.97606786044763
 21
-142.7113463532108
 72
     1
 10
72.97606786044763
 20
-142.7113463532108
 11
72.97606786044763
 21
-128.2116505235025
 72
     1
 10
72.97606786044763
 20
-128.2116505235025
 11
72.97606786044763
 21
-127.3110794126167
 97
        0
 75
     2
 76
     1
 98
        0
  0
INSERT
  5
53
330
1F
100
AcDbEntity
  8
_U+30EC_U+30A4_U+30E4_U+30FC 1
100
AcDbBlockReference
  2
block 2
 10
0.0
 20
0.0
 30
0.0
  0
POLYLINE
  5
151
330
1F
100
AcDbEntity
  8
_U+30EC_U+30A4_U+30E4_U+30FC 1
370
     0
100
AcDb2dPolyline
 66
     1
 10
0.0
 20
0.0
 30
0.0
  0
VERTEX
  5
152
330
151
100
AcDbEntity
  8
_U+30EC_U+30A4_U+30E4_U+30FC 1
370
     0
100
AcDbVertex
100
AcDb2dVertex
 10
72.97575036045572
 20
-128.2119680235024
 30
0.0
  0
VERTEX
  5
153
330
151
100
AcDbEntity
  8
_U+30EC_U+30A4_U+30E4_U+30FC 1
370
     0
100
AcDbVertex
100
AcDb2dVertex
 10
101.0753110324651
 20
-128.2119680235024
 30
0.0
  0
VERTEX
  5
154
330
151
100
AcDbEntity
  8
_U+30EC_U+30A4_U+30E4_U+30FC 1
370
     0
100
AcDbVertex
100
AcDb2dVertex
 10
101.3250776927597
 20
-128.0121546902191
 30
0.0
  0
VERTEX
  5
155
330
151
100
AcDbEntity
  8
_U+30EC_U+30A4_U+30E4_U+30FC 1
370
     0
100
AcDbVertex
100
AcDb2dVertex
 10
101.5751971308231
 20
-128.2119680235024
 30
0.0
  0
VERTEX
  5
156
330
151
100
AcDbEntity
  8
_U+30EC_U+30A4_U+30E4_U+30FC 1
370
     0
100
AcDbVertex
100
AcDb2dVertex
 10
106.577127280991
 20
-128.2119680235024
 30
0.0
  0
VERTEX
  5
157
330
151
100
AcDbEntity
  8
_U+30EC_U+30A4_U+30E4_U+30FC 1
370
     0
100
AcDbVertex
100
AcDb2dVertex
 10
106.8272467190543
 20
-128.0118371902192
 30
0.0
  0
VERTEX
  5
158
330
151
100
AcDbEntity
  8
_U+30EC_U+30A4_U+30E4_U+30FC 1
370
     0
100
AcDbVertex
100
AcDb2dVertex
 10
107.0770133793489
 20
-128.2119680235024
 30
0.0
  0
VERTEX
  5
159
330
151
100
AcDbEntity
  8
_U+30EC_U+30A4_U+30E4_U+30FC 1
370
     0
100
AcDbVertex
100
AcDb2dVertex
 10
112.0754863073828
 20
-128.2119680235024
 30
0.0
  0
VERTEX
  5
15A
330
151
100
AcDbEntity
  8
_U+30EC_U+30A4_U+30E4_U+30FC 1
370
     0
100
AcDbVertex
100
AcDb2dVertex
 10
112.0754863073828
 20
-127.3114321903945
 30
0.0
  0
VERTEX
  5
15B
330
151
100
AcDbEntity
  8
_U+30EC_U+30A4_U+30E4_U+30FC 1
370
     0
100
AcDbVertex
100
AcDb2dVertex
 10
72.97575036045572
 20
-127.3114321903945
 30
0.0
  0
SEQEND
  5
15D
330
151
100
AcDbEntity
  8
_U+30EC_U+30A4_U+30E4_U+30FC 1
370
     0
  0
HATCH
  5
15C
330
1F
100
AcDbEntity
  8
_U+30EC_U+30A4_U+30E4_U+30FC 1
 62
   253
420
 11711154
100
AcDbHatch
 10
0.0
 20
0.0
 30
0.0
210
0.0
220
0.0
230
1.0
  2
SOLID
 70
     1
 71
     0
 91
        1
 92
        1
 93
       10
 72
     1
 10
72.97575036045572
 20
-128.2119680235024
 11
101.0753110324651
 21
-128.2119680235024
 72
     1
 10
101.0753110324651
 20
-128.2119680235024
 11
101.3250776927597
 21
-128.0121546902191
 72
     1
 10
101.3250776927597
 20
-128.0121546902191
 11
101.5751971308231
 21
-128.2119680235024
 72
     1
 10
101.5751971308231
 20
-128.2119680235024
 11
106.577127280991
 21
-128.2119680235024
 72
     1
 10
106.577127280991
 20
-128.2119680235024
 11
106.8272467190543
 21
-128.0118371902192
 72
     1
 10
106.8272467190543
 20
-128.0118371902192
 11
107.0770133793489
 21
-128.2119680235024
 72
     1
 10
107.0770133793489
 20
-128.2119680235024
 11
112.0754863073828
 21
-128.2119680235024
 72
     1
 10
112.0754863073828
 20
-128.2119680235024
 11
112.0754863073828
 21
-127.3114321903945
 72
     1
 10
112.0754863073828
 20
-127.3114321903945
 11
72.97575036045572
 21
-127.3114321903945
 72
     1
 10
72.97575036045572
 20
-127.3114321903945
 11
72.97575036045572
 21
-128.2119680235024
 97
        0
 75
     2
 76
     1
 98
        0
  0
POLYLINE
  5
15E
330
1F
100
AcDbEntity
  8
_U+30EC_U+30A4_U+30E4_U+30FC 1
 62
   179
420
  2234388
370
    25
100
AcDb2dPolyline
 66
     1
 10
0.0
 20
0.0
 30
0.0
  0
VERTEX
  5
15F
330
15E
100
AcDbEntity
  8
_U+30EC_U+30A4_U+30E4_U+30FC 1
 62
   179
420
  2234388
370
    25
100
AcDbVertex
100
AcDb2dVertex
 10
72.97575036045572
 20
-128.2119680235024
 30
0.0
  0
VERTEX
  5
160
330
15E
100
AcDbEntity
  8
_U+30EC_U+30A4_U+30E4_U+30FC 1
 62
   179
420
  2234388
370
    25
100
AcDbVertex
100
AcDb2dVertex
 10
100.9426665914047
 20
-128.2119680235024
 30
0.0
  0
VERTEX
  5
161
330
15E
100
AcDbEntity
  8
_U+30EC_U+30A4_U+30E4_U+30FC 1
 62
   179
420
  2234388
370
    25
100
AcDbVertex
100
AcDb2dVertex
 10
101.3250776927597
 20
-128.0121546902191
 30
0.0
  0
VERTEX
  5
162
330
15E
100
AcDbEntity
  8
_U+30EC_U+30A4_U+30E4_U+30FC 1
 62
   179
420
  2234388
370
    25
100
AcDbVertex
100
AcDb2dVertex
 10
101.7078415718834
 20
-128.2119680235024
 30
0.0
  0
VERTEX
  5
163
330
15E
100
AcDbEntity
  8
_U+30EC_U+30A4_U+30E4_U+30FC 1
 62
   179
420
  2234388
370
    25
100
AcDbVertex
100
AcDb2dVertex
 10
106.4427542288635
 20
-128.2119680235024
 30
0.0
  0
VERTEX
  5
164
330
15E
100
AcDbEntity
  8
_U+30EC_U+30A4_U+30E4_U+30FC 1
 62
   179
420
  2234388
370
    25
100
AcDbVertex
100
AcDb2dVertex
 10
106.8272467190543
 20
-128.0118371902192
 30
0.0
  0
VERTEX
  5
165
330
15E
100
AcDbEntity
  8
_U+30EC_U+30A4_U+30E4_U+30FC 1
 62
   179
420
  2234388
370
    25
100
AcDbVertex
100
AcDb2dVertex
 10
107.2079292093423
 20
-128.2119680235024
 30
0.0
  0
VERTEX
  5
166
330
15E
100
AcDbEntity
  8
_U+30EC_U+30A4_U+30E4_U+30FC 1
 62
   179
420
  2234388
370
    25
100
AcDbVertex
100
AcDb2dVertex
 10
112.0754863073828
 20
-128.2119680235024
 30
0.0
  0
SEQEND
  5
167
330
15E
100
AcDbEntity
  8
_U+30EC_U+30A4_U+30E4_U+30FC 1
 62
   179
420
  2234388
370
    25
  0
POLYLINE
  5
168
330
1F
100
AcDbEntity
  8
_U+30EC_U+30A4_U+30E4_U+30FC 1
 62
   179
420
  2234388
370
    25
100
AcDb2dPolyline
 66
     1
 10
0.0
 20
0.0
 30
0.0
  0
VERTEX
  5
169
330
168
100
AcDbEntity
  8
_U+30EC_U+30A4_U+30E4_U+30FC 1
 62
   179
420
  2234388
370
    25
100
AcDbVertex
100
AcDb2dVertex
 10
112.0754863073828
 20
-127.3114321903945
 30
0.0
  0
VERTEX
  5
16A
330
168
100
AcDbEntity
  8
_U+30EC_U+30A4_U+30E4_U+30FC 1
 62
   179
420
  2234388
370
    25
100
AcDbVertex
100
AcDb2dVertex
 10
112.0754863073828
 20
-128.2119680235024
 30
0.0
  0
SEQEND
  5
16B
330
168
100
AcDbEntity
  8
_U+30EC_U+30A4_U+30E4_U+30FC 1
 62
   179
420
  2234388
370
    25
  0
POLYLINE
  5
16C
330
1F
100
AcDbEntity
  8
_U+30EC_U+30A4_U+30E4_U+30FC 1
 62
   179
420
  2234388
370
    25
100
AcDb2dPolyline
 66
     1
 10
0.0
 20
0.0
 30
0.0
  0
VERTEX
  5
16D
330
16C
100
AcDbEntity
  8
_U+30EC_U+30A4_U+30E4_U+30FC 1
 62
   179
420
  2234388
370
    25
100
AcDbVertex
100
AcDb2dVertex
 10
72.97575036045572
 20
-127.3114321903945
 30
0.0
  0
VERTEX
  5
16E
330
16C
100
AcDbEntity
  8
_U+30EC_U+30A4_U+30E4_U+30FC 1
 62
   179
420
  2234388
370
    25
100
AcDbVertex
100
AcDb2dVertex
 10
112.0754863073828
 20
-127.3114321903945
 30
0.0
  0
SEQEND
  5
16F
330
16C
100
AcDbEntity
  8
_U+30EC_U+30A4_U+30E4_U+30FC 1
 62
   179
420
  2234388
370
    25
  0
ENDSEC
  0
SECTION
  2
OBJECTS
  0
DICTIONARY
  5
C
330
0
100
AcDbDictionary
281
     1
  3
ACAD_GROUP
350
D
  3
ACAD_LAYOUT
350
1A
  3
ACAD_MATERIAL
350
3B
  3
ACAD_MLEADERSTYLE
350
171
  3
ACAD_MLINESTYLE
350
17
  3
ACAD_PLOTSETTINGS
350
19
  3
ACAD_PLOTSTYLENAME
350
E
  3
ACAD_TABLESTYLE
350
170
  3
ACAD_VISUALSTYLE
350
2A
  0
SUN
  5
3F
330
29
100
AcDbSun
 90
        1
290
     0
 63
     7
421
 16777215
 40
1.0
291
     1
 91
  2455826
 92
 54000000
292
     0
 70
     2
 71
   256
280
     1
  0
DICTIONARY
  5
D
102
{ACAD_REACTORS
330
C
102
}
330
C
100
AcDbDictionary
281
     1
  0
DICTIONARY
  5
1A
102
{ACAD_REACTORS
330
C
102
}
330
C
100
AcDbDictionary
281
     1
  3
Layout1
350
1E
  3
Layout2
350
26
  3
Model
350
22
  0
DICTIONARY
  5
3B
102
{ACAD_REACTORS
330
C
102
}
330
C
100
AcDbDictionary
281
     1
  3
ByBlock
350
3D
  3
ByLayer
350
3C
  3
Global
350
3E
  0
DICTIONARY
  5
171
102
{ACAD_REACTORS
330
C
102
}
330
C
100
AcDbDictionary
281
     1
  0
DICTIONARY
  5
17
102
{ACAD_REACTORS
330
C
102
}
330
C
100
AcDbDictionary
281
     1
  3
Standard
350
18
  0
DICTIONARY
  5
19
102
{ACAD_REACTORS
330
C
102
}
330
C
100
AcDbDictionary
281
     1
  0
ACDBDICTIONARYWDFLT
  5
E
102
{ACAD_REACTORS
330
C
102
}
330
C
100
AcDbDictionary
281
     1
  3
Normal
350
F
100
AcDbDictionaryWithDefault
340
F
  0
DICTIONARY
  5
170
102
{ACAD_REACTORS
330
C
102
}
330
C
100
AcDbDictionary
281
     1
  0
DICTIONARY
  5
2A
102
{ACAD_REACTORS
330
C
102
}
330
C
100
AcDbDictionary
281
     1
  3
2dWireframe
350
2F
  3
3D Hidden
350
31
  3
3dWireframe
350
30
  3
Basic
350
32
  3
Brighten
350
36
  3
ColorChange
350
3A
  3
Conceptual
350
34
  3
Dim
350
35
  3
Facepattern
350
39
  3
Flat
350
2B
  3
FlatWithEdges
350
2C
  3
Gouraud
350
2D
  3
GouraudWithEdges
350
2E
  3
Linepattern
350
38
  3
Realistic
350
33
  3
Thicken
350
37
  0
LAYOUT
  5
1E
102
{ACAD_REACTORS
330
1A
102
}
330
1A
100
AcDbPlotSettings
  1

  2
none_device
  4

  6

 40
0.0
 41
0.0
 42
0.0
 43
0.0
 44
0.0
 45
0.0
 46
0.0
 47
0.0
 48
0.0
 49
0.0
140
0.0
141
0.0
142
1.0
143
1.0
 70
   688
 72
     0
 73
     0
 74
     5
  7

 75
    16
 76
     0
 77
     2
 78
   300
147
1.0
148
0.0
149
0.0
100
AcDbLayout
  1
Layout1
 70
     1
 71
     1
 10
0.0
 20
0.0
 11
12.0
 21
9.0
 12
0.0
 22
0.0
 32
0.0
 14
1.000000000000000E+20
 24
1.000000000000000E+20
 34
1.000000000000000E+20
 15
-1.000000000000000E+20
 25
-1.000000000000000E+20
 35
-1.000000000000000E+20
146
0.0
 13
0.0
 23
0.0
 33
0.0
 16
1.0
 26
0.0
 36
0.0
 17
0.0
 27
1.0
 37
0.0
 76
     0
330
1B
  0
LAYOUT
  5
26
102
{ACAD_REACTORS
330
1A
102
}
330
1A
100
AcDbPlotSettings
  1

  2
none_device
  4

  6

 40
0.0
 41
0.0
 42
0.0
 43
0.0
 44
0.0
 45
0.0
 46
0.0
 47
0.0
 48
0.0
 49
0.0
140
0.0
141
0.0
142
1.0
143
1.0
 70
   688
 72
     0
 73
     0
 74
     5
  7

 75
    16
 76
     0
 77
     2
 78
   300
147
1.0
148
0.0
149
0.0
100
AcDbLayout
  1
Layout2
 70
     1
 71
     2
 10
0.0
 20
0.0
 11
0.0
 21
0.0
 12
0.0
 22
0.0
 32
0.0
 14
0.0
 24
0.0
 34
0.0
 15
0.0
 25
0.0
 35
0.0
146
0.0
 13
0.0
 23
0.0
 33
0.0
 16
1.0
 26
0.0
 36
0.0
 17
0.0
 27
1.0
 37
0.0
 76
     0
330
23
  0
LAYOUT
  5
22
102
{ACAD_REACTORS
330
1A
102
}
330
1A
100
AcDbPlotSettings
  1

  2
none_device
  4

  6

 40
0.0
 41
0.0
 42
0.0
 43
0.0
 44
0.0
 45
0.0
 46
0.0
 47
0.0
 48
0.0
 49
0.0
140
0.0
141
0.0
142
1.0
143
1.0
 70
  1712
 72
     0
 73
     0
 74
     0
  7

 75
     0
 76
     0
 77
     2
 78
   300
147
1.0
148
0.0
149
0.0
100
AcDbLayout
  1
Model
 70
     1
 71
     0
 10
0.0
 20
0.0
 11
12.0
 21
9.0
 12
0.0
 22
0.0
 32
0.0
 14
1.000000000000000E+20
 24
1.000000000000000E+20
 34
1.000000000000000E+20
 15
-1.000000000000000E+20
 25
-1.000000000000000E+20
 35
-1.000000000000000E+20
146
0.0
 13
0.0
 23
0.0
 33
0.0
 16
1.0
 26
0.0
 36
0.0
 17
0.0
 27
1.0
 37
0.0
 76
     0
330
1F
331
29
  0
MATERIAL
  5
3D
102
{ACAD_REACTORS
330
3B
102
}
330
3B
100
AcDbMaterial
  1
ByBlock
 72
     1
 94
      127
  0
MATERIAL
  5
3C
102
{ACAD_REACTORS
330
3B
102
}
330
3B
100
AcDbMaterial
  1
ByLayer
 72
     1
 94
      127
  0
MATERIAL
  5
3E
102
{ACAD_REACTORS
330
3B
102
}
330
3B
100
AcDbMaterial
  1
Global
 72
     1
 94
      127
  0
MLINESTYLE
  5
18
102
{ACAD_REACTORS
330
17
102
}
330
17
100
AcDbMlineStyle
  2
Standard
 70
     0
  3

 62
   256
 51
90.0
 52
90.0
 71
     2
 49
0.5
 62
   256
  6
BYLAYER
 49
-0.5
 62
   256
  6
BYLAYER
  0
ACDBPLACEHOLDER
  5
F
102
{ACAD_REACTORS
330
E
102
}
330
E
  0
VISUALSTYLE
  5
2F
102
{ACAD_REACTORS
330
2A
102
}
330
2A
100
AcDbVisualStyle
  2
2dWireframe
 70
     4
177
     2
291
     0
 71
     0
176
     1
 72
     2
176
     1
 73
     0
176
     1
 90
        0
176
     1
 40
-0.6
176
     1
 41
-30.0
176
     1
 62
     5
 63
     7
421
 16777215
176
     1
 74
     1
176
     1
 91
        4
176
     1
 64
     7
176
     1
 65
   257
176
     1
 75
     1
176
     1
175
     1
176
     1
 42
1.0
176
     1
 92
        0
176
     1
 66
   257
176
     1
 43
1.0
176
     1
 76
     1
176
     1
 77
     6
176
     1
 78
     2
176
     1
 67
     7
176
     1
 79
     5
176
     1
170
     0
176
     1
171
     0
176
     1
290
     0
176
     1
 93
        1
176
     1
 44
0.0
176
     1
173
     0
176
     1
  0
VISUALSTYLE
  5
31
102
{ACAD_REACTORS
330
2A
102
}
330
2A
100
AcDbVisualStyle
  2
3D Hidden
 70
     6
177
     2
291
     0
 71
     1
176
     1
 72
     2
176
     1
 73
     2
176
     1
 90
        0
176
     1
 40
-0.6
176
     1
 41
-30.0
176
     1
 62
     5
 63
     7
421
 16777215
176
     1
 74
     2
176
     1
 91
        2
176
     1
 64
     7
176
     1
 65
   257
176
     1
 75
     2
176
     1
175
     1
176
     1
 42
40.0
176
     1
 92
        0
176
     1
 66
   257
176
     1
 43
1.0
176
     1
 76
     1
176
     1
 77
     6
176
     1
 78
     2
176
     1
 67
     7
176
     1
 79
     3
176
     1
170
     0
176
     1
171
     0
176
     1
290
     0
176
     1
 93
        1
176
     1
 44
0.0
176
     1
173
     0
176
     1
  0
VISUALSTYLE
  5
30
102
{ACAD_REACTORS
330
2A
102
}
330
2A
100
AcDbVisualStyle
  2
3dWireframe
 70
     5
177
     2
291
     0
 71
     0
176
     1
 72
     2
176
     1
 73
     0
176
     1
 90
        0
176
     1
 40
-0.6
176
     1
 41
-30.0
176
     1
 62
     5
 63
     7
421
 16777215
176
     1
 74
     1
176
     1
 91
        4
176
     1
 64
     7
176
     1
 65
   257
176
     1
 75
     1
176
     1
175
     1
176
     1
 42
1.0
176
     1
 92
        0
176
     1
 66
   257
176
     1
 43
1.0
176
     1
 76
     1
176
     1
 77
     6
176
     1
 78
     2
176
     1
 67
     7
176
     1
 79
     5
176
     1
170
     0
176
     1
171
     0
176
     1
290
     0
176
     1
 93
        1
176
     1
 44
0.0
176
     1
173
     0
176
     1
  0
VISUALSTYLE
  5
32
102
{ACAD_REACTORS
330
2A
102
}
330
2A
100
AcDbVisualStyle
  2
Basic
 70
     7
177
     2
291
     1
 71
     1
176
     1
 72
     0
176
     1
 73
     1
176
     1
 90
        0
176
     1
 40
-0.6
176
     1
 41
-30.0
176
     1
 62
     5
 63
     7
421
 16777215
176
     1
 74
     0
176
     1
 91
        4
176
     1
 64
     7
176
     1
 65
   257
176
     1
 75
     1
176
     1
175
     1
176
     1
 42
1.0
176
     1
 92
        8
176
     1
 66
     7
176
     1
 43
1.0
176
     1
 76
     1
176
     1
 77
     6
176
     1
 78
     2
176
     1
 67
     7
176
     1
 79
     5
176
     1
170
     0
176
     1
171
     0
176
     1
290
     0
176
     1
 93
        1
176
     1
 44
0.0
176
     1
173
     0
176
     1
  0
VISUALSTYLE
  5
36
102
{ACAD_REACTORS
330
2A
102
}
330
2A
100
AcDbVisualStyle
  2
Brighten
 70
    12
177
     2
291
     1
 71
     2
176
     1
 72
     2
176
     1
 73
     0
176
     1
 90
        0
176
     1
 40
-0.6
176
     1
 41
-30.0
176
     1
 62
     5
 63
     7
421
 16777215
176
     1
 74
     1
176
     1
 91
        4
176
     1
 64
     7
176
     1
 65
   257
176
     1
 75
     1
176
     1
175
     1
176
     1
 42
1.0
176
     1
 92
        8
176
     1
 66
     7
176
     1
 43
1.0
176
     1
 76
     1
176
     1
 77
     6
176
     1
 78
     2
176
     1
 67
     7
176
     1
 79
     5
176
     1
170
     0
176
     1
171
     0
176
     1
290
     0
176
     1
 93
        1
176
     1
 44
50.0
176
     1
173
     0
176
     1
  0
VISUALSTYLE
  5
3A
102
{ACAD_REACTORS
330
2A
102
}
330
2A
100
AcDbVisualStyle
  2
ColorChange
 70
    16
177
     2
291
     1
 71
     2
176
     1
 72
     2
176
     1
 73
     3
176
     1
 90
        0
176
     1
 40
-0.6
176
     1
 41
-30.0
176
     1
 62
     5
 63
     8
421
  8421504
176
     1
 74
     1
176
     1
 91
        4
176
     1
 64
     7
176
     1
 65
   257
176
     1
 75
     1
176
     1
175
     1
176
     1
 42
1.0
176
     1
 92
        8
176
     1
 66
     8
424
  8421504
176
     1
 43
1.0
176
     1
 76
     1
176
     1
 77
     6
176
     1
 78
     2
176
     1
 67
     7
176
     1
 79
     5
176
     1
170
     0
176
     1
171
     0
176
     1
290
     0
176
     1
 93
        1
176
     1
 44
0.0
176
     1
173
     0
176
     1
  0
VISUALSTYLE
  5
34
102
{ACAD_REACTORS
330
2A
102
}
330
2A
100
AcDbVisualStyle
  2
Conceptual
 70
     9
177
     2
291
     0
 71
     3
176
     1
 72
     2
176
     1
 73
     0
176
     1
 90
        0
176
     1
 40
-0.6
176
     1
 41
-30.0
176
     1
 62
     5
 63
     7
421
 16777215
176
     1
 74
     2
176
     1
 91
        2
176
     1
 64
     7
176
     1
 65
   257
176
     1
 75
     1
176
     1
175
     1
176
     1
 42
40.0
176
     1
 92
        8
176
     1
 66
     7
176
     1
 43
1.0
176
     1
 76
     1
176
     1
 77
     6
176
     1
 78
     2
176
     1
 67
     7
176
     1
 79
     3
176
     1
170
     0
176
     1
171
     0
176
     1
290
     0
176
     1
 93
        1
176
     1
 44
0.0
176
     1
173
     0
176
     1
  0
VISUALSTYLE
  5
35
102
{ACAD_REACTORS
330
2A
102
}
330
2A
100
AcDbVisualStyle
  2
Dim
 70
    11
177
     2
291
     1
 71
     2
176
     1
 72
     2
176
     1
 73
     0
176
     1
 90
        0
176
     1
 40
-0.6
176
     1
 41
-30.0
176
     1
 62
     5
 63
     7
421
 16777215
176
     1
 74
     1
176
     1
 91
        4
176
     1
 64
     7
176
     1
 65
   257
176
     1
 75
     1
176
     1
175
     1
176
     1
 42
1.0
176
     1
 92
        8
176
     1
 66
     7
176
     1
 43
1.0
176
     1
 76
     1
176
     1
 77
     6
176
     1
 78
     2
176
     1
 67
     7
176
     1
 79
     5
176
     1
170
     0
176
     1
171
     0
176
     1
290
     0
176
     1
 93
        1
176
     1
 44
-50.0
176
     1
173
     0
176
     1
  0
VISUALSTYLE
  5
39
102
{ACAD_REACTORS
330
2A
102
}
330
2A
100
AcDbVisualStyle
  2
Facepattern
 70
    15
177
     2
291
     1
 71
     2
176
     1
 72
     2
176
     1
 73
     0
176
     1
 90
        0
176
     1
 40
-0.6
176
     1
 41
-30.0
176
     1
 62
     5
 63
     7
421
 16777215
176
     1
 74
     1
176
     1
 91
        4
176
     1
 64
     7
176
     1
 65
   257
176
     1
 75
     1
176
     1
175
     1
176
     1
 42
1.0
176
     1
 92
        8
176
     1
 66
     7
176
     1
 43
1.0
176
     1
 76
     1
176
     1
 77
     6
176
     1
 78
     2
176
     1
 67
     7
176
     1
 79
     5
176
     1
170
     0
176
     1
171
     0
176
     1
290
     0
176
     1
 93
        1
176
     1
 44
0.0
176
     1
173
     0
176
     1
  0
VISUALSTYLE
  5
2B
102
{ACAD_REACTORS
330
2A
102
}
330
2A
100
AcDbVisualStyle
  2
Flat
 70
     0
177
     2
291
     1
 71
     2
176
     1
 72
     1
176
     1
 73
     1
176
     1
 90
        2
176
     1
 40
-0.6
176
     1
 41
30.0
176
     1
 62
     5
 63
     7
421
 16777215
176
     1
 74
     0
176
     1
 91
        4
176
     1
 64
     7
176
     1
 65
   257
176
     1
 75
     1
176
     1
175
     1
176
     1
 42
1.0
176
     1
 92
        8
176
     1
 66
     7
176
     1
 43
1.0
176
     1
 76
     1
176
     1
 77
     6
176
     1
 78
     2
176
     1
 67
     7
176
     1
 79
     5
176
     1
170
     0
176
     1
171
     0
176
     1
290
     0
176
     1
 93
       13
176
     1
 44
0.0
176
     1
173
     0
176
     1
  0
VISUALSTYLE
  5
2C
102
{ACAD_REACTORS
330
2A
102
}
330
2A
100
AcDbVisualStyle
  2
FlatWithEdges
 70
     1
177
     2
291
     1
 71
     2
176
     1
 72
     1
176
     1
 73
     1
176
     1
 90
        2
176
     1
 40
-0.6
176
     1
 41
30.0
176
     1
 62
     5
 63
     7
421
 16777215
176
     1
 74
     1
176
     1
 91
        4
176
     1
 64
     7
176
     1
 65
   257
176
     1
 75
     1
176
     1
175
     1
176
     1
 42
1.0
176
     1
 92
        0
176
     1
 66
   257
176
     1
 43
1.0
176
     1
 76
     1
176
     1
 77
     6
176
     1
 78
     2
176
     1
 67
     7
176
     1
 79
     5
176
     1
170
     0
176
     1
171
     0
176
     1
290
     0
176
     1
 93
       13
176
     1
 44
0.0
176
     1
173
     0
176
     1
  0
VISUALSTYLE
  5
2D
102
{ACAD_REACTORS
330
2A
102
}
330
2A
100
AcDbVisualStyle
  2
Gouraud
 70
     2
177
     2
291
     1
 71
     2
176
     1
 72
     2
176
     1
 73
     1
176
     1
 90
        2
176
     1
 40
-0.6
176
     1
 41
30.0
176
     1
 62
     5
 63
     7
421
 16777215
176
     1
 74
     0
176
     1
 91
        4
176
     1
 64
     7
176
     1
 65
   257
176
     1
 75
     1
176
     1
175
     1
176
     1
 42
1.0
176
     1
 92
        0
176
     1
 66
     7
176
     1
 43
1.0
176
     1
 76
     1
176
     1
 77
     6
176
     1
 78
     2
176
     1
 67
     7
176
     1
 79
     5
176
     1
170
     0
176
     1
171
     0
176
     1
290
     0
176
     1
 93
       13
176
     1
 44
0.0
176
     1
173
     0
176
     1
  0
VISUALSTYLE
  5
2E
102
{ACAD_REACTORS
330
2A
102
}
330
2A
100
AcDbVisualStyle
  2
GouraudWithEdges
 70
     3
177
     2
291
     1
 71
     2
176
     1
 72
     2
176
     1
 73
     1
176
     1
 90
        2
176
     1
 40
-0.6
176
     1
 41
30.0
176
     1
 62
     5
 63
     7
421
 16777215
176
     1
 74
     1
176
     1
 91
        4
176
     1
 64
     7
176
     1
 65
   257
176
     1
 75
     1
176
     1
175
     1
176
     1
 42
1.0
176
     1
 92
        0
176
     1
 66
   257
176
     1
 43
1.0
176
     1
 76
     1
176
     1
 77
     6
176
     1
 78
     2
176
     1
 67
     7
176
     1
 79
     5
176
     1
170
     0
176
     1
171
     0
176
     1
290
     0
176
     1
 93
       13
176
     1
 44
0.0
176
     1
173
     0
176
     1
  0
VISUALSTYLE
  5
38
102
{ACAD_REACTORS
330
2A
102
}
330
2A
100
AcDbVisualStyle
  2
Linepattern
 70
    14
177
     2
291
     1
 71
     2
176
     1
 72
     2
176
     1
 73
     0
176
     1
 90
        0
176
     1
 40
-0.6
176
     1
 41
-30.0
176
     1
 62
     5
 63
     7
421
 16777215
176
     1
 74
     1
176
     1
 91
        4
176
     1
 64
     7
176
     1
 65
   257
176
     1
 75
     7
176
     1
175
     7
176
     1
 42
1.0
176
     1
 92
        8
176
     1
 66
     7
176
     1
 43
1.0
176
     1
 76
     1
176
     1
 77
     6
176
     1
 78
     2
176
     1
 67
     7
176
     1
 79
     5
176
     1
170
     0
176
     1
171
     0
176
     1
290
     0
176
     1
 93
        1
176
     1
 44
0.0
176
     1
173
     0
176
     1
  0
VISUALSTYLE
  5
33
102
{ACAD_REACTORS
330
2A
102
}
330
2A
100
AcDbVisualStyle
  2
Realistic
 70
     8
177
     2
291
     0
 71
     2
176
     1
 72
     2
176
     1
 73
     0
176
     1
 90
        0
176
     1
 40
-0.6
176
     1
 41
-30.0
176
     1
 62
     5
 63
     7
421
 16777215
176
     1
 74
     1
176
     1
 91
        0
176
     1
 64
     7
176
     1
 65
   257
176
     1
 75
     1
176
     1
175
     1
176
     1
 42
1.0
176
     1
 92
        8
176
     1
 66
     8
424
  7895160
176
     1
 43
1.0
176
     1
 76
     1
176
     1
 77
     6
176
     1
 78
     2
176
     1
 67
     7
176
     1
 79
     5
176
     1
170
     0
176
     1
171
     0
176
     1
290
     0
176
     1
 93
       13
176
     1
 44
0.0
176
     1
173
     0
176
     1
  0
VISUALSTYLE
  5
37
102
{ACAD_REACTORS
330
2A
102
}
330
2A
100
AcDbVisualStyle
  2
Thicken
 70
    13
177
     2
291
     1
 71
     2
176
     1
 72
     2
176
     1
 73
     0
176
     1
 90
        0
176
     1
 40
-0.6
176
     1
 41
-30.0
176
     1
 62
     5
 63
     7
421
 16777215
176
     1
 74
     1
176
     1
 91
        4
176
     1
 64
     7
176
     1
 65
   257
176
     1
 75
     1
176
     1
175
     1
176
     1
 42
1.0
176
     1
 92
       12
176
     1
 66
     7
176
     1
 43
1.0
176
     1
 76
     1
176
     1
 77
     6
176
     1
 78
     2
176
     1
 67
     7
176
     1
 79
     5
176
     1
170
     0
176
     1
171
     0
176
     1
290
     0
176
     1
 93
        1
176
     1
 44
0.0
176
     1
173
     0
176
     1
  0
ENDSEC
  0
EOF
