  0
SECTION
  2
HEADER
  9
$ACADVER
  1
AC1024
  9
$ACADMAINTVER
 70
     6
  9
$DWGCODEPAGE
  3
UNDEFINED
  9
$INSBASE
 10
0.0
 20
0.0
 30
0.0
  9
$EXTMIN
 10
1.000000000000000E+20
 20
1.000000000000000E+20
 30
1.000000000000000E+20
  9
$EXTMAX
 10
-1.000000000000000E+20
 20
-1.000000000000000E+20
 30
-1.000000000000000E+20
  9
$LIMMIN
 10
0.0
 20
0.0
  9
$LIMMAX
 10
12.0
 20
9.0
  9
$ORTHOMODE
 70
     0
  9
$REGENMODE
 70
     1
  9
$FILLMODE
 70
     1
  9
$QTEXTMODE
 70
     0
  9
$MIRRTEXT
 70
     1
  9
$LTSCALE
 40
1.0
  9
$ATTMODE
 70
     1
  9
$TEXTSIZE
 40
0.2
  9
$TRACEWID
 40
0.05
  9
$TEXTSTYLE
  7
Standard
  9
$CLAYER
  8
0
  9
$CELTYPE
  6
ByLayer
  9
$CECOLOR
 62
   256
  9
$CELTSCALE
 40
1.0
  9
$DISPSILH
 70
     0
  9
$DIMSCALE
 40
1.0
  9
$DIMASZ
 40
0.18
  9
$DIMEXO
 40
0.0625
  9
$DIMDLI
 40
0.38
  9
$DIMRND
 40
0.0
  9
$DIMDLE
 40
0.0
  9
$DIMEXE
 40
0.18
  9
$DIMTP
 40
0.0
  9
$DIMTM
 40
0.0
  9
$DIMTXT
 40
0.18
  9
$DIMCEN
 40
0.09
  9
$DIMTSZ
 40
0.0
  9
$DIMTOL
 70
     0
  9
$DIMLIM
 70
     0
  9
$DIMTIH
 70
     1
  9
$DIMTOH
 70
     1
  9
$DIMSE1
 70
     0
  9
$DIMSE2
 70
     0
  9
$DIMTAD
 70
     0
  9
$DIMZIN
 70
     0
  9
$DIMBLK
  1

  9
$DIMASO
 70
     1
  9
$DIMSHO
 70
     1
  9
$DIMPOST
  1

  9
$DIMAPOST
  1

  9
$DIMALT
 70
     0
  9
$DIMALTD
 70
     2
  9
$DIMALTF
 40
25.4
  9
$DIMLFAC
 40
1.0
  9
$DIMTOFL
 70
     0
  9
$DIMTVP
 40
0.0
  9
$DIMTIX
 70
     0
  9
$DIMSOXD
 70
     0
  9
$DIMSAH
 70
     0
  9
$DIMBLK1
  1

  9
$DIMBLK2
  1

  9
$DIMSTYLE
  2
Standard
  9
$DIMCLRD
 70
     0
  9
$DIMCLRE
 70
     0
  9
$DIMCLRT
 70
     0
  9
$DIMTFAC
 40
1.0
  9
$DIMGAP
 40
0.09
  9
$DIMJUST
 70
     0
  9
$DIMSD1
 70
     0
  9
$DIMSD2
 70
     0
  9
$DIMTOLJ
 70
     1
  9
$DIMTZIN
 70
     0
  9
$DIMALTZ
 70
     0
  9
$DIMALTTZ
 70
     0
  9
$DIMUPT
 70
     0
  9
$DIMDEC
 70
     4
  9
$DIMTDEC
 70
     4
  9
$DIMALTU
 70
     2
  9
$DIMALTTD
 70
     2
  9
$DIMTXSTY
  7
Standard
  9
$DIMAUNIT
 70
     0
  9
$DIMADEC
 70
     0
  9
$DIMALTRND
 40
0.0
  9
$DIMAZIN
 70
     0
  9
$DIMDSEP
 70
    46
  9
$DIMATFIT
 70
     3
  9
$DIMFRAC
 70
     0
  9
$DIMLDRBLK
  1

  9
$DIMLUNIT
 70
     2
  9
$DIMLWD
 70
    -2
  9
$DIMLWE
 70
    -2
  9
$DIMTMOVE
 70
     0
  9
$DIMFXL
 40
1.0
  9
$DIMFXLON
 70
     0
  9
$DIMJOGANG
 40
0.7853981633974483
  9
$DIMTFILL
 70
     0
  9
$DIMTFILLCLR
 70
     0
  9
$DIMARCSYM
 70
     0
  9
$DIMLTYPE
  6

  9
$DIMLTEX1
  6

  9
$DIMLTEX2
  6

  9
$DIMTXTDIRECTION
 70
     0
  9
$LUNITS
 70
     2
  9
$LUPREC
 70
     4
  9
$SKETCHINC
 40
0.1
  9
$FILLETRAD
 40
0.5
  9
$AUNITS
 70
     0
  9
$AUPREC
 70
     0
  9
$MENU
  1
.
  9
$ELEVATION
 40
0.0
  9
$PELEVATION
 40
0.0
  9
$THICKNESS
 40
0.0
  9
$LIMCHECK
 70
     0
  9
$CHAMFERA
 40
0.5
  9
$CHAMFERB
 40
0.5
  9
$CHAMFERC
 40
1.0
  9
$CHAMFERD
 40
0.0
  9
$SKPOLY
 70
     0
  9
$TDCREATE
 40
2457917.614085648
  9
$TDUCREATE
 40
2457917.239085648
  9
$TDUPDATE
 40
2457917.614085648
  9
$TDUUPDATE
 40
2457917.239085648
  9
$TDINDWG
 40
0.0000000116
  9
$TDUSRTIMER
 40
0.0000000116
  9
$USRTIMER
 70
     1
  9
$ANGBASE
 50
0.0
  9
$ANGDIR
 70
     0
  9
$PDMODE
 70
     0
  9
$PDSIZE
 40
0.0
  9
$PLINEWID
 40
0.0
  9
$SPLFRAME
 70
     0
  9
$SPLINETYPE
 70
     6
  9
$SPLINESEGS
 70
     8
  9
$HANDSEED
  5
16A
  9
$SURFTAB1
 70
     6
  9
$SURFTAB2
 70
     6
  9
$SURFTYPE
 70
     6
  9
$SURFU
 70
     6
  9
$SURFV
 70
     6
  9
$UCSBASE
  2

  9
$UCSNAME
  2

  9
$UCSORG
 10
0.0
 20
0.0
 30
0.0
  9
$UCSXDIR
 10
1.0
 20
0.0
 30
0.0
  9
$UCSYDIR
 10
0.0
 20
1.0
 30
0.0
  9
$UCSORTHOREF
  2

  9
$UCSORTHOVIEW
 70
     0
  9
$UCSORGTOP
 10
0.0
 20
0.0
 30
0.0
  9
$UCSORGBOTTOM
 10
0.0
 20
0.0
 30
0.0
  9
$UCSORGLEFT
 10
0.0
 20
0.0
 30
0.0
  9
$UCSORGRIGHT
 10
0.0
 20
0.0
 30
0.0
  9
$UCSORGFRONT
 10
0.0
 20
0.0
 30
0.0
  9
$UCSORGBACK
 10
0.0
 20
0.0
 30
0.0
  9
$PUCSBASE
  2

  9
$PUCSNAME
  2

  9
$PUCSORG
 10
0.0
 20
0.0
 30
0.0
  9
$PUCSXDIR
 10
1.0
 20
0.0
 30
0.0
  9
$PUCSYDIR
 10
0.0
 20
1.0
 30
0.0
  9
$PUCSORTHOREF
  2

  9
$PUCSORTHOVIEW
 70
     0
  9
$PUCSORGTOP
 10
0.0
 20
0.0
 30
0.0
  9
$PUCSORGBOTTOM
 10
0.0
 20
0.0
 30
0.0
  9
$PUCSORGLEFT
 10
0.0
 20
0.0
 30
0.0
  9
$PUCSORGRIGHT
 10
0.0
 20
0.0
 30
0.0
  9
$PUCSORGFRONT
 10
0.0
 20
0.0
 30
0.0
  9
$PUCSORGBACK
 10
0.0
 20
0.0
 30
0.0
  9
$USERI1
 70
     0
  9
$USERI2
 70
     0
  9
$USERI3
 70
     0
  9
$USERI4
 70
     0
  9
$USERI5
 70
     0
  9
$USERR1
 40
0.0
  9
$USERR2
 40
0.0
  9
$USERR3
 40
0.0
  9
$USERR4
 40
0.0
  9
$USERR5
 40
0.0
  9
$WORLDVIEW
 70
     1
  9
$SHADEDGE
 70
     3
  9
$SHADEDIF
 70
    70
  9
$TILEMODE
 70
     1
  9
$MAXACTVP
 70
    64
  9
$PINSBASE
 10
0.0
 20
0.0
 30
0.0
  9
$PLIMCHECK
 70
     0
  9
$PEXTMIN
 10
1.000000000000000E+20
 20
1.000000000000000E+20
 30
1.000000000000000E+20
  9
$PEXTMAX
 10
-1.000000000000000E+20
 20
-1.000000000000000E+20
 30
-1.000000000000000E+20
  9
$PLIMMIN
 10
0.0
 20
0.0
  9
$PLIMMAX
 10
12.0
 20
9.0
  9
$UNITMODE
 70
     0
  9
$VISRETAIN
 70
     1
  9
$PLINEGEN
 70
     0
  9
$PSLTSCALE
 70
     1
  9
$TREEDEPTH
 70
  3020
  9
$CMLSTYLE
  2
Standard
  9
$CMLJUST
 70
     0
  9
$CMLSCALE
 40
1.0
  9
$PROXYGRAPHICS
 70
     1
  9
$MEASUREMENT
 70
     0
  9
$CELWEIGHT
370
    -1
  9
$ENDCAPS
280
     0
  9
$JOINSTYLE
280
     0
  9
$LWDISPLAY
290
     1
  9
$INSUNITS
 70
     1
  9
$HYPERLINKBASE
  1

  9
$STYLESHEET
  1

  9
$XEDIT
290
     1
  9
$CEPSNTYPE
380
     0
  9
$PSTYLEMODE
290
     1
  9
$FINGERPRINTGUID
  2
{5F8B3199-CA00-56A6-E656-16C86C8E1B03}
  9
$VERSIONGUID
  2
{FAEB1C32-E019-11D5-929B-00C0DF256EC4}
  9
$EXTNAMES
290
     1
  9
$PSVPSCALE
 40
0.0
  9
$OLESTARTUP
290
     0
  9
$SORTENTS
280
   127
  9
$INDEXCTL
280
     0
  9
$HIDETEXT
280
     1
  9
$XCLIPFRAME
280
     2
  9
$HALOGAP
280
     0
  9
$OBSCOLOR
 70
   257
  9
$OBSLTYPE
280
     0
  9
$INTERSECTIONDISPLAY
280
     0
  9
$INTERSECTIONCOLOR
 70
   257
  9
$DIMASSOC
280
     2
  9
$PROJECTNAME
  1

  9
$CAMERADISPLAY
290
     0
  9
$LENSLENGTH
 40
50.0
  9
$CAMERAHEIGHT
 40
0.0
  9
$STEPSPERSEC
 40
2.0
  9
$STEPSIZE
 40
6.0
  9
$3DDWFPREC
 40
2.0
  9
$PSOLWIDTH
 40
0.25
  9
$PSOLHEIGHT
 40
4.0
  9
$LOFTANG1
 40
1.570796326794897
  9
$LOFTANG2
 40
1.570796326794897
  9
$LOFTMAG1
 40
0.0
  9
$LOFTMAG2
 40
0.0
  9
$LOFTPARAM
 70
     7
  9
$LOFTNORMALS
280
     1
  9
$LATITUDE
 40
37.795
  9
$LONGITUDE
 40
-122.394
  9
$NORTHDIRECTION
 40
0.0
  9
$TIMEZONE
 70
 -8000
  9
$LIGHTGLYPHDISPLAY
280
     1
  9
$TILEMODELIGHTSYNCH
280
     1
  9
$CMATERIAL
347
3C
  9
$SOLIDHIST
280
     1
  9
$SHOWHIST
280
     1
  9
$DWFFRAME
280
     2
  9
$DGNFRAME
280
     2
  9
$REALWORLDSCALE
290
     1
  9
$INTERFERECOLOR
 62
   256
  9
$CSHADOW
280
     0
  9
$SHADOWPLANELOCATION
 40
0.0
  0
ENDSEC
  0
SECTION
  2
CLASSES
  0
CLASS
  1
ACDBDICTIONARYWDFLT
  2
AcDbDictionaryWithDefault
  3
ObjectDBX Classes
 90
        0
 91
        4
280
     0
281
     0
  0
CLASS
  1
VISUALSTYLE
  2
AcDbVisualStyle
  3
ObjectDBX Classes
 90
     4095
 91
        4
280
     0
281
     0
  0
CLASS
  1
MATERIAL
  2
AcDbMaterial
  3
ObjectDBX Classes
 90
     1153
 91
        4
280
     0
281
     0
  0
CLASS
  1
SUN
  2
AcDbSun
  3
SCENEOE
 90
     1024
 91
        4
280
     0
281
     0
  0
ENDSEC
  0
SECTION
  2
TABLES
  0
TABLE
  2
VPORT
  5
8
330
0
100
AcDbSymbolTable
 70
     1
  0
VPORT
  5
29
330
8
100
AcDbSymbolTableRecord
100
AcDbViewportTableRecord
  2
*Active
 70
     0
 10
0.0
 20
0.0
 11
1.0
 21
1.0
 12
0.0
 22
0.0
 13
0.0
 23
0.0
 14
0.5
 24
0.5
 15
0.5
 25
0.5
 16
0.0
 26
0.0
 36
1.0
 17
91.00082462281999
 27
-128.4993055234307
 37
0.0
 40
256.9986110468615
 41
0.7081814508812795
 42
50.0
 43
0.0
 44
0.0
 50
0.0
 51
0.0
 71
     0
 72
   100
 73
     1
 74
     3
 75
     0
 76
     0
 77
     0
 78
     0
281
     0
 65
     1
110
0.0
120
0.0
130
0.0
111
1.0
121
0.0
131
0.0
112
0.0
122
1.0
132
0.0
 79
     0
146
0.0
 60
     3
 61
     5
292
     1
282
     1
141
0.0
142
0.0
 63
   250
361
3F
  0
ENDTAB
  0
TABLE
  2
LTYPE
  5
5
330
0
100
AcDbSymbolTable
 70
     1
  0
LTYPE
  5
14
330
5
100
AcDbSymbolTableRecord
100
AcDbLinetypeTableRecord
  2
ByBlock
 70
     0
  3

 72
    65
 73
     0
 40
0.0
  0
LTYPE
  5
15
330
5
100
AcDbSymbolTableRecord
100
AcDbLinetypeTableRecord
  2
ByLayer
 70
     0
  3

 72
    65
 73
     0
 40
0.0
  0
LTYPE
  5
16
330
5
100
AcDbSymbolTableRecord
100
AcDbLinetypeTableRecord
  2
Continuous
 70
     0
  3
Solid line
 72
    65
 73
     0
 40
0.0
  0
ENDTAB
  0
TABLE
  2
LAYER
  5
2
330
0
100
AcDbSymbolTable
 70
     2
  0
LAYER
  5
10
330
2
100
AcDbSymbolTableRecord
100
AcDbLayerTableRecord
  2
0
 70
     0
 62
     7
  6
Continuous
370
    -3
390
F
347
3E
  0
LAYER
  5
40
330
2
100
AcDbSymbolTableRecord
100
AcDbLayerTableRecord
  2
_U+30EC_U+30A4_U+30E4_U+30FC 1
 70
     0
 62
     7
  6
Continuous
370
    -3
390
F
347
3E
  0
ENDTAB
  0
TABLE
  2
STYLE
  5
3
330
0
100
AcDbSymbolTable
 70
     1
  0
STYLE
  5
11
330
3
100
AcDbSymbolTableRecord
100
AcDbTextStyleTableRecord
  2
Standard
 70
     0
 40
0.0
 41
1.0
 50
0.0
 71
     0
 42
0.2
  3
txt
  4

  0
ENDTAB
  0
TABLE
  2
VIEW
  5
6
330
0
100
AcDbSymbolTable
 70
     0
  0
ENDTAB
  0
TABLE
  2
UCS
  5
7
330
0
100
AcDbSymbolTable
 70
     0
  0
ENDTAB
  0
TABLE
  2
APPID
  5
9
330
0
100
AcDbSymbolTable
 70
     1
  0
APPID
  5
12
330
9
100
AcDbSymbolTableRecord
100
AcDbRegAppTableRecord
  2
ACAD
 70
     0
  0
ENDTAB
  0
TABLE
  2
DIMSTYLE
  5
A
330
0
100
AcDbSymbolTable
 70
     1
100
AcDbDimStyleTable
  0
DIMSTYLE
105
27
330
A
100
AcDbSymbolTableRecord
100
AcDbDimStyleTableRecord
  2
Standard
 70
     0
178
     0
340
11
  0
ENDTAB
  0
TABLE
  2
BLOCK_RECORD
  5
1
330
0
100
AcDbSymbolTable
 70
    14
  0
BLOCK_RECORD
  5
1F
330
1
100
AcDbSymbolTableRecord
100
AcDbBlockTableRecord
  2
*Model_Space
340
22
 70
     0
280
     1
281
     0
  0
BLOCK_RECORD
  5
1B
330
1
100
AcDbSymbolTableRecord
100
AcDbBlockTableRecord
  2
*Paper_Space
340
1E
 70
     0
280
     1
281
     0
  0
BLOCK_RECORD
  5
23
330
1
100
AcDbSymbolTableRecord
100
AcDbBlockTableRecord
  2
*Paper_Space0
340
26
 70
     0
280
     1
281
     0
  0
BLOCK_RECORD
  5
AD
330
1
100
AcDbSymbolTableRecord
100
AcDbBlockTableRecord
  2
block 2
340
0
102
{BLKREFS
331
AE
102
}
 70
     0
280
     1
281
     0
  0
BLOCK_RECORD
  5
BD
330
1
100
AcDbSymbolTableRecord
100
AcDbBlockTableRecord
  2
block 3
340
0
102
{BLKREFS
331
BE
102
}
 70
     0
280
     1
281
     0
  0
BLOCK_RECORD
  5
C3
330
1
100
AcDbSymbolTableRecord
100
AcDbBlockTableRecord
  2
block 4
340
0
102
{BLKREFS
331
C4
102
}
 70
     0
280
     1
281
     0
  0
BLOCK_RECORD
  5
D3
330
1
100
AcDbSymbolTableRecord
100
AcDbBlockTableRecord
  2
block 5
340
0
102
{BLKREFS
331
D4
102
}
 70
     0
280
     1
281
     0
  0
BLOCK_RECORD
  5
D9
330
1
100
AcDbSymbolTableRecord
100
AcDbBlockTableRecord
  2
block 6
340
0
102
{BLKREFS
331
DA
102
}
 70
     0
280
     1
281
     0
  0
BLOCK_RECORD
  5
E9
330
1
100
AcDbSymbolTableRecord
100
AcDbBlockTableRecord
  2
block 7
340
0
102
{BLKREFS
331
EA
102
}
 70
     0
280
     1
281
     0
  0
BLOCK_RECORD
  5
105
330
1
100
AcDbSymbolTableRecord
100
AcDbBlockTableRecord
  2
block 8
340
0
102
{BLKREFS
331
106
102
}
 70
     0
280
     1
281
     0
  0
BLOCK_RECORD
  5
115
330
1
100
AcDbSymbolTableRecord
100
AcDbBlockTableRecord
  2
block 9
340
0
102
{BLKREFS
331
116
102
}
 70
     0
280
     1
281
     0
  0
BLOCK_RECORD
  5
11E
330
1
100
AcDbSymbolTableRecord
100
AcDbBlockTableRecord
  2
block 10
340
0
102
{BLKREFS
331
11F
102
}
 70
     0
280
     1
281
     0
  0
BLOCK_RECORD
  5
12E
330
1
100
AcDbSymbolTableRecord
100
AcDbBlockTableRecord
  2
block 11
340
0
102
{BLKREFS
331
12F
102
}
 70
     0
280
     1
281
     0
  0
BLOCK_RECORD
  5
141
330
1
100
AcDbSymbolTableRecord
100
AcDbBlockTableRecord
  2
block 12
340
0
102
{BLKREFS
331
142
102
}
 70
     0
280
     1
281
     0
  0
BLOCK_RECORD
  5
151
330
1
100
AcDbSymbolTableRecord
100
AcDbBlockTableRecord
  2
block 13
340
0
102
{BLKREFS
331
152
102
}
 70
     0
280
     1
281
     0
  0
BLOCK_RECORD
  5
162
330
1
100
AcDbSymbolTableRecord
100
AcDbBlockTableRecord
  2
block 14
340
0
102
{BLKREFS
331
163
102
}
 70
     0
280
     1
281
     0
  0
ENDTAB
  0
ENDSEC
  0
SECTION
  2
BLOCKS
  0
BLOCK
  5
20
330
1F
100
AcDbEntity
  8
0
100
AcDbBlockBegin
  2
*Model_Space
 70
     0
 10
0.0
 20
0.0
 30
0.0
  3
*Model_Space
  1

  0
ENDBLK
  5
21
330
1F
100
AcDbEntity
  8
0
100
AcDbBlockEnd
  0
BLOCK
  5
1C
330
1B
100
AcDbEntity
 67
     1
  8
0
100
AcDbBlockBegin
  2
*Paper_Space
 70
     0
 10
0.0
 20
0.0
 30
0.0
  3
*Paper_Space
  1

  0
ENDBLK
  5
1D
330
1B
100
AcDbEntity
 67
     1
  8
0
100
AcDbBlockEnd
  0
BLOCK
  5
24
330
23
100
AcDbEntity
  8
0
100
AcDbBlockBegin
  2
*Paper_Space0
 70
     0
 10
0.0
 20
0.0
 30
0.0
  3
*Paper_Space0
  1

  0
ENDBLK
  5
25
330
23
100
AcDbEntity
  8
0
100
AcDbBlockEnd
  0
BLOCK
  5
AF
330
AD
100
AcDbEntity
  8
0
100
AcDbBlockBegin
  2
block 2
 70
     0
 10
0.0
 20
0.0
 30
0.0
  3
block 2
  1

  0
POLYLINE
  5
B1
330
AD
100
AcDbEntity
  8
_U+30EC_U+30A4_U+30E4_U+30FC 1
 62
   179
420
  2234388
370
     9
100
AcDb2dPolyline
 66
     1
 10
0.0
 20
0.0
 30
0.0
  0
VERTEX
  5
B2
330
B1
100
AcDbEntity
  8
_U+30EC_U+30A4_U+30E4_U+30FC 1
 62
   179
420
  2234388
370
     9
100
AcDbVertex
100
AcDb2dVertex
 10
116.0749278720152
 20
-139.2094271874196
 30
0.0
  0
VERTEX
  5
B3
330
B1
100
AcDbEntity
  8
_U+30EC_U+30A4_U+30E4_U+30FC 1
 62
   179
420
  2234388
370
     9
100
AcDbVertex
100
AcDb2dVertex
 10
116.0749278720152
 20
-142.2094141311146
 30
0.0
  0
SEQEND
  5
B4
330
B1
100
AcDbEntity
  8
_U+30EC_U+30A4_U+30E4_U+30FC 1
 62
   179
420
  2234388
370
     9
  0
POLYLINE
  5
B5
330
AD
100
AcDbEntity
  8
_U+30EC_U+30A4_U+30E4_U+30FC 1
 62
   179
420
  2234388
370
     9
100
AcDb2dPolyline
 66
     1
 10
0.0
 20
0.0
 30
0.0
  0
VERTEX
  5
B6
330
B5
100
AcDbEntity
  8
_U+30EC_U+30A4_U+30E4_U+30FC 1
 62
   179
420
  2234388
370
     9
100
AcDbVertex
100
AcDb2dVertex
 10
84.61533534128296
 20
-139.2094271874196
 30
0.0
  0
VERTEX
  5
B7
330
B5
100
AcDbEntity
  8
_U+30EC_U+30A4_U+30E4_U+30FC 1
 62
   179
420
  2234388
370
     9
100
AcDbVertex
100
AcDb2dVertex
 10
117.0753703464918
 20
-139.2094271874196
 30
0.0
  0
SEQEND
  5
B8
330
B5
100
AcDbEntity
  8
_U+30EC_U+30A4_U+30E4_U+30FC 1
 62
   179
420
  2234388
370
     9
  0
POLYLINE
  5
B9
330
AD
100
AcDbEntity
  8
_U+30EC_U+30A4_U+30E4_U+30FC 1
 62
   179
420
  2234388
370
     9
100
AcDb2dPolyline
 66
     1
 10
0.0
 20
0.0
 30
0.0
  0
VERTEX
  5
BA
330
B9
100
AcDbEntity
  8
_U+30EC_U+30A4_U+30E4_U+30FC 1
 62
   179
420
  2234388
370
     9
100
AcDbVertex
100
AcDb2dVertex
 10
84.61533534128296
 20
-142.2094141311146
 30
0.0
  0
VERTEX
  5
BB
330
B9
100
AcDbEntity
  8
_U+30EC_U+30A4_U+30E4_U+30FC 1
 62
   179
420
  2234388
370
     9
100
AcDbVertex
100
AcDb2dVertex
 10
117.0753703464918
 20
-142.2094141311146
 30
0.0
  0
SEQEND
  5
BC
330
B9
100
AcDbEntity
  8
_U+30EC_U+30A4_U+30E4_U+30FC 1
 62
   179
420
  2234388
370
     9
  0
INSERT
  5
BE
330
AD
100
AcDbEntity
  8
_U+30EC_U+30A4_U+30E4_U+30FC 1
100
AcDbBlockReference
  2
block 3
 10
0.0
 20
0.0
 30
0.0
  0
ENDBLK
  5
B0
330
AD
100
AcDbEntity
  8
0
100
AcDbBlockEnd
  0
BLOCK
  5
BF
330
BD
100
AcDbEntity
  8
0
100
AcDbBlockBegin
  2
block 3
 70
     0
 10
0.0
 20
0.0
 30
0.0
  3
block 3
  1

  0
SPLINE
  5
C1
330
BD
100
AcDbEntity
  8
_U+30EC_U+30A4_U+30E4_U+30FC 1
370
     0
100
AcDbSpline
210
0.0
220
0.0
230
1.0
 70
    11
 71
     3
 72
    62
 73
    58
 74
     0
 42
0.0000000001
 43
0.0000000001
 12
1.0
 22
0.0
 32
0.0
 13
1.0
 23
0.0
 33
0.0
 40
0.0
 40
0.0
 40
0.0
 40
0.0
 40
1.0
 40
1.0
 40
1.0
 40
2.0
 40
2.0
 40
2.0
 40
3.0
 40
3.0
 40
3.0
 40
4.0
 40
4.0
 40
4.0
 40
5.0
 40
5.0
 40
5.0
 40
6.0
 40
6.0
 40
6.0
 40
7.0
 40
7.0
 40
7.0
 40
8.0
 40
8.0
 40
8.0
 40
9.0
 40
9.0
 40
9.0
 40
10.0
 40
10.0
 40
10.0
 40
11.0
 40
11.0
 40
11.0
 40
12.0
 40
12.0
 40
12.0
 40
13.0
 40
13.0
 40
13.0
 40
14.0
 40
14.0
 40
14.0
 40
15.0
 40
15.0
 40
15.0
 40
16.0
 40
16.0
 40
16.0
 40
17.0
 40
17.0
 40
17.0
 40
18.0
 40
18.0
 40
18.0
 40
19.0
 40
19.0
 40
19.0
 40
19.0
 10
115.4799451751231
 20
-140.7194037191604
 30
0.0
 10
115.4799451751231
 20
-140.8210340359753
 30
0.0
 10
115.4589300926631
 20
-141.0539224907782
 30
0.0
 10
115.2728949364596
 20
-141.1872476860574
 30
0.0
 10
115.1605848236404
 20
-141.2664848822181
 30
0.0
 10
115.0613660736652
 20
-141.2709635063489
 30
0.0
 10
114.9766167247281
 20
-141.2754421304797
 30
0.0
 10
114.9766167247281
 20
-141.2754421304797
 30
0.0
 10
114.9766167247281
 20
-141.0404866183857
 30
0.0
 10
114.9766167247281
 20
-141.0404866183857
 30
0.0
 10
115.0506862776609
 20
-141.038075051546
 30
0.0
 10
115.2852972802065
 20
-141.0267062364447
 30
0.0
 10
115.2852972802065
 20
-140.7238823432913
 30
0.0
 10
115.2852972802065
 20
-140.5767767660711
 30
0.0
 10
115.2157063514044
 20
-140.4141682591673
 30
0.0
 10
114.9872965207323
 20
-140.4141682591673
 30
0.0
 10
114.8708522933309
 20
-140.4141682591673
 30
0.0
 10
114.8222764469889
 20
-140.4548203858932
 30
0.0
 10
114.7905815685246
 20
-140.4889268311972
 30
0.0
 10
114.7165120155917
 20
-140.5678195178095
 30
0.0
 10
114.7037651622963
 20
-140.692187464827
 30
0.0
 10
114.7037651622963
 20
-140.7510985976247
 30
0.0
 10
114.7037651622963
 20
-140.7714246609877
 30
0.0
 10
114.7058322195874
 20
-140.809665220874
 30
0.0
 10
114.7099663341697
 20
-140.8392930420471
 30
0.0
 10
114.7099663341697
 20
-140.8392930420471
 30
0.0
 10
114.5153184392531
 20
-140.8392930420471
 30
0.0
 10
114.5153184392531
 20
-140.8392930420471
 30
0.0
 10
114.5218641206751
 20
-140.7986409153212
 30
0.0
 10
114.5239311779662
 20
-140.7531656549159
 30
0.0
 10
114.5239311779662
 20
-140.7466199734939
 30
0.0
 10
114.5239311779662
 20
-140.6763400255948
 30
0.0
 10
114.5025715859577
 20
-140.4637776341549
 30
0.0
 10
114.265893526121
 20
-140.4637776341549
 30
0.0
 10
114.0881265990821
 20
-140.4637776341549
 30
0.0
 10
114.0330050713181
 20
-140.6039930204046
 30
0.0
 10
114.0330050713181
 20
-140.7214707764516
 30
0.0
 10
114.0330050713181
 20
-141.0043131157906
 30
0.0
 10
114.265893526121
 20
-141.0132703640522
 30
0.0
 10
114.3375515122142
 20
-141.0177489881831
 30
0.0
 10
114.3375515122142
 20
-141.0177489881831
 30
0.0
 10
114.3375515122142
 20
-141.2347900037538
 30
0.0
 10
114.3375515122142
 20
-141.2347900037538
 30
0.0
 10
114.2128390556482
 20
-141.2258327554921
 30
0.0
 10
113.8362901191104
 20
-141.1965494438675
 30
0.0
 10
113.8362901191104
 20
-140.7080349040591
 30
0.0
 10
113.8362901191104
 20
-140.4682562582857
 30
0.0
 10
113.9634141425161
 20
-140.210563115989
 30
0.0
 10
114.2593478446991
 20
-140.210563115989
 30
0.0
 10
114.4457275104511
 20
-140.210563115989
 30
0.0
 10
114.5280652925485
 20
-140.3125379423524
 30
0.0
 10
114.589387992186
 20
-140.4186468832981
 30
0.0
 10
114.616948756068
 20
-140.3531900690784
 30
0.0
 10
114.6972194808743
 20
-140.1585421741618
 30
0.0
 10
114.9745496674369
 20
-140.1585421741618
 30
0.0
 10
115.3128580440885
 20
-140.1585421741618
 30
0.0
 10
115.4799451751231
 20
-140.4231255074289
 30
0.0
 10
115.4799451751231
 20
-140.7194037191604
 30
0.0
  0
HATCH
  5
C2
330
BD
100
AcDbEntity
  8
_U+30EC_U+30A4_U+30E4_U+30FC 1
 62
   179
420
  2234388
100
AcDbHatch
 10
0.0
 20
0.0
 30
0.0
210
0.0
220
0.0
230
1.0
  2
SOLID
 70
     1
 71
     0
 91
        1
 92
        1
 93
        1
 72
     4
 94
        3
 73
     0
 74
     1
 95
       62
 96
       58
 40
0.0
 40
0.0
 40
0.0
 40
0.0
 40
1.0
 40
1.0
 40
1.0
 40
2.0
 40
2.0
 40
2.0
 40
3.0
 40
3.0
 40
3.0
 40
4.0
 40
4.0
 40
4.0
 40
5.0
 40
5.0
 40
5.0
 40
6.0
 40
6.0
 40
6.0
 40
7.0
 40
7.0
 40
7.0
 40
8.0
 40
8.0
 40
8.0
 40
9.0
 40
9.0
 40
9.0
 40
10.0
 40
10.0
 40
10.0
 40
11.0
 40
11.0
 40
11.0
 40
12.0
 40
12.0
 40
12.0
 40
13.0
 40
13.0
 40
13.0
 40
14.0
 40
14.0
 40
14.0
 40
15.0
 40
15.0
 40
15.0
 40
16.0
 40
16.0
 40
16.0
 40
17.0
 40
17.0
 40
17.0
 40
18.0
 40
18.0
 40
18.0
 40
19.0
 40
19.0
 40
19.0
 40
19.0
 10
115.4799451751231
 20
-140.7194037191604
 10
115.4799451751231
 20
-140.8210340359753
 10
115.4589300926631
 20
-141.0539224907782
 10
115.2728949364596
 20
-141.1872476860574
 10
115.1605848236404
 20
-141.2664848822181
 10
115.0613660736652
 20
-141.2709635063489
 10
114.9766167247281
 20
-141.2754421304797
 10
114.9766167247281
 20
-141.2754421304797
 10
114.9766167247281
 20
-141.0404866183857
 10
114.9766167247281
 20
-141.0404866183857
 10
115.0506862776609
 20
-141.038075051546
 10
115.2852972802065
 20
-141.0267062364447
 10
115.2852972802065
 20
-140.7238823432913
 10
115.2852972802065
 20
-140.5767767660711
 10
115.2157063514044
 20
-140.4141682591673
 10
114.9872965207323
 20
-140.4141682591673
 10
114.8708522933309
 20
-140.4141682591673
 10
114.8222764469889
 20
-140.4548203858932
 10
114.7905815685246
 20
-140.4889268311972
 10
114.7165120155917
 20
-140.5678195178095
 10
114.7037651622963
 20
-140.692187464827
 10
114.7037651622963
 20
-140.7510985976247
 10
114.7037651622963
 20
-140.7714246609877
 10
114.7058322195874
 20
-140.809665220874
 10
114.7099663341697
 20
-140.8392930420471
 10
114.7099663341697
 20
-140.8392930420471
 10
114.5153184392531
 20
-140.8392930420471
 10
114.5153184392531
 20
-140.8392930420471
 10
114.5218641206751
 20
-140.7986409153212
 10
114.5239311779662
 20
-140.7531656549159
 10
114.5239311779662
 20
-140.7466199734939
 10
114.5239311779662
 20
-140.6763400255948
 10
114.5025715859577
 20
-140.4637776341549
 10
114.265893526121
 20
-140.4637776341549
 10
114.0881265990821
 20
-140.4637776341549
 10
114.0330050713181
 20
-140.6039930204046
 10
114.0330050713181
 20
-140.7214707764516
 10
114.0330050713181
 20
-141.0043131157906
 10
114.265893526121
 20
-141.0132703640522
 10
114.3375515122142
 20
-141.0177489881831
 10
114.3375515122142
 20
-141.0177489881831
 10
114.3375515122142
 20
-141.2347900037538
 10
114.3375515122142
 20
-141.2347900037538
 10
114.2128390556482
 20
-141.2258327554921
 10
113.8362901191104
 20
-141.1965494438675
 10
113.8362901191104
 20
-140.7080349040591
 10
113.8362901191104
 20
-140.4682562582857
 10
113.9634141425161
 20
-140.210563115989
 10
114.2593478446991
 20
-140.210563115989
 10
114.4457275104511
 20
-140.210563115989
 10
114.5280652925485
 20
-140.3125379423524
 10
114.589387992186
 20
-140.4186468832981
 10
114.616948756068
 20
-140.3531900690784
 10
114.6972194808743
 20
-140.1585421741618
 10
114.9745496674369
 20
-140.1585421741618
 10
115.3128580440885
 20
-140.1585421741618
 10
115.4799451751231
 20
-140.4231255074289
 10
115.4799451751231
 20
-140.7194037191604
 97
        0
 97
        0
 75
     2
 76
     1
 98
        0
  0
ENDBLK
  5
C0
330
BD
100
AcDbEntity
  8
0
100
AcDbBlockEnd
  0
BLOCK
  5
C5
330
C3
100
AcDbEntity
  8
0
100
AcDbBlockBegin
  2
block 4
 70
     0
 10
0.0
 20
0.0
 30
0.0
  3
block 4
  1

  0
POLYLINE
  5
C7
330
C3
100
AcDbEntity
  8
_U+30EC_U+30A4_U+30E4_U+30FC 1
 62
   179
420
  2234388
370
     9
100
AcDb2dPolyline
 66
     1
 10
0.0
 20
0.0
 30
0.0
  0
VERTEX
  5
C8
330
C7
100
AcDbEntity
  8
_U+30EC_U+30A4_U+30E4_U+30FC 1
 62
   179
420
  2234388
370
     9
100
AcDbVertex
100
AcDb2dVertex
 10
72.0751792723201
 20
-117.7094560816838
 30
0.0
  0
VERTEX
  5
C9
330
C7
100
AcDbEntity
  8
_U+30EC_U+30A4_U+30E4_U+30FC 1
 62
   179
420
  2234388
370
     9
100
AcDbVertex
100
AcDb2dVertex
 10
75.0751661402285
 20
-117.7094560816838
 30
0.0
  0
SEQEND
  5
CA
330
C7
100
AcDbEntity
  8
_U+30EC_U+30A4_U+30E4_U+30FC 1
 62
   179
420
  2234388
370
     9
  0
POLYLINE
  5
CB
330
C3
100
AcDbEntity
  8
_U+30EC_U+30A4_U+30E4_U+30FC 1
 62
   179
420
  2234388
370
     9
100
AcDb2dPolyline
 66
     1
 10
0.0
 20
0.0
 30
0.0
  0
VERTEX
  5
CC
330
CB
100
AcDbEntity
  8
_U+30EC_U+30A4_U+30E4_U+30FC 1
 62
   179
420
  2234388
370
     9
100
AcDbVertex
100
AcDb2dVertex
 10
72.0751792723201
 20
-119.1691094146522
 30
0.0
  0
VERTEX
  5
CD
330
CB
100
AcDbEntity
  8
_U+30EC_U+30A4_U+30E4_U+30FC 1
 62
   179
420
  2234388
370
     9
100
AcDbVertex
100
AcDb2dVertex
 10
72.0751792723201
 20
-116.7093310819338
 30
0.0
  0
SEQEND
  5
CE
330
CB
100
AcDbEntity
  8
_U+30EC_U+30A4_U+30E4_U+30FC 1
 62
   179
420
  2234388
370
     9
  0
POLYLINE
  5
CF
330
C3
100
AcDbEntity
  8
_U+30EC_U+30A4_U+30E4_U+30FC 1
 62
   179
420
  2234388
370
     9
100
AcDb2dPolyline
 66
     1
 10
0.0
 20
0.0
 30
0.0
  0
VERTEX
  5
D0
330
CF
100
AcDbEntity
  8
_U+30EC_U+30A4_U+30E4_U+30FC 1
 62
   179
420
  2234388
370
     9
100
AcDbVertex
100
AcDb2dVertex
 10
75.0751661402285
 20
-119.1691094146522
 30
0.0
  0
VERTEX
  5
D1
330
CF
100
AcDbEntity
  8
_U+30EC_U+30A4_U+30E4_U+30FC 1
 62
   179
420
  2234388
370
     9
100
AcDbVertex
100
AcDb2dVertex
 10
75.0751661402285
 20
-116.7093310819338
 30
0.0
  0
SEQEND
  5
D2
330
CF
100
AcDbEntity
  8
_U+30EC_U+30A4_U+30E4_U+30FC 1
 62
   179
420
  2234388
370
     9
  0
INSERT
  5
D4
330
C3
100
AcDbEntity
  8
_U+30EC_U+30A4_U+30E4_U+30FC 1
100
AcDbBlockReference
  2
block 5
 10
0.0
 20
0.0
 30
0.0
  0
ENDBLK
  5
C6
330
C3
100
AcDbEntity
  8
0
100
AcDbBlockEnd
  0
BLOCK
  5
D5
330
D3
100
AcDbEntity
  8
0
100
AcDbBlockBegin
  2
block 5
 70
     0
 10
0.0
 20
0.0
 30
0.0
  3
block 5
  1

  0
SPLINE
  5
D7
330
D3
100
AcDbEntity
  8
_U+30EC_U+30A4_U+30E4_U+30FC 1
370
     0
100
AcDbSpline
210
0.0
220
0.0
230
1.0
 70
    11
 71
     3
 72
    62
 73
    58
 74
     0
 42
0.0000000001
 43
0.0000000001
 12
1.0
 22
0.0
 32
0.0
 13
1.0
 23
0.0
 33
0.0
 40
0.0
 40
0.0
 40
0.0
 40
0.0
 40
1.0
 40
1.0
 40
1.0
 40
2.0
 40
2.0
 40
2.0
 40
3.0
 40
3.0
 40
3.0
 40
4.0
 40
4.0
 40
4.0
 40
5.0
 40
5.0
 40
5.0
 40
6.0
 40
6.0
 40
6.0
 40
7.0
 40
7.0
 40
7.0
 40
8.0
 40
8.0
 40
8.0
 40
9.0
 40
9.0
 40
9.0
 40
10.0
 40
10.0
 40
10.0
 40
11.0
 40
11.0
 40
11.0
 40
12.0
 40
12.0
 40
12.0
 40
13.0
 40
13.0
 40
13.0
 40
14.0
 40
14.0
 40
14.0
 40
15.0
 40
15.0
 40
15.0
 40
16.0
 40
16.0
 40
16.0
 40
17.0
 40
17.0
 40
17.0
 40
18.0
 40
18.0
 40
18.0
 40
19.0
 40
19.0
 40
19.0
 40
19.0
 10
73.56605222770224
 20
-117.1142984733256
 30
0.0
 10
73.46442191088737
 20
-117.1142984733256
 30
0.0
 10
73.23153345608448
 20
-117.0931111360913
 30
0.0
 10
73.09803600603105
 20
-116.9069037251136
 30
0.0
 10
73.01897106464456
 20
-116.7947658670687
 30
0.0
 10
73.01449244051373
 20
-116.6953748623192
 30
0.0
 10
73.01001381638292
 20
-116.6107977681563
 30
0.0
 10
73.01001381638292
 20
-116.6107977681563
 30
0.0
 10
73.24496932847696
 20
-116.6107977681563
 30
0.0
 10
73.24496932847696
 20
-116.6107977681563
 30
0.0
 10
73.24738089531662
 20
-116.6848673210892
 30
0.0
 10
73.25857745564369
 20
-116.919650578409
 30
0.0
 10
73.56157360357142
 20
-116.919650578409
 30
0.0
 10
73.70850692601732
 20
-116.919650578409
 30
0.0
 10
73.87128768769537
 20
-116.8498873948327
 30
0.0
 10
73.87128768769537
 20
-116.6213053093863
 30
0.0
 10
73.87128768769537
 20
-116.5050333367592
 30
0.0
 10
73.83063556096943
 20
-116.4562852356429
 30
0.0
 10
73.79670137043972
 20
-116.4245903571786
 30
0.0
 10
73.71763642905323
 20
-116.3505208042457
 30
0.0
 10
73.59326848203571
 20
-116.3379462057245
 30
0.0
 10
73.53435734923794
 20
-116.3379462057245
 30
0.0
 10
73.51403128587496
 20
-116.3379462057245
 30
0.0
 10
73.47561847121443
 20
-116.3400132630157
 30
0.0
 10
73.44633515958981
 20
-116.344147377598
 30
0.0
 10
73.44633515958981
 20
-116.344147377598
 30
0.0
 10
73.44633515958981
 20
-116.1494994826814
 30
0.0
 10
73.44633515958981
 20
-116.1494994826814
 30
0.0
 10
73.48698728631575
 20
-116.1558729093291
 30
0.0
 10
73.53211803717252
 20
-116.1581122213945
 30
0.0
 10
73.53900822814303
 20
-116.1581122213945
 30
0.0
 10
73.60911592126786
 20
-116.1581122213945
 30
0.0
 10
73.82150605793352
 20
-116.1369248841602
 30
0.0
 10
73.82150605793352
 20
-115.899902314775
 30
0.0
 10
73.82150605793352
 20
-115.7223076425104
 30
0.0
 10
73.68146292645811
 20
-115.6671861147464
 30
0.0
 10
73.56381291563683
 20
-115.6671861147464
 30
0.0
 10
73.28114283107207
 20
-115.6671861147464
 30
0.0
 10
73.27218558281042
 20
-115.899902314775
 30
0.0
 10
73.26770695867961
 20
-115.9719048104167
 30
0.0
 10
73.26770695867961
 20
-115.9719048104167
 30
0.0
 10
73.05066594310887
 20
-115.9719048104167
 30
0.0
 10
73.05066594310887
 20
-115.9719048104167
 30
0.0
 10
73.05962319137052
 20
-115.8470200990764
 30
0.0
 10
73.0890787577694
 20
-115.4704711625386
 30
0.0
 10
73.57742104280356
 20
-115.4704711625386
 30
0.0
 10
73.81702743380269
 20
-115.4704711625386
 30
0.0
 10
74.07472057609938
 20
-115.5974229311701
 30
0.0
 10
74.07472057609938
 20
-115.8935288881273
 30
0.0
 10
74.07472057609938
 20
-116.0797362991051
 30
0.0
 10
73.9730902592845
 20
-116.1622463359768
 30
0.0
 10
73.86680906356455
 20
-116.2235690356142
 30
0.0
 10
73.9322658777843
 20
-116.2511297994963
 30
0.0
 10
74.12674151792665
 20
-116.3315727790768
 30
0.0
 10
74.12674151792665
 20
-116.6087307108652
 30
0.0
 10
74.12674151792665
 20
-116.947211342291
 30
0.0
 10
73.86233043943372
 20
-117.1142984733256
 30
0.0
 10
73.56605222770224
 20
-117.1142984733256
 30
0.0
  0
HATCH
  5
D8
330
D3
100
AcDbEntity
  8
_U+30EC_U+30A4_U+30E4_U+30FC 1
 62
   179
420
  2234388
100
AcDbHatch
 10
0.0
 20
0.0
 30
0.0
210
0.0
220
0.0
230
1.0
  2
SOLID
 70
     1
 71
     0
 91
        1
 92
        1
 93
        1
 72
     4
 94
        3
 73
     0
 74
     1
 95
       62
 96
       58
 40
0.0
 40
0.0
 40
0.0
 40
0.0
 40
1.0
 40
1.0
 40
1.0
 40
2.0
 40
2.0
 40
2.0
 40
3.0
 40
3.0
 40
3.0
 40
4.0
 40
4.0
 40
4.0
 40
5.0
 40
5.0
 40
5.0
 40
6.0
 40
6.0
 40
6.0
 40
7.0
 40
7.0
 40
7.0
 40
8.0
 40
8.0
 40
8.0
 40
9.0
 40
9.0
 40
9.0
 40
10.0
 40
10.0
 40
10.0
 40
11.0
 40
11.0
 40
11.0
 40
12.0
 40
12.0
 40
12.0
 40
13.0
 40
13.0
 40
13.0
 40
14.0
 40
14.0
 40
14.0
 40
15.0
 40
15.0
 40
15.0
 40
16.0
 40
16.0
 40
16.0
 40
17.0
 40
17.0
 40
17.0
 40
18.0
 40
18.0
 40
18.0
 40
19.0
 40
19.0
 40
19.0
 40
19.0
 10
73.56605222770224
 20
-117.1142984733256
 10
73.46442191088737
 20
-117.1142984733256
 10
73.23153345608448
 20
-117.0931111360913
 10
73.09803600603105
 20
-116.9069037251136
 10
73.01897106464456
 20
-116.7947658670687
 10
73.01449244051373
 20
-116.6953748623192
 10
73.01001381638292
 20
-116.6107977681563
 10
73.01001381638292
 20
-116.6107977681563
 10
73.24496932847696
 20
-116.6107977681563
 10
73.24496932847696
 20
-116.6107977681563
 10
73.24738089531662
 20
-116.6848673210892
 10
73.25857745564369
 20
-116.919650578409
 10
73.56157360357142
 20
-116.919650578409
 10
73.70850692601732
 20
-116.919650578409
 10
73.87128768769537
 20
-116.8498873948327
 10
73.87128768769537
 20
-116.6213053093863
 10
73.87128768769537
 20
-116.5050333367592
 10
73.83063556096943
 20
-116.4562852356429
 10
73.79670137043972
 20
-116.4245903571786
 10
73.71763642905323
 20
-116.3505208042457
 10
73.59326848203571
 20
-116.3379462057245
 10
73.53435734923794
 20
-116.3379462057245
 10
73.51403128587496
 20
-116.3379462057245
 10
73.47561847121443
 20
-116.3400132630157
 10
73.44633515958981
 20
-116.344147377598
 10
73.44633515958981
 20
-116.344147377598
 10
73.44633515958981
 20
-116.1494994826814
 10
73.44633515958981
 20
-116.1494994826814
 10
73.48698728631575
 20
-116.1558729093291
 10
73.53211803717252
 20
-116.1581122213945
 10
73.53900822814303
 20
-116.1581122213945
 10
73.60911592126786
 20
-116.1581122213945
 10
73.82150605793352
 20
-116.1369248841602
 10
73.82150605793352
 20
-115.899902314775
 10
73.82150605793352
 20
-115.7223076425104
 10
73.68146292645811
 20
-115.6671861147464
 10
73.56381291563683
 20
-115.6671861147464
 10
73.28114283107207
 20
-115.6671861147464
 10
73.27218558281042
 20
-115.899902314775
 10
73.26770695867961
 20
-115.9719048104167
 10
73.26770695867961
 20
-115.9719048104167
 10
73.05066594310887
 20
-115.9719048104167
 10
73.05066594310887
 20
-115.9719048104167
 10
73.05962319137052
 20
-115.8470200990764
 10
73.0890787577694
 20
-115.4704711625386
 10
73.57742104280356
 20
-115.4704711625386
 10
73.81702743380269
 20
-115.4704711625386
 10
74.07472057609938
 20
-115.5974229311701
 10
74.07472057609938
 20
-115.8935288881273
 10
74.07472057609938
 20
-116.0797362991051
 10
73.9730902592845
 20
-116.1622463359768
 10
73.86680906356455
 20
-116.2235690356142
 10
73.9322658777843
 20
-116.2511297994963
 10
74.12674151792665
 20
-116.3315727790768
 10
74.12674151792665
 20
-116.6087307108652
 10
74.12674151792665
 20
-116.947211342291
 10
73.86233043943372
 20
-117.1142984733256
 10
73.56605222770224
 20
-117.1142984733256
 97
        0
 97
        0
 75
     2
 76
     1
 98
        0
  0
ENDBLK
  5
D6
330
D3
100
AcDbEntity
  8
0
100
AcDbBlockEnd
  0
BLOCK
  5
DB
330
D9
100
AcDbEntity
  8
0
100
AcDbBlockBegin
  2
block 6
 70
     0
 10
0.0
 20
0.0
 30
0.0
  3
block 6
  1

  0
POLYLINE
  5
DD
330
D9
100
AcDbEntity
  8
_U+30EC_U+30A4_U+30E4_U+30FC 1
 62
   179
420
  2234388
370
     9
100
AcDb2dPolyline
 66
     1
 10
0.0
 20
0.0
 30
0.0
  0
VERTEX
  5
DE
330
DD
100
AcDbEntity
  8
_U+30EC_U+30A4_U+30E4_U+30FC 1
 62
   179
420
  2234388
370
     9
100
AcDbVertex
100
AcDb2dVertex
 10
72.0751792723201
 20
-113.7095205271283
 30
0.0
  0
VERTEX
  5
DF
330
DD
100
AcDbEntity
  8
_U+30EC_U+30A4_U+30E4_U+30FC 1
 62
   179
420
  2234388
370
     9
100
AcDbVertex
100
AcDb2dVertex
 10
112.0751688073909
 20
-113.7095205271283
 30
0.0
  0
SEQEND
  5
E0
330
DD
100
AcDbEntity
  8
_U+30EC_U+30A4_U+30E4_U+30FC 1
 62
   179
420
  2234388
370
     9
  0
POLYLINE
  5
E1
330
D9
100
AcDbEntity
  8
_U+30EC_U+30A4_U+30E4_U+30FC 1
 62
   179
420
  2234388
370
     9
100
AcDb2dPolyline
 66
     1
 10
0.0
 20
0.0
 30
0.0
  0
VERTEX
  5
E2
330
E1
100
AcDbEntity
  8
_U+30EC_U+30A4_U+30E4_U+30FC 1
 62
   179
420
  2234388
370
     9
100
AcDbVertex
100
AcDb2dVertex
 10
72.0751792723201
 20
-119.1691094146522
 30
0.0
  0
VERTEX
  5
E3
330
E1
100
AcDbEntity
  8
_U+30EC_U+30A4_U+30E4_U+30FC 1
 62
   179
420
  2234388
370
     9
100
AcDbVertex
100
AcDb2dVertex
 10
72.0751792723201
 20
-112.7095719162672
 30
0.0
  0
SEQEND
  5
E4
330
E1
100
AcDbEntity
  8
_U+30EC_U+30A4_U+30E4_U+30FC 1
 62
   179
420
  2234388
370
     9
  0
POLYLINE
  5
E5
330
D9
100
AcDbEntity
  8
_U+30EC_U+30A4_U+30E4_U+30FC 1
 62
   179
420
  2234388
370
     9
100
AcDb2dPolyline
 66
     1
 10
0.0
 20
0.0
 30
0.0
  0
VERTEX
  5
E6
330
E5
100
AcDbEntity
  8
_U+30EC_U+30A4_U+30E4_U+30FC 1
 62
   179
420
  2234388
370
     9
100
AcDbVertex
100
AcDb2dVertex
 10
112.0751688073909
 20
-126.2692913573217
 30
0.0
  0
VERTEX
  5
E7
330
E5
100
AcDbEntity
  8
_U+30EC_U+30A4_U+30E4_U+30FC 1
 62
   179
420
  2234388
370
     9
100
AcDbVertex
100
AcDb2dVertex
 10
112.0751688073909
 20
-112.7095719162672
 30
0.0
  0
SEQEND
  5
E8
330
E5
100
AcDbEntity
  8
_U+30EC_U+30A4_U+30E4_U+30FC 1
 62
   179
420
  2234388
370
     9
  0
INSERT
  5
EA
330
D9
100
AcDbEntity
  8
_U+30EC_U+30A4_U+30E4_U+30FC 1
100
AcDbBlockReference
  2
block 7
 10
0.0
 20
0.0
 30
0.0
  0
ENDBLK
  5
DC
330
D9
100
AcDbEntity
  8
0
100
AcDbBlockEnd
  0
BLOCK
  5
EB
330
E9
100
AcDbEntity
  8
0
100
AcDbBlockBegin
  2
block 7
 70
     0
 10
0.0
 20
0.0
 30
0.0
  3
block 7
  1

  0
POLYLINE
  5
ED
330
E9
100
AcDbEntity
  8
_U+30EC_U+30A4_U+30E4_U+30FC 1
370
     0
100
AcDb2dPolyline
 66
     1
 10
0.0
 20
0.0
 30
0.0
  0
VERTEX
  5
EE
330
ED
100
AcDbEntity
  8
_U+30EC_U+30A4_U+30E4_U+30FC 1
370
     0
100
AcDbVertex
100
AcDb2dVertex
 10
91.80111488590389
 20
-112.7164618316299
 30
0.0
  0
VERTEX
  5
EF
330
ED
100
AcDbEntity
  8
_U+30EC_U+30A4_U+30E4_U+30FC 1
370
     0
100
AcDbVertex
100
AcDb2dVertex
 10
91.80111488590389
 20
-113.0633829469946
 30
0.0
  0
VERTEX
  5
F0
330
ED
100
AcDbEntity
  8
_U+30EC_U+30A4_U+30E4_U+30FC 1
370
     0
100
AcDbVertex
100
AcDb2dVertex
 10
91.56822643110101
 20
-113.0633829469946
 30
0.0
  0
VERTEX
  5
F1
330
ED
100
AcDbEntity
  8
_U+30EC_U+30A4_U+30E4_U+30FC 1
370
     0
100
AcDbVertex
100
AcDb2dVertex
 10
91.56822643110101
 20
-112.7164618316299
 30
0.0
  0
VERTEX
  5
F2
330
ED
100
AcDbEntity
  8
_U+30EC_U+30A4_U+30E4_U+30FC 1
370
     0
100
AcDbVertex
100
AcDb2dVertex
 10
90.86732175462693
 20
-112.7164618316299
 30
0.0
  0
VERTEX
  5
F3
330
ED
100
AcDbEntity
  8
_U+30EC_U+30A4_U+30E4_U+30FC 1
370
     0
100
AcDbVertex
100
AcDb2dVertex
 10
90.86732175462693
 20
-112.4921861155402
 30
0.0
  0
VERTEX
  5
F4
330
ED
100
AcDbEntity
  8
_U+30EC_U+30A4_U+30E4_U+30FC 1
370
     0
100
AcDbVertex
100
AcDb2dVertex
 10
91.59303111859481
 20
-111.5191188957313
 30
0.0
  0
VERTEX
  5
F5
330
ED
100
AcDbEntity
  8
_U+30EC_U+30A4_U+30E4_U+30FC 1
370
     0
100
AcDbVertex
100
AcDb2dVertex
 10
91.80111488590389
 20
-111.5191188957313
 30
0.0
  0
VERTEX
  5
F6
330
ED
100
AcDbEntity
  8
_U+30EC_U+30A4_U+30E4_U+30FC 1
370
     0
100
AcDbVertex
100
AcDb2dVertex
 10
91.80111488590389
 20
-112.5175075673567
 30
0.0
  0
VERTEX
  5
F7
330
ED
100
AcDbEntity
  8
_U+30EC_U+30A4_U+30E4_U+30FC 1
370
     0
100
AcDbVertex
100
AcDb2dVertex
 10
92.02263452560545
 20
-112.5175075673567
 30
0.0
  0
VERTEX
  5
F8
330
ED
100
AcDbEntity
  8
_U+30EC_U+30A4_U+30E4_U+30FC 1
370
     0
100
AcDbVertex
100
AcDb2dVertex
 10
92.02263452560545
 20
-112.7164618316299
 30
0.0
  0
VERTEX
  5
F9
330
ED
100
AcDbEntity
  8
_U+30EC_U+30A4_U+30E4_U+30FC 1
370
     0
100
AcDbVertex
100
AcDb2dVertex
 10
91.80111488590389
 20
-112.7164618316299
 30
0.0
  0
SEQEND
  5
FA
330
ED
100
AcDbEntity
  8
_U+30EC_U+30A4_U+30E4_U+30FC 1
370
     0
  0
POLYLINE
  5
FB
330
E9
100
AcDbEntity
  8
_U+30EC_U+30A4_U+30E4_U+30FC 1
370
     0
100
AcDb2dPolyline
 66
     1
 10
0.0
 20
0.0
 30
0.0
  0
VERTEX
  5
FC
330
FB
100
AcDbEntity
  8
_U+30EC_U+30A4_U+30E4_U+30FC 1
370
     0
100
AcDbVertex
100
AcDb2dVertex
 10
91.56822643110101
 20
-111.8617336417394
 30
0.0
  0
VERTEX
  5
FD
330
FB
100
AcDbEntity
  8
_U+30EC_U+30A4_U+30E4_U+30FC 1
370
     0
100
AcDbVertex
100
AcDb2dVertex
 10
91.07988414606685
 20
-112.5175075673567
 30
0.0
  0
VERTEX
  5
FE
330
FB
100
AcDbEntity
  8
_U+30EC_U+30A4_U+30E4_U+30FC 1
370
     0
100
AcDbVertex
100
AcDb2dVertex
 10
91.56822643110101
 20
-112.5175075673567
 30
0.0
  0
VERTEX
  5
FF
330
FB
100
AcDbEntity
  8
_U+30EC_U+30A4_U+30E4_U+30FC 1
370
     0
100
AcDbVertex
100
AcDb2dVertex
 10
91.56822643110101
 20
-111.8617336417394
 30
0.0
  0
SEQEND
  5
100
330
FB
100
AcDbEntity
  8
_U+30EC_U+30A4_U+30E4_U+30FC 1
370
     0
  0
HATCH
  5
101
330
E9
100
AcDbEntity
  8
_U+30EC_U+30A4_U+30E4_U+30FC 1
 62
   179
420
  2234388
100
AcDbHatch
 10
0.0
 20
0.0
 30
0.0
210
0.0
220
0.0
230
1.0
  2
SOLID
 70
     1
 71
     0
 91
        2
 92
        1
 93
       11
 72
     1
 10
91.80111488590389
 20
-112.7164618316299
 11
91.80111488590389
 21
-113.0633829469946
 72
     1
 10
91.80111488590389
 20
-113.0633829469946
 11
91.56822643110101
 21
-113.0633829469946
 72
     1
 10
91.56822643110101
 20
-113.0633829469946
 11
91.56822643110101
 21
-112.7164618316299
 72
     1
 10
91.56822643110101
 20
-112.7164618316299
 11
90.86732175462693
 21
-112.7164618316299
 72
     1
 10
90.86732175462693
 20
-112.7164618316299
 11
90.86732175462693
 21
-112.4921861155402
 72
     1
 10
90.86732175462693
 20
-112.4921861155402
 11
91.59303111859481
 21
-111.5191188957313
 72
     1
 10
91.59303111859481
 20
-111.5191188957313
 11
91.80111488590389
 21
-111.5191188957313
 72
     1
 10
91.80111488590389
 20
-111.5191188957313
 11
91.80111488590389
 21
-112.5175075673567
 72
     1
 10
91.80111488590389
 20
-112.5175075673567
 11
92.02263452560545
 21
-112.5175075673567
 72
     1
 10
92.02263452560545
 20
-112.5175075673567
 11
92.02263452560545
 21
-112.7164618316299
 72
     1
 10
92.02263452560545
 20
-112.7164618316299
 11
91.80111488590389
 21
-112.7164618316299
 97
        0
 92
        1
 93
        3
 72
     1
 10
91.56822643110101
 20
-111.8617336417394
 11
91.07988414606685
 21
-112.5175075673567
 72
     1
 10
91.07988414606685
 20
-112.5175075673567
 11
91.56822643110101
 21
-112.5175075673567
 72
     1
 10
91.56822643110101
 20
-112.5175075673567
 11
91.56822643110101
 21
-111.8617336417394
 97
        0
 75
     2
 76
     1
 98
        0
  0
SPLINE
  5
102
330
E9
100
AcDbEntity
  8
_U+30EC_U+30A4_U+30E4_U+30FC 1
370
     0
100
AcDbSpline
210
0.0
220
0.0
230
1.0
 70
    11
 71
     3
 72
    29
 73
    25
 74
     0
 42
0.0000000001
 43
0.0000000001
 12
1.0
 22
0.0
 32
0.0
 13
1.0
 23
0.0
 33
0.0
 40
0.0
 40
0.0
 40
0.0
 40
0.0
 40
1.0
 40
1.0
 40
1.0
 40
2.0
 40
2.0
 40
2.0
 40
3.0
 40
3.0
 40
3.0
 40
4.0
 40
4.0
 40
4.0
 40
5.0
 40
5.0
 40
5.0
 40
6.0
 40
6.0
 40
6.0
 40
7.0
 40
7.0
 40
7.0
 40
8.0
 40
8.0
 40
8.0
 40
8.0
 10
93.1291991954677
 20
-112.8856160199557
 30
0.0
 10
93.01378849671184
 20
-113.0950778254589
 30
0.0
 10
92.82844235960539
 20
-113.114198105402
 30
0.0
 10
92.70407441258787
 20
-113.114198105402
 30
0.0
 10
92.53216414787391
 20
-113.114198105402
 30
0.0
 10
92.38057994652291
 20
-113.0676893163511
 30
0.0
 10
92.27894962970804
 20
-112.8856160199557
 30
0.0
 10
92.168017555083
 20
-112.6909681250391
 30
0.0
 10
92.14769149172002
 20
-112.4541178104281
 30
0.0
 10
92.14769149172002
 20
-112.2911647939758
 30
0.0
 10
92.14769149172002
 20
-112.1473320574666
 30
0.0
 10
92.16595049779185
 20
-111.8956678322691
 30
0.0
 10
92.27894962970804
 20
-111.696713567996
 30
0.0
 10
92.39436032846392
 20
-111.4936251891405
 30
0.0
 10
92.56592608362935
 20
-111.4703707946151
 30
0.0
 10
92.70407441258787
 20
-111.4703707946151
 30
0.0
 10
92.87357311046216
 20
-111.4703707946151
 30
0.0
 10
93.0272243691043
 20
-111.5148125263748
 30
0.0
 10
93.1291991954677
 20
-111.696713567996
 30
0.0
 10
93.2353081364134
 20
-111.8892944056214
 30
0.0
 10
93.26011282390719
 20
-112.1177042362935
 30
0.0
 10
93.26011282390719
 20
-112.2911647939758
 30
0.0
 10
93.26011282390719
 20
-112.462558294367
 30
0.0
 10
93.23771970325308
 20
-112.6932074371045
 30
0.0
 10
93.1291991954677
 20
-112.8856160199557
 30
0.0
  0
SPLINE
  5
103
330
E9
100
AcDbEntity
  8
_U+30EC_U+30A4_U+30E4_U+30FC 1
370
     0
100
AcDbSpline
210
0.0
220
0.0
230
1.0
 70
    11
 71
     3
 72
    17
 73
    13
 74
     0
 42
0.0000000001
 43
0.0000000001
 12
1.0
 22
0.0
 32
0.0
 13
1.0
 23
0.0
 33
0.0
 40
0.0
 40
0.0
 40
0.0
 40
0.0
 40
1.0
 40
1.0
 40
1.0
 40
2.0
 40
2.0
 40
2.0
 40
3.0
 40
3.0
 40
3.0
 40
4.0
 40
4.0
 40
4.0
 40
4.0
 10
92.70407441258787
 20
-111.6629516322405
 30
0.0
 10
92.437079512481
 20
-111.6629516322405
 30
0.0
 10
92.38747013749341
 20
-111.9464829906766
 30
0.0
 10
92.38747013749341
 20
-112.2911647939758
 30
0.0
 10
92.38747013749341
 20
-112.6106974002328
 30
0.0
 10
92.42571069737969
 20
-112.9195502104854
 30
0.0
 10
92.70407441258787
 20
-112.9195502104854
 30
0.0
 10
92.96865774585507
 20
-112.9195502104854
 30
0.0
 10
93.02067868768233
 20
-112.6380859093405
 30
0.0
 10
93.02067868768233
 20
-112.2911647939758
 30
0.0
 10
93.02067868768233
 20
-111.9718044424932
 30
0.0
 10
92.98002656095639
 20
-111.6629516322405
 30
0.0
 10
92.70407441258787
 20
-111.6629516322405
 30
0.0
  0
HATCH
  5
104
330
E9
100
AcDbEntity
  8
_U+30EC_U+30A4_U+30E4_U+30FC 1
 62
   179
420
  2234388
100
AcDbHatch
 10
0.0
 20
0.0
 30
0.0
210
0.0
220
0.0
230
1.0
  2
SOLID
 70
     1
 71
     0
 91
        2
 92
        1
 93
        1
 72
     4
 94
        3
 73
     0
 74
     1
 95
       29
 96
       25
 40
0.0
 40
0.0
 40
0.0
 40
0.0
 40
1.0
 40
1.0
 40
1.0
 40
2.0
 40
2.0
 40
2.0
 40
3.0
 40
3.0
 40
3.0
 40
4.0
 40
4.0
 40
4.0
 40
5.0
 40
5.0
 40
5.0
 40
6.0
 40
6.0
 40
6.0
 40
7.0
 40
7.0
 40
7.0
 40
8.0
 40
8.0
 40
8.0
 40
8.0
 10
93.1291991954677
 20
-112.8856160199557
 10
93.01378849671184
 20
-113.0950778254589
 10
92.82844235960539
 20
-113.114198105402
 10
92.70407441258787
 20
-113.114198105402
 10
92.53216414787391
 20
-113.114198105402
 10
92.38057994652291
 20
-113.0676893163511
 10
92.27894962970804
 20
-112.8856160199557
 10
92.168017555083
 20
-112.6909681250391
 10
92.14769149172002
 20
-112.4541178104281
 10
92.14769149172002
 20
-112.2911647939758
 10
92.14769149172002
 20
-112.1473320574666
 10
92.16595049779185
 20
-111.8956678322691
 10
92.27894962970804
 20
-111.696713567996
 10
92.39436032846392
 20
-111.4936251891405
 10
92.56592608362935
 20
-111.4703707946151
 10
92.70407441258787
 20
-111.4703707946151
 10
92.87357311046216
 20
-111.4703707946151
 10
93.0272243691043
 20
-111.5148125263748
 10
93.1291991954677
 20
-111.696713567996
 10
93.2353081364134
 20
-111.8892944056214
 10
93.26011282390719
 20
-112.1177042362935
 10
93.26011282390719
 20
-112.2911647939758
 10
93.26011282390719
 20
-112.462558294367
 10
93.23771970325308
 20
-112.6932074371045
 10
93.1291991954677
 20
-112.8856160199557
 97
        0
 97
        0
 92
        1
 93
        1
 72
     4
 94
        3
 73
     0
 74
     1
 95
       17
 96
       13
 40
0.0
 40
0.0
 40
0.0
 40
0.0
 40
1.0
 40
1.0
 40
1.0
 40
2.0
 40
2.0
 40
2.0
 40
3.0
 40
3.0
 40
3.0
 40
4.0
 40
4.0
 40
4.0
 40
4.0
 10
92.70407441258787
 20
-111.6629516322405
 10
92.437079512481
 20
-111.6629516322405
 10
92.38747013749341
 20
-111.9464829906766
 10
92.38747013749341
 20
-112.2911647939758
 10
92.38747013749341
 20
-112.6106974002328
 10
92.42571069737969
 20
-112.9195502104854
 10
92.70407441258787
 20
-112.9195502104854
 10
92.96865774585507
 20
-112.9195502104854
 10
93.02067868768233
 20
-112.6380859093405
 10
93.02067868768233
 20
-112.2911647939758
 10
93.02067868768233
 20
-111.9718044424932
 10
92.98002656095639
 20
-111.6629516322405
 10
92.70407441258787
 20
-111.6629516322405
 97
        0
 97
        0
 75
     2
 76
     1
 98
        0
  0
ENDBLK
  5
EC
330
E9
100
AcDbEntity
  8
0
100
AcDbBlockEnd
  0
BLOCK
  5
107
330
105
100
AcDbEntity
  8
0
100
AcDbBlockBegin
  2
block 8
 70
     0
 10
0.0
 20
0.0
 30
0.0
  3
block 8
  1

  0
POLYLINE
  5
109
330
105
100
AcDbEntity
  8
_U+30EC_U+30A4_U+30E4_U+30FC 1
 62
   179
420
  2234388
370
     9
100
AcDb2dPolyline
 66
     1
 10
0.0
 20
0.0
 30
0.0
  0
VERTEX
  5
10A
330
109
100
AcDbEntity
  8
_U+30EC_U+30A4_U+30E4_U+30FC 1
 62
   179
420
  2234388
370
     9
100
AcDbVertex
100
AcDb2dVertex
 10
72.0751792723201
 20
-146.2091732967809
 30
0.0
  0
VERTEX
  5
10B
330
109
100
AcDbEntity
  8
_U+30EC_U+30A4_U+30E4_U+30FC 1
 62
   179
420
  2234388
370
     9
100
AcDbVertex
100
AcDb2dVertex
 10
82.07561762829877
 20
-146.2091732967809
 30
0.0
  0
SEQEND
  5
10C
330
109
100
AcDbEntity
  8
_U+30EC_U+30A4_U+30E4_U+30FC 1
 62
   179
420
  2234388
370
     9
  0
POLYLINE
  5
10D
330
105
100
AcDbEntity
  8
_U+30EC_U+30A4_U+30E4_U+30FC 1
 62
   179
420
  2234388
370
     9
100
AcDb2dPolyline
 66
     1
 10
0.0
 20
0.0
 30
0.0
  0
VERTEX
  5
10E
330
10D
100
AcDbEntity
  8
_U+30EC_U+30A4_U+30E4_U+30FC 1
 62
   179
420
  2234388
370
     9
100
AcDbVertex
100
AcDb2dVertex
 10
72.0751792723201
 20
-144.7491319082572
 30
0.0
  0
VERTEX
  5
10F
330
10D
100
AcDbEntity
  8
_U+30EC_U+30A4_U+30E4_U+30FC 1
 62
   179
420
  2234388
370
     9
100
AcDbVertex
100
AcDb2dVertex
 10
72.0751792723201
 20
-147.2096157965308
 30
0.0
  0
SEQEND
  5
110
330
10D
100
AcDbEntity
  8
_U+30EC_U+30A4_U+30E4_U+30FC 1
 62
   179
420
  2234388
370
     9
  0
POLYLINE
  5
111
330
105
100
AcDbEntity
  8
_U+30EC_U+30A4_U+30E4_U+30FC 1
 62
   179
420
  2234388
370
     9
100
AcDb2dPolyline
 66
     1
 10
0.0
 20
0.0
 30
0.0
  0
VERTEX
  5
112
330
111
100
AcDbEntity
  8
_U+30EC_U+30A4_U+30E4_U+30FC 1
 62
   179
420
  2234388
370
     9
100
AcDbVertex
100
AcDb2dVertex
 10
82.07561762829877
 20
-144.7491319082572
 30
0.0
  0
VERTEX
  5
113
330
111
100
AcDbEntity
  8
_U+30EC_U+30A4_U+30E4_U+30FC 1
 62
   179
420
  2234388
370
     9
100
AcDbVertex
100
AcDb2dVertex
 10
82.07561762829877
 20
-147.2096157965308
 30
0.0
  0
SEQEND
  5
114
330
111
100
AcDbEntity
  8
_U+30EC_U+30A4_U+30E4_U+30FC 1
 62
   179
420
  2234388
370
     9
  0
INSERT
  5
116
330
105
100
AcDbEntity
  8
_U+30EC_U+30A4_U+30E4_U+30FC 1
100
AcDbBlockReference
  2
block 9
 10
0.0
 20
0.0
 30
0.0
  0
ENDBLK
  5
108
330
105
100
AcDbEntity
  8
0
100
AcDbBlockEnd
  0
BLOCK
  5
117
330
115
100
AcDbEntity
  8
0
100
AcDbBlockBegin
  2
block 9
 70
     0
 10
0.0
 20
0.0
 30
0.0
  3
block 9
  1

  0
SPLINE
  5
119
330
115
100
AcDbEntity
  8
_U+30EC_U+30A4_U+30E4_U+30FC 1
370
     0
100
AcDbSpline
210
0.0
220
0.0
230
1.0
 70
    11
 71
     3
 72
    26
 73
    22
 74
     0
 42
0.0000000001
 43
0.0000000001
 12
1.0
 22
0.0
 32
0.0
 13
1.0
 23
0.0
 33
0.0
 40
0.0
 40
0.0
 40
0.0
 40
0.0
 40
1.0
 40
1.0
 40
1.0
 40
2.0
 40
2.0
 40
2.0
 40
3.0
 40
3.0
 40
3.0
 40
4.0
 40
4.0
 40
4.0
 40
5.0
 40
5.0
 40
5.0
 40
6.0
 40
6.0
 40
6.0
 40
7.0
 40
7.0
 40
7.0
 40
7.0
 10
76.39413111154383
 20
-145.5635524809702
 30
0.0
 10
76.39413111154383
 20
-145.5635524809702
 30
0.0
 10
76.39413111154383
 20
-144.4590548683991
 30
0.0
 10
76.39413111154383
 20
-144.4590548683991
 30
0.0
 10
76.39413111154383
 20
-144.4590548683991
 30
0.0
 10
76.04135333385425
 20
-144.4590548683991
 30
0.0
 10
76.04135333385425
 20
-144.4590548683991
 30
0.0
 10
76.04135333385425
 20
-144.4590548683991
 30
0.0
 10
76.04135333385425
 20
-144.3109157625334
 30
0.0
 10
76.04135333385425
 20
-144.3109157625334
 30
0.0
 10
76.39637042360924
 20
-144.2964463614953
 30
0.0
 10
76.44615205337111
 20
-144.1331488354945
 30
0.0
 10
76.4778469318354
 20
-144.0187716653842
 30
0.0
 10
76.4778469318354
 20
-144.0187716653842
 30
0.0
 10
76.63373750254296
 20
-144.0187716653842
 30
0.0
 10
76.63373750254296
 20
-144.0187716653842
 30
0.0
 10
76.63373750254296
 20
-144.0187716653842
 30
0.0
 10
76.63373750254296
 20
-145.5635524809702
 30
0.0
 10
76.63373750254296
 20
-145.5635524809702
 30
0.0
 10
76.63373750254296
 20
-145.5635524809702
 30
0.0
 10
76.39413111154383
 20
-145.5635524809702
 30
0.0
 10
76.39413111154383
 20
-145.5635524809702
 30
0.0
  0
HATCH
  5
11A
330
115
100
AcDbEntity
  8
_U+30EC_U+30A4_U+30E4_U+30FC 1
 62
   179
420
  2234388
100
AcDbHatch
 10
0.0
 20
0.0
 30
0.0
210
0.0
220
0.0
230
1.0
  2
SOLID
 70
     1
 71
     0
 91
        1
 92
        1
 93
        1
 72
     4
 94
        3
 73
     0
 74
     1
 95
       26
 96
       22
 40
0.0
 40
0.0
 40
0.0
 40
0.0
 40
1.0
 40
1.0
 40
1.0
 40
2.0
 40
2.0
 40
2.0
 40
3.0
 40
3.0
 40
3.0
 40
4.0
 40
4.0
 40
4.0
 40
5.0
 40
5.0
 40
5.0
 40
6.0
 40
6.0
 40
6.0
 40
7.0
 40
7.0
 40
7.0
 40
7.0
 10
76.39413111154383
 20
-145.5635524809702
 10
76.39413111154383
 20
-145.5635524809702
 10
76.39413111154383
 20
-144.4590548683991
 10
76.39413111154383
 20
-144.4590548683991
 10
76.39413111154383
 20
-144.4590548683991
 10
76.04135333385425
 20
-144.4590548683991
 10
76.04135333385425
 20
-144.4590548683991
 10
76.04135333385425
 20
-144.4590548683991
 10
76.04135333385425
 20
-144.3109157625334
 10
76.04135333385425
 20
-144.3109157625334
 10
76.39637042360924
 20
-144.2964463614953
 10
76.44615205337111
 20
-144.1331488354945
 10
76.4778469318354
 20
-144.0187716653842
 10
76.4778469318354
 20
-144.0187716653842
 10
76.63373750254296
 20
-144.0187716653842
 10
76.63373750254296
 20
-144.0187716653842
 10
76.63373750254296
 20
-144.0187716653842
 10
76.63373750254296
 20
-145.5635524809702
 10
76.63373750254296
 20
-145.5635524809702
 10
76.63373750254296
 20
-145.5635524809702
 10
76.39413111154383
 20
-145.5635524809702
 10
76.39413111154383
 20
-145.5635524809702
 97
        0
 97
        0
 75
     2
 76
     1
 98
        0
  0
SPLINE
  5
11B
330
115
100
AcDbEntity
  8
_U+30EC_U+30A4_U+30E4_U+30FC 1
370
     0
100
AcDbSpline
210
0.0
220
0.0
230
1.0
 70
    11
 71
     3
 72
    29
 73
    25
 74
     0
 42
0.0000000001
 43
0.0000000001
 12
1.0
 22
0.0
 32
0.0
 13
1.0
 23
0.0
 33
0.0
 40
0.0
 40
0.0
 40
0.0
 40
0.0
 40
1.0
 40
1.0
 40
1.0
 40
2.0
 40
2.0
 40
2.0
 40
3.0
 40
3.0
 40
3.0
 40
4.0
 40
4.0
 40
4.0
 40
5.0
 40
5.0
 40
5.0
 40
6.0
 40
6.0
 40
6.0
 40
7.0
 40
7.0
 40
7.0
 40
8.0
 40
8.0
 40
8.0
 40
8.0
 10
78.12890894314138
 20
-145.3857855539313
 30
0.0
 10
78.01367049915979
 20
-145.5952473594345
 30
0.0
 10
77.82832436205334
 20
-145.6138508750549
 30
0.0
 10
77.70395641503582
 20
-145.6138508750549
 30
0.0
 10
77.53204615032185
 20
-145.6138508750549
 30
0.0
 10
77.38063420374512
 20
-145.5676865955525
 30
0.0
 10
77.27883163215598
 20
-145.3857855539313
 30
0.0
 10
77.16807181230521
 20
-145.1907931494662
 30
0.0
 10
77.14774574894223
 20
-144.9544595991781
 30
0.0
 10
77.14774574894223
 20
-144.7911620731772
 30
0.0
 10
77.14774574894223
 20
-144.6471570818938
 30
0.0
 10
77.1658325002398
 20
-144.3956651114705
 30
0.0
 10
77.27883163215598
 20
-144.1965385924231
 30
0.0
 10
77.39424233091187
 20
-143.9939669778904
 30
0.0
 10
77.56598034085157
 20
-143.9705403285907
 30
0.0
 10
77.70395641503582
 20
-143.9705403285907
 30
0.0
 10
77.87345511291011
 20
-143.9705403285907
 30
0.0
 10
78.02727862632652
 20
-144.0146375508019
 30
0.0
 10
78.12890894314138
 20
-144.1965385924231
 30
0.0
 10
78.23519013886134
 20
-144.3894639395971
 30
0.0
 10
78.25999482635514
 20
-144.6175292607206
 30
0.0
 10
78.25999482635514
 20
-144.7911620731772
 30
0.0
 10
78.25999482635514
 20
-144.9627278283427
 30
0.0
 10
78.23742945092675
 20
-145.1928602067574
 30
0.0
 10
78.12890894314138
 20
-145.3857855539313
 30
0.0
  0
SPLINE
  5
11C
330
115
100
AcDbEntity
  8
_U+30EC_U+30A4_U+30E4_U+30FC 1
370
     0
100
AcDbSpline
210
0.0
220
0.0
230
1.0
 70
    11
 71
     3
 72
    17
 73
    13
 74
     0
 42
0.0000000001
 43
0.0000000001
 12
1.0
 22
0.0
 32
0.0
 13
1.0
 23
0.0
 33
0.0
 40
0.0
 40
0.0
 40
0.0
 40
0.0
 40
1.0
 40
1.0
 40
1.0
 40
2.0
 40
2.0
 40
2.0
 40
3.0
 40
3.0
 40
3.0
 40
4.0
 40
4.0
 40
4.0
 40
4.0
 10
77.70395641503582
 20
-144.1627766566677
 30
0.0
 10
77.43713376970322
 20
-144.1627766566677
 30
0.0
 10
77.38735213994136
 20
-144.4466525246522
 30
0.0
 10
77.38735213994136
 20
-144.7911620731772
 30
0.0
 10
77.38735213994136
 20
-145.1108669342084
 30
0.0
 10
77.4257649546019
 20
-145.4195474896868
 30
0.0
 10
77.70395641503582
 20
-145.4195474896868
 30
0.0
 10
77.96836749352875
 20
-145.4195474896868
 30
0.0
 10
78.02038843535601
 20
-145.1384276980904
 30
0.0
 10
78.02038843535601
 20
-144.7911620731772
 30
0.0
 10
78.02038843535601
 20
-144.471457212146
 30
0.0
 10
77.97973630863007
 20
-144.1627766566677
 30
0.0
 10
77.70395641503582
 20
-144.1627766566677
 30
0.0
  0
HATCH
  5
11D
330
115
100
AcDbEntity
  8
_U+30EC_U+30A4_U+30E4_U+30FC 1
 62
   179
420
  2234388
100
AcDbHatch
 10
0.0
 20
0.0
 30
0.0
210
0.0
220
0.0
230
1.0
  2
SOLID
 70
     1
 71
     0
 91
        2
 92
        1
 93
        1
 72
     4
 94
        3
 73
     0
 74
     1
 95
       29
 96
       25
 40
0.0
 40
0.0
 40
0.0
 40
0.0
 40
1.0
 40
1.0
 40
1.0
 40
2.0
 40
2.0
 40
2.0
 40
3.0
 40
3.0
 40
3.0
 40
4.0
 40
4.0
 40
4.0
 40
5.0
 40
5.0
 40
5.0
 40
6.0
 40
6.0
 40
6.0
 40
7.0
 40
7.0
 40
7.0
 40
8.0
 40
8.0
 40
8.0
 40
8.0
 10
78.12890894314138
 20
-145.3857855539313
 10
78.01367049915979
 20
-145.5952473594345
 10
77.82832436205334
 20
-145.6138508750549
 10
77.70395641503582
 20
-145.6138508750549
 10
77.53204615032185
 20
-145.6138508750549
 10
77.38063420374512
 20
-145.5676865955525
 10
77.27883163215598
 20
-145.3857855539313
 10
77.16807181230521
 20
-145.1907931494662
 10
77.14774574894223
 20
-144.9544595991781
 10
77.14774574894223
 20
-144.7911620731772
 10
77.14774574894223
 20
-144.6471570818938
 10
77.1658325002398
 20
-144.3956651114705
 10
77.27883163215598
 20
-144.1965385924231
 10
77.39424233091187
 20
-143.9939669778904
 10
77.56598034085157
 20
-143.9705403285907
 10
77.70395641503582
 20
-143.9705403285907
 10
77.87345511291011
 20
-143.9705403285907
 10
78.02727862632652
 20
-144.0146375508019
 10
78.12890894314138
 20
-144.1965385924231
 10
78.23519013886134
 20
-144.3894639395971
 10
78.25999482635514
 20
-144.6175292607206
 10
78.25999482635514
 20
-144.7911620731772
 10
78.25999482635514
 20
-144.9627278283427
 10
78.23742945092675
 20
-145.1928602067574
 10
78.12890894314138
 20
-145.3857855539313
 97
        0
 97
        0
 92
        1
 93
        1
 72
     4
 94
        3
 73
     0
 74
     1
 95
       17
 96
       13
 40
0.0
 40
0.0
 40
0.0
 40
0.0
 40
1.0
 40
1.0
 40
1.0
 40
2.0
 40
2.0
 40
2.0
 40
3.0
 40
3.0
 40
3.0
 40
4.0
 40
4.0
 40
4.0
 40
4.0
 10
77.70395641503582
 20
-144.1627766566677
 10
77.43713376970322
 20
-144.1627766566677
 10
77.38735213994136
 20
-144.4466525246522
 10
77.38735213994136
 20
-144.7911620731772
 10
77.38735213994136
 20
-145.1108669342084
 10
77.4257649546019
 20
-145.4195474896868
 10
77.70395641503582
 20
-145.4195474896868
 10
77.96836749352875
 20
-145.4195474896868
 10
78.02038843535601
 20
-145.1384276980904
 10
78.02038843535601
 20
-144.7911620731772
 10
78.02038843535601
 20
-144.471457212146
 10
77.97973630863007
 20
-144.1627766566677
 10
77.70395641503582
 20
-144.1627766566677
 97
        0
 97
        0
 75
     2
 76
     1
 98
        0
  0
ENDBLK
  5
118
330
115
100
AcDbEntity
  8
0
100
AcDbBlockEnd
  0
BLOCK
  5
120
330
11E
100
AcDbEntity
  8
0
100
AcDbBlockBegin
  2
block 10
 70
     0
 10
0.0
 20
0.0
 30
0.0
  3
block 10
  1

  0
POLYLINE
  5
122
330
11E
100
AcDbEntity
  8
_U+30EC_U+30A4_U+30E4_U+30FC 1
 62
   179
420
  2234388
370
     9
100
AcDb2dPolyline
 66
     1
 10
0.0
 20
0.0
 30
0.0
  0
VERTEX
  5
123
330
122
100
AcDbEntity
  8
_U+30EC_U+30A4_U+30E4_U+30FC 1
 62
   179
420
  2234388
370
     9
100
AcDbVertex
100
AcDb2dVertex
 10
68.07542020769579
 20
-121.7093563584617
 30
0.0
  0
VERTEX
  5
124
330
122
100
AcDbEntity
  8
_U+30EC_U+30A4_U+30E4_U+30FC 1
 62
   179
420
  2234388
370
     9
100
AcDbVertex
100
AcDb2dVertex
 10
68.07542020769579
 20
-142.2094141311146
 30
0.0
  0
SEQEND
  5
125
330
122
100
AcDbEntity
  8
_U+30EC_U+30A4_U+30E4_U+30FC 1
 62
   179
420
  2234388
370
     9
  0
POLYLINE
  5
126
330
11E
100
AcDbEntity
  8
_U+30EC_U+30A4_U+30E4_U+30FC 1
 62
   179
420
  2234388
370
     9
100
AcDb2dPolyline
 66
     1
 10
0.0
 20
0.0
 30
0.0
  0
VERTEX
  5
127
330
126
100
AcDbEntity
  8
_U+30EC_U+30A4_U+30E4_U+30FC 1
 62
   179
420
  2234388
370
     9
100
AcDbVertex
100
AcDb2dVertex
 10
69.53546155933591
 20
-121.7093563584617
 30
0.0
  0
VERTEX
  5
128
330
126
100
AcDbEntity
  8
_U+30EC_U+30A4_U+30E4_U+30FC 1
 62
   179
420
  2234388
370
     9
100
AcDbVertex
100
AcDb2dVertex
 10
67.07533051098798
 20
-121.7093563584617
 30
0.0
  0
SEQEND
  5
129
330
126
100
AcDbEntity
  8
_U+30EC_U+30A4_U+30E4_U+30FC 1
 62
   179
420
  2234388
370
     9
  0
POLYLINE
  5
12A
330
11E
100
AcDbEntity
  8
_U+30EC_U+30A4_U+30E4_U+30FC 1
 62
   179
420
  2234388
370
     9
100
AcDb2dPolyline
 66
     1
 10
0.0
 20
0.0
 30
0.0
  0
VERTEX
  5
12B
330
12A
100
AcDbEntity
  8
_U+30EC_U+30A4_U+30E4_U+30FC 1
 62
   179
420
  2234388
370
     9
100
AcDbVertex
100
AcDb2dVertex
 10
69.53546155933591
 20
-142.2094141311146
 30
0.0
  0
VERTEX
  5
12C
330
12A
100
AcDbEntity
  8
_U+30EC_U+30A4_U+30E4_U+30FC 1
 62
   179
420
  2234388
370
     9
100
AcDbVertex
100
AcDb2dVertex
 10
67.07533051098798
 20
-142.2094141311146
 30
0.0
  0
SEQEND
  5
12D
330
12A
100
AcDbEntity
  8
_U+30EC_U+30A4_U+30E4_U+30FC 1
 62
   179
420
  2234388
370
     9
  0
INSERT
  5
12F
330
11E
100
AcDbEntity
  8
_U+30EC_U+30A4_U+30E4_U+30FC 1
100
AcDbBlockReference
  2
block 11
 10
0.0
 20
0.0
 30
0.0
  0
ENDBLK
  5
121
330
11E
100
AcDbEntity
  8
0
100
AcDbBlockEnd
  0
BLOCK
  5
130
330
12E
100
AcDbEntity
  8
0
100
AcDbBlockBegin
  2
block 11
 70
     0
 10
0.0
 20
0.0
 30
0.0
  3
block 11
  1

  0
SPLINE
  5
132
330
12E
100
AcDbEntity
  8
_U+30EC_U+30A4_U+30E4_U+30FC 1
370
     0
100
AcDbSpline
210
0.0
220
0.0
230
1.0
 70
    11
 71
     3
 72
    44
 73
    40
 74
     0
 42
0.0000000001
 43
0.0000000001
 12
1.0
 22
0.0
 32
0.0
 13
1.0
 23
0.0
 33
0.0
 40
0.0
 40
0.0
 40
0.0
 40
0.0
 40
1.0
 40
1.0
 40
1.0
 40
2.0
 40
2.0
 40
2.0
 40
3.0
 40
3.0
 40
3.0
 40
4.0
 40
4.0
 40
4.0
 40
5.0
 40
5.0
 40
5.0
 40
6.0
 40
6.0
 40
6.0
 40
7.0
 40
7.0
 40
7.0
 40
8.0
 40
8.0
 40
8.0
 40
9.0
 40
9.0
 40
9.0
 40
10.0
 40
10.0
 40
10.0
 40
11.0
 40
11.0
 40
11.0
 40
12.0
 40
12.0
 40
12.0
 40
13.0
 40
13.0
 40
13.0
 40
13.0
 10
66.84725475759375
 20
-133.6621256176261
 30
0.0
 10
67.00607365946377
 20
-133.895014072429
 30
0.0
 10
67.08014321239664
 20
-133.9945773319527
 30
0.0
 10
67.22380369413155
 20
-134.04659827378
 30
0.0
 10
67.22380369413155
 20
-134.04659827378
 30
0.0
 10
67.22380369413155
 20
-133.2142632045437
 30
0.0
 10
67.22380369413155
 20
-133.2142632045437
 30
0.0
 10
67.22380369413155
 20
-133.2142632045437
 30
0.0
 10
67.42913138505244
 20
-133.2142632045437
 30
0.0
 10
67.42913138505244
 20
-133.2142632045437
 30
0.0
 10
67.42913138505244
 20
-133.2142632045437
 30
0.0
 10
67.42913138505244
 20
-134.3132486643384
 30
0.0
 10
67.42913138505244
 20
-134.3132486643384
 30
0.0
 10
67.07153047368351
 20
-134.2791422190344
 30
0.0
 10
66.99332680616834
 20
-134.2092067806838
 30
0.0
 10
66.69498153714571
 20
-133.797862379745
 30
0.0
 10
66.49619952764678
 20
-133.5243217982161
 30
0.0
 10
66.42833114658737
 20
-133.4540418503171
 30
0.0
 10
66.2908718367259
 20
-133.4540418503171
 30
0.0
 10
66.1723605520333
 20
-133.4540418503171
 30
0.0
 10
66.04144692359381
 20
-133.5308674796381
 30
0.0
 10
66.04144692359381
 20
-133.7413628137869
 30
0.0
 10
66.04144692359381
 20
-134.0193820194465
 30
0.0
 10
66.27192381155702
 20
-134.0283392677082
 30
0.0
 10
66.38836803895846
 20
-134.032817891839
 30
0.0
 10
66.38836803895846
 20
-134.032817891839
 30
0.0
 10
66.38836803895846
 20
-134.2725965376124
 30
0.0
 10
66.38836803895846
 20
-134.2725965376124
 30
0.0
 10
66.26124401555275
 20
-134.2636392893507
 30
0.0
 10
66.14927841228213
 20
-134.2522704742494
 30
0.0
 10
66.03076712758953
 20
-134.1661430871182
 30
0.0
 10
65.86988116842836
 20
-134.0486653310712
 30
0.0
 10
65.83611923267291
 20
-133.8498833215723
 30
0.0
 10
65.83611923267291
 20
-133.7255153745547
 30
0.0
 10
65.83611923267291
 20
-133.4292371628233
 30
0.0
 10
66.02008733158526
 20
-133.2077175231217
 30
0.0
 10
66.29293889401704
 20
-133.2077175231217
 30
0.0
 10
66.52169323423763
 20
-133.2077175231217
 30
0.0
 10
66.62091198421282
 20
-133.3320854701392
 30
0.0
 10
66.84725475759375
 20
-133.6621256176261
 30
0.0
  0
HATCH
  5
133
330
12E
100
AcDbEntity
  8
_U+30EC_U+30A4_U+30E4_U+30FC 1
 62
   179
420
  2234388
100
AcDbHatch
 10
0.0
 20
0.0
 30
0.0
210
0.0
220
0.0
230
1.0
  2
SOLID
 70
     1
 71
     0
 91
        1
 92
        1
 93
        1
 72
     4
 94
        3
 73
     0
 74
     1
 95
       44
 96
       40
 40
0.0
 40
0.0
 40
0.0
 40
0.0
 40
1.0
 40
1.0
 40
1.0
 40
2.0
 40
2.0
 40
2.0
 40
3.0
 40
3.0
 40
3.0
 40
4.0
 40
4.0
 40
4.0
 40
5.0
 40
5.0
 40
5.0
 40
6.0
 40
6.0
 40
6.0
 40
7.0
 40
7.0
 40
7.0
 40
8.0
 40
8.0
 40
8.0
 40
9.0
 40
9.0
 40
9.0
 40
10.0
 40
10.0
 40
10.0
 40
11.0
 40
11.0
 40
11.0
 40
12.0
 40
12.0
 40
12.0
 40
13.0
 40
13.0
 40
13.0
 40
13.0
 10
66.84725475759375
 20
-133.6621256176261
 10
67.00607365946377
 20
-133.895014072429
 10
67.08014321239664
 20
-133.9945773319527
 10
67.22380369413155
 20
-134.04659827378
 10
67.22380369413155
 20
-134.04659827378
 10
67.22380369413155
 20
-133.2142632045437
 10
67.22380369413155
 20
-133.2142632045437
 10
67.22380369413155
 20
-133.2142632045437
 10
67.42913138505244
 20
-133.2142632045437
 10
67.42913138505244
 20
-133.2142632045437
 10
67.42913138505244
 20
-133.2142632045437
 10
67.42913138505244
 20
-134.3132486643384
 10
67.42913138505244
 20
-134.3132486643384
 10
67.07153047368351
 20
-134.2791422190344
 10
66.99332680616834
 20
-134.2092067806838
 10
66.69498153714571
 20
-133.797862379745
 10
66.49619952764678
 20
-133.5243217982161
 10
66.42833114658737
 20
-133.4540418503171
 10
66.2908718367259
 20
-133.4540418503171
 10
66.1723605520333
 20
-133.4540418503171
 10
66.04144692359381
 20
-133.5308674796381
 10
66.04144692359381
 20
-133.7413628137869
 10
66.04144692359381
 20
-134.0193820194465
 10
66.27192381155702
 20
-134.0283392677082
 10
66.38836803895846
 20
-134.032817891839
 10
66.38836803895846
 20
-134.032817891839
 10
66.38836803895846
 20
-134.2725965376124
 10
66.38836803895846
 20
-134.2725965376124
 10
66.26124401555275
 20
-134.2636392893507
 10
66.14927841228213
 20
-134.2522704742494
 10
66.03076712758953
 20
-134.1661430871182
 10
65.86988116842836
 20
-134.0486653310712
 10
65.83611923267291
 20
-133.8498833215723
 10
65.83611923267291
 20
-133.7255153745547
 10
65.83611923267291
 20
-133.4292371628233
 10
66.02008733158526
 20
-133.2077175231217
 10
66.29293889401704
 20
-133.2077175231217
 10
66.52169323423763
 20
-133.2077175231217
 10
66.62091198421282
 20
-133.3320854701392
 10
66.84725475759375
 20
-133.6621256176261
 97
        0
 97
        0
 75
     2
 76
     1
 98
        0
  0
SPLINE
  5
134
330
12E
100
AcDbEntity
  8
_U+30EC_U+30A4_U+30E4_U+30FC 1
370
     0
100
AcDbSpline
210
0.0
220
0.0
230
1.0
 70
    11
 71
     3
 72
    29
 73
    25
 74
     0
 42
0.0000000001
 43
0.0000000001
 12
1.0
 22
0.0
 32
0.0
 13
1.0
 23
0.0
 33
0.0
 40
0.0
 40
0.0
 40
0.0
 40
0.0
 40
1.0
 40
1.0
 40
1.0
 40
2.0
 40
2.0
 40
2.0
 40
3.0
 40
3.0
 40
3.0
 40
4.0
 40
4.0
 40
4.0
 40
5.0
 40
5.0
 40
5.0
 40
6.0
 40
6.0
 40
6.0
 40
7.0
 40
7.0
 40
7.0
 40
8.0
 40
8.0
 40
8.0
 40
8.0
 10
67.25136445801355
 20
-132.0787597326053
 30
0.0
 10
67.46082626351674
 20
-132.1941704313612
 30
0.0
 10
67.47977428868562
 20
-132.3795165684676
 30
0.0
 10
67.47977428868562
 20
-132.5038845154851
 30
0.0
 10
67.47977428868562
 20
-132.6754502706506
 30
0.0
 10
67.43326549963474
 20
-132.8270344720016
 30
0.0
 10
67.25136445801355
 20
-132.9286647888165
 30
0.0
 10
67.05671656309694
 20
-133.0395968634415
 30
0.0
 10
66.82003850326028
 20
-133.0599229268045
 30
0.0
 10
66.65708548680796
 20
-133.0599229268045
 30
0.0
 10
66.5130804955245
 20
-133.0599229268045
 30
0.0
 10
66.26124401555275
 20
-133.0420084302812
 30
0.0
 10
66.06246200605383
 20
-132.9286647888165
 30
0.0
 10
65.85954588197262
 20
-132.8135985996091
 30
0.0
 10
65.83611923267291
 20
-132.6416883348952
 30
0.0
 10
65.83611923267291
 20
-132.5038845154851
 30
0.0
 10
65.83611923267291
 20
-132.3340413080623
 30
0.0
 10
65.88056096443265
 20
-132.1803900494202
 30
0.0
 10
66.06246200605383
 20
-132.0787597326053
 30
0.0
 10
66.25504284367929
 20
-131.9723062821111
 30
0.0
 10
66.48345267435137
 20
-131.9475015946173
 30
0.0
 10
66.65708548680796
 20
-131.9475015946173
 30
0.0
 10
66.82830673242488
 20
-131.9475015946173
 30
0.0
 10
67.05878362038808
 20
-131.9702392248199
 30
0.0
 10
67.25136445801355
 20
-132.0787597326053
 30
0.0
  0
SPLINE
  5
135
330
12E
100
AcDbEntity
  8
_U+30EC_U+30A4_U+30E4_U+30FC 1
370
     0
100
AcDbSpline
210
0.0
220
0.0
230
1.0
 70
    11
 71
     3
 72
    17
 73
    13
 74
     0
 42
0.0000000001
 43
0.0000000001
 12
1.0
 22
0.0
 32
0.0
 13
1.0
 23
0.0
 33
0.0
 40
0.0
 40
0.0
 40
0.0
 40
0.0
 40
1.0
 40
1.0
 40
1.0
 40
2.0
 40
2.0
 40
2.0
 40
3.0
 40
3.0
 40
3.0
 40
4.0
 40
4.0
 40
4.0
 40
4.0
 10
66.02870007029838
 20
-132.5038845154851
 30
0.0
 10
66.02870007029838
 20
-132.7705349060435
 30
0.0
 10
66.31223142873445
 20
-132.8201442810311
 30
0.0
 10
66.65708548680796
 20
-132.8201442810311
 30
0.0
 10
66.97644583829062
 20
-132.8201442810311
 30
0.0
 10
67.285126393769
 20
-132.7819037211448
 30
0.0
 10
67.285126393769
 20
-132.5038845154851
 30
0.0
 10
67.285126393769
 20
-132.239301182218
 30
0.0
 10
67.00400660217261
 20
-132.1872802403907
 30
0.0
 10
66.65708548680796
 20
-132.1872802403907
 30
0.0
 10
66.33738062577677
 20
-132.1872802403907
 30
0.0
 10
66.02870007029838
 20
-132.2279323671166
 30
0.0
 10
66.02870007029838
 20
-132.5038845154851
 30
0.0
  0
HATCH
  5
136
330
12E
100
AcDbEntity
  8
_U+30EC_U+30A4_U+30E4_U+30FC 1
 62
   179
420
  2234388
100
AcDbHatch
 10
0.0
 20
0.0
 30
0.0
210
0.0
220
0.0
230
1.0
  2
SOLID
 70
     1
 71
     0
 91
        2
 92
        1
 93
        1
 72
     4
 94
        3
 73
     0
 74
     1
 95
       29
 96
       25
 40
0.0
 40
0.0
 40
0.0
 40
0.0
 40
1.0
 40
1.0
 40
1.0
 40
2.0
 40
2.0
 40
2.0
 40
3.0
 40
3.0
 40
3.0
 40
4.0
 40
4.0
 40
4.0
 40
5.0
 40
5.0
 40
5.0
 40
6.0
 40
6.0
 40
6.0
 40
7.0
 40
7.0
 40
7.0
 40
8.0
 40
8.0
 40
8.0
 40
8.0
 10
67.25136445801355
 20
-132.0787597326053
 10
67.46082626351674
 20
-132.1941704313612
 10
67.47977428868562
 20
-132.3795165684676
 10
67.47977428868562
 20
-132.5038845154851
 10
67.47977428868562
 20
-132.6754502706506
 10
67.43326549963474
 20
-132.8270344720016
 10
67.25136445801355
 20
-132.9286647888165
 10
67.05671656309694
 20
-133.0395968634415
 10
66.82003850326028
 20
-133.0599229268045
 10
66.65708548680796
 20
-133.0599229268045
 10
66.5130804955245
 20
-133.0599229268045
 10
66.26124401555275
 20
-133.0420084302812
 10
66.06246200605383
 20
-132.9286647888165
 10
65.85954588197262
 20
-132.8135985996091
 10
65.83611923267291
 20
-132.6416883348952
 10
65.83611923267291
 20
-132.5038845154851
 10
65.83611923267291
 20
-132.3340413080623
 10
65.88056096443265
 20
-132.1803900494202
 10
66.06246200605383
 20
-132.0787597326053
 10
66.25504284367929
 20
-131.9723062821111
 10
66.48345267435137
 20
-131.9475015946173
 10
66.65708548680796
 20
-131.9475015946173
 10
66.82830673242488
 20
-131.9475015946173
 10
67.05878362038808
 20
-131.9702392248199
 10
67.25136445801355
 20
-132.0787597326053
 97
        0
 97
        0
 92
        1
 93
        1
 72
     4
 94
        3
 73
     0
 74
     1
 95
       17
 96
       13
 40
0.0
 40
0.0
 40
0.0
 40
0.0
 40
1.0
 40
1.0
 40
1.0
 40
2.0
 40
2.0
 40
2.0
 40
3.0
 40
3.0
 40
3.0
 40
4.0
 40
4.0
 40
4.0
 40
4.0
 10
66.02870007029838
 20
-132.5038845154851
 10
66.02870007029838
 20
-132.7705349060435
 10
66.31223142873445
 20
-132.8201442810311
 10
66.65708548680796
 20
-132.8201442810311
 10
66.97644583829062
 20
-132.8201442810311
 10
67.285126393769
 20
-132.7819037211448
 10
67.285126393769
 20
-132.5038845154851
 10
67.285126393769
 20
-132.239301182218
 10
67.00400660217261
 20
-132.1872802403907
 10
66.65708548680796
 20
-132.1872802403907
 10
66.33738062577677
 20
-132.1872802403907
 10
66.02870007029838
 20
-132.2279323671166
 10
66.02870007029838
 20
-132.5038845154851
 97
        0
 97
        0
 75
     2
 76
     1
 98
        0
  0
POLYLINE
  5
137
330
12E
100
AcDbEntity
  8
_U+30EC_U+30A4_U+30E4_U+30FC 1
370
     0
100
AcDb2dPolyline
 66
     1
 10
0.0
 20
0.0
 30
0.0
  0
VERTEX
  5
138
330
137
100
AcDbEntity
  8
_U+30EC_U+30A4_U+30E4_U+30FC 1
370
     0
100
AcDbVertex
100
AcDb2dVertex
 10
67.42913138505244
 20
-131.716335687557
 30
0.0
  0
VERTEX
  5
139
330
137
100
AcDbEntity
  8
_U+30EC_U+30A4_U+30E4_U+30FC 1
370
     0
100
AcDbVertex
100
AcDb2dVertex
 10
67.17729490508069
 20
-131.716335687557
 30
0.0
  0
VERTEX
  5
13A
330
137
100
AcDbEntity
  8
_U+30EC_U+30A4_U+30E4_U+30FC 1
370
     0
100
AcDbVertex
100
AcDb2dVertex
 10
67.17729490508069
 20
-131.447273730159
 30
0.0
  0
VERTEX
  5
13B
330
137
100
AcDbEntity
  8
_U+30EC_U+30A4_U+30E4_U+30FC 1
370
     0
100
AcDbVertex
100
AcDb2dVertex
 10
67.42913138505244
 20
-131.447273730159
 30
0.0
  0
VERTEX
  5
13C
330
137
100
AcDbEntity
  8
_U+30EC_U+30A4_U+30E4_U+30FC 1
370
     0
100
AcDbVertex
100
AcDb2dVertex
 10
67.42913138505244
 20
-131.716335687557
 30
0.0
  0
SEQEND
  5
13D
330
137
100
AcDbEntity
  8
_U+30EC_U+30A4_U+30E4_U+30FC 1
370
     0
  0
HATCH
  5
13E
330
12E
100
AcDbEntity
  8
_U+30EC_U+30A4_U+30E4_U+30FC 1
 62
   179
420
  2234388
100
AcDbHatch
 10
0.0
 20
0.0
 30
0.0
210
0.0
220
0.0
230
1.0
  2
SOLID
 70
     1
 71
     0
 91
        1
 92
        1
 93
        4
 72
     1
 10
67.42913138505244
 20
-131.716335687557
 11
67.17729490508069
 21
-131.716335687557
 72
     1
 10
67.17729490508069
 20
-131.716335687557
 11
67.17729490508069
 21
-131.447273730159
 72
     1
 10
67.17729490508069
 20
-131.447273730159
 11
67.42913138505244
 21
-131.447273730159
 72
     1
 10
67.42913138505244
 20
-131.447273730159
 11
67.42913138505244
 21
-131.716335687557
 97
        0
 75
     2
 76
     1
 98
        0
  0
SPLINE
  5
13F
330
12E
100
AcDbEntity
  8
_U+30EC_U+30A4_U+30E4_U+30FC 1
370
     0
100
AcDbSpline
210
0.0
220
0.0
230
1.0
 70
    11
 71
     3
 72
    53
 73
    49
 74
     0
 42
0.0000000001
 43
0.0000000001
 12
1.0
 22
0.0
 32
0.0
 13
1.0
 23
0.0
 33
0.0
 40
0.0
 40
0.0
 40
0.0
 40
0.0
 40
1.0
 40
1.0
 40
1.0
 40
2.0
 40
2.0
 40
2.0
 40
3.0
 40
3.0
 40
3.0
 40
4.0
 40
4.0
 40
4.0
 40
5.0
 40
5.0
 40
5.0
 40
6.0
 40
6.0
 40
6.0
 40
7.0
 40
7.0
 40
7.0
 40
8.0
 40
8.0
 40
8.0
 40
9.0
 40
9.0
 40
9.0
 40
10.0
 40
10.0
 40
10.0
 40
11.0
 40
11.0
 40
11.0
 40
12.0
 40
12.0
 40
12.0
 40
13.0
 40
13.0
 40
13.0
 40
14.0
 40
14.0
 40
14.0
 40
15.0
 40
15.0
 40
15.0
 40
16.0
 40
16.0
 40
16.0
 40
16.0
 10
67.47977428868562
 20
-130.6803954751424
 30
0.0
 10
67.47977428868562
 20
-130.764111295434
 30
0.0
 10
67.4628933208079
 20
-130.8722872936708
 30
0.0
 10
67.39950356387929
 20
-130.9811523110047
 30
0.0
 10
67.28960501789983
 20
-131.1664984481112
 30
0.0
 10
67.1583468799118
 20
-131.1888915687653
 30
0.0
 10
67.05051539122348
 20
-131.2092176321283
 30
0.0
 10
67.05051539122348
 20
-131.2092176321283
 30
0.0
 10
67.05051539122348
 20
-130.9718505531945
 30
0.0
 10
67.05051539122348
 20
-130.9718505531945
 30
0.0
 10
67.2492974007224
 20
-130.9132839299453
 30
0.0
 10
67.27892522189555
 20
-130.7775471678264
 30
0.0
 10
67.27892522189555
 20
-130.6779839083027
 30
0.0
 10
67.27892522189555
 20
-130.5288112737914
 30
0.0
 10
67.17936196237183
 20
-130.3658582573391
 30
0.0
 10
66.94681801711747
 20
-130.3658582573391
 30
0.0
 10
66.69084742256341
 20
-130.3658582573391
 30
0.0
 10
66.62091198421282
 20
-130.558094585416
 30
0.0
 10
66.62091198421282
 20
-130.6869411565644
 30
0.0
 10
66.62091198421282
 20
-130.7210476018683
 30
0.0
 10
66.62091198421282
 20
-130.8722872936708
 30
0.0
 10
66.7501030649097
 20
-130.9673719290637
 30
0.0
 10
66.7501030649097
 20
-130.9673719290637
 30
0.0
 10
66.73115503974083
 20
-131.1551296330098
 30
0.0
 10
66.73115503974083
 20
-131.1551296330098
 30
0.0
 10
66.73115503974083
 20
-131.1551296330098
 30
0.0
 10
65.88469507901495
 20
-131.0262830618615
 30
0.0
 10
65.88469507901495
 20
-131.0262830618615
 30
0.0
 10
65.88469507901495
 20
-131.0262830618615
 30
0.0
 10
65.88469507901495
 20
-130.1942925021737
 30
0.0
 10
65.88469507901495
 20
-130.1942925021737
 30
0.0
 10
65.88469507901495
 20
-130.1942925021737
 30
0.0
 10
66.07934297393156
 20
-130.1942925021737
 30
0.0
 10
66.07934297393156
 20
-130.1942925021737
 30
0.0
 10
66.07934297393156
 20
-130.1942925021737
 30
0.0
 10
66.07934297393156
 20
-130.8519612303078
 30
0.0
 10
66.07934297393156
 20
-130.8519612303078
 30
0.0
 10
66.07934297393156
 20
-130.8519612303078
 30
0.0
 10
66.50240069952024
 20
-130.9222411782069
 30
0.0
 10
66.50240069952024
 20
-130.9222411782069
 30
0.0
 10
66.46863876376479
 20
-130.8567843639872
 30
0.0
 10
66.42833114658737
 20
-130.7685899195648
 30
0.0
 10
66.42833114658737
 20
-130.6418104057076
 30
0.0
 10
66.42833114658737
 20
-130.3706813910185
 30
0.0
 10
66.61471081233938
 20
-130.1174668728526
 30
0.0
 10
66.9278699919486
 20
-130.1174668728526
 30
0.0
 10
67.2451632861401
 20
-130.1174668728526
 30
0.0
 10
67.47977428868562
 20
-130.3569010090775
 30
0.0
 10
67.47977428868562
 20
-130.6803954751424
 30
0.0
  0
HATCH
  5
140
330
12E
100
AcDbEntity
  8
_U+30EC_U+30A4_U+30E4_U+30FC 1
 62
   179
420
  2234388
100
AcDbHatch
 10
0.0
 20
0.0
 30
0.0
210
0.0
220
0.0
230
1.0
  2
SOLID
 70
     1
 71
     0
 91
        1
 92
        1
 93
        1
 72
     4
 94
        3
 73
     0
 74
     1
 95
       53
 96
       49
 40
0.0
 40
0.0
 40
0.0
 40
0.0
 40
1.0
 40
1.0
 40
1.0
 40
2.0
 40
2.0
 40
2.0
 40
3.0
 40
3.0
 40
3.0
 40
4.0
 40
4.0
 40
4.0
 40
5.0
 40
5.0
 40
5.0
 40
6.0
 40
6.0
 40
6.0
 40
7.0
 40
7.0
 40
7.0
 40
8.0
 40
8.0
 40
8.0
 40
9.0
 40
9.0
 40
9.0
 40
10.0
 40
10.0
 40
10.0
 40
11.0
 40
11.0
 40
11.0
 40
12.0
 40
12.0
 40
12.0
 40
13.0
 40
13.0
 40
13.0
 40
14.0
 40
14.0
 40
14.0
 40
15.0
 40
15.0
 40
15.0
 40
16.0
 40
16.0
 40
16.0
 40
16.0
 10
67.47977428868562
 20
-130.6803954751424
 10
67.47977428868562
 20
-130.764111295434
 10
67.4628933208079
 20
-130.8722872936708
 10
67.39950356387929
 20
-130.9811523110047
 10
67.28960501789983
 20
-131.1664984481112
 10
67.1583468799118
 20
-131.1888915687653
 10
67.05051539122348
 20
-131.2092176321283
 10
67.05051539122348
 20
-131.2092176321283
 10
67.05051539122348
 20
-130.9718505531945
 10
67.05051539122348
 20
-130.9718505531945
 10
67.2492974007224
 20
-130.9132839299453
 10
67.27892522189555
 20
-130.7775471678264
 10
67.27892522189555
 20
-130.6779839083027
 10
67.27892522189555
 20
-130.5288112737914
 10
67.17936196237183
 20
-130.3658582573391
 10
66.94681801711747
 20
-130.3658582573391
 10
66.69084742256341
 20
-130.3658582573391
 10
66.62091198421282
 20
-130.558094585416
 10
66.62091198421282
 20
-130.6869411565644
 10
66.62091198421282
 20
-130.7210476018683
 10
66.62091198421282
 20
-130.8722872936708
 10
66.7501030649097
 20
-130.9673719290637
 10
66.7501030649097
 20
-130.9673719290637
 10
66.73115503974083
 20
-131.1551296330098
 10
66.73115503974083
 20
-131.1551296330098
 10
66.73115503974083
 20
-131.1551296330098
 10
65.88469507901495
 20
-131.0262830618615
 10
65.88469507901495
 20
-131.0262830618615
 10
65.88469507901495
 20
-131.0262830618615
 10
65.88469507901495
 20
-130.1942925021737
 10
65.88469507901495
 20
-130.1942925021737
 10
65.88469507901495
 20
-130.1942925021737
 10
66.07934297393156
 20
-130.1942925021737
 10
66.07934297393156
 20
-130.1942925021737
 10
66.07934297393156
 20
-130.1942925021737
 10
66.07934297393156
 20
-130.8519612303078
 10
66.07934297393156
 20
-130.8519612303078
 10
66.07934297393156
 20
-130.8519612303078
 10
66.50240069952024
 20
-130.9222411782069
 10
66.50240069952024
 20
-130.9222411782069
 10
66.46863876376479
 20
-130.8567843639872
 10
66.42833114658737
 20
-130.7685899195648
 10
66.42833114658737
 20
-130.6418104057076
 10
66.42833114658737
 20
-130.3706813910185
 10
66.61471081233938
 20
-130.1174668728526
 10
66.9278699919486
 20
-130.1174668728526
 10
67.2451632861401
 20
-130.1174668728526
 10
67.47977428868562
 20
-130.3569010090775
 10
67.47977428868562
 20
-130.6803954751424
 97
        0
 97
        0
 75
     2
 76
     1
 98
        0
  0
ENDBLK
  5
131
330
12E
100
AcDbEntity
  8
0
100
AcDbBlockEnd
  0
BLOCK
  5
143
330
141
100
AcDbEntity
  8
0
100
AcDbBlockBegin
  2
block 12
 70
     0
 10
0.0
 20
0.0
 30
0.0
  3
block 12
  1

  0
POLYLINE
  5
145
330
141
100
AcDbEntity
  8
_U+30EC_U+30A4_U+30E4_U+30FC 1
 62
   179
420
  2234388
370
     9
100
AcDb2dPolyline
 66
     1
 10
0.0
 20
0.0
 30
0.0
  0
VERTEX
  5
146
330
145
100
AcDbEntity
  8
_U+30EC_U+30A4_U+30E4_U+30FC 1
 62
   179
420
  2234388
370
     9
100
AcDbVertex
100
AcDb2dVertex
 10
116.0749278720152
 20
-127.2097969126419
 30
0.0
  0
VERTEX
  5
147
330
145
100
AcDbEntity
  8
_U+30EC_U+30A4_U+30E4_U+30FC 1
 62
   179
420
  2234388
370
     9
100
AcDbVertex
100
AcDb2dVertex
 10
116.0749278720152
 20
-139.2094271874196
 30
0.0
  0
SEQEND
  5
148
330
145
100
AcDbEntity
  8
_U+30EC_U+30A4_U+30E4_U+30FC 1
 62
   179
420
  2234388
370
     9
  0
POLYLINE
  5
149
330
141
100
AcDbEntity
  8
_U+30EC_U+30A4_U+30E4_U+30FC 1
 62
   179
420
  2234388
370
     9
100
AcDb2dPolyline
 66
     1
 10
0.0
 20
0.0
 30
0.0
  0
VERTEX
  5
14A
330
149
100
AcDbEntity
  8
_U+30EC_U+30A4_U+30E4_U+30FC 1
 62
   179
420
  2234388
370
     9
100
AcDbVertex
100
AcDb2dVertex
 10
114.6148865203751
 20
-129.7095802453507
 30
0.0
  0
VERTEX
  5
14B
330
149
100
AcDbEntity
  8
_U+30EC_U+30A4_U+30E4_U+30FC 1
 62
   179
420
  2234388
370
     9
100
AcDbVertex
100
AcDb2dVertex
 10
117.0753703464918
 20
-129.7095802453507
 30
0.0
  0
SEQEND
  5
14C
330
149
100
AcDbEntity
  8
_U+30EC_U+30A4_U+30E4_U+30FC 1
 62
   179
420
  2234388
370
     9
  0
POLYLINE
  5
14D
330
141
100
AcDbEntity
  8
_U+30EC_U+30A4_U+30E4_U+30FC 1
 62
   179
420
  2234388
370
     9
100
AcDb2dPolyline
 66
     1
 10
0.0
 20
0.0
 30
0.0
  0
VERTEX
  5
14E
330
14D
100
AcDbEntity
  8
_U+30EC_U+30A4_U+30E4_U+30FC 1
 62
   179
420
  2234388
370
     9
100
AcDbVertex
100
AcDb2dVertex
 10
114.6148865203751
 20
-128.7098080233781
 30
0.0
  0
VERTEX
  5
14F
330
14D
100
AcDbEntity
  8
_U+30EC_U+30A4_U+30E4_U+30FC 1
 62
   179
420
  2234388
370
     9
100
AcDbVertex
100
AcDb2dVertex
 10
117.0753703464918
 20
-128.7098080233781
 30
0.0
  0
SEQEND
  5
150
330
14D
100
AcDbEntity
  8
_U+30EC_U+30A4_U+30E4_U+30FC 1
 62
   179
420
  2234388
370
     9
  0
INSERT
  5
152
330
141
100
AcDbEntity
  8
_U+30EC_U+30A4_U+30E4_U+30FC 1
100
AcDbBlockReference
  2
block 13
 10
0.0
 20
0.0
 30
0.0
  0
INSERT
  5
163
330
141
100
AcDbEntity
  8
_U+30EC_U+30A4_U+30E4_U+30FC 1
100
AcDbBlockReference
  2
block 14
 10
0.0
 20
0.0
 30
0.0
  0
ENDBLK
  5
144
330
141
100
AcDbEntity
  8
0
100
AcDbBlockEnd
  0
BLOCK
  5
153
330
151
100
AcDbEntity
  8
0
100
AcDbBlockBegin
  2
block 13
 70
     0
 10
0.0
 20
0.0
 30
0.0
  3
block 13
  1

  0
SPLINE
  5
155
330
151
100
AcDbEntity
  8
_U+30EC_U+30A4_U+30E4_U+30FC 1
370
     0
100
AcDbSpline
210
0.0
220
0.0
230
1.0
 70
    11
 71
     3
 72
    32
 73
    28
 74
     0
 42
0.0000000001
 43
0.0000000001
 12
1.0
 22
0.0
 32
0.0
 13
1.0
 23
0.0
 33
0.0
 40
0.0
 40
0.0
 40
0.0
 40
0.0
 40
1.0
 40
1.0
 40
1.0
 40
2.0
 40
2.0
 40
2.0
 40
3.0
 40
3.0
 40
3.0
 40
4.0
 40
4.0
 40
4.0
 40
5.0
 40
5.0
 40
5.0
 40
6.0
 40
6.0
 40
6.0
 40
7.0
 40
7.0
 40
7.0
 40
8.0
 40
8.0
 40
8.0
 40
9.0
 40
9.0
 40
9.0
 40
9.0
 10
115.4799451751231
 20
-135.6778509860458
 30
0.0
 10
115.4799451751231
 20
-135.8631971231523
 30
0.0
 10
115.410354246321
 20
-136.1253688895798
 30
0.0
 10
115.0782470415429
 20
-136.1660210163057
 30
0.0
 10
115.0782470415429
 20
-136.1660210163057
 30
0.0
 10
115.0782470415429
 20
-135.9379556951822
 30
0.0
 10
115.0782470415429
 20
-135.9379556951822
 30
0.0
 10
115.1375026838892
 20
-135.9265868800809
 30
0.0
 10
115.2852972802065
 20
-135.8924804347769
 30
0.0
 10
115.2852972802065
 20
-135.6754394192062
 30
0.0
 10
115.2852972802065
 20
-135.363658277791
 30
0.0
 10
114.955601642268
 20
-135.3230061510651
 30
0.0
 10
114.7502739513472
 20
-135.3092257691241
 30
0.0
 10
114.8305446761535
 20
-135.4063774618081
 30
0.0
 10
114.8877332612086
 20
-135.4787244669984
 30
0.0
 10
114.8877332612086
 20
-135.673372361915
 30
0.0
 10
114.8877332612086
 20
-135.8656086899919
 30
0.0
 10
114.7819688298115
 20
-136.1887586465084
 30
0.0
 10
114.3757920721005
 20
-136.1887586465084
 30
0.0
 10
114.0564317206178
 20
-136.1887586465084
 30
0.0
 10
113.8362901191104
 20
-135.9761962550685
 30
0.0
 10
113.8362901191104
 20
-135.6371988593199
 30
0.0
 10
113.8362901191104
 20
-135.0877061294225
 30
0.0
 10
114.3906059826871
 20
-135.0763373143212
 30
0.0
 10
114.6042019027726
 20
-135.0763373143212
 30
0.0
 10
114.8346787907358
 20
-135.0763373143212
 30
0.0
 10
115.4799451751231
 20
-135.0966633776842
 30
0.0
 10
115.4799451751231
 20
-135.6778509860458
 30
0.0
  0
SPLINE
  5
156
330
151
100
AcDbEntity
  8
_U+30EC_U+30A4_U+30E4_U+30FC 1
370
     0
100
AcDbSpline
210
0.0
220
0.0
230
1.0
 70
    11
 71
     3
 72
    17
 73
    13
 74
     0
 42
0.0000000001
 43
0.0000000001
 12
1.0
 22
0.0
 32
0.0
 13
1.0
 23
0.0
 33
0.0
 40
0.0
 40
0.0
 40
0.0
 40
0.0
 40
1.0
 40
1.0
 40
1.0
 40
2.0
 40
2.0
 40
2.0
 40
3.0
 40
3.0
 40
3.0
 40
4.0
 40
4.0
 40
4.0
 40
4.0
 10
114.0288709567358
 20
-135.6347872924802
 30
0.0
 10
114.0288709567358
 20
-135.7615668063374
 30
0.0
 10
114.086059541791
 20
-135.948980000735
 30
0.0
 10
114.3716579575182
 20
-135.948980000735
 30
0.0
 10
114.5980007308991
 20
-135.948980000735
 30
0.0
 10
114.693085366292
 20
-135.7998073662237
 30
0.0
 10
114.693085366292
 20
-135.6551133558432
 30
0.0
 10
114.693085366292
 20
-135.3750270928924
 30
0.0
 10
114.4836235607888
 20
-135.3340304566179
 30
0.0
 10
114.3671793333874
 20
-135.3340304566179
 30
0.0
 10
114.1918239731882
 20
-135.3340304566179
 30
0.0
 10
114.0288709567358
 20
-135.4360052829813
 30
0.0
 10
114.0288709567358
 20
-135.6347872924802
 30
0.0
  0
HATCH
  5
157
330
151
100
AcDbEntity
  8
_U+30EC_U+30A4_U+30E4_U+30FC 1
 62
   179
420
  2234388
100
AcDbHatch
 10
0.0
 20
0.0
 30
0.0
210
0.0
220
0.0
230
1.0
  2
SOLID
 70
     1
 71
     0
 91
        2
 92
        1
 93
        1
 72
     4
 94
        3
 73
     0
 74
     1
 95
       32
 96
       28
 40
0.0
 40
0.0
 40
0.0
 40
0.0
 40
1.0
 40
1.0
 40
1.0
 40
2.0
 40
2.0
 40
2.0
 40
3.0
 40
3.0
 40
3.0
 40
4.0
 40
4.0
 40
4.0
 40
5.0
 40
5.0
 40
5.0
 40
6.0
 40
6.0
 40
6.0
 40
7.0
 40
7.0
 40
7.0
 40
8.0
 40
8.0
 40
8.0
 40
9.0
 40
9.0
 40
9.0
 40
9.0
 10
115.4799451751231
 20
-135.6778509860458
 10
115.4799451751231
 20
-135.8631971231523
 10
115.410354246321
 20
-136.1253688895798
 10
115.0782470415429
 20
-136.1660210163057
 10
115.0782470415429
 20
-136.1660210163057
 10
115.0782470415429
 20
-135.9379556951822
 10
115.0782470415429
 20
-135.9379556951822
 10
115.1375026838892
 20
-135.9265868800809
 10
115.2852972802065
 20
-135.8924804347769
 10
115.2852972802065
 20
-135.6754394192062
 10
115.2852972802065
 20
-135.363658277791
 10
114.955601642268
 20
-135.3230061510651
 10
114.7502739513472
 20
-135.3092257691241
 10
114.8305446761535
 20
-135.4063774618081
 10
114.8877332612086
 20
-135.4787244669984
 10
114.8877332612086
 20
-135.673372361915
 10
114.8877332612086
 20
-135.8656086899919
 10
114.7819688298115
 20
-136.1887586465084
 10
114.3757920721005
 20
-136.1887586465084
 10
114.0564317206178
 20
-136.1887586465084
 10
113.8362901191104
 20
-135.9761962550685
 10
113.8362901191104
 20
-135.6371988593199
 10
113.8362901191104
 20
-135.0877061294225
 10
114.3906059826871
 20
-135.0763373143212
 10
114.6042019027726
 20
-135.0763373143212
 10
114.8346787907358
 20
-135.0763373143212
 10
115.4799451751231
 20
-135.0966633776842
 10
115.4799451751231
 20
-135.6778509860458
 97
        0
 97
        0
 92
        1
 93
        1
 72
     4
 94
        3
 73
     0
 74
     1
 95
       17
 96
       13
 40
0.0
 40
0.0
 40
0.0
 40
0.0
 40
1.0
 40
1.0
 40
1.0
 40
2.0
 40
2.0
 40
2.0
 40
3.0
 40
3.0
 40
3.0
 40
4.0
 40
4.0
 40
4.0
 40
4.0
 10
114.0288709567358
 20
-135.6347872924802
 10
114.0288709567358
 20
-135.7615668063374
 10
114.086059541791
 20
-135.948980000735
 10
114.3716579575182
 20
-135.948980000735
 10
114.5980007308991
 20
-135.948980000735
 10
114.693085366292
 20
-135.7998073662237
 10
114.693085366292
 20
-135.6551133558432
 10
114.693085366292
 20
-135.3750270928924
 10
114.4836235607888
 20
-135.3340304566179
 10
114.3671793333874
 20
-135.3340304566179
 10
114.1918239731882
 20
-135.3340304566179
 10
114.0288709567358
 20
-135.4360052829813
 10
114.0288709567358
 20
-135.6347872924802
 97
        0
 97
        0
 75
     2
 76
     1
 98
        0
  0
POLYLINE
  5
158
330
151
100
AcDbEntity
  8
_U+30EC_U+30A4_U+30E4_U+30FC 1
370
     0
100
AcDb2dPolyline
 66
     1
 10
0.0
 20
0.0
 30
0.0
  0
VERTEX
  5
159
330
158
100
AcDbEntity
  8
_U+30EC_U+30A4_U+30E4_U+30FC 1
370
     0
100
AcDbVertex
100
AcDb2dVertex
 10
115.4293022714899
 20
-134.8451714072609
 30
0.0
  0
VERTEX
  5
15A
330
158
100
AcDbEntity
  8
_U+30EC_U+30A4_U+30E4_U+30FC 1
370
     0
100
AcDbVertex
100
AcDb2dVertex
 10
115.1774657915181
 20
-134.8451714072609
 30
0.0
  0
VERTEX
  5
15B
330
158
100
AcDbEntity
  8
_U+30EC_U+30A4_U+30E4_U+30FC 1
370
     0
100
AcDbVertex
100
AcDb2dVertex
 10
115.1774657915181
 20
-134.5761094498629
 30
0.0
  0
VERTEX
  5
15C
330
158
100
AcDbEntity
  8
_U+30EC_U+30A4_U+30E4_U+30FC 1
370
     0
100
AcDbVertex
100
AcDb2dVertex
 10
115.4293022714899
 20
-134.5761094498629
 30
0.0
  0
VERTEX
  5
15D
330
158
100
AcDbEntity
  8
_U+30EC_U+30A4_U+30E4_U+30FC 1
370
     0
100
AcDbVertex
100
AcDb2dVertex
 10
115.4293022714899
 20
-134.8451714072609
 30
0.0
  0
SEQEND
  5
15E
330
158
100
AcDbEntity
  8
_U+30EC_U+30A4_U+30E4_U+30FC 1
370
     0
  0
HATCH
  5
15F
330
151
100
AcDbEntity
  8
_U+30EC_U+30A4_U+30E4_U+30FC 1
 62
   179
420
  2234388
100
AcDbHatch
 10
0.0
 20
0.0
 30
0.0
210
0.0
220
0.0
230
1.0
  2
SOLID
 70
     1
 71
     0
 91
        1
 92
        1
 93
        4
 72
     1
 10
115.4293022714899
 20
-134.8451714072609
 11
115.1774657915181
 21
-134.8451714072609
 72
     1
 10
115.1774657915181
 20
-134.8451714072609
 11
115.1774657915181
 21
-134.5761094498629
 72
     1
 10
115.1774657915181
 20
-134.5761094498629
 11
115.4293022714899
 21
-134.5761094498629
 72
     1
 10
115.4293022714899
 20
-134.5761094498629
 11
115.4293022714899
 21
-134.8451714072609
 97
        0
 75
     2
 76
     1
 98
        0
  0
SPLINE
  5
160
330
151
100
AcDbEntity
  8
_U+30EC_U+30A4_U+30E4_U+30FC 1
370
     0
100
AcDbSpline
210
0.0
220
0.0
230
1.0
 70
    11
 71
     3
 72
    53
 73
    49
 74
     0
 42
0.0000000001
 43
0.0000000001
 12
1.0
 22
0.0
 32
0.0
 13
1.0
 23
0.0
 33
0.0
 40
0.0
 40
0.0
 40
0.0
 40
0.0
 40
1.0
 40
1.0
 40
1.0
 40
2.0
 40
2.0
 40
2.0
 40
3.0
 40
3.0
 40
3.0
 40
4.0
 40
4.0
 40
4.0
 40
5.0
 40
5.0
 40
5.0
 40
6.0
 40
6.0
 40
6.0
 40
7.0
 40
7.0
 40
7.0
 40
8.0
 40
8.0
 40
8.0
 40
9.0
 40
9.0
 40
9.0
 40
10.0
 40
10.0
 40
10.0
 40
11.0
 40
11.0
 40
11.0
 40
12.0
 40
12.0
 40
12.0
 40
13.0
 40
13.0
 40
13.0
 40
14.0
 40
14.0
 40
14.0
 40
15.0
 40
15.0
 40
15.0
 40
16.0
 40
16.0
 40
16.0
 40
16.0
 10
115.4799451751231
 20
-133.8092311948463
 30
0.0
 10
115.4799451751231
 20
-133.8929470151379
 30
0.0
 10
115.4630642072454
 20
-134.0011230133747
 30
0.0
 10
115.3996744503168
 20
-134.1099880307086
 30
0.0
 10
115.2897759043373
 20
-134.2953341678151
 30
0.0
 10
115.1585177663493
 20
-134.3177272884692
 30
0.0
 10
115.0506862776609
 20
-134.3380533518322
 30
0.0
 10
115.0506862776609
 20
-134.3380533518322
 30
0.0
 10
115.0506862776609
 20
-134.1006862728985
 30
0.0
 10
115.0506862776609
 20
-134.1006862728985
 30
0.0
 10
115.2494682871599
 20
-134.0421196496492
 30
0.0
 10
115.279096108333
 20
-133.9063828875304
 30
0.0
 10
115.279096108333
 20
-133.8068196280066
 30
0.0
 10
115.279096108333
 20
-133.6576469934953
 30
0.0
 10
115.1795328488093
 20
-133.494693977043
 30
0.0
 10
114.9469889035549
 20
-133.494693977043
 30
0.0
 10
114.6910183090009
 20
-133.494693977043
 30
0.0
 10
114.6210828706503
 20
-133.6869303051199
 30
0.0
 10
114.6210828706503
 20
-133.8157768762683
 30
0.0
 10
114.6210828706503
 20
-133.8498833215723
 30
0.0
 10
114.6210828706503
 20
-134.0011230133747
 30
0.0
 10
114.7502739513472
 20
-134.0962076487676
 30
0.0
 10
114.7502739513472
 20
-134.0962076487676
 30
0.0
 10
114.7313259261783
 20
-134.2839653527138
 30
0.0
 10
114.7313259261783
 20
-134.2839653527138
 30
0.0
 10
114.7313259261783
 20
-134.2839653527138
 30
0.0
 10
113.8848659654524
 20
-134.1551187815654
 30
0.0
 10
113.8848659654524
 20
-134.1551187815654
 30
0.0
 10
113.8848659654524
 20
-134.1551187815654
 30
0.0
 10
113.8848659654524
 20
-133.3231282218776
 30
0.0
 10
113.8848659654524
 20
-133.3231282218776
 30
0.0
 10
113.8848659654524
 20
-133.3231282218776
 30
0.0
 10
114.079513860369
 20
-133.3231282218776
 30
0.0
 10
114.079513860369
 20
-133.3231282218776
 30
0.0
 10
114.079513860369
 20
-133.3231282218776
 30
0.0
 10
114.079513860369
 20
-133.9807969500118
 30
0.0
 10
114.079513860369
 20
-133.9807969500118
 30
0.0
 10
114.079513860369
 20
-133.9807969500118
 30
0.0
 10
114.5025715859577
 20
-134.0510768979109
 30
0.0
 10
114.5025715859577
 20
-134.0510768979109
 30
0.0
 10
114.4688096502022
 20
-133.9856200836911
 30
0.0
 10
114.4285020330248
 20
-133.8974256392687
 30
0.0
 10
114.4285020330248
 20
-133.7706461254115
 30
0.0
 10
114.4285020330248
 20
-133.4995171107223
 30
0.0
 10
114.6148816987768
 20
-133.2463025925565
 30
0.0
 10
114.9280408783861
 20
-133.2463025925565
 30
0.0
 10
115.2453341725776
 20
-133.2463025925565
 30
0.0
 10
115.4799451751231
 20
-133.4857367287813
 30
0.0
 10
115.4799451751231
 20
-133.8092311948463
 30
0.0
  0
HATCH
  5
161
330
151
100
AcDbEntity
  8
_U+30EC_U+30A4_U+30E4_U+30FC 1
 62
   179
420
  2234388
100
AcDbHatch
 10
0.0
 20
0.0
 30
0.0
210
0.0
220
0.0
230
1.0
  2
SOLID
 70
     1
 71
     0
 91
        1
 92
        1
 93
        1
 72
     4
 94
        3
 73
     0
 74
     1
 95
       53
 96
       49
 40
0.0
 40
0.0
 40
0.0
 40
0.0
 40
1.0
 40
1.0
 40
1.0
 40
2.0
 40
2.0
 40
2.0
 40
3.0
 40
3.0
 40
3.0
 40
4.0
 40
4.0
 40
4.0
 40
5.0
 40
5.0
 40
5.0
 40
6.0
 40
6.0
 40
6.0
 40
7.0
 40
7.0
 40
7.0
 40
8.0
 40
8.0
 40
8.0
 40
9.0
 40
9.0
 40
9.0
 40
10.0
 40
10.0
 40
10.0
 40
11.0
 40
11.0
 40
11.0
 40
12.0
 40
12.0
 40
12.0
 40
13.0
 40
13.0
 40
13.0
 40
14.0
 40
14.0
 40
14.0
 40
15.0
 40
15.0
 40
15.0
 40
16.0
 40
16.0
 40
16.0
 40
16.0
 10
115.4799451751231
 20
-133.8092311948463
 10
115.4799451751231
 20
-133.8929470151379
 10
115.4630642072454
 20
-134.0011230133747
 10
115.3996744503168
 20
-134.1099880307086
 10
115.2897759043373
 20
-134.2953341678151
 10
115.1585177663493
 20
-134.3177272884692
 10
115.0506862776609
 20
-134.3380533518322
 10
115.0506862776609
 20
-134.3380533518322
 10
115.0506862776609
 20
-134.1006862728985
 10
115.0506862776609
 20
-134.1006862728985
 10
115.2494682871599
 20
-134.0421196496492
 10
115.279096108333
 20
-133.9063828875304
 10
115.279096108333
 20
-133.8068196280066
 10
115.279096108333
 20
-133.6576469934953
 10
115.1795328488093
 20
-133.494693977043
 10
114.9469889035549
 20
-133.494693977043
 10
114.6910183090009
 20
-133.494693977043
 10
114.6210828706503
 20
-133.6869303051199
 10
114.6210828706503
 20
-133.8157768762683
 10
114.6210828706503
 20
-133.8498833215723
 10
114.6210828706503
 20
-134.0011230133747
 10
114.7502739513472
 20
-134.0962076487676
 10
114.7502739513472
 20
-134.0962076487676
 10
114.7313259261783
 20
-134.2839653527138
 10
114.7313259261783
 20
-134.2839653527138
 10
114.7313259261783
 20
-134.2839653527138
 10
113.8848659654524
 20
-134.1551187815654
 10
113.8848659654524
 20
-134.1551187815654
 10
113.8848659654524
 20
-134.1551187815654
 10
113.8848659654524
 20
-133.3231282218776
 10
113.8848659654524
 20
-133.3231282218776
 10
113.8848659654524
 20
-133.3231282218776
 10
114.079513860369
 20
-133.3231282218776
 10
114.079513860369
 20
-133.3231282218776
 10
114.079513860369
 20
-133.3231282218776
 10
114.079513860369
 20
-133.9807969500118
 10
114.079513860369
 20
-133.9807969500118
 10
114.079513860369
 20
-133.9807969500118
 10
114.5025715859577
 20
-134.0510768979109
 10
114.5025715859577
 20
-134.0510768979109
 10
114.4688096502022
 20
-133.9856200836911
 10
114.4285020330248
 20
-133.8974256392687
 10
114.4285020330248
 20
-133.7706461254115
 10
114.4285020330248
 20
-133.4995171107223
 10
114.6148816987768
 20
-133.2463025925565
 10
114.9280408783861
 20
-133.2463025925565
 10
115.2453341725776
 20
-133.2463025925565
 10
115.4799451751231
 20
-133.4857367287813
 10
115.4799451751231
 20
-133.8092311948463
 97
        0
 97
        0
 75
     2
 76
     1
 98
        0
  0
ENDBLK
  5
154
330
151
100
AcDbEntity
  8
0
100
AcDbBlockEnd
  0
BLOCK
  5
164
330
162
100
AcDbEntity
  8
0
100
AcDbBlockBegin
  2
block 14
 70
     0
 10
0.0
 20
0.0
 30
0.0
  3
block 14
  1

  0
SPLINE
  5
166
330
162
100
AcDbEntity
  8
_U+30EC_U+30A4_U+30E4_U+30FC 1
370
     0
100
AcDbSpline
210
0.0
220
0.0
230
1.0
 70
    11
 71
     3
 72
    26
 73
    22
 74
     0
 42
0.0000000001
 43
0.0000000001
 12
1.0
 22
0.0
 32
0.0
 13
1.0
 23
0.0
 33
0.0
 40
0.0
 40
0.0
 40
0.0
 40
0.0
 40
1.0
 40
1.0
 40
1.0
 40
2.0
 40
2.0
 40
2.0
 40
3.0
 40
3.0
 40
3.0
 40
4.0
 40
4.0
 40
4.0
 40
5.0
 40
5.0
 40
5.0
 40
6.0
 40
6.0
 40
6.0
 40
7.0
 40
7.0
 40
7.0
 40
7.0
 10
115.4293022714899
 20
-128.0352511615676
 30
0.0
 10
115.4293022714899
 20
-128.0352511615676
 30
0.0
 10
114.3251491684673
 20
-128.0352511615676
 30
0.0
 10
114.3251491684673
 20
-128.0352511615676
 30
0.0
 10
114.3251491684673
 20
-128.0352511615676
 30
0.0
 10
114.3251491684673
 20
-128.3876844297086
 30
0.0
 10
114.3251491684673
 20
-128.3876844297086
 30
0.0
 10
114.3251491684673
 20
-128.3876844297086
 30
0.0
 10
114.1770100626016
 20
-128.3876844297086
 30
0.0
 10
114.1770100626016
 20
-128.3876844297086
 30
0.0
 10
114.162196152015
 20
-128.0328395947279
 30
0.0
 10
113.9992431355627
 20
-127.9832302197403
 30
0.0
 10
113.8848659654524
 20
-127.951535341276
 30
0.0
 10
113.8848659654524
 20
-127.951535341276
 30
0.0
 10
113.8848659654524
 20
-127.7954725157942
 30
0.0
 10
113.8848659654524
 20
-127.7954725157942
 30
0.0
 10
113.8848659654524
 20
-127.7954725157942
 30
0.0
 10
115.4293022714899
 20
-127.7954725157942
 30
0.0
 10
115.4293022714899
 20
-127.7954725157942
 30
0.0
 10
115.4293022714899
 20
-127.7954725157942
 30
0.0
 10
115.4293022714899
 20
-128.0352511615676
 30
0.0
 10
115.4293022714899
 20
-128.0352511615676
 30
0.0
  0
HATCH
  5
167
330
162
100
AcDbEntity
  8
_U+30EC_U+30A4_U+30E4_U+30FC 1
 62
   179
420
  2234388
100
AcDbHatch
 10
0.0
 20
0.0
 30
0.0
210
0.0
220
0.0
230
1.0
  2
SOLID
 70
     1
 71
     0
 91
        1
 92
        1
 93
        1
 72
     4
 94
        3
 73
     0
 74
     1
 95
       26
 96
       22
 40
0.0
 40
0.0
 40
0.0
 40
0.0
 40
1.0
 40
1.0
 40
1.0
 40
2.0
 40
2.0
 40
2.0
 40
3.0
 40
3.0
 40
3.0
 40
4.0
 40
4.0
 40
4.0
 40
5.0
 40
5.0
 40
5.0
 40
6.0
 40
6.0
 40
6.0
 40
7.0
 40
7.0
 40
7.0
 40
7.0
 10
115.4293022714899
 20
-128.0352511615676
 10
115.4293022714899
 20
-128.0352511615676
 10
114.3251491684673
 20
-128.0352511615676
 10
114.3251491684673
 20
-128.0352511615676
 10
114.3251491684673
 20
-128.0352511615676
 10
114.3251491684673
 20
-128.3876844297086
 10
114.3251491684673
 20
-128.3876844297086
 10
114.3251491684673
 20
-128.3876844297086
 10
114.1770100626016
 20
-128.3876844297086
 10
114.1770100626016
 20
-128.3876844297086
 10
114.162196152015
 20
-128.0328395947279
 10
113.9992431355627
 20
-127.9832302197403
 10
113.8848659654524
 20
-127.951535341276
 10
113.8848659654524
 20
-127.951535341276
 10
113.8848659654524
 20
-127.7954725157942
 10
113.8848659654524
 20
-127.7954725157942
 10
113.8848659654524
 20
-127.7954725157942
 10
115.4293022714899
 20
-127.7954725157942
 10
115.4293022714899
 20
-127.7954725157942
 10
115.4293022714899
 20
-127.7954725157942
 10
115.4293022714899
 20
-128.0352511615676
 10
115.4293022714899
 20
-128.0352511615676
 97
        0
 97
        0
 75
     2
 76
     1
 98
        0
  0
ENDBLK
  5
165
330
162
100
AcDbEntity
  8
0
100
AcDbBlockEnd
  0
ENDSEC
  0
SECTION
  2
ENTITIES
  0
POLYLINE
  5
41
330
1F
100
AcDbEntity
  8
_U+30EC_U+30A4_U+30E4_U+30FC 1
370
     0
100
AcDb2dPolyline
 66
     1
 10
0.0
 20
0.0
 30
0.0
  0
VERTEX
  5
42
330
41
100
AcDbEntity
  8
_U+30EC_U+30A4_U+30E4_U+30FC 1
370
     0
100
AcDbVertex
100
AcDb2dVertex
 10
72.97539758268695
 20
-122.7091285804339
 30
0.0
  0
VERTEX
  5
43
330
41
100
AcDbEntity
  8
_U+30EC_U+30A4_U+30E4_U+30FC 1
370
     0
100
AcDbVertex
100
AcDb2dVertex
 10
75.0751661402285
 20
-122.7091285804339
 30
0.0
  0
VERTEX
  5
44
330
41
100
AcDbEntity
  8
_U+30EC_U+30A4_U+30E4_U+30FC 1
370
     0
100
AcDbVertex
100
AcDb2dVertex
 10
75.0751661402285
 20
-121.7093563584617
 30
0.0
  0
VERTEX
  5
45
330
41
100
AcDbEntity
  8
_U+30EC_U+30A4_U+30E4_U+30FC 1
370
     0
100
AcDbVertex
100
AcDb2dVertex
 10
72.0751792723201
 20
-121.7093563584617
 30
0.0
  0
VERTEX
  5
46
330
41
100
AcDbEntity
  8
_U+30EC_U+30A4_U+30E4_U+30FC 1
370
     0
100
AcDbVertex
100
AcDb2dVertex
 10
72.0751792723201
 20
-142.2090613533369
 30
0.0
  0
VERTEX
  5
47
330
41
100
AcDbEntity
  8
_U+30EC_U+30A4_U+30E4_U+30FC 1
370
     0
100
AcDbVertex
100
AcDb2dVertex
 10
82.07561762829877
 20
-142.2090613533369
 30
0.0
  0
VERTEX
  5
48
330
41
100
AcDbEntity
  8
_U+30EC_U+30A4_U+30E4_U+30FC 1
370
     0
100
AcDbVertex
100
AcDb2dVertex
 10
82.07561762829877
 20
-139.2090744096419
 30
0.0
  0
VERTEX
  5
49
330
41
100
AcDbEntity
  8
_U+30EC_U+30A4_U+30E4_U+30FC 1
370
     0
100
AcDbVertex
100
AcDb2dVertex
 10
79.07563076039037
 20
-139.2090744096419
 30
0.0
  0
VERTEX
  5
4A
330
41
100
AcDbEntity
  8
_U+30EC_U+30A4_U+30E4_U+30FC 1
370
     0
100
AcDbVertex
100
AcDb2dVertex
 10
79.07563076039037
 20
-140.2088466316144
 30
0.0
  0
VERTEX
  5
4B
330
41
100
AcDbEntity
  8
_U+30EC_U+30A4_U+30E4_U+30FC 1
370
     0
100
AcDbVertex
100
AcDb2dVertex
 10
81.07513987604531
 20
-140.2088466316144
 30
0.0
  0
VERTEX
  5
4C
330
41
100
AcDbEntity
  8
_U+30EC_U+30A4_U+30E4_U+30FC 1
370
     0
100
AcDbVertex
100
AcDb2dVertex
 10
81.07513987604531
 20
-141.2092891313643
 30
0.0
  0
VERTEX
  5
4D
330
41
100
AcDbEntity
  8
_U+30EC_U+30A4_U+30E4_U+30FC 1
370
     0
100
AcDbVertex
100
AcDb2dVertex
 10
72.97539758268695
 20
-141.2092891313643
 30
0.0
  0
VERTEX
  5
4E
330
41
100
AcDbEntity
  8
_U+30EC_U+30A4_U+30E4_U+30FC 1
370
     0
100
AcDbVertex
100
AcDb2dVertex
 10
72.97539758268695
 20
-129.7095802453507
 30
0.0
  0
VERTEX
  5
4F
330
41
100
AcDbEntity
  8
_U+30EC_U+30A4_U+30E4_U+30FC 1
370
     0
100
AcDbVertex
100
AcDb2dVertex
 10
101.0749582546963
 20
-129.7095802453507
 30
0.0
  0
VERTEX
  5
50
330
41
100
AcDbEntity
  8
_U+30EC_U+30A4_U+30E4_U+30FC 1
370
     0
100
AcDbVertex
100
AcDb2dVertex
 10
101.3247249149909
 20
-129.5097669120668
 30
0.0
  0
VERTEX
  5
51
330
41
100
AcDbEntity
  8
_U+30EC_U+30A4_U+30E4_U+30FC 1
370
     0
100
AcDbVertex
100
AcDb2dVertex
 10
101.5748443530543
 20
-129.7095802453507
 30
0.0
  0
VERTEX
  5
52
330
41
100
AcDbEntity
  8
_U+30EC_U+30A4_U+30E4_U+30FC 1
370
     0
100
AcDbVertex
100
AcDb2dVertex
 10
106.5767745032222
 20
-129.7095802453507
 30
0.0
  0
VERTEX
  5
53
330
41
100
AcDbEntity
  8
_U+30EC_U+30A4_U+30E4_U+30FC 1
370
     0
100
AcDbVertex
100
AcDb2dVertex
 10
106.8268939412855
 20
-129.5094141342896
 30
0.0
  0
VERTEX
  5
54
330
41
100
AcDbEntity
  8
_U+30EC_U+30A4_U+30E4_U+30FC 1
370
     0
100
AcDbVertex
100
AcDb2dVertex
 10
107.0766606015801
 20
-129.7095802453507
 30
0.0
  0
VERTEX
  5
55
330
41
100
AcDbEntity
  8
_U+30EC_U+30A4_U+30E4_U+30FC 1
370
     0
100
AcDbVertex
100
AcDb2dVertex
 10
112.0751688073909
 20
-129.7095802453507
 30
0.0
  0
VERTEX
  5
56
330
41
100
AcDbEntity
  8
_U+30EC_U+30A4_U+30E4_U+30FC 1
370
     0
100
AcDbVertex
100
AcDb2dVertex
 10
112.0751688073909
 20
-128.8090091344642
 30
0.0
  0
VERTEX
  5
57
330
41
100
AcDbEntity
  8
_U+30EC_U+30A4_U+30E4_U+30FC 1
370
     0
100
AcDbVertex
100
AcDb2dVertex
 10
72.97539758268695
 20
-128.8090091344642
 30
0.0
  0
VERTEX
  5
58
330
41
100
AcDbEntity
  8
_U+30EC_U+30A4_U+30E4_U+30FC 1
370
     0
100
AcDbVertex
100
AcDb2dVertex
 10
72.97539758268695
 20
-122.7091285804339
 30
0.0
  0
SEQEND
  5
5A
330
41
100
AcDbEntity
  8
_U+30EC_U+30A4_U+30E4_U+30FC 1
370
     0
  0
HATCH
  5
59
330
1F
100
AcDbEntity
  8
_U+30EC_U+30A4_U+30E4_U+30FC 1
 62
   253
420
 11711154
100
AcDbHatch
 10
0.0
 20
0.0
 30
0.0
210
0.0
220
0.0
230
1.0
  2
SOLID
 70
     1
 71
     0
 91
        1
 92
        1
 93
       22
 72
     1
 10
72.97539758268695
 20
-122.7091285804339
 11
75.0751661402285
 21
-122.7091285804339
 72
     1
 10
75.0751661402285
 20
-122.7091285804339
 11
75.0751661402285
 21
-121.7093563584617
 72
     1
 10
75.0751661402285
 20
-121.7093563584617
 11
72.0751792723201
 21
-121.7093563584617
 72
     1
 10
72.0751792723201
 20
-121.7093563584617
 11
72.0751792723201
 21
-142.2090613533369
 72
     1
 10
72.0751792723201
 20
-142.2090613533369
 11
82.07561762829877
 21
-142.2090613533369
 72
     1
 10
82.07561762829877
 20
-142.2090613533369
 11
82.07561762829877
 21
-139.2090744096419
 72
     1
 10
82.07561762829877
 20
-139.2090744096419
 11
79.07563076039037
 21
-139.2090744096419
 72
     1
 10
79.07563076039037
 20
-139.2090744096419
 11
79.07563076039037
 21
-140.2088466316144
 72
     1
 10
79.07563076039037
 20
-140.2088466316144
 11
81.07513987604531
 21
-140.2088466316144
 72
     1
 10
81.07513987604531
 20
-140.2088466316144
 11
81.07513987604531
 21
-141.2092891313643
 72
     1
 10
81.07513987604531
 20
-141.2092891313643
 11
72.97539758268695
 21
-141.2092891313643
 72
     1
 10
72.97539758268695
 20
-141.2092891313643
 11
72.97539758268695
 21
-129.7095802453507
 72
     1
 10
72.97539758268695
 20
-129.7095802453507
 11
101.0749582546963
 21
-129.7095802453507
 72
     1
 10
101.0749582546963
 20
-129.7095802453507
 11
101.3247249149909
 21
-129.5097669120668
 72
     1
 10
101.3247249149909
 20
-129.5097669120668
 11
101.5748443530543
 21
-129.7095802453507
 72
     1
 10
101.5748443530543
 20
-129.7095802453507
 11
106.5767745032222
 21
-129.7095802453507
 72
     1
 10
106.5767745032222
 20
-129.7095802453507
 11
106.8268939412855
 21
-129.5094141342896
 72
     1
 10
106.8268939412855
 20
-129.5094141342896
 11
107.0766606015801
 21
-129.7095802453507
 72
     1
 10
107.0766606015801
 20
-129.7095802453507
 11
112.0751688073909
 21
-129.7095802453507
 72
     1
 10
112.0751688073909
 20
-129.7095802453507
 11
112.0751688073909
 21
-128.8090091344642
 72
     1
 10
112.0751688073909
 20
-128.8090091344642
 11
72.97539758268695
 21
-128.8090091344642
 72
     1
 10
72.97539758268695
 20
-128.8090091344642
 11
72.97539758268695
 21
-122.7091285804339
 97
        0
 75
     2
 76
     1
 98
        0
  0
POLYLINE
  5
5B
330
1F
100
AcDbEntity
  8
_U+30EC_U+30A4_U+30E4_U+30FC 1
 62
   179
420
  2234388
370
    25
100
AcDb2dPolyline
 66
     1
 10
0.0
 20
0.0
 30
0.0
  0
VERTEX
  5
5C
330
5B
100
AcDbEntity
  8
_U+30EC_U+30A4_U+30E4_U+30FC 1
 62
   179
420
  2234388
370
    25
100
AcDbVertex
100
AcDb2dVertex
 10
72.97539758268695
 20
-129.7095802453507
 30
0.0
  0
VERTEX
  5
5D
330
5B
100
AcDbEntity
  8
_U+30EC_U+30A4_U+30E4_U+30FC 1
 62
   179
420
  2234388
370
    25
100
AcDbVertex
100
AcDb2dVertex
 10
100.9423138136359
 20
-129.7095802453507
 30
0.0
  0
VERTEX
  5
5E
330
5B
100
AcDbEntity
  8
_U+30EC_U+30A4_U+30E4_U+30FC 1
 62
   179
420
  2234388
370
    25
100
AcDbVertex
100
AcDb2dVertex
 10
101.3247249149909
 20
-129.5097669120668
 30
0.0
  0
VERTEX
  5
5F
330
5B
100
AcDbEntity
  8
_U+30EC_U+30A4_U+30E4_U+30FC 1
 62
   179
420
  2234388
370
    25
100
AcDbVertex
100
AcDb2dVertex
 10
101.7074887941147
 20
-129.7095802453507
 30
0.0
  0
VERTEX
  5
60
330
5B
100
AcDbEntity
  8
_U+30EC_U+30A4_U+30E4_U+30FC 1
 62
   179
420
  2234388
370
    25
100
AcDbVertex
100
AcDb2dVertex
 10
106.4424367288716
 20
-129.7095802453507
 30
0.0
  0
VERTEX
  5
61
330
5B
100
AcDbEntity
  8
_U+30EC_U+30A4_U+30E4_U+30FC 1
 62
   179
420
  2234388
370
    25
100
AcDbVertex
100
AcDb2dVertex
 10
106.8268939412855
 20
-129.5094141342896
 30
0.0
  0
VERTEX
  5
62
330
5B
100
AcDbEntity
  8
_U+30EC_U+30A4_U+30E4_U+30FC 1
 62
   179
420
  2234388
370
    25
100
AcDbVertex
100
AcDb2dVertex
 10
107.2075764315735
 20
-129.7095802453507
 30
0.0
  0
VERTEX
  5
63
330
5B
100
AcDbEntity
  8
_U+30EC_U+30A4_U+30E4_U+30FC 1
 62
   179
420
  2234388
370
    25
100
AcDbVertex
100
AcDb2dVertex
 10
112.0751688073909
 20
-129.7095802453507
 30
0.0
  0
SEQEND
  5
64
330
5B
100
AcDbEntity
  8
_U+30EC_U+30A4_U+30E4_U+30FC 1
 62
   179
420
  2234388
370
    25
  0
POLYLINE
  5
65
330
1F
100
AcDbEntity
  8
_U+30EC_U+30A4_U+30E4_U+30FC 1
 62
   179
420
  2234388
370
    25
100
AcDb2dPolyline
 66
     1
 10
0.0
 20
0.0
 30
0.0
  0
VERTEX
  5
66
330
65
100
AcDbEntity
  8
_U+30EC_U+30A4_U+30E4_U+30FC 1
 62
   179
420
  2234388
370
    25
100
AcDbVertex
100
AcDb2dVertex
 10
79.07563076039037
 20
-139.2094271874196
 30
0.0
  0
VERTEX
  5
67
330
65
100
AcDbEntity
  8
_U+30EC_U+30A4_U+30E4_U+30FC 1
 62
   179
420
  2234388
370
    25
100
AcDbVertex
100
AcDb2dVertex
 10
82.07561762829877
 20
-139.2094271874196
 30
0.0
  0
SEQEND
  5
68
330
65
100
AcDbEntity
  8
_U+30EC_U+30A4_U+30E4_U+30FC 1
 62
   179
420
  2234388
370
    25
  0
POLYLINE
  5
69
330
1F
100
AcDbEntity
  8
_U+30EC_U+30A4_U+30E4_U+30FC 1
 62
   179
420
  2234388
370
    25
100
AcDb2dPolyline
 66
     1
 10
0.0
 20
0.0
 30
0.0
  0
VERTEX
  5
6A
330
69
100
AcDbEntity
  8
_U+30EC_U+30A4_U+30E4_U+30FC 1
 62
   179
420
  2234388
370
    25
100
AcDbVertex
100
AcDb2dVertex
 10
72.0751792723201
 20
-142.2094141311146
 30
0.0
  0
VERTEX
  5
6B
330
69
100
AcDbEntity
  8
_U+30EC_U+30A4_U+30E4_U+30FC 1
 62
   179
420
  2234388
370
    25
100
AcDbVertex
100
AcDb2dVertex
 10
82.07561762829877
 20
-142.2094141311146
 30
0.0
  0
SEQEND
  5
6C
330
69
100
AcDbEntity
  8
_U+30EC_U+30A4_U+30E4_U+30FC 1
 62
   179
420
  2234388
370
    25
  0
POLYLINE
  5
6D
330
1F
100
AcDbEntity
  8
_U+30EC_U+30A4_U+30E4_U+30FC 1
 62
   179
420
  2234388
370
    25
100
AcDb2dPolyline
 66
     1
 10
0.0
 20
0.0
 30
0.0
  0
VERTEX
  5
6E
330
6D
100
AcDbEntity
  8
_U+30EC_U+30A4_U+30E4_U+30FC 1
 62
   179
420
  2234388
370
    25
100
AcDbVertex
100
AcDb2dVertex
 10
72.0751792723201
 20
-121.7093563584617
 30
0.0
  0
VERTEX
  5
6F
330
6D
100
AcDbEntity
  8
_U+30EC_U+30A4_U+30E4_U+30FC 1
 62
   179
420
  2234388
370
    25
100
AcDbVertex
100
AcDb2dVertex
 10
72.0751792723201
 20
-142.2094141311146
 30
0.0
  0
SEQEND
  5
70
330
6D
100
AcDbEntity
  8
_U+30EC_U+30A4_U+30E4_U+30FC 1
 62
   179
420
  2234388
370
    25
  0
POLYLINE
  5
71
330
1F
100
AcDbEntity
  8
_U+30EC_U+30A4_U+30E4_U+30FC 1
 62
   179
420
  2234388
370
    25
100
AcDb2dPolyline
 66
     1
 10
0.0
 20
0.0
 30
0.0
  0
VERTEX
  5
72
330
71
100
AcDbEntity
  8
_U+30EC_U+30A4_U+30E4_U+30FC 1
 62
   179
420
  2234388
370
    25
100
AcDbVertex
100
AcDb2dVertex
 10
112.0751688073909
 20
-128.8090091344642
 30
0.0
  0
VERTEX
  5
73
330
71
100
AcDbEntity
  8
_U+30EC_U+30A4_U+30E4_U+30FC 1
 62
   179
420
  2234388
370
    25
100
AcDbVertex
100
AcDb2dVertex
 10
112.0751688073909
 20
-129.7095802453507
 30
0.0
  0
SEQEND
  5
74
330
71
100
AcDbEntity
  8
_U+30EC_U+30A4_U+30E4_U+30FC 1
 62
   179
420
  2234388
370
    25
  0
POLYLINE
  5
75
330
1F
100
AcDbEntity
  8
_U+30EC_U+30A4_U+30E4_U+30FC 1
 62
   179
420
  2234388
370
    25
100
AcDb2dPolyline
 66
     1
 10
0.0
 20
0.0
 30
0.0
  0
VERTEX
  5
76
330
75
100
AcDbEntity
  8
_U+30EC_U+30A4_U+30E4_U+30FC 1
 62
   179
420
  2234388
370
    25
100
AcDbVertex
100
AcDb2dVertex
 10
72.0751792723201
 20
-121.7093563584617
 30
0.0
  0
VERTEX
  5
77
330
75
100
AcDbEntity
  8
_U+30EC_U+30A4_U+30E4_U+30FC 1
 62
   179
420
  2234388
370
    25
100
AcDbVertex
100
AcDb2dVertex
 10
75.0751661402285
 20
-121.7093563584617
 30
0.0
  0
SEQEND
  5
78
330
75
100
AcDbEntity
  8
_U+30EC_U+30A4_U+30E4_U+30FC 1
 62
   179
420
  2234388
370
    25
  0
POLYLINE
  5
79
330
1F
100
AcDbEntity
  8
_U+30EC_U+30A4_U+30E4_U+30FC 1
 62
   179
420
  2234388
370
    25
100
AcDb2dPolyline
 66
     1
 10
0.0
 20
0.0
 30
0.0
  0
VERTEX
  5
7A
330
79
100
AcDbEntity
  8
_U+30EC_U+30A4_U+30E4_U+30FC 1
 62
   179
420
  2234388
370
    25
100
AcDbVertex
100
AcDb2dVertex
 10
75.0751661402285
 20
-121.7093563584617
 30
0.0
  0
VERTEX
  5
7B
330
79
100
AcDbEntity
  8
_U+30EC_U+30A4_U+30E4_U+30FC 1
 62
   179
420
  2234388
370
    25
100
AcDbVertex
100
AcDb2dVertex
 10
75.0751661402285
 20
-122.7091285804339
 30
0.0
  0
SEQEND
  5
7C
330
79
100
AcDbEntity
  8
_U+30EC_U+30A4_U+30E4_U+30FC 1
 62
   179
420
  2234388
370
    25
  0
POLYLINE
  5
7D
330
1F
100
AcDbEntity
  8
_U+30EC_U+30A4_U+30E4_U+30FC 1
 62
   179
420
  2234388
370
    25
100
AcDb2dPolyline
 66
     1
 10
0.0
 20
0.0
 30
0.0
  0
VERTEX
  5
7E
330
7D
100
AcDbEntity
  8
_U+30EC_U+30A4_U+30E4_U+30FC 1
 62
   179
420
  2234388
370
    25
100
AcDbVertex
100
AcDb2dVertex
 10
72.97539758268695
 20
-122.7091285804339
 30
0.0
  0
VERTEX
  5
7F
330
7D
100
AcDbEntity
  8
_U+30EC_U+30A4_U+30E4_U+30FC 1
 62
   179
420
  2234388
370
    25
100
AcDbVertex
100
AcDb2dVertex
 10
75.0751661402285
 20
-122.7091285804339
 30
0.0
  0
SEQEND
  5
80
330
7D
100
AcDbEntity
  8
_U+30EC_U+30A4_U+30E4_U+30FC 1
 62
   179
420
  2234388
370
    25
  0
POLYLINE
  5
81
330
1F
100
AcDbEntity
  8
_U+30EC_U+30A4_U+30E4_U+30FC 1
 62
   179
420
  2234388
370
    25
100
AcDb2dPolyline
 66
     1
 10
0.0
 20
0.0
 30
0.0
  0
VERTEX
  5
82
330
81
100
AcDbEntity
  8
_U+30EC_U+30A4_U+30E4_U+30FC 1
 62
   179
420
  2234388
370
    25
100
AcDbVertex
100
AcDb2dVertex
 10
82.07561762829877
 20
-139.2094271874196
 30
0.0
  0
VERTEX
  5
83
330
81
100
AcDbEntity
  8
_U+30EC_U+30A4_U+30E4_U+30FC 1
 62
   179
420
  2234388
370
    25
100
AcDbVertex
100
AcDb2dVertex
 10
82.07561762829877
 20
-142.2094141311146
 30
0.0
  0
SEQEND
  5
84
330
81
100
AcDbEntity
  8
_U+30EC_U+30A4_U+30E4_U+30FC 1
 62
   179
420
  2234388
370
    25
  0
POLYLINE
  5
85
330
1F
100
AcDbEntity
  8
_U+30EC_U+30A4_U+30E4_U+30FC 1
 62
   179
420
  2234388
370
    25
100
AcDb2dPolyline
 66
     1
 10
0.0
 20
0.0
 30
0.0
  0
VERTEX
  5
86
330
85
100
AcDbEntity
  8
_U+30EC_U+30A4_U+30E4_U+30FC 1
 62
   179
420
  2234388
370
    25
100
AcDbVertex
100
AcDb2dVertex
 10
79.07563076039037
 20
-139.2094271874196
 30
0.0
  0
VERTEX
  5
87
330
85
100
AcDbEntity
  8
_U+30EC_U+30A4_U+30E4_U+30FC 1
 62
   179
420
  2234388
370
    25
100
AcDbVertex
100
AcDb2dVertex
 10
79.07563076039037
 20
-140.2091994093922
 30
0.0
  0
SEQEND
  5
88
330
85
100
AcDbEntity
  8
_U+30EC_U+30A4_U+30E4_U+30FC 1
 62
   179
420
  2234388
370
    25
  0
POLYLINE
  5
89
330
1F
100
AcDbEntity
  8
_U+30EC_U+30A4_U+30E4_U+30FC 1
 62
   179
420
  2234388
370
    25
100
AcDb2dPolyline
 66
     1
 10
0.0
 20
0.0
 30
0.0
  0
VERTEX
  5
8A
330
89
100
AcDbEntity
  8
_U+30EC_U+30A4_U+30E4_U+30FC 1
 62
   179
420
  2234388
370
    25
100
AcDbVertex
100
AcDb2dVertex
 10
79.07563076039037
 20
-140.2091994093922
 30
0.0
  0
VERTEX
  5
8B
330
89
100
AcDbEntity
  8
_U+30EC_U+30A4_U+30E4_U+30FC 1
 62
   179
420
  2234388
370
    25
100
AcDbVertex
100
AcDb2dVertex
 10
81.07513987604531
 20
-140.2091994093922
 30
0.0
  0
SEQEND
  5
8C
330
89
100
AcDbEntity
  8
_U+30EC_U+30A4_U+30E4_U+30FC 1
 62
   179
420
  2234388
370
    25
  0
POLYLINE
  5
8D
330
1F
100
AcDbEntity
  8
_U+30EC_U+30A4_U+30E4_U+30FC 1
 62
   179
420
  2234388
370
    25
100
AcDb2dPolyline
 66
     1
 10
0.0
 20
0.0
 30
0.0
  0
VERTEX
  5
8E
330
8D
100
AcDbEntity
  8
_U+30EC_U+30A4_U+30E4_U+30FC 1
 62
   179
420
  2234388
370
    25
100
AcDbVertex
100
AcDb2dVertex
 10
72.97539758268695
 20
-141.2096419091421
 30
0.0
  0
VERTEX
  5
8F
330
8D
100
AcDbEntity
  8
_U+30EC_U+30A4_U+30E4_U+30FC 1
 62
   179
420
  2234388
370
    25
100
AcDbVertex
100
AcDb2dVertex
 10
81.07513987604531
 20
-141.2096419091421
 30
0.0
  0
SEQEND
  5
90
330
8D
100
AcDbEntity
  8
_U+30EC_U+30A4_U+30E4_U+30FC 1
 62
   179
420
  2234388
370
    25
  0
POLYLINE
  5
91
330
1F
100
AcDbEntity
  8
_U+30EC_U+30A4_U+30E4_U+30FC 1
 62
   179
420
  2234388
370
    25
100
AcDb2dPolyline
 66
     1
 10
0.0
 20
0.0
 30
0.0
  0
VERTEX
  5
92
330
91
100
AcDbEntity
  8
_U+30EC_U+30A4_U+30E4_U+30FC 1
 62
   179
420
  2234388
370
    25
100
AcDbVertex
100
AcDb2dVertex
 10
81.07513987604531
 20
-140.2091994093922
 30
0.0
  0
VERTEX
  5
93
330
91
100
AcDbEntity
  8
_U+30EC_U+30A4_U+30E4_U+30FC 1
 62
   179
420
  2234388
370
    25
100
AcDbVertex
100
AcDb2dVertex
 10
81.07513987604531
 20
-141.2096419091421
 30
0.0
  0
SEQEND
  5
94
330
91
100
AcDbEntity
  8
_U+30EC_U+30A4_U+30E4_U+30FC 1
 62
   179
420
  2234388
370
    25
  0
POLYLINE
  5
95
330
1F
100
AcDbEntity
  8
_U+30EC_U+30A4_U+30E4_U+30FC 1
 62
   179
420
  2234388
370
    25
100
AcDb2dPolyline
 66
     1
 10
0.0
 20
0.0
 30
0.0
  0
VERTEX
  5
96
330
95
100
AcDbEntity
  8
_U+30EC_U+30A4_U+30E4_U+30FC 1
 62
   179
420
  2234388
370
    25
100
AcDbVertex
100
AcDb2dVertex
 10
72.97539758268695
 20
-122.7091285804339
 30
0.0
  0
VERTEX
  5
97
330
95
100
AcDbEntity
  8
_U+30EC_U+30A4_U+30E4_U+30FC 1
 62
   179
420
  2234388
370
    25
100
AcDbVertex
100
AcDb2dVertex
 10
72.97539758268695
 20
-128.8090091344642
 30
0.0
  0
SEQEND
  5
98
330
95
100
AcDbEntity
  8
_U+30EC_U+30A4_U+30E4_U+30FC 1
 62
   179
420
  2234388
370
    25
  0
POLYLINE
  5
99
330
1F
100
AcDbEntity
  8
_U+30EC_U+30A4_U+30E4_U+30FC 1
 62
   179
420
  2234388
370
    25
100
AcDb2dPolyline
 66
     1
 10
0.0
 20
0.0
 30
0.0
  0
VERTEX
  5
9A
330
99
100
AcDbEntity
  8
_U+30EC_U+30A4_U+30E4_U+30FC 1
 62
   179
420
  2234388
370
    25
100
AcDbVertex
100
AcDb2dVertex
 10
72.97539758268695
 20
-128.8090091344642
 30
0.0
  0
VERTEX
  5
9B
330
99
100
AcDbEntity
  8
_U+30EC_U+30A4_U+30E4_U+30FC 1
 62
   179
420
  2234388
370
    25
100
AcDbVertex
100
AcDb2dVertex
 10
112.0751688073909
 20
-128.8090091344642
 30
0.0
  0
SEQEND
  5
9C
330
99
100
AcDbEntity
  8
_U+30EC_U+30A4_U+30E4_U+30FC 1
 62
   179
420
  2234388
370
    25
  0
POLYLINE
  5
9D
330
1F
100
AcDbEntity
  8
_U+30EC_U+30A4_U+30E4_U+30FC 1
 62
   179
420
  2234388
370
    25
100
AcDb2dPolyline
 66
     1
 10
0.0
 20
0.0
 30
0.0
  0
VERTEX
  5
9E
330
9D
100
AcDbEntity
  8
_U+30EC_U+30A4_U+30E4_U+30FC 1
 62
   179
420
  2234388
370
    25
100
AcDbVertex
100
AcDb2dVertex
 10
72.97539758268695
 20
-129.7095802453507
 30
0.0
  0
VERTEX
  5
9F
330
9D
100
AcDbEntity
  8
_U+30EC_U+30A4_U+30E4_U+30FC 1
 62
   179
420
  2234388
370
    25
100
AcDbVertex
100
AcDb2dVertex
 10
72.97539758268695
 20
-141.2096419091421
 30
0.0
  0
SEQEND
  5
A0
330
9D
100
AcDbEntity
  8
_U+30EC_U+30A4_U+30E4_U+30FC 1
 62
   179
420
  2234388
370
    25
  0
SPLINE
  5
A1
330
1F
100
AcDbEntity
  8
_U+30EC_U+30A4_U+30E4_U+30FC 1
 62
   179
420
  2234388
370
     9
100
AcDbSpline
210
0.0
220
0.0
230
1.0
 70
    11
 71
     3
 72
    17
 73
    13
 74
     0
 42
0.0000000001
 43
0.0000000001
 12
1.0
 22
0.0
 32
0.0
 13
1.0
 23
0.0
 33
0.0
 40
0.0
 40
0.0
 40
0.0
 40
0.0
 40
1.0
 40
1.0
 40
1.0
 40
2.0
 40
2.0
 40
2.0
 40
3.0
 40
3.0
 40
3.0
 40
4.0
 40
4.0
 40
4.0
 40
4.0
 10
72.1754387142067
 20
-113.7095205271283
 30
0.0
 10
72.1754387142067
 20
-113.6542049715864
 30
0.0
 10
72.13063593757195
 20
-113.6096138604864
 30
0.0
 10
72.0751792723201
 20
-113.6096138604864
 30
0.0
 10
72.02007538483703
 20
-113.6096138604864
 30
0.0
 10
71.97527260820226
 20
-113.6542049715864
 30
0.0
 10
71.97527260820226
 20
-113.7095205271283
 30
0.0
 10
71.97527260820226
 20
-113.7648008048921
 30
0.0
 10
72.02007538483703
 20
-113.8096035826589
 30
0.0
 10
72.0751792723201
 20
-113.8096035826589
 30
0.0
 10
72.13063593757195
 20
-113.8096035826589
 30
0.0
 10
72.1754387142067
 20
-113.7648008048921
 30
0.0
 10
72.1754387142067
 20
-113.7095205271283
 30
0.0
  0
SPLINE
  5
A2
330
1F
100
AcDbEntity
  8
_U+30EC_U+30A4_U+30E4_U+30FC 1
 62
   179
420
  2234388
370
     9
100
AcDbSpline
210
0.0
220
0.0
230
1.0
 70
    11
 71
     3
 72
    17
 73
    13
 74
     0
 42
0.0000000001
 43
0.0000000001
 12
1.0
 22
0.0
 32
0.0
 13
1.0
 23
0.0
 33
0.0
 40
0.0
 40
0.0
 40
0.0
 40
0.0
 40
1.0
 40
1.0
 40
1.0
 40
2.0
 40
2.0
 40
2.0
 40
3.0
 40
3.0
 40
3.0
 40
4.0
 40
4.0
 40
4.0
 40
4.0
 10
72.1754387142067
 20
-117.7094560816838
 30
0.0
 10
72.1754387142067
 20
-117.654316915031
 30
0.0
 10
72.13063593757195
 20
-117.6095141372643
 30
0.0
 10
72.0751792723201
 20
-117.6095141372643
 30
0.0
 10
72.02007538483703
 20
-117.6095141372643
 30
0.0
 10
71.97527260820226
 20
-117.654316915031
 30
0.0
 10
71.97527260820226
 20
-117.7094560816838
 30
0.0
 10
71.97527260820226
 20
-117.7649127483365
 30
0.0
 10
72.02007538483703
 20
-117.8096802483253
 30
0.0
 10
72.0751792723201
 20
-117.8096802483253
 30
0.0
 10
72.13063593757195
 20
-117.8096802483253
 30
0.0
 10
72.1754387142067
 20
-117.7649127483365
 30
0.0
 10
72.1754387142067
 20
-117.7094560816838
 30
0.0
  0
SPLINE
  5
A3
330
1F
100
AcDbEntity
  8
_U+30EC_U+30A4_U+30E4_U+30FC 1
 62
   179
420
  2234388
370
     9
100
AcDbSpline
210
0.0
220
0.0
230
1.0
 70
    11
 71
     3
 72
    17
 73
    13
 74
     0
 42
0.0000000001
 43
0.0000000001
 12
1.0
 22
0.0
 32
0.0
 13
1.0
 23
0.0
 33
0.0
 40
0.0
 40
0.0
 40
0.0
 40
0.0
 40
1.0
 40
1.0
 40
1.0
 40
2.0
 40
2.0
 40
2.0
 40
3.0
 40
3.0
 40
3.0
 40
4.0
 40
4.0
 40
4.0
 40
4.0
 10
75.17542558211511
 20
-117.7094560816838
 30
0.0
 10
75.17542558211511
 20
-117.654316915031
 30
0.0
 10
75.13065808325723
 20
-117.6095141372643
 30
0.0
 10
75.0751661402285
 20
-117.6095141372643
 30
0.0
 10
75.02006225274543
 20
-117.6095141372643
 30
0.0
 10
74.97525947611066
 20
-117.654316915031
 30
0.0
 10
74.97525947611066
 20
-117.7094560816838
 30
0.0
 10
74.97525947611066
 20
-117.7649127483365
 30
0.0
 10
75.02006225274543
 20
-117.8096802483253
 30
0.0
 10
75.0751661402285
 20
-117.8096802483253
 30
0.0
 10
75.13065808325723
 20
-117.8096802483253
 30
0.0
 10
75.17542558211511
 20
-117.7649127483365
 30
0.0
 10
75.17542558211511
 20
-117.7094560816838
 30
0.0
  0
SPLINE
  5
A4
330
1F
100
AcDbEntity
  8
_U+30EC_U+30A4_U+30E4_U+30FC 1
 62
   179
420
  2234388
370
     9
100
AcDbSpline
210
0.0
220
0.0
230
1.0
 70
    11
 71
     3
 72
    17
 73
    13
 74
     0
 42
0.0000000001
 43
0.0000000001
 12
1.0
 22
0.0
 32
0.0
 13
1.0
 23
0.0
 33
0.0
 40
0.0
 40
0.0
 40
0.0
 40
0.0
 40
1.0
 40
1.0
 40
1.0
 40
2.0
 40
2.0
 40
2.0
 40
3.0
 40
3.0
 40
3.0
 40
4.0
 40
4.0
 40
4.0
 40
4.0
 10
112.1750754715087
 20
-113.7095205271283
 30
0.0
 10
112.1750754715087
 20
-113.6542049715864
 30
0.0
 10
112.130272694874
 20
-113.6096138604864
 30
0.0
 10
112.0751688073909
 20
-113.6096138604864
 30
0.0
 10
112.020029642131
 20
-113.6096138604864
 30
0.0
 10
111.9752621432731
 20
-113.6542049715864
 30
0.0
 10
111.9752621432731
 20
-113.7095205271283
 30
0.0
 10
111.9752621432731
 20
-113.7648008048921
 30
0.0
 10
112.020029642131
 20
-113.8096035826589
 30
0.0
 10
112.0751688073909
 20
-113.8096035826589
 30
0.0
 10
112.130272694874
 20
-113.8096035826589
 30
0.0
 10
112.1750754715087
 20
-113.7648008048921
 30
0.0
 10
112.1750754715087
 20
-113.7095205271283
 30
0.0
  0
SPLINE
  5
A5
330
1F
100
AcDbEntity
  8
_U+30EC_U+30A4_U+30E4_U+30FC 1
 62
   179
420
  2234388
370
     9
100
AcDbSpline
210
0.0
220
0.0
230
1.0
 70
    11
 71
     3
 72
    17
 73
    13
 74
     0
 42
0.0000000001
 43
0.0000000001
 12
1.0
 22
0.0
 32
0.0
 13
1.0
 23
0.0
 33
0.0
 40
0.0
 40
0.0
 40
0.0
 40
0.0
 40
1.0
 40
1.0
 40
1.0
 40
2.0
 40
2.0
 40
2.0
 40
3.0
 40
3.0
 40
3.0
 40
4.0
 40
4.0
 40
4.0
 40
4.0
 10
116.174834536133
 20
-129.7095802453507
 30
0.0
 10
116.174834536133
 20
-129.6537708009196
 30
0.0
 10
116.1300317594983
 20
-129.6089680231535
 30
0.0
 10
116.0749278720152
 20
-129.6089680231535
 30
0.0
 10
116.0197916376617
 20
-129.6089680231535
 30
0.0
 10
115.974988859895
 20
-129.6537708009196
 30
0.0
 10
115.974988859895
 20
-129.7095802453507
 30
0.0
 10
115.974988859895
 20
-129.7646841342256
 30
0.0
 10
116.0197916376617
 20
-129.8094869119923
 30
0.0
 10
116.0749278720152
 20
-129.8094869119923
 30
0.0
 10
116.1300317594983
 20
-129.8094869119923
 30
0.0
 10
116.174834536133
 20
-129.7646841342256
 30
0.0
 10
116.174834536133
 20
-129.7095802453507
 30
0.0
  0
SPLINE
  5
A6
330
1F
100
AcDbEntity
  8
_U+30EC_U+30A4_U+30E4_U+30FC 1
 62
   179
420
  2234388
370
     9
100
AcDbSpline
210
0.0
220
0.0
230
1.0
 70
    11
 71
     3
 72
    17
 73
    13
 74
     0
 42
0.0000000001
 43
0.0000000001
 12
1.0
 22
0.0
 32
0.0
 13
1.0
 23
0.0
 33
0.0
 40
0.0
 40
0.0
 40
0.0
 40
0.0
 40
1.0
 40
1.0
 40
1.0
 40
2.0
 40
2.0
 40
2.0
 40
3.0
 40
3.0
 40
3.0
 40
4.0
 40
4.0
 40
4.0
 40
4.0
 10
116.174834536133
 20
-128.7098080233781
 30
0.0
 10
116.174834536133
 20
-128.6539985789477
 30
0.0
 10
116.1300317594983
 20
-128.609195801181
 30
0.0
 10
116.0749278720152
 20
-128.609195801181
 30
0.0
 10
116.0197916376617
 20
-128.609195801181
 30
0.0
 10
115.974988859895
 20
-128.6539985789477
 30
0.0
 10
115.974988859895
 20
-128.7098080233781
 30
0.0
 10
115.974988859895
 20
-128.764911912253
 30
0.0
 10
116.0197916376617
 20
-128.8097146900198
 30
0.0
 10
116.0749278720152
 20
-128.8097146900198
 30
0.0
 10
116.1300317594983
 20
-128.8097146900198
 30
0.0
 10
116.174834536133
 20
-128.764911912253
 30
0.0
 10
116.174834536133
 20
-128.7098080233781
 30
0.0
  0
SPLINE
  5
A7
330
1F
100
AcDbEntity
  8
_U+30EC_U+30A4_U+30E4_U+30FC 1
 62
   179
420
  2234388
370
     9
100
AcDbSpline
210
0.0
220
0.0
230
1.0
 70
    11
 71
     3
 72
    17
 73
    13
 74
     0
 42
0.0000000001
 43
0.0000000001
 12
1.0
 22
0.0
 32
0.0
 13
1.0
 23
0.0
 33
0.0
 40
0.0
 40
0.0
 40
0.0
 40
0.0
 40
1.0
 40
1.0
 40
1.0
 40
2.0
 40
2.0
 40
2.0
 40
3.0
 40
3.0
 40
3.0
 40
4.0
 40
4.0
 40
4.0
 40
4.0
 10
116.174834536133
 20
-139.2094271874196
 30
0.0
 10
116.174834536133
 20
-139.1542880207672
 30
0.0
 10
116.1300317594983
 20
-139.109520520778
 30
0.0
 10
116.0749278720152
 20
-139.109520520778
 30
0.0
 10
116.0197916376617
 20
-139.109520520778
 30
0.0
 10
115.974988859895
 20
-139.1542880207672
 30
0.0
 10
115.974988859895
 20
-139.2094271874196
 30
0.0
 10
115.974988859895
 20
-139.2645310762952
 30
0.0
 10
116.0197916376617
 20
-139.3093338540613
 30
0.0
 10
116.0749278720152
 20
-139.3093338540613
 30
0.0
 10
116.1300317594983
 20
-139.3093338540613
 30
0.0
 10
116.174834536133
 20
-139.2645310762952
 30
0.0
 10
116.174834536133
 20
-139.2094271874196
 30
0.0
  0
SPLINE
  5
A8
330
1F
100
AcDbEntity
  8
_U+30EC_U+30A4_U+30E4_U+30FC 1
 62
   179
420
  2234388
370
     9
100
AcDbSpline
210
0.0
220
0.0
230
1.0
 70
    11
 71
     3
 72
    17
 73
    13
 74
     0
 42
0.0000000001
 43
0.0000000001
 12
1.0
 22
0.0
 32
0.0
 13
1.0
 23
0.0
 33
0.0
 40
0.0
 40
0.0
 40
0.0
 40
0.0
 40
1.0
 40
1.0
 40
1.0
 40
2.0
 40
2.0
 40
2.0
 40
3.0
 40
3.0
 40
3.0
 40
4.0
 40
4.0
 40
4.0
 40
4.0
 10
116.174834536133
 20
-142.2094141311146
 30
0.0
 10
116.174834536133
 20
-142.1542749644616
 30
0.0
 10
116.1300317594983
 20
-142.1095074644724
 30
0.0
 10
116.0749278720152
 20
-142.1095074644724
 30
0.0
 10
116.0197916376617
 20
-142.1095074644724
 30
0.0
 10
115.974988859895
 20
-142.1542749644616
 30
0.0
 10
115.974988859895
 20
-142.2094141311146
 30
0.0
 10
115.974988859895
 20
-142.2645180199895
 30
0.0
 10
116.0197916376617
 20
-142.3093207977563
 30
0.0
 10
116.0749278720152
 20
-142.3093207977563
 30
0.0
 10
116.1300317594983
 20
-142.3093207977563
 30
0.0
 10
116.174834536133
 20
-142.2645180199895
 30
0.0
 10
116.174834536133
 20
-142.2094141311146
 30
0.0
  0
SPLINE
  5
A9
330
1F
100
AcDbEntity
  8
_U+30EC_U+30A4_U+30E4_U+30FC 1
 62
   179
420
  2234388
370
     9
100
AcDbSpline
210
0.0
220
0.0
230
1.0
 70
    11
 71
     3
 72
    17
 73
    13
 74
     0
 42
0.0000000001
 43
0.0000000001
 12
1.0
 22
0.0
 32
0.0
 13
1.0
 23
0.0
 33
0.0
 40
0.0
 40
0.0
 40
0.0
 40
0.0
 40
1.0
 40
1.0
 40
1.0
 40
2.0
 40
2.0
 40
2.0
 40
3.0
 40
3.0
 40
3.0
 40
4.0
 40
4.0
 40
4.0
 40
4.0
 10
72.1754387142067
 20
-146.2091732967809
 30
0.0
 10
72.1754387142067
 20
-146.1540341301285
 30
0.0
 10
72.13063593757195
 20
-146.1092666301392
 30
0.0
 10
72.0751792723201
 20
-146.1092666301392
 30
0.0
 10
72.02007538483703
 20
-146.1092666301392
 30
0.0
 10
71.97527260820226
 20
-146.1540341301285
 30
0.0
 10
71.97527260820226
 20
-146.2091732967809
 30
0.0
 10
71.97527260820226
 20
-146.2649827412113
 30
0.0
 10
72.02007538483703
 20
-146.3097502412005
 30
0.0
 10
72.0751792723201
 20
-146.3097502412005
 30
0.0
 10
72.13063593757195
 20
-146.3097502412005
 30
0.0
 10
72.1754387142067
 20
-146.2649827412113
 30
0.0
 10
72.1754387142067
 20
-146.2091732967809
 30
0.0
  0
SPLINE
  5
AA
330
1F
100
AcDbEntity
  8
_U+30EC_U+30A4_U+30E4_U+30FC 1
 62
   179
420
  2234388
370
     9
100
AcDbSpline
210
0.0
220
0.0
230
1.0
 70
    11
 71
     3
 72
    17
 73
    13
 74
     0
 42
0.0000000001
 43
0.0000000001
 12
1.0
 22
0.0
 32
0.0
 13
1.0
 23
0.0
 33
0.0
 40
0.0
 40
0.0
 40
0.0
 40
0.0
 40
1.0
 40
1.0
 40
1.0
 40
2.0
 40
2.0
 40
2.0
 40
3.0
 40
3.0
 40
3.0
 40
4.0
 40
4.0
 40
4.0
 40
4.0
 10
82.17552429241661
 20
-146.2091732967809
 30
0.0
 10
82.17552429241661
 20
-146.1540341301285
 30
0.0
 10
82.13072151578184
 20
-146.1092666301392
 30
0.0
 10
82.07561762829877
 20
-146.1092666301392
 30
0.0
 10
82.02048053505037
 20
-146.1092666301392
 30
0.0
 10
81.97571096418093
 20
-146.1540341301285
 30
0.0
 10
81.97571096418093
 20
-146.2091732967809
 30
0.0
 10
81.97571096418093
 20
-146.2649827412113
 30
0.0
 10
82.02048053505037
 20
-146.3097502412005
 30
0.0
 10
82.07561762829877
 20
-146.3097502412005
 30
0.0
 10
82.13072151578184
 20
-146.3097502412005
 30
0.0
 10
82.17552429241661
 20
-146.2649827412113
 30
0.0
 10
82.17552429241661
 20
-146.2091732967809
 30
0.0
  0
SPLINE
  5
AB
330
1F
100
AcDbEntity
  8
_U+30EC_U+30A4_U+30E4_U+30FC 1
 62
   179
420
  2234388
370
     9
100
AcDbSpline
210
0.0
220
0.0
230
1.0
 70
    11
 71
     3
 72
    17
 73
    13
 74
     0
 42
0.0000000001
 43
0.0000000001
 12
1.0
 22
0.0
 32
0.0
 13
1.0
 23
0.0
 33
0.0
 40
0.0
 40
0.0
 40
0.0
 40
0.0
 40
1.0
 40
1.0
 40
1.0
 40
2.0
 40
2.0
 40
2.0
 40
3.0
 40
3.0
 40
3.0
 40
4.0
 40
4.0
 40
4.0
 40
4.0
 10
68.17532687181362
 20
-121.7093563584617
 30
0.0
 10
68.17532687181362
 20
-121.6542524695865
 30
0.0
 10
68.13056109407854
 20
-121.6094496918197
 30
0.0
 10
68.07542020769579
 20
-121.6094496918197
 30
0.0
 10
68.02031632021271
 20
-121.6094496918197
 30
0.0
 10
67.97551354357795
 20
-121.6542524695865
 30
0.0
 10
67.97551354357795
 20
-121.7093563584617
 30
0.0
 10
67.97551354357795
 20
-121.7644955251145
 30
0.0
 10
68.02031632021271
 20
-121.8092630251033
 30
0.0
 10
68.07542020769579
 20
-121.8092630251033
 30
0.0
 10
68.13056109407854
 20
-121.8092630251033
 30
0.0
 10
68.17532687181362
 20
-121.7644955251145
 30
0.0
 10
68.17532687181362
 20
-121.7093563584617
 30
0.0
  0
SPLINE
  5
AC
330
1F
100
AcDbEntity
  8
_U+30EC_U+30A4_U+30E4_U+30FC 1
 62
   179
420
  2234388
370
     9
100
AcDbSpline
210
0.0
220
0.0
230
1.0
 70
    11
 71
     3
 72
    17
 73
    13
 74
     0
 42
0.0000000001
 43
0.0000000001
 12
1.0
 22
0.0
 32
0.0
 13
1.0
 23
0.0
 33
0.0
 40
0.0
 40
0.0
 40
0.0
 40
0.0
 40
1.0
 40
1.0
 40
1.0
 40
2.0
 40
2.0
 40
2.0
 40
3.0
 40
3.0
 40
3.0
 40
4.0
 40
4.0
 40
4.0
 40
4.0
 10
68.17532687181362
 20
-142.2094141311146
 30
0.0
 10
68.17532687181362
 20
-142.1542749644616
 30
0.0
 10
68.13056109407854
 20
-142.1095074644724
 30
0.0
 10
68.07542020769579
 20
-142.1095074644724
 30
0.0
 10
68.02031632021271
 20
-142.1095074644724
 30
0.0
 10
67.97551354357795
 20
-142.1542749644616
 30
0.0
 10
67.97551354357795
 20
-142.2094141311146
 30
0.0
 10
67.97551354357795
 20
-142.2645180199895
 30
0.0
 10
68.02031632021271
 20
-142.3093207977563
 30
0.0
 10
68.07542020769579
 20
-142.3093207977563
 30
0.0
 10
68.13056109407854
 20
-142.3093207977563
 30
0.0
 10
68.17532687181362
 20
-142.2645180199895
 30
0.0
 10
68.17532687181362
 20
-142.2094141311146
 30
0.0
  0
INSERT
  5
AE
330
1F
100
AcDbEntity
  8
_U+30EC_U+30A4_U+30E4_U+30FC 1
100
AcDbBlockReference
  2
block 2
 10
0.0
 20
0.0
 30
0.0
  0
INSERT
  5
C4
330
1F
100
AcDbEntity
  8
_U+30EC_U+30A4_U+30E4_U+30FC 1
100
AcDbBlockReference
  2
block 4
 10
0.0
 20
0.0
 30
0.0
  0
INSERT
  5
DA
330
1F
100
AcDbEntity
  8
_U+30EC_U+30A4_U+30E4_U+30FC 1
100
AcDbBlockReference
  2
block 6
 10
0.0
 20
0.0
 30
0.0
  0
INSERT
  5
106
330
1F
100
AcDbEntity
  8
_U+30EC_U+30A4_U+30E4_U+30FC 1
100
AcDbBlockReference
  2
block 8
 10
0.0
 20
0.0
 30
0.0
  0
INSERT
  5
11F
330
1F
100
AcDbEntity
  8
_U+30EC_U+30A4_U+30E4_U+30FC 1
100
AcDbBlockReference
  2
block 10
 10
0.0
 20
0.0
 30
0.0
  0
INSERT
  5
142
330
1F
100
AcDbEntity
  8
_U+30EC_U+30A4_U+30E4_U+30FC 1
100
AcDbBlockReference
  2
block 12
 10
0.0
 20
0.0
 30
0.0
  0
ENDSEC
  0
SECTION
  2
OBJECTS
  0
DICTIONARY
  5
C
330
0
100
AcDbDictionary
281
     1
  3
ACAD_GROUP
350
D
  3
ACAD_LAYOUT
350
1A
  3
ACAD_MATERIAL
350
3B
  3
ACAD_MLEADERSTYLE
350
169
  3
ACAD_MLINESTYLE
350
17
  3
ACAD_PLOTSETTINGS
350
19
  3
ACAD_PLOTSTYLENAME
350
E
  3
ACAD_TABLESTYLE
350
168
  3
ACAD_VISUALSTYLE
350
2A
  0
SUN
  5
3F
330
29
100
AcDbSun
 90
        1
290
     0
 63
     7
421
 16777215
 40
1.0
291
     1
 91
  2455826
 92
 54000000
292
     0
 70
     2
 71
   256
280
     1
  0
DICTIONARY
  5
D
102
{ACAD_REACTORS
330
C
102
}
330
C
100
AcDbDictionary
281
     1
  0
DICTIONARY
  5
1A
102
{ACAD_REACTORS
330
C
102
}
330
C
100
AcDbDictionary
281
     1
  3
Layout1
350
1E
  3
Layout2
350
26
  3
Model
350
22
  0
DICTIONARY
  5
3B
102
{ACAD_REACTORS
330
C
102
}
330
C
100
AcDbDictionary
281
     1
  3
ByBlock
350
3D
  3
ByLayer
350
3C
  3
Global
350
3E
  0
DICTIONARY
  5
169
102
{ACAD_REACTORS
330
C
102
}
330
C
100
AcDbDictionary
281
     1
  0
DICTIONARY
  5
17
102
{ACAD_REACTORS
330
C
102
}
330
C
100
AcDbDictionary
281
     1
  3
Standard
350
18
  0
DICTIONARY
  5
19
102
{ACAD_REACTORS
330
C
102
}
330
C
100
AcDbDictionary
281
     1
  0
ACDBDICTIONARYWDFLT
  5
E
102
{ACAD_REACTORS
330
C
102
}
330
C
100
AcDbDictionary
281
     1
  3
Normal
350
F
100
AcDbDictionaryWithDefault
340
F
  0
DICTIONARY
  5
168
102
{ACAD_REACTORS
330
C
102
}
330
C
100
AcDbDictionary
281
     1
  0
DICTIONARY
  5
2A
102
{ACAD_REACTORS
330
C
102
}
330
C
100
AcDbDictionary
281
     1
  3
2dWireframe
350
2F
  3
3D Hidden
350
31
  3
3dWireframe
350
30
  3
Basic
350
32
  3
Brighten
350
36
  3
ColorChange
350
3A
  3
Conceptual
350
34
  3
Dim
350
35
  3
Facepattern
350
39
  3
Flat
350
2B
  3
FlatWithEdges
350
2C
  3
Gouraud
350
2D
  3
GouraudWithEdges
350
2E
  3
Linepattern
350
38
  3
Realistic
350
33
  3
Thicken
350
37
  0
LAYOUT
  5
1E
102
{ACAD_REACTORS
330
1A
102
}
330
1A
100
AcDbPlotSettings
  1

  2
none_device
  4

  6

 40
0.0
 41
0.0
 42
0.0
 43
0.0
 44
0.0
 45
0.0
 46
0.0
 47
0.0
 48
0.0
 49
0.0
140
0.0
141
0.0
142
1.0
143
1.0
 70
   688
 72
     0
 73
     0
 74
     5
  7

 75
    16
 76
     0
 77
     2
 78
   300
147
1.0
148
0.0
149
0.0
100
AcDbLayout
  1
Layout1
 70
     1
 71
     1
 10
0.0
 20
0.0
 11
12.0
 21
9.0
 12
0.0
 22
0.0
 32
0.0
 14
1.000000000000000E+20
 24
1.000000000000000E+20
 34
1.000000000000000E+20
 15
-1.000000000000000E+20
 25
-1.000000000000000E+20
 35
-1.000000000000000E+20
146
0.0
 13
0.0
 23
0.0
 33
0.0
 16
1.0
 26
0.0
 36
0.0
 17
0.0
 27
1.0
 37
0.0
 76
     0
330
1B
  0
LAYOUT
  5
26
102
{ACAD_REACTORS
330
1A
102
}
330
1A
100
AcDbPlotSettings
  1

  2
none_device
  4

  6

 40
0.0
 41
0.0
 42
0.0
 43
0.0
 44
0.0
 45
0.0
 46
0.0
 47
0.0
 48
0.0
 49
0.0
140
0.0
141
0.0
142
1.0
143
1.0
 70
   688
 72
     0
 73
     0
 74
     5
  7

 75
    16
 76
     0
 77
     2
 78
   300
147
1.0
148
0.0
149
0.0
100
AcDbLayout
  1
Layout2
 70
     1
 71
     2
 10
0.0
 20
0.0
 11
0.0
 21
0.0
 12
0.0
 22
0.0
 32
0.0
 14
0.0
 24
0.0
 34
0.0
 15
0.0
 25
0.0
 35
0.0
146
0.0
 13
0.0
 23
0.0
 33
0.0
 16
1.0
 26
0.0
 36
0.0
 17
0.0
 27
1.0
 37
0.0
 76
     0
330
23
  0
LAYOUT
  5
22
102
{ACAD_REACTORS
330
1A
102
}
330
1A
100
AcDbPlotSettings
  1

  2
none_device
  4

  6

 40
0.0
 41
0.0
 42
0.0
 43
0.0
 44
0.0
 45
0.0
 46
0.0
 47
0.0
 48
0.0
 49
0.0
140
0.0
141
0.0
142
1.0
143
1.0
 70
  1712
 72
     0
 73
     0
 74
     0
  7

 75
     0
 76
     0
 77
     2
 78
   300
147
1.0
148
0.0
149
0.0
100
AcDbLayout
  1
Model
 70
     1
 71
     0
 10
0.0
 20
0.0
 11
12.0
 21
9.0
 12
0.0
 22
0.0
 32
0.0
 14
1.000000000000000E+20
 24
1.000000000000000E+20
 34
1.000000000000000E+20
 15
-1.000000000000000E+20
 25
-1.000000000000000E+20
 35
-1.000000000000000E+20
146
0.0
 13
0.0
 23
0.0
 33
0.0
 16
1.0
 26
0.0
 36
0.0
 17
0.0
 27
1.0
 37
0.0
 76
     0
330
1F
331
29
  0
MATERIAL
  5
3D
102
{ACAD_REACTORS
330
3B
102
}
330
3B
100
AcDbMaterial
  1
ByBlock
 72
     1
 94
      127
  0
MATERIAL
  5
3C
102
{ACAD_REACTORS
330
3B
102
}
330
3B
100
AcDbMaterial
  1
ByLayer
 72
     1
 94
      127
  0
MATERIAL
  5
3E
102
{ACAD_REACTORS
330
3B
102
}
330
3B
100
AcDbMaterial
  1
Global
 72
     1
 94
      127
  0
MLINESTYLE
  5
18
102
{ACAD_REACTORS
330
17
102
}
330
17
100
AcDbMlineStyle
  2
Standard
 70
     0
  3

 62
   256
 51
90.0
 52
90.0
 71
     2
 49
0.5
 62
   256
  6
BYLAYER
 49
-0.5
 62
   256
  6
BYLAYER
  0
ACDBPLACEHOLDER
  5
F
102
{ACAD_REACTORS
330
E
102
}
330
E
  0
VISUALSTYLE
  5
2F
102
{ACAD_REACTORS
330
2A
102
}
330
2A
100
AcDbVisualStyle
  2
2dWireframe
 70
     4
177
     2
291
     0
 71
     0
176
     1
 72
     2
176
     1
 73
     0
176
     1
 90
        0
176
     1
 40
-0.6
176
     1
 41
-30.0
176
     1
 62
     5
 63
     7
421
 16777215
176
     1
 74
     1
176
     1
 91
        4
176
     1
 64
     7
176
     1
 65
   257
176
     1
 75
     1
176
     1
175
     1
176
     1
 42
1.0
176
     1
 92
        0
176
     1
 66
   257
176
     1
 43
1.0
176
     1
 76
     1
176
     1
 77
     6
176
     1
 78
     2
176
     1
 67
     7
176
     1
 79
     5
176
     1
170
     0
176
     1
171
     0
176
     1
290
     0
176
     1
 93
        1
176
     1
 44
0.0
176
     1
173
     0
176
     1
  0
VISUALSTYLE
  5
31
102
{ACAD_REACTORS
330
2A
102
}
330
2A
100
AcDbVisualStyle
  2
3D Hidden
 70
     6
177
     2
291
     0
 71
     1
176
     1
 72
     2
176
     1
 73
     2
176
     1
 90
        0
176
     1
 40
-0.6
176
     1
 41
-30.0
176
     1
 62
     5
 63
     7
421
 16777215
176
     1
 74
     2
176
     1
 91
        2
176
     1
 64
     7
176
     1
 65
   257
176
     1
 75
     2
176
     1
175
     1
176
     1
 42
40.0
176
     1
 92
        0
176
     1
 66
   257
176
     1
 43
1.0
176
     1
 76
     1
176
     1
 77
     6
176
     1
 78
     2
176
     1
 67
     7
176
     1
 79
     3
176
     1
170
     0
176
     1
171
     0
176
     1
290
     0
176
     1
 93
        1
176
     1
 44
0.0
176
     1
173
     0
176
     1
  0
VISUALSTYLE
  5
30
102
{ACAD_REACTORS
330
2A
102
}
330
2A
100
AcDbVisualStyle
  2
3dWireframe
 70
     5
177
     2
291
     0
 71
     0
176
     1
 72
     2
176
     1
 73
     0
176
     1
 90
        0
176
     1
 40
-0.6
176
     1
 41
-30.0
176
     1
 62
     5
 63
     7
421
 16777215
176
     1
 74
     1
176
     1
 91
        4
176
     1
 64
     7
176
     1
 65
   257
176
     1
 75
     1
176
     1
175
     1
176
     1
 42
1.0
176
     1
 92
        0
176
     1
 66
   257
176
     1
 43
1.0
176
     1
 76
     1
176
     1
 77
     6
176
     1
 78
     2
176
     1
 67
     7
176
     1
 79
     5
176
     1
170
     0
176
     1
171
     0
176
     1
290
     0
176
     1
 93
        1
176
     1
 44
0.0
176
     1
173
     0
176
     1
  0
VISUALSTYLE
  5
32
102
{ACAD_REACTORS
330
2A
102
}
330
2A
100
AcDbVisualStyle
  2
Basic
 70
     7
177
     2
291
     1
 71
     1
176
     1
 72
     0
176
     1
 73
     1
176
     1
 90
        0
176
     1
 40
-0.6
176
     1
 41
-30.0
176
     1
 62
     5
 63
     7
421
 16777215
176
     1
 74
     0
176
     1
 91
        4
176
     1
 64
     7
176
     1
 65
   257
176
     1
 75
     1
176
     1
175
     1
176
     1
 42
1.0
176
     1
 92
        8
176
     1
 66
     7
176
     1
 43
1.0
176
     1
 76
     1
176
     1
 77
     6
176
     1
 78
     2
176
     1
 67
     7
176
     1
 79
     5
176
     1
170
     0
176
     1
171
     0
176
     1
290
     0
176
     1
 93
        1
176
     1
 44
0.0
176
     1
173
     0
176
     1
  0
VISUALSTYLE
  5
36
102
{ACAD_REACTORS
330
2A
102
}
330
2A
100
AcDbVisualStyle
  2
Brighten
 70
    12
177
     2
291
     1
 71
     2
176
     1
 72
     2
176
     1
 73
     0
176
     1
 90
        0
176
     1
 40
-0.6
176
     1
 41
-30.0
176
     1
 62
     5
 63
     7
421
 16777215
176
     1
 74
     1
176
     1
 91
        4
176
     1
 64
     7
176
     1
 65
   257
176
     1
 75
     1
176
     1
175
     1
176
     1
 42
1.0
176
     1
 92
        8
176
     1
 66
     7
176
     1
 43
1.0
176
     1
 76
     1
176
     1
 77
     6
176
     1
 78
     2
176
     1
 67
     7
176
     1
 79
     5
176
     1
170
     0
176
     1
171
     0
176
     1
290
     0
176
     1
 93
        1
176
     1
 44
50.0
176
     1
173
     0
176
     1
  0
VISUALSTYLE
  5
3A
102
{ACAD_REACTORS
330
2A
102
}
330
2A
100
AcDbVisualStyle
  2
ColorChange
 70
    16
177
     2
291
     1
 71
     2
176
     1
 72
     2
176
     1
 73
     3
176
     1
 90
        0
176
     1
 40
-0.6
176
     1
 41
-30.0
176
     1
 62
     5
 63
     8
421
  8421504
176
     1
 74
     1
176
     1
 91
        4
176
     1
 64
     7
176
     1
 65
   257
176
     1
 75
     1
176
     1
175
     1
176
     1
 42
1.0
176
     1
 92
        8
176
     1
 66
     8
424
  8421504
176
     1
 43
1.0
176
     1
 76
     1
176
     1
 77
     6
176
     1
 78
     2
176
     1
 67
     7
176
     1
 79
     5
176
     1
170
     0
176
     1
171
     0
176
     1
290
     0
176
     1
 93
        1
176
     1
 44
0.0
176
     1
173
     0
176
     1
  0
VISUALSTYLE
  5
34
102
{ACAD_REACTORS
330
2A
102
}
330
2A
100
AcDbVisualStyle
  2
Conceptual
 70
     9
177
     2
291
     0
 71
     3
176
     1
 72
     2
176
     1
 73
     0
176
     1
 90
        0
176
     1
 40
-0.6
176
     1
 41
-30.0
176
     1
 62
     5
 63
     7
421
 16777215
176
     1
 74
     2
176
     1
 91
        2
176
     1
 64
     7
176
     1
 65
   257
176
     1
 75
     1
176
     1
175
     1
176
     1
 42
40.0
176
     1
 92
        8
176
     1
 66
     7
176
     1
 43
1.0
176
     1
 76
     1
176
     1
 77
     6
176
     1
 78
     2
176
     1
 67
     7
176
     1
 79
     3
176
     1
170
     0
176
     1
171
     0
176
     1
290
     0
176
     1
 93
        1
176
     1
 44
0.0
176
     1
173
     0
176
     1
  0
VISUALSTYLE
  5
35
102
{ACAD_REACTORS
330
2A
102
}
330
2A
100
AcDbVisualStyle
  2
Dim
 70
    11
177
     2
291
     1
 71
     2
176
     1
 72
     2
176
     1
 73
     0
176
     1
 90
        0
176
     1
 40
-0.6
176
     1
 41
-30.0
176
     1
 62
     5
 63
     7
421
 16777215
176
     1
 74
     1
176
     1
 91
        4
176
     1
 64
     7
176
     1
 65
   257
176
     1
 75
     1
176
     1
175
     1
176
     1
 42
1.0
176
     1
 92
        8
176
     1
 66
     7
176
     1
 43
1.0
176
     1
 76
     1
176
     1
 77
     6
176
     1
 78
     2
176
     1
 67
     7
176
     1
 79
     5
176
     1
170
     0
176
     1
171
     0
176
     1
290
     0
176
     1
 93
        1
176
     1
 44
-50.0
176
     1
173
     0
176
     1
  0
VISUALSTYLE
  5
39
102
{ACAD_REACTORS
330
2A
102
}
330
2A
100
AcDbVisualStyle
  2
Facepattern
 70
    15
177
     2
291
     1
 71
     2
176
     1
 72
     2
176
     1
 73
     0
176
     1
 90
        0
176
     1
 40
-0.6
176
     1
 41
-30.0
176
     1
 62
     5
 63
     7
421
 16777215
176
     1
 74
     1
176
     1
 91
        4
176
     1
 64
     7
176
     1
 65
   257
176
     1
 75
     1
176
     1
175
     1
176
     1
 42
1.0
176
     1
 92
        8
176
     1
 66
     7
176
     1
 43
1.0
176
     1
 76
     1
176
     1
 77
     6
176
     1
 78
     2
176
     1
 67
     7
176
     1
 79
     5
176
     1
170
     0
176
     1
171
     0
176
     1
290
     0
176
     1
 93
        1
176
     1
 44
0.0
176
     1
173
     0
176
     1
  0
VISUALSTYLE
  5
2B
102
{ACAD_REACTORS
330
2A
102
}
330
2A
100
AcDbVisualStyle
  2
Flat
 70
     0
177
     2
291
     1
 71
     2
176
     1
 72
     1
176
     1
 73
     1
176
     1
 90
        2
176
     1
 40
-0.6
176
     1
 41
30.0
176
     1
 62
     5
 63
     7
421
 16777215
176
     1
 74
     0
176
     1
 91
        4
176
     1
 64
     7
176
     1
 65
   257
176
     1
 75
     1
176
     1
175
     1
176
     1
 42
1.0
176
     1
 92
        8
176
     1
 66
     7
176
     1
 43
1.0
176
     1
 76
     1
176
     1
 77
     6
176
     1
 78
     2
176
     1
 67
     7
176
     1
 79
     5
176
     1
170
     0
176
     1
171
     0
176
     1
290
     0
176
     1
 93
       13
176
     1
 44
0.0
176
     1
173
     0
176
     1
  0
VISUALSTYLE
  5
2C
102
{ACAD_REACTORS
330
2A
102
}
330
2A
100
AcDbVisualStyle
  2
FlatWithEdges
 70
     1
177
     2
291
     1
 71
     2
176
     1
 72
     1
176
     1
 73
     1
176
     1
 90
        2
176
     1
 40
-0.6
176
     1
 41
30.0
176
     1
 62
     5
 63
     7
421
 16777215
176
     1
 74
     1
176
     1
 91
        4
176
     1
 64
     7
176
     1
 65
   257
176
     1
 75
     1
176
     1
175
     1
176
     1
 42
1.0
176
     1
 92
        0
176
     1
 66
   257
176
     1
 43
1.0
176
     1
 76
     1
176
     1
 77
     6
176
     1
 78
     2
176
     1
 67
     7
176
     1
 79
     5
176
     1
170
     0
176
     1
171
     0
176
     1
290
     0
176
     1
 93
       13
176
     1
 44
0.0
176
     1
173
     0
176
     1
  0
VISUALSTYLE
  5
2D
102
{ACAD_REACTORS
330
2A
102
}
330
2A
100
AcDbVisualStyle
  2
Gouraud
 70
     2
177
     2
291
     1
 71
     2
176
     1
 72
     2
176
     1
 73
     1
176
     1
 90
        2
176
     1
 40
-0.6
176
     1
 41
30.0
176
     1
 62
     5
 63
     7
421
 16777215
176
     1
 74
     0
176
     1
 91
        4
176
     1
 64
     7
176
     1
 65
   257
176
     1
 75
     1
176
     1
175
     1
176
     1
 42
1.0
176
     1
 92
        0
176
     1
 66
     7
176
     1
 43
1.0
176
     1
 76
     1
176
     1
 77
     6
176
     1
 78
     2
176
     1
 67
     7
176
     1
 79
     5
176
     1
170
     0
176
     1
171
     0
176
     1
290
     0
176
     1
 93
       13
176
     1
 44
0.0
176
     1
173
     0
176
     1
  0
VISUALSTYLE
  5
2E
102
{ACAD_REACTORS
330
2A
102
}
330
2A
100
AcDbVisualStyle
  2
GouraudWithEdges
 70
     3
177
     2
291
     1
 71
     2
176
     1
 72
     2
176
     1
 73
     1
176
     1
 90
        2
176
     1
 40
-0.6
176
     1
 41
30.0
176
     1
 62
     5
 63
     7
421
 16777215
176
     1
 74
     1
176
     1
 91
        4
176
     1
 64
     7
176
     1
 65
   257
176
     1
 75
     1
176
     1
175
     1
176
     1
 42
1.0
176
     1
 92
        0
176
     1
 66
   257
176
     1
 43
1.0
176
     1
 76
     1
176
     1
 77
     6
176
     1
 78
     2
176
     1
 67
     7
176
     1
 79
     5
176
     1
170
     0
176
     1
171
     0
176
     1
290
     0
176
     1
 93
       13
176
     1
 44
0.0
176
     1
173
     0
176
     1
  0
VISUALSTYLE
  5
38
102
{ACAD_REACTORS
330
2A
102
}
330
2A
100
AcDbVisualStyle
  2
Linepattern
 70
    14
177
     2
291
     1
 71
     2
176
     1
 72
     2
176
     1
 73
     0
176
     1
 90
        0
176
     1
 40
-0.6
176
     1
 41
-30.0
176
     1
 62
     5
 63
     7
421
 16777215
176
     1
 74
     1
176
     1
 91
        4
176
     1
 64
     7
176
     1
 65
   257
176
     1
 75
     7
176
     1
175
     7
176
     1
 42
1.0
176
     1
 92
        8
176
     1
 66
     7
176
     1
 43
1.0
176
     1
 76
     1
176
     1
 77
     6
176
     1
 78
     2
176
     1
 67
     7
176
     1
 79
     5
176
     1
170
     0
176
     1
171
     0
176
     1
290
     0
176
     1
 93
        1
176
     1
 44
0.0
176
     1
173
     0
176
     1
  0
VISUALSTYLE
  5
33
102
{ACAD_REACTORS
330
2A
102
}
330
2A
100
AcDbVisualStyle
  2
Realistic
 70
     8
177
     2
291
     0
 71
     2
176
     1
 72
     2
176
     1
 73
     0
176
     1
 90
        0
176
     1
 40
-0.6
176
     1
 41
-30.0
176
     1
 62
     5
 63
     7
421
 16777215
176
     1
 74
     1
176
     1
 91
        0
176
     1
 64
     7
176
     1
 65
   257
176
     1
 75
     1
176
     1
175
     1
176
     1
 42
1.0
176
     1
 92
        8
176
     1
 66
     8
424
  7895160
176
     1
 43
1.0
176
     1
 76
     1
176
     1
 77
     6
176
     1
 78
     2
176
     1
 67
     7
176
     1
 79
     5
176
     1
170
     0
176
     1
171
     0
176
     1
290
     0
176
     1
 93
       13
176
     1
 44
0.0
176
     1
173
     0
176
     1
  0
VISUALSTYLE
  5
37
102
{ACAD_REACTORS
330
2A
102
}
330
2A
100
AcDbVisualStyle
  2
Thicken
 70
    13
177
     2
291
     1
 71
     2
176
     1
 72
     2
176
     1
 73
     0
176
     1
 90
        0
176
     1
 40
-0.6
176
     1
 41
-30.0
176
     1
 62
     5
 63
     7
421
 16777215
176
     1
 74
     1
176
     1
 91
        4
176
     1
 64
     7
176
     1
 65
   257
176
     1
 75
     1
176
     1
175
     1
176
     1
 42
1.0
176
     1
 92
       12
176
     1
 66
     7
176
     1
 43
1.0
176
     1
 76
     1
176
     1
 77
     6
176
     1
 78
     2
176
     1
 67
     7
176
     1
 79
     5
176
     1
170
     0
176
     1
171
     0
176
     1
290
     0
176
     1
 93
        1
176
     1
 44
0.0
176
     1
173
     0
176
     1
  0
ENDSEC
  0
EOF
