  0
SECTION
  2
HEADER
  9
$ACADVER
  1
AC1024
  9
$ACADMAINTVER
 70
     6
  9
$DWGCODEPAGE
  3
UNDEFINED
  9
$INSBASE
 10
0.0
 20
0.0
 30
0.0
  9
$EXTMIN
 10
1.000000000000000E+20
 20
1.000000000000000E+20
 30
1.000000000000000E+20
  9
$EXTMAX
 10
-1.000000000000000E+20
 20
-1.000000000000000E+20
 30
-1.000000000000000E+20
  9
$LIMMIN
 10
0.0
 20
0.0
  9
$LIMMAX
 10
12.0
 20
9.0
  9
$ORTHOMODE
 70
     0
  9
$REGENMODE
 70
     1
  9
$FILLMODE
 70
     1
  9
$QTEXTMODE
 70
     0
  9
$MIRRTEXT
 70
     1
  9
$LTSCALE
 40
1.0
  9
$ATTMODE
 70
     1
  9
$TEXTSIZE
 40
0.2
  9
$TRACEWID
 40
0.05
  9
$TEXTSTYLE
  7
Standard
  9
$CLAYER
  8
0
  9
$CELTYPE
  6
ByLayer
  9
$CECOLOR
 62
   256
  9
$CELTSCALE
 40
1.0
  9
$DISPSILH
 70
     0
  9
$DIMSCALE
 40
1.0
  9
$DIMASZ
 40
0.18
  9
$DIMEXO
 40
0.0625
  9
$DIMDLI
 40
0.38
  9
$DIMRND
 40
0.0
  9
$DIMDLE
 40
0.0
  9
$DIMEXE
 40
0.18
  9
$DIMTP
 40
0.0
  9
$DIMTM
 40
0.0
  9
$DIMTXT
 40
0.18
  9
$DIMCEN
 40
0.09
  9
$DIMTSZ
 40
0.0
  9
$DIMTOL
 70
     0
  9
$DIMLIM
 70
     0
  9
$DIMTIH
 70
     1
  9
$DIMTOH
 70
     1
  9
$DIMSE1
 70
     0
  9
$DIMSE2
 70
     0
  9
$DIMTAD
 70
     0
  9
$DIMZIN
 70
     0
  9
$DIMBLK
  1

  9
$DIMASO
 70
     1
  9
$DIMSHO
 70
     1
  9
$DIMPOST
  1

  9
$DIMAPOST
  1

  9
$DIMALT
 70
     0
  9
$DIMALTD
 70
     2
  9
$DIMALTF
 40
25.4
  9
$DIMLFAC
 40
1.0
  9
$DIMTOFL
 70
     0
  9
$DIMTVP
 40
0.0
  9
$DIMTIX
 70
     0
  9
$DIMSOXD
 70
     0
  9
$DIMSAH
 70
     0
  9
$DIMBLK1
  1

  9
$DIMBLK2
  1

  9
$DIMSTYLE
  2
Standard
  9
$DIMCLRD
 70
     0
  9
$DIMCLRE
 70
     0
  9
$DIMCLRT
 70
     0
  9
$DIMTFAC
 40
1.0
  9
$DIMGAP
 40
0.09
  9
$DIMJUST
 70
     0
  9
$DIMSD1
 70
     0
  9
$DIMSD2
 70
     0
  9
$DIMTOLJ
 70
     1
  9
$DIMTZIN
 70
     0
  9
$DIMALTZ
 70
     0
  9
$DIMALTTZ
 70
     0
  9
$DIMUPT
 70
     0
  9
$DIMDEC
 70
     4
  9
$DIMTDEC
 70
     4
  9
$DIMALTU
 70
     2
  9
$DIMALTTD
 70
     2
  9
$DIMTXSTY
  7
Standard
  9
$DIMAUNIT
 70
     0
  9
$DIMADEC
 70
     0
  9
$DIMALTRND
 40
0.0
  9
$DIMAZIN
 70
     0
  9
$DIMDSEP
 70
    46
  9
$DIMATFIT
 70
     3
  9
$DIMFRAC
 70
     0
  9
$DIMLDRBLK
  1

  9
$DIMLUNIT
 70
     2
  9
$DIMLWD
 70
    -2
  9
$DIMLWE
 70
    -2
  9
$DIMTMOVE
 70
     0
  9
$DIMFXL
 40
1.0
  9
$DIMFXLON
 70
     0
  9
$DIMJOGANG
 40
0.7853981633974483
  9
$DIMTFILL
 70
     0
  9
$DIMTFILLCLR
 70
     0
  9
$DIMARCSYM
 70
     0
  9
$DIMLTYPE
  6

  9
$DIMLTEX1
  6

  9
$DIMLTEX2
  6

  9
$DIMTXTDIRECTION
 70
     0
  9
$LUNITS
 70
     2
  9
$LUPREC
 70
     4
  9
$SKETCHINC
 40
0.1
  9
$FILLETRAD
 40
0.5
  9
$AUNITS
 70
     0
  9
$AUPREC
 70
     0
  9
$MENU
  1
.
  9
$ELEVATION
 40
0.0
  9
$PELEVATION
 40
0.0
  9
$THICKNESS
 40
0.0
  9
$LIMCHECK
 70
     0
  9
$CHAMFERA
 40
0.5
  9
$CHAMFERB
 40
0.5
  9
$CHAMFERC
 40
1.0
  9
$CHAMFERD
 40
0.0
  9
$SKPOLY
 70
     0
  9
$TDCREATE
 40
2457917.6140625
  9
$TDUCREATE
 40
2457917.2390625
  9
$TDUPDATE
 40
2457917.6140625
  9
$TDUUPDATE
 40
2457917.2390625
  9
$TDINDWG
 40
0.0000000116
  9
$TDUSRTIMER
 40
0.0000000116
  9
$USRTIMER
 70
     1
  9
$ANGBASE
 50
0.0
  9
$ANGDIR
 70
     0
  9
$PDMODE
 70
     0
  9
$PDSIZE
 40
0.0
  9
$PLINEWID
 40
0.0
  9
$SPLFRAME
 70
     0
  9
$SPLINETYPE
 70
     6
  9
$SPLINESEGS
 70
     8
  9
$HANDSEED
  5
F4
  9
$SURFTAB1
 70
     6
  9
$SURFTAB2
 70
     6
  9
$SURFTYPE
 70
     6
  9
$SURFU
 70
     6
  9
$SURFV
 70
     6
  9
$UCSBASE
  2

  9
$UCSNAME
  2

  9
$UCSORG
 10
0.0
 20
0.0
 30
0.0
  9
$UCSXDIR
 10
1.0
 20
0.0
 30
0.0
  9
$UCSYDIR
 10
0.0
 20
1.0
 30
0.0
  9
$UCSORTHOREF
  2

  9
$UCSORTHOVIEW
 70
     0
  9
$UCSORGTOP
 10
0.0
 20
0.0
 30
0.0
  9
$UCSORGBOTTOM
 10
0.0
 20
0.0
 30
0.0
  9
$UCSORGLEFT
 10
0.0
 20
0.0
 30
0.0
  9
$UCSORGRIGHT
 10
0.0
 20
0.0
 30
0.0
  9
$UCSORGFRONT
 10
0.0
 20
0.0
 30
0.0
  9
$UCSORGBACK
 10
0.0
 20
0.0
 30
0.0
  9
$PUCSBASE
  2

  9
$PUCSNAME
  2

  9
$PUCSORG
 10
0.0
 20
0.0
 30
0.0
  9
$PUCSXDIR
 10
1.0
 20
0.0
 30
0.0
  9
$PUCSYDIR
 10
0.0
 20
1.0
 30
0.0
  9
$PUCSORTHOREF
  2

  9
$PUCSORTHOVIEW
 70
     0
  9
$PUCSORGTOP
 10
0.0
 20
0.0
 30
0.0
  9
$PUCSORGBOTTOM
 10
0.0
 20
0.0
 30
0.0
  9
$PUCSORGLEFT
 10
0.0
 20
0.0
 30
0.0
  9
$PUCSORGRIGHT
 10
0.0
 20
0.0
 30
0.0
  9
$PUCSORGFRONT
 10
0.0
 20
0.0
 30
0.0
  9
$PUCSORGBACK
 10
0.0
 20
0.0
 30
0.0
  9
$USERI1
 70
     0
  9
$USERI2
 70
     0
  9
$USERI3
 70
     0
  9
$USERI4
 70
     0
  9
$USERI5
 70
     0
  9
$USERR1
 40
0.0
  9
$USERR2
 40
0.0
  9
$USERR3
 40
0.0
  9
$USERR4
 40
0.0
  9
$USERR5
 40
0.0
  9
$WORLDVIEW
 70
     1
  9
$SHADEDGE
 70
     3
  9
$SHADEDIF
 70
    70
  9
$TILEMODE
 70
     1
  9
$MAXACTVP
 70
    64
  9
$PINSBASE
 10
0.0
 20
0.0
 30
0.0
  9
$PLIMCHECK
 70
     0
  9
$PEXTMIN
 10
1.000000000000000E+20
 20
1.000000000000000E+20
 30
1.000000000000000E+20
  9
$PEXTMAX
 10
-1.000000000000000E+20
 20
-1.000000000000000E+20
 30
-1.000000000000000E+20
  9
$PLIMMIN
 10
0.0
 20
0.0
  9
$PLIMMAX
 10
12.0
 20
9.0
  9
$UNITMODE
 70
     0
  9
$VISRETAIN
 70
     1
  9
$PLINEGEN
 70
     0
  9
$PSLTSCALE
 70
     1
  9
$TREEDEPTH
 70
  3020
  9
$CMLSTYLE
  2
Standard
  9
$CMLJUST
 70
     0
  9
$CMLSCALE
 40
1.0
  9
$PROXYGRAPHICS
 70
     1
  9
$MEASUREMENT
 70
     0
  9
$CELWEIGHT
370
    -1
  9
$ENDCAPS
280
     0
  9
$JOINSTYLE
280
     0
  9
$LWDISPLAY
290
     1
  9
$INSUNITS
 70
     1
  9
$HYPERLINKBASE
  1

  9
$STYLESHEET
  1

  9
$XEDIT
290
     1
  9
$CEPSNTYPE
380
     0
  9
$PSTYLEMODE
290
     1
  9
$FINGERPRINTGUID
  2
{E0AE35CB-B196-D244-4845-36711D1043B4}
  9
$VERSIONGUID
  2
{FAEB1C32-E019-11D5-929B-00C0DF256EC4}
  9
$EXTNAMES
290
     1
  9
$PSVPSCALE
 40
0.0
  9
$OLESTARTUP
290
     0
  9
$SORTENTS
280
   127
  9
$INDEXCTL
280
     0
  9
$HIDETEXT
280
     1
  9
$XCLIPFRAME
280
     2
  9
$HALOGAP
280
     0
  9
$OBSCOLOR
 70
   257
  9
$OBSLTYPE
280
     0
  9
$INTERSECTIONDISPLAY
280
     0
  9
$INTERSECTIONCOLOR
 70
   257
  9
$DIMASSOC
280
     2
  9
$PROJECTNAME
  1

  9
$CAMERADISPLAY
290
     0
  9
$LENSLENGTH
 40
50.0
  9
$CAMERAHEIGHT
 40
0.0
  9
$STEPSPERSEC
 40
2.0
  9
$STEPSIZE
 40
6.0
  9
$3DDWFPREC
 40
2.0
  9
$PSOLWIDTH
 40
0.25
  9
$PSOLHEIGHT
 40
4.0
  9
$LOFTANG1
 40
1.570796326794897
  9
$LOFTANG2
 40
1.570796326794897
  9
$LOFTMAG1
 40
0.0
  9
$LOFTMAG2
 40
0.0
  9
$LOFTPARAM
 70
     7
  9
$LOFTNORMALS
280
     1
  9
$LATITUDE
 40
37.795
  9
$LONGITUDE
 40
-122.394
  9
$NORTHDIRECTION
 40
0.0
  9
$TIMEZONE
 70
 -8000
  9
$LIGHTGLYPHDISPLAY
280
     1
  9
$TILEMODELIGHTSYNCH
280
     1
  9
$CMATERIAL
347
3C
  9
$SOLIDHIST
280
     1
  9
$SHOWHIST
280
     1
  9
$DWFFRAME
280
     2
  9
$DGNFRAME
280
     2
  9
$REALWORLDSCALE
290
     1
  9
$INTERFERECOLOR
 62
   256
  9
$CSHADOW
280
     0
  9
$SHADOWPLANELOCATION
 40
0.0
  0
ENDSEC
  0
SECTION
  2
CLASSES
  0
CLASS
  1
ACDBDICTIONARYWDFLT
  2
AcDbDictionaryWithDefault
  3
ObjectDBX Classes
 90
        0
 91
        4
280
     0
281
     0
  0
CLASS
  1
VISUALSTYLE
  2
AcDbVisualStyle
  3
ObjectDBX Classes
 90
     4095
 91
        4
280
     0
281
     0
  0
CLASS
  1
MATERIAL
  2
AcDbMaterial
  3
ObjectDBX Classes
 90
     1153
 91
        4
280
     0
281
     0
  0
CLASS
  1
SUN
  2
AcDbSun
  3
SCENEOE
 90
     1024
 91
        4
280
     0
281
     0
  0
ENDSEC
  0
SECTION
  2
TABLES
  0
TABLE
  2
VPORT
  5
8
330
0
100
AcDbSymbolTable
 70
     1
  0
VPORT
  5
29
330
8
100
AcDbSymbolTableRecord
100
AcDbViewportTableRecord
  2
*Active
 70
     0
 10
0.0
 20
0.0
 11
1.0
 21
1.0
 12
0.0
 22
0.0
 13
0.0
 23
0.0
 14
0.5
 24
0.5
 15
0.5
 25
0.5
 16
0.0
 26
0.0
 36
1.0
 17
91.00082462281999
 27
-128.4993055234307
 37
0.0
 40
256.9986110468615
 41
0.7081814508812795
 42
50.0
 43
0.0
 44
0.0
 50
0.0
 51
0.0
 71
     0
 72
   100
 73
     1
 74
     3
 75
     0
 76
     0
 77
     0
 78
     0
281
     0
 65
     1
110
0.0
120
0.0
130
0.0
111
1.0
121
0.0
131
0.0
112
0.0
122
1.0
132
0.0
 79
     0
146
0.0
 60
     3
 61
     5
292
     1
282
     1
141
0.0
142
0.0
 63
   250
361
3F
  0
ENDTAB
  0
TABLE
  2
LTYPE
  5
5
330
0
100
AcDbSymbolTable
 70
     1
  0
LTYPE
  5
14
330
5
100
AcDbSymbolTableRecord
100
AcDbLinetypeTableRecord
  2
ByBlock
 70
     0
  3

 72
    65
 73
     0
 40
0.0
  0
LTYPE
  5
15
330
5
100
AcDbSymbolTableRecord
100
AcDbLinetypeTableRecord
  2
ByLayer
 70
     0
  3

 72
    65
 73
     0
 40
0.0
  0
LTYPE
  5
16
330
5
100
AcDbSymbolTableRecord
100
AcDbLinetypeTableRecord
  2
Continuous
 70
     0
  3
Solid line
 72
    65
 73
     0
 40
0.0
  0
ENDTAB
  0
TABLE
  2
LAYER
  5
2
330
0
100
AcDbSymbolTable
 70
     2
  0
LAYER
  5
10
330
2
100
AcDbSymbolTableRecord
100
AcDbLayerTableRecord
  2
0
 70
     0
 62
     7
  6
Continuous
370
    -3
390
F
347
3E
  0
LAYER
  5
40
330
2
100
AcDbSymbolTableRecord
100
AcDbLayerTableRecord
  2
_U+30EC_U+30A4_U+30E4_U+30FC 1
 70
     0
 62
     7
  6
Continuous
370
    -3
390
F
347
3E
  0
ENDTAB
  0
TABLE
  2
STYLE
  5
3
330
0
100
AcDbSymbolTable
 70
     1
  0
STYLE
  5
11
330
3
100
AcDbSymbolTableRecord
100
AcDbTextStyleTableRecord
  2
Standard
 70
     0
 40
0.0
 41
1.0
 50
0.0
 71
     0
 42
0.2
  3
txt
  4

  0
ENDTAB
  0
TABLE
  2
VIEW
  5
6
330
0
100
AcDbSymbolTable
 70
     0
  0
ENDTAB
  0
TABLE
  2
UCS
  5
7
330
0
100
AcDbSymbolTable
 70
     0
  0
ENDTAB
  0
TABLE
  2
APPID
  5
9
330
0
100
AcDbSymbolTable
 70
     1
  0
APPID
  5
12
330
9
100
AcDbSymbolTableRecord
100
AcDbRegAppTableRecord
  2
ACAD
 70
     0
  0
ENDTAB
  0
TABLE
  2
DIMSTYLE
  5
A
330
0
100
AcDbSymbolTable
 70
     1
100
AcDbDimStyleTable
  0
DIMSTYLE
105
27
330
A
100
AcDbSymbolTableRecord
100
AcDbDimStyleTableRecord
  2
Standard
 70
     0
178
     0
340
11
  0
ENDTAB
  0
TABLE
  2
BLOCK_RECORD
  5
1
330
0
100
AcDbSymbolTable
 70
     9
  0
BLOCK_RECORD
  5
1F
330
1
100
AcDbSymbolTableRecord
100
AcDbBlockTableRecord
  2
*Model_Space
340
22
 70
     0
280
     1
281
     0
  0
BLOCK_RECORD
  5
1B
330
1
100
AcDbSymbolTableRecord
100
AcDbBlockTableRecord
  2
*Paper_Space
340
1E
 70
     0
280
     1
281
     0
  0
BLOCK_RECORD
  5
23
330
1
100
AcDbSymbolTableRecord
100
AcDbBlockTableRecord
  2
*Paper_Space0
340
26
 70
     0
280
     1
281
     0
  0
BLOCK_RECORD
  5
41
330
1
100
AcDbSymbolTableRecord
100
AcDbBlockTableRecord
  2
block 2
340
0
102
{BLKREFS
331
42
102
}
 70
     0
280
     1
281
     0
  0
BLOCK_RECORD
  5
53
330
1
100
AcDbSymbolTableRecord
100
AcDbBlockTableRecord
  2
block 3
340
0
102
{BLKREFS
331
54
102
}
 70
     0
280
     1
281
     0
  0
BLOCK_RECORD
  5
75
330
1
100
AcDbSymbolTableRecord
100
AcDbBlockTableRecord
  2
block 4
340
0
102
{BLKREFS
331
76
102
}
 70
     0
280
     1
281
     0
  0
BLOCK_RECORD
  5
7D
330
1
100
AcDbSymbolTableRecord
100
AcDbBlockTableRecord
  2
block 5
340
0
102
{BLKREFS
331
7E
102
}
 70
     0
280
     1
281
     0
  0
BLOCK_RECORD
  5
83
330
1
100
AcDbSymbolTableRecord
100
AcDbBlockTableRecord
  2
block 6
340
0
102
{BLKREFS
331
84
102
}
 70
     0
280
     1
281
     0
  0
BLOCK_RECORD
  5
93
330
1
100
AcDbSymbolTableRecord
100
AcDbBlockTableRecord
  2
block 7
340
0
102
{BLKREFS
331
94
102
}
 70
     0
280
     1
281
     0
  0
BLOCK_RECORD
  5
AB
330
1
100
AcDbSymbolTableRecord
100
AcDbBlockTableRecord
  2
block 8
340
0
102
{BLKREFS
331
AC
102
}
 70
     0
280
     1
281
     0
  0
BLOCK_RECORD
  5
CF
330
1
100
AcDbSymbolTableRecord
100
AcDbBlockTableRecord
  2
block 9
340
0
102
{BLKREFS
331
D0
102
}
 70
     0
280
     1
281
     0
  0
ENDTAB
  0
ENDSEC
  0
SECTION
  2
BLOCKS
  0
BLOCK
  5
20
330
1F
100
AcDbEntity
  8
0
100
AcDbBlockBegin
  2
*Model_Space
 70
     0
 10
0.0
 20
0.0
 30
0.0
  3
*Model_Space
  1

  0
ENDBLK
  5
21
330
1F
100
AcDbEntity
  8
0
100
AcDbBlockEnd
  0
BLOCK
  5
1C
330
1B
100
AcDbEntity
 67
     1
  8
0
100
AcDbBlockBegin
  2
*Paper_Space
 70
     0
 10
0.0
 20
0.0
 30
0.0
  3
*Paper_Space
  1

  0
ENDBLK
  5
1D
330
1B
100
AcDbEntity
 67
     1
  8
0
100
AcDbBlockEnd
  0
BLOCK
  5
24
330
23
100
AcDbEntity
  8
0
100
AcDbBlockBegin
  2
*Paper_Space0
 70
     0
 10
0.0
 20
0.0
 30
0.0
  3
*Paper_Space0
  1

  0
ENDBLK
  5
25
330
23
100
AcDbEntity
  8
0
100
AcDbBlockEnd
  0
BLOCK
  5
43
330
41
100
AcDbEntity
  8
0
100
AcDbBlockBegin
  2
block 2
 70
     0
 10
0.0
 20
0.0
 30
0.0
  3
block 2
  1

  0
SPLINE
  5
45
330
41
100
AcDbEntity
  8
_U+30EC_U+30A4_U+30E4_U+30FC 1
 62
   179
420
  2234388
370
     9
100
AcDbSpline
210
0.0
220
0.0
230
1.0
 70
    11
 71
     3
 72
    17
 73
    13
 74
     0
 42
0.0000000001
 43
0.0000000001
 12
1.0
 22
0.0
 32
0.0
 13
1.0
 23
0.0
 33
0.0
 40
0.0
 40
0.0
 40
0.0
 40
0.0
 40
1.0
 40
1.0
 40
1.0
 40
2.0
 40
2.0
 40
2.0
 40
3.0
 40
3.0
 40
3.0
 40
4.0
 40
4.0
 40
4.0
 40
4.0
 10
70.94967707881183
 20
-145.495009963626
 30
0.0
 10
70.94967707881183
 20
-145.4398707969736
 30
0.0
 10
70.90487430217706
 20
-145.3951032969844
 30
0.0
 10
70.84906664895452
 20
-145.3951032969844
 30
0.0
 10
70.79396097167337
 20
-145.3951032969844
 30
0.0
 10
70.7491581950386
 20
-145.4398707969736
 30
0.0
 10
70.7491581950386
 20
-145.495009963626
 30
0.0
 10
70.7491581950386
 20
-145.5501138525016
 30
0.0
 10
70.79396097167337
 20
-145.5949166302676
 30
0.0
 10
70.84906664895452
 20
-145.5949166302676
 30
0.0
 10
70.90487430217706
 20
-145.5949166302676
 30
0.0
 10
70.94967707881183
 20
-145.5501138525016
 30
0.0
 10
70.94967707881183
 20
-145.495009963626
 30
0.0
  0
POLYLINE
  5
46
330
41
100
AcDbEntity
  8
_U+30EC_U+30A4_U+30E4_U+30FC 1
 62
   179
420
  2234388
370
     9
100
AcDb2dPolyline
 66
     1
 10
0.0
 20
0.0
 30
0.0
  0
VERTEX
  5
47
330
46
100
AcDbEntity
  8
_U+30EC_U+30A4_U+30E4_U+30FC 1
 62
   179
420
  2234388
370
     9
100
AcDbVertex
100
AcDb2dVertex
 10
70.84906664895452
 20
-145.495009963626
 30
0.0
  0
VERTEX
  5
48
330
46
100
AcDbEntity
  8
_U+30EC_U+30A4_U+30E4_U+30FC 1
 62
   179
420
  2234388
370
     9
100
AcDbVertex
100
AcDb2dVertex
 10
75.84930167603422
 20
-145.495009963626
 30
0.0
  0
SEQEND
  5
49
330
46
100
AcDbEntity
  8
_U+30EC_U+30A4_U+30E4_U+30FC 1
 62
   179
420
  2234388
370
     9
  0
POLYLINE
  5
4A
330
41
100
AcDbEntity
  8
_U+30EC_U+30A4_U+30E4_U+30FC 1
 62
   179
420
  2234388
370
     9
100
AcDb2dPolyline
 66
     1
 10
0.0
 20
0.0
 30
0.0
  0
VERTEX
  5
4B
330
4A
100
AcDbEntity
  8
_U+30EC_U+30A4_U+30E4_U+30FC 1
 62
   179
420
  2234388
370
     9
100
AcDbVertex
100
AcDb2dVertex
 10
70.84906664895452
 20
-143.0344907975749
 30
0.0
  0
VERTEX
  5
4C
330
4A
100
AcDbEntity
  8
_U+30EC_U+30A4_U+30E4_U+30FC 1
 62
   179
420
  2234388
370
     9
100
AcDbVertex
100
AcDb2dVertex
 10
70.84906664895452
 20
-146.494746907821
 30
0.0
  0
SEQEND
  5
4D
330
4A
100
AcDbEntity
  8
_U+30EC_U+30A4_U+30E4_U+30FC 1
 62
   179
420
  2234388
370
     9
  0
SPLINE
  5
4E
330
41
100
AcDbEntity
  8
_U+30EC_U+30A4_U+30E4_U+30FC 1
 62
   179
420
  2234388
370
     9
100
AcDbSpline
210
0.0
220
0.0
230
1.0
 70
    11
 71
     3
 72
    17
 73
    13
 74
     0
 42
0.0000000001
 43
0.0000000001
 12
1.0
 22
0.0
 32
0.0
 13
1.0
 23
0.0
 33
0.0
 40
0.0
 40
0.0
 40
0.0
 40
0.0
 40
1.0
 40
1.0
 40
1.0
 40
2.0
 40
2.0
 40
2.0
 40
3.0
 40
3.0
 40
3.0
 40
4.0
 40
4.0
 40
4.0
 40
4.0
 10
75.94988053656814
 20
-145.495009963626
 30
0.0
 10
75.94988053656814
 20
-145.4398707969736
 30
0.0
 10
75.90511111905484
 20
-145.3951032969844
 30
0.0
 10
75.84930167603422
 20
-145.3951032969844
 30
0.0
 10
75.79416251077426
 20
-145.3951032969844
 30
0.0
 10
75.74939501191638
 20
-145.4398707969736
 30
0.0
 10
75.74939501191638
 20
-145.495009963626
 30
0.0
 10
75.74939501191638
 20
-145.5501138525016
 30
0.0
 10
75.79416251077426
 20
-145.5949166302676
 30
0.0
 10
75.84930167603422
 20
-145.5949166302676
 30
0.0
 10
75.90511111905484
 20
-145.5949166302676
 30
0.0
 10
75.94988053656814
 20
-145.5501138525016
 30
0.0
 10
75.94988053656814
 20
-145.495009963626
 30
0.0
  0
POLYLINE
  5
4F
330
41
100
AcDbEntity
  8
_U+30EC_U+30A4_U+30E4_U+30FC 1
 62
   179
420
  2234388
370
     9
100
AcDb2dPolyline
 66
     1
 10
0.0
 20
0.0
 30
0.0
  0
VERTEX
  5
50
330
4F
100
AcDbEntity
  8
_U+30EC_U+30A4_U+30E4_U+30FC 1
 62
   179
420
  2234388
370
     9
100
AcDbVertex
100
AcDb2dVertex
 10
75.84930167603422
 20
-143.0344907975749
 30
0.0
  0
VERTEX
  5
51
330
4F
100
AcDbEntity
  8
_U+30EC_U+30A4_U+30E4_U+30FC 1
 62
   179
420
  2234388
370
     9
100
AcDbVertex
100
AcDb2dVertex
 10
75.84930167603422
 20
-146.494746907821
 30
0.0
  0
SEQEND
  5
52
330
4F
100
AcDbEntity
  8
_U+30EC_U+30A4_U+30E4_U+30FC 1
 62
   179
420
  2234388
370
     9
  0
INSERT
  5
54
330
41
100
AcDbEntity
  8
_U+30EC_U+30A4_U+30E4_U+30FC 1
100
AcDbBlockReference
  2
block 3
 10
0.0
 20
0.0
 30
0.0
  0
SPLINE
  5
59
330
41
100
AcDbEntity
  8
_U+30EC_U+30A4_U+30E4_U+30FC 1
 62
   179
420
  2234388
370
     9
100
AcDbSpline
210
0.0
220
0.0
230
1.0
 70
    11
 71
     3
 72
    17
 73
    13
 74
     0
 42
0.0000000001
 43
0.0000000001
 12
1.0
 22
0.0
 32
0.0
 13
1.0
 23
0.0
 33
0.0
 40
0.0
 40
0.0
 40
0.0
 40
0.0
 40
1.0
 40
1.0
 40
1.0
 40
2.0
 40
2.0
 40
2.0
 40
3.0
 40
3.0
 40
3.0
 40
4.0
 40
4.0
 40
4.0
 40
4.0
 10
113.5227923815701
 20
-141.4945452424042
 30
0.0
 10
113.5227923815701
 20
-141.5496844090573
 30
0.0
 10
113.567559880428
 20
-141.5944519090459
 30
0.0
 10
113.6226990456879
 20
-141.5944519090459
 30
0.0
 10
113.677802933171
 20
-141.5944519090459
 30
0.0
 10
113.7226057098057
 20
-141.5496844090573
 30
0.0
 10
113.7226057098057
 20
-141.4945452424042
 30
0.0
 10
113.7226057098057
 20
-141.4394413535293
 30
0.0
 10
113.677802933171
 20
-141.3946385757626
 30
0.0
 10
113.6226990456879
 20
-141.3946385757626
 30
0.0
 10
113.567559880428
 20
-141.3946385757626
 30
0.0
 10
113.5227923815701
 20
-141.4394413535293
 30
0.0
 10
113.5227923815701
 20
-141.4945452424042
 30
0.0
  0
SPLINE
  5
5A
330
41
100
AcDbEntity
  8
_U+30EC_U+30A4_U+30E4_U+30FC 1
 62
   179
420
  2234388
370
     9
100
AcDbSpline
210
0.0
220
0.0
230
1.0
 70
    11
 71
     3
 72
    17
 73
    13
 74
     0
 42
0.0000000001
 43
0.0000000001
 12
1.0
 22
0.0
 32
0.0
 13
1.0
 23
0.0
 33
0.0
 40
0.0
 40
0.0
 40
0.0
 40
0.0
 40
1.0
 40
1.0
 40
1.0
 40
2.0
 40
2.0
 40
2.0
 40
3.0
 40
3.0
 40
3.0
 40
4.0
 40
4.0
 40
4.0
 40
4.0
 10
113.5227923815701
 20
-125.4505646908596
 30
0.0
 10
113.5227923815701
 20
-125.5057038575123
 30
0.0
 10
113.567559880428
 20
-125.5504713575012
 30
0.0
 10
113.6226990456879
 20
-125.5504713575012
 30
0.0
 10
113.677802933171
 20
-125.5504713575012
 30
0.0
 10
113.7226057098057
 20
-125.5057038575123
 30
0.0
 10
113.7226057098057
 20
-125.4505646908596
 30
0.0
 10
113.7226057098057
 20
-125.3947552464291
 30
0.0
 10
113.677802933171
 20
-125.3499877464403
 30
0.0
 10
113.6226990456879
 20
-125.3499877464403
 30
0.0
 10
113.567559880428
 20
-125.3499877464403
 30
0.0
 10
113.5227923815701
 20
-125.3947552464291
 30
0.0
 10
113.5227923815701
 20
-125.4505646908596
 30
0.0
  0
POLYLINE
  5
5B
330
41
100
AcDbEntity
  8
_U+30EC_U+30A4_U+30E4_U+30FC 1
 62
   179
420
  2234388
370
     9
100
AcDb2dPolyline
 66
     1
 10
0.0
 20
0.0
 30
0.0
  0
VERTEX
  5
5C
330
5B
100
AcDbEntity
  8
_U+30EC_U+30A4_U+30E4_U+30FC 1
 62
   179
420
  2234388
370
     9
100
AcDbVertex
100
AcDb2dVertex
 10
113.6226990456879
 20
-125.452646079748
 30
0.0
  0
VERTEX
  5
5D
330
5B
100
AcDbEntity
  8
_U+30EC_U+30A4_U+30E4_U+30FC 1
 62
   179
420
  2234388
370
     9
100
AcDbVertex
100
AcDb2dVertex
 10
113.6226990456879
 20
-141.4945452424042
 30
0.0
  0
SEQEND
  5
5E
330
5B
100
AcDbEntity
  8
_U+30EC_U+30A4_U+30E4_U+30FC 1
 62
   179
420
  2234388
370
     9
  0
POLYLINE
  5
5F
330
41
100
AcDbEntity
  8
_U+30EC_U+30A4_U+30E4_U+30FC 1
 62
   179
420
  2234388
370
     9
100
AcDb2dPolyline
 66
     1
 10
0.0
 20
0.0
 30
0.0
  0
VERTEX
  5
60
330
5F
100
AcDbEntity
  8
_U+30EC_U+30A4_U+30E4_U+30FC 1
 62
   179
420
  2234388
370
     9
100
AcDbVertex
100
AcDb2dVertex
 10
111.9986865871199
 20
-125.4505646908596
 30
0.0
  0
VERTEX
  5
61
330
5F
100
AcDbEntity
  8
_U+30EC_U+30A4_U+30E4_U+30FC 1
 62
   179
420
  2234388
370
     9
100
AcDbVertex
100
AcDb2dVertex
 10
114.6224712424038
 20
-125.4505646908596
 30
0.0
  0
SEQEND
  5
62
330
5F
100
AcDbEntity
  8
_U+30EC_U+30A4_U+30E4_U+30FC 1
 62
   179
420
  2234388
370
     9
  0
SPLINE
  5
63
330
41
100
AcDbEntity
  8
_U+30EC_U+30A4_U+30E4_U+30FC 1
 62
   179
420
  2234388
370
     9
100
AcDbSpline
210
0.0
220
0.0
230
1.0
 70
    11
 71
     3
 72
    17
 73
    13
 74
     0
 42
0.0000000001
 43
0.0000000001
 12
1.0
 22
0.0
 32
0.0
 13
1.0
 23
0.0
 33
0.0
 40
0.0
 40
0.0
 40
0.0
 40
0.0
 40
1.0
 40
1.0
 40
1.0
 40
2.0
 40
2.0
 40
2.0
 40
3.0
 40
3.0
 40
3.0
 40
4.0
 40
4.0
 40
4.0
 40
4.0
 10
113.5227923815701
 20
-124.4506160799985
 30
0.0
 10
113.5227923815701
 20
-124.5057552466512
 30
0.0
 10
113.567559880428
 20
-124.5505227466401
 30
0.0
 10
113.6226990456879
 20
-124.5505227466401
 30
0.0
 10
113.677802933171
 20
-124.5505227466401
 30
0.0
 10
113.7226057098057
 20
-124.5057552466512
 30
0.0
 10
113.7226057098057
 20
-124.4506160799985
 30
0.0
 10
113.7226057098057
 20
-124.394806635568
 30
0.0
 10
113.677802933171
 20
-124.3500391355792
 30
0.0
 10
113.6226990456879
 20
-124.3500391355792
 30
0.0
 10
113.567559880428
 20
-124.3500391355792
 30
0.0
 10
113.5227923815701
 20
-124.394806635568
 30
0.0
 10
113.5227923815701
 20
-124.4506160799985
 30
0.0
  0
POLYLINE
  5
64
330
41
100
AcDbEntity
  8
_U+30EC_U+30A4_U+30E4_U+30FC 1
 62
   179
420
  2234388
370
     9
100
AcDb2dPolyline
 66
     1
 10
0.0
 20
0.0
 30
0.0
  0
VERTEX
  5
65
330
64
100
AcDbEntity
  8
_U+30EC_U+30A4_U+30E4_U+30FC 1
 62
   179
420
  2234388
370
     9
100
AcDbVertex
100
AcDb2dVertex
 10
113.6226990456879
 20
-121.4528869140811
 30
0.0
  0
VERTEX
  5
66
330
64
100
AcDbEntity
  8
_U+30EC_U+30A4_U+30E4_U+30FC 1
 62
   179
420
  2234388
370
     9
100
AcDbVertex
100
AcDb2dVertex
 10
113.6226990456879
 20
-141.4945452424042
 30
0.0
  0
SEQEND
  5
67
330
64
100
AcDbEntity
  8
_U+30EC_U+30A4_U+30E4_U+30FC 1
 62
   179
420
  2234388
370
     9
  0
POLYLINE
  5
68
330
41
100
AcDbEntity
  8
_U+30EC_U+30A4_U+30E4_U+30FC 1
 62
   179
420
  2234388
370
     9
100
AcDb2dPolyline
 66
     1
 10
0.0
 20
0.0
 30
0.0
  0
VERTEX
  5
69
330
68
100
AcDbEntity
  8
_U+30EC_U+30A4_U+30E4_U+30FC 1
 62
   179
420
  2234388
370
     9
100
AcDbVertex
100
AcDb2dVertex
 10
111.9986865871199
 20
-124.4506160799985
 30
0.0
  0
VERTEX
  5
6A
330
68
100
AcDbEntity
  8
_U+30EC_U+30A4_U+30E4_U+30FC 1
 62
   179
420
  2234388
370
     9
100
AcDbVertex
100
AcDb2dVertex
 10
114.6224712424038
 20
-124.4506160799985
 30
0.0
  0
SEQEND
  5
6B
330
68
100
AcDbEntity
  8
_U+30EC_U+30A4_U+30E4_U+30FC 1
 62
   179
420
  2234388
370
     9
  0
POLYLINE
  5
6C
330
41
100
AcDbEntity
  8
_U+30EC_U+30A4_U+30E4_U+30FC 1
 62
   179
420
  2234388
370
     9
100
AcDb2dPolyline
 66
     1
 10
0.0
 20
0.0
 30
0.0
  0
VERTEX
  5
6D
330
6C
100
AcDbEntity
  8
_U+30EC_U+30A4_U+30E4_U+30FC 1
 62
   179
420
  2234388
370
     9
100
AcDbVertex
100
AcDb2dVertex
 10
76.99925136891878
 20
-141.4945452424042
 30
0.0
  0
VERTEX
  5
6E
330
6C
100
AcDbEntity
  8
_U+30EC_U+30A4_U+30E4_U+30FC 1
 62
   179
420
  2234388
370
     9
100
AcDbVertex
100
AcDb2dVertex
 10
114.6224712424038
 20
-141.4945452424042
 30
0.0
  0
SEQEND
  5
6F
330
6C
100
AcDbEntity
  8
_U+30EC_U+30A4_U+30E4_U+30FC 1
 62
   179
420
  2234388
370
     9
  0
SPLINE
  5
70
330
41
100
AcDbEntity
  8
_U+30EC_U+30A4_U+30E4_U+30FC 1
 62
   179
420
  2234388
370
     9
100
AcDbSpline
210
0.0
220
0.0
230
1.0
 70
    11
 71
     3
 72
    17
 73
    13
 74
     0
 42
0.0000000001
 43
0.0000000001
 12
1.0
 22
0.0
 32
0.0
 13
1.0
 23
0.0
 33
0.0
 40
0.0
 40
0.0
 40
0.0
 40
0.0
 40
1.0
 40
1.0
 40
1.0
 40
2.0
 40
2.0
 40
2.0
 40
3.0
 40
3.0
 40
3.0
 40
4.0
 40
4.0
 40
4.0
 40
4.0
 10
113.5227923815701
 20
-138.4945582987099
 30
0.0
 10
113.5227923815701
 20
-138.5496974653623
 30
0.0
 10
113.567559880428
 20
-138.5944649653515
 30
0.0
 10
113.6226990456879
 20
-138.5944649653515
 30
0.0
 10
113.677802933171
 20
-138.5944649653515
 30
0.0
 10
113.7226057098057
 20
-138.5496974653623
 30
0.0
 10
113.7226057098057
 20
-138.4945582987099
 30
0.0
 10
113.7226057098057
 20
-138.4394544098343
 30
0.0
 10
113.677802933171
 20
-138.3946516320682
 30
0.0
 10
113.6226990456879
 20
-138.3946516320682
 30
0.0
 10
113.567559880428
 20
-138.3946516320682
 30
0.0
 10
113.5227923815701
 20
-138.4394544098343
 30
0.0
 10
113.5227923815701
 20
-138.4945582987099
 30
0.0
  0
POLYLINE
  5
71
330
41
100
AcDbEntity
  8
_U+30EC_U+30A4_U+30E4_U+30FC 1
 62
   179
420
  2234388
370
     9
100
AcDb2dPolyline
 66
     1
 10
0.0
 20
0.0
 30
0.0
  0
VERTEX
  5
72
330
71
100
AcDbEntity
  8
_U+30EC_U+30A4_U+30E4_U+30FC 1
 62
   179
420
  2234388
370
     9
100
AcDbVertex
100
AcDb2dVertex
 10
76.99925136891878
 20
-138.4945582987099
 30
0.0
  0
VERTEX
  5
73
330
71
100
AcDbEntity
  8
_U+30EC_U+30A4_U+30E4_U+30FC 1
 62
   179
420
  2234388
370
     9
100
AcDbVertex
100
AcDb2dVertex
 10
114.6224712424038
 20
-138.4945582987099
 30
0.0
  0
SEQEND
  5
74
330
71
100
AcDbEntity
  8
_U+30EC_U+30A4_U+30E4_U+30FC 1
 62
   179
420
  2234388
370
     9
  0
INSERT
  5
76
330
41
100
AcDbEntity
  8
_U+30EC_U+30A4_U+30E4_U+30FC 1
100
AcDbBlockReference
  2
block 4
 10
0.0
 20
0.0
 30
0.0
  0
INSERT
  5
7E
330
41
100
AcDbEntity
  8
_U+30EC_U+30A4_U+30E4_U+30FC 1
100
AcDbBlockReference
  2
block 5
 10
0.0
 20
0.0
 30
0.0
  0
INSERT
  5
84
330
41
100
AcDbEntity
  8
_U+30EC_U+30A4_U+30E4_U+30FC 1
100
AcDbBlockReference
  2
block 6
 10
0.0
 20
0.0
 30
0.0
  0
SPLINE
  5
89
330
41
100
AcDbEntity
  8
_U+30EC_U+30A4_U+30E4_U+30FC 1
 62
   179
420
  2234388
370
     9
100
AcDbSpline
210
0.0
220
0.0
230
1.0
 70
    11
 71
     3
 72
    17
 73
    13
 74
     0
 42
0.0000000001
 43
0.0000000001
 12
1.0
 22
0.0
 32
0.0
 13
1.0
 23
0.0
 33
0.0
 40
0.0
 40
0.0
 40
0.0
 40
0.0
 40
1.0
 40
1.0
 40
1.0
 40
2.0
 40
2.0
 40
2.0
 40
3.0
 40
3.0
 40
3.0
 40
4.0
 40
4.0
 40
4.0
 40
4.0
 10
70.84906664895452
 20
-115.6596055266408
 30
0.0
 10
70.79396097167337
 20
-115.6596055266408
 30
0.0
 10
70.7491581950386
 20
-115.7044083044072
 30
0.0
 10
70.7491581950386
 20
-115.7595121932824
 30
0.0
 10
70.7491581950386
 20
-115.8146513599352
 30
0.0
 10
70.79396097167337
 20
-115.859418859924
 30
0.0
 10
70.84906664895452
 20
-115.859418859924
 30
0.0
 10
70.90420402441639
 20
-115.859418859924
 30
0.0
 10
70.94897152327427
 20
-115.8146513599352
 30
0.0
 10
70.94897152327427
 20
-115.7595121932824
 30
0.0
 10
70.94897152327427
 20
-115.7044083044072
 30
0.0
 10
70.90420402441639
 20
-115.6596055266408
 30
0.0
 10
70.84906664895452
 20
-115.6596055266408
 30
0.0
  0
POLYLINE
  5
8A
330
41
100
AcDbEntity
  8
_U+30EC_U+30A4_U+30E4_U+30FC 1
 62
   179
420
  2234388
370
     9
100
AcDb2dPolyline
 66
     1
 10
0.0
 20
0.0
 30
0.0
  0
VERTEX
  5
8B
330
8A
100
AcDbEntity
  8
_U+30EC_U+30A4_U+30E4_U+30FC 1
 62
   179
420
  2234388
370
     9
100
AcDbVertex
100
AcDb2dVertex
 10
73.81839720376756
 20
-115.7595121932824
 30
0.0
  0
VERTEX
  5
8C
330
8A
100
AcDbEntity
  8
_U+30EC_U+30A4_U+30E4_U+30FC 1
 62
   179
420
  2234388
370
     9
100
AcDbVertex
100
AcDb2dVertex
 10
70.84906664895452
 20
-115.7595121932824
 30
0.0
  0
SEQEND
  5
8D
330
8A
100
AcDbEntity
  8
_U+30EC_U+30A4_U+30E4_U+30FC 1
 62
   179
420
  2234388
370
     9
  0
SPLINE
  5
8E
330
41
100
AcDbEntity
  8
_U+30EC_U+30A4_U+30E4_U+30FC 1
 62
   179
420
  2234388
370
     9
100
AcDbSpline
210
0.0
220
0.0
230
1.0
 70
    11
 71
     3
 72
    17
 73
    13
 74
     0
 42
0.0000000001
 43
0.0000000001
 12
1.0
 22
0.0
 32
0.0
 13
1.0
 23
0.0
 33
0.0
 40
0.0
 40
0.0
 40
0.0
 40
0.0
 40
1.0
 40
1.0
 40
1.0
 40
2.0
 40
2.0
 40
2.0
 40
3.0
 40
3.0
 40
3.0
 40
4.0
 40
4.0
 40
4.0
 40
4.0
 10
73.81839720376756
 20
-115.6596055266408
 30
0.0
 10
73.76329145147498
 20
-115.6596055266408
 30
0.0
 10
73.71848867484023
 20
-115.7044083044072
 30
0.0
 10
73.71848867484023
 20
-115.7595121932824
 30
0.0
 10
73.71848867484023
 20
-115.8146513599352
 30
0.0
 10
73.76329145147498
 20
-115.859418859924
 30
0.0
 10
73.81839720376756
 20
-115.859418859924
 30
0.0
 10
73.87353450421801
 20
-115.859418859924
 30
0.0
 10
73.9183020030759
 20
-115.8146513599352
 30
0.0
 10
73.9183020030759
 20
-115.7595121932824
 30
0.0
 10
73.9183020030759
 20
-115.7044083044072
 30
0.0
 10
73.87353450421801
 20
-115.6596055266408
 30
0.0
 10
73.81839720376756
 20
-115.6596055266408
 30
0.0
  0
POLYLINE
  5
8F
330
41
100
AcDbEntity
  8
_U+30EC_U+30A4_U+30E4_U+30FC 1
 62
   179
420
  2234388
370
     9
100
AcDb2dPolyline
 66
     1
 10
0.0
 20
0.0
 30
0.0
  0
VERTEX
  5
90
330
8F
100
AcDbEntity
  8
_U+30EC_U+30A4_U+30E4_U+30FC 1
 62
   179
420
  2234388
370
     9
100
AcDbVertex
100
AcDb2dVertex
 10
73.81839720376756
 20
-114.2994708047584
 30
0.0
  0
VERTEX
  5
91
330
8F
100
AcDbEntity
  8
_U+30EC_U+30A4_U+30E4_U+30FC 1
 62
   179
420
  2234388
370
     9
100
AcDbVertex
100
AcDb2dVertex
 10
73.81839720376756
 20
-117.0400602485178
 30
0.0
  0
SEQEND
  5
92
330
8F
100
AcDbEntity
  8
_U+30EC_U+30A4_U+30E4_U+30FC 1
 62
   179
420
  2234388
370
     9
  0
INSERT
  5
94
330
41
100
AcDbEntity
  8
_U+30EC_U+30A4_U+30E4_U+30FC 1
100
AcDbBlockReference
  2
block 7
 10
0.0
 20
0.0
 30
0.0
  0
SPLINE
  5
99
330
41
100
AcDbEntity
  8
_U+30EC_U+30A4_U+30E4_U+30FC 1
 62
   179
420
  2234388
370
     9
100
AcDbSpline
210
0.0
220
0.0
230
1.0
 70
    11
 71
     3
 72
    17
 73
    13
 74
     0
 42
0.0000000001
 43
0.0000000001
 12
1.0
 22
0.0
 32
0.0
 13
1.0
 23
0.0
 33
0.0
 40
0.0
 40
0.0
 40
0.0
 40
0.0
 40
1.0
 40
1.0
 40
1.0
 40
2.0
 40
2.0
 40
2.0
 40
3.0
 40
3.0
 40
3.0
 40
4.0
 40
4.0
 40
4.0
 40
4.0
 10
70.84906664895452
 20
-112.6406744162843
 30
0.0
 10
70.79396097167337
 20
-112.6406744162843
 30
0.0
 10
70.7491581950386
 20
-112.6854419162732
 30
0.0
 10
70.7491581950386
 20
-112.740581082926
 30
0.0
 10
70.7491581950386
 20
-112.7956849718012
 30
0.0
 10
70.79396097167337
 20
-112.8404877495676
 30
0.0
 10
70.84906664895452
 20
-112.8404877495676
 30
0.0
 10
70.90420402441639
 20
-112.8404877495676
 30
0.0
 10
70.94897152327427
 20
-112.7956849718012
 30
0.0
 10
70.94897152327427
 20
-112.740581082926
 30
0.0
 10
70.94897152327427
 20
-112.6854419162732
 30
0.0
 10
70.90420402441639
 20
-112.6406744162843
 30
0.0
 10
70.84906664895452
 20
-112.6406744162843
 30
0.0
  0
POLYLINE
  5
9A
330
41
100
AcDbEntity
  8
_U+30EC_U+30A4_U+30E4_U+30FC 1
 62
   179
420
  2234388
370
     9
100
AcDb2dPolyline
 66
     1
 10
0.0
 20
0.0
 30
0.0
  0
VERTEX
  5
9B
330
9A
100
AcDbEntity
  8
_U+30EC_U+30A4_U+30E4_U+30FC 1
 62
   179
420
  2234388
370
     9
100
AcDbVertex
100
AcDb2dVertex
 10
110.849407171996
 20
-112.740581082926
 30
0.0
  0
VERTEX
  5
9C
330
9A
100
AcDbEntity
  8
_U+30EC_U+30A4_U+30E4_U+30FC 1
 62
   179
420
  2234388
370
     9
100
AcDbVertex
100
AcDb2dVertex
 10
70.84906664895452
 20
-112.740581082926
 30
0.0
  0
SEQEND
  5
9D
330
9A
100
AcDbEntity
  8
_U+30EC_U+30A4_U+30E4_U+30FC 1
 62
   179
420
  2234388
370
     9
  0
POLYLINE
  5
9E
330
41
100
AcDbEntity
  8
_U+30EC_U+30A4_U+30E4_U+30FC 1
 62
   179
420
  2234388
370
     9
100
AcDb2dPolyline
 66
     1
 10
0.0
 20
0.0
 30
0.0
  0
VERTEX
  5
9F
330
9E
100
AcDbEntity
  8
_U+30EC_U+30A4_U+30E4_U+30FC 1
 62
   179
420
  2234388
370
     9
100
AcDbVertex
100
AcDb2dVertex
 10
110.8390707833708
 20
-112.7407574718149
 30
0.0
  0
VERTEX
  5
A0
330
9E
100
AcDbEntity
  8
_U+30EC_U+30A4_U+30E4_U+30FC 1
 62
   179
420
  2234388
370
     9
100
AcDbVertex
100
AcDb2dVertex
 10
70.83908124830003
 20
-112.7407574718149
 30
0.0
  0
SEQEND
  5
A1
330
9E
100
AcDbEntity
  8
_U+30EC_U+30A4_U+30E4_U+30FC 1
 62
   179
420
  2234388
370
     9
  0
POLYLINE
  5
A2
330
41
100
AcDbEntity
  8
_U+30EC_U+30A4_U+30E4_U+30FC 1
 62
   179
420
  2234388
370
     9
100
AcDb2dPolyline
 66
     1
 10
0.0
 20
0.0
 30
0.0
  0
VERTEX
  5
A3
330
A2
100
AcDbEntity
  8
_U+30EC_U+30A4_U+30E4_U+30FC 1
 62
   179
420
  2234388
370
     9
100
AcDbVertex
100
AcDb2dVertex
 10
70.84906664895452
 20
-111.280539694402
 30
0.0
  0
VERTEX
  5
A4
330
A2
100
AcDbEntity
  8
_U+30EC_U+30A4_U+30E4_U+30FC 1
 62
   179
420
  2234388
370
     9
100
AcDbVertex
100
AcDb2dVertex
 10
70.84906664895452
 20
-117.0400602485178
 30
0.0
  0
SEQEND
  5
A5
330
A2
100
AcDbEntity
  8
_U+30EC_U+30A4_U+30E4_U+30FC 1
 62
   179
420
  2234388
370
     9
  0
SPLINE
  5
A6
330
41
100
AcDbEntity
  8
_U+30EC_U+30A4_U+30E4_U+30FC 1
 62
   179
420
  2234388
370
     9
100
AcDbSpline
210
0.0
220
0.0
230
1.0
 70
    11
 71
     3
 72
    17
 73
    13
 74
     0
 42
0.0000000001
 43
0.0000000001
 12
1.0
 22
0.0
 32
0.0
 13
1.0
 23
0.0
 33
0.0
 40
0.0
 40
0.0
 40
0.0
 40
0.0
 40
1.0
 40
1.0
 40
1.0
 40
2.0
 40
2.0
 40
2.0
 40
3.0
 40
3.0
 40
3.0
 40
4.0
 40
4.0
 40
4.0
 40
4.0
 10
110.849407171996
 20
-112.6406744162843
 30
0.0
 10
110.7942680067361
 20
-112.6406744162843
 30
0.0
 10
110.7494652301013
 20
-112.6854419162732
 30
0.0
 10
110.7494652301013
 20
-112.740581082926
 30
0.0
 10
110.7494652301013
 20
-112.7956849718012
 30
0.0
 10
110.7942680067361
 20
-112.8404877495676
 30
0.0
 10
110.849407171996
 20
-112.8404877495676
 30
0.0
 10
110.9045138611628
 20
-112.8404877495676
 30
0.0
 10
110.9493166389295
 20
-112.7956849718012
 30
0.0
 10
110.9493166389295
 20
-112.740581082926
 30
0.0
 10
110.9493166389295
 20
-112.6854419162732
 30
0.0
 10
110.9045138611628
 20
-112.6406744162843
 30
0.0
 10
110.849407171996
 20
-112.6406744162843
 30
0.0
  0
POLYLINE
  5
A7
330
41
100
AcDbEntity
  8
_U+30EC_U+30A4_U+30E4_U+30FC 1
 62
   179
420
  2234388
370
     9
100
AcDb2dPolyline
 66
     1
 10
0.0
 20
0.0
 30
0.0
  0
VERTEX
  5
A8
330
A7
100
AcDbEntity
  8
_U+30EC_U+30A4_U+30E4_U+30FC 1
 62
   179
420
  2234388
370
     9
100
AcDbVertex
100
AcDb2dVertex
 10
110.849407171996
 20
-111.280539694402
 30
0.0
  0
VERTEX
  5
A9
330
A7
100
AcDbEntity
  8
_U+30EC_U+30A4_U+30E4_U+30FC 1
 62
   179
420
  2234388
370
     9
100
AcDbVertex
100
AcDb2dVertex
 10
110.849407171996
 20
-123.1506299692122
 30
0.0
  0
SEQEND
  5
AA
330
A7
100
AcDbEntity
  8
_U+30EC_U+30A4_U+30E4_U+30FC 1
 62
   179
420
  2234388
370
     9
  0
INSERT
  5
AC
330
41
100
AcDbEntity
  8
_U+30EC_U+30A4_U+30E4_U+30FC 1
100
AcDbBlockReference
  2
block 8
 10
0.0
 20
0.0
 30
0.0
  0
POLYLINE
  5
C7
330
41
100
AcDbEntity
  8
_U+30EC_U+30A4_U+30E4_U+30FC 1
 62
   179
420
  2234388
370
     9
100
AcDb2dPolyline
 66
     1
 10
0.0
 20
0.0
 30
0.0
  0
VERTEX
  5
C8
330
C7
100
AcDbEntity
  8
_U+30EC_U+30A4_U+30E4_U+30FC 1
 62
   179
420
  2234388
370
     9
100
AcDbVertex
100
AcDb2dVertex
 10
68.34723547853898
 20
-141.4945452424042
 30
0.0
  0
VERTEX
  5
C9
330
C7
100
AcDbEntity
  8
_U+30EC_U+30A4_U+30E4_U+30FC 1
 62
   179
420
  2234388
370
     9
100
AcDbVertex
100
AcDb2dVertex
 10
68.34723547853898
 20
-118.5402124703651
 30
0.0
  0
SEQEND
  5
CA
330
C7
100
AcDbEntity
  8
_U+30EC_U+30A4_U+30E4_U+30FC 1
 62
   179
420
  2234388
370
     9
  0
POLYLINE
  5
CB
330
41
100
AcDbEntity
  8
_U+30EC_U+30A4_U+30E4_U+30FC 1
 62
   179
420
  2234388
370
     9
100
AcDb2dPolyline
 66
     1
 10
0.0
 20
0.0
 30
0.0
  0
VERTEX
  5
CC
330
CB
100
AcDbEntity
  8
_U+30EC_U+30A4_U+30E4_U+30FC 1
 62
   179
420
  2234388
370
     9
100
AcDbVertex
100
AcDb2dVertex
 10
69.34908906409068
 20
-141.4945452424042
 30
0.0
  0
VERTEX
  5
CD
330
CB
100
AcDbEntity
  8
_U+30EC_U+30A4_U+30E4_U+30FC 1
 62
   179
420
  2234388
370
     9
100
AcDbVertex
100
AcDb2dVertex
 10
66.87481162721475
 20
-141.4945452424042
 30
0.0
  0
SEQEND
  5
CE
330
CB
100
AcDbEntity
  8
_U+30EC_U+30A4_U+30E4_U+30FC 1
 62
   179
420
  2234388
370
     9
  0
INSERT
  5
D0
330
41
100
AcDbEntity
  8
_U+30EC_U+30A4_U+30E4_U+30FC 1
100
AcDbBlockReference
  2
block 9
 10
0.0
 20
0.0
 30
0.0
  0
SPLINE
  5
D7
330
41
100
AcDbEntity
  8
_U+30EC_U+30A4_U+30E4_U+30FC 1
 62
   179
420
  2234388
370
     9
100
AcDbSpline
210
0.0
220
0.0
230
1.0
 70
    11
 71
     3
 72
    17
 73
    13
 74
     0
 42
0.0000000001
 43
0.0000000001
 12
1.0
 22
0.0
 32
0.0
 13
1.0
 23
0.0
 33
0.0
 40
0.0
 40
0.0
 40
0.0
 40
0.0
 40
1.0
 40
1.0
 40
1.0
 40
2.0
 40
2.0
 40
2.0
 40
3.0
 40
3.0
 40
3.0
 40
4.0
 40
4.0
 40
4.0
 40
4.0
 10
68.4409685317032
 20
-141.4931694090714
 30
0.0
 10
68.4409685317032
 20
-141.4380655201958
 30
0.0
 10
68.39651853283722
 20
-141.3932627424297
 30
0.0
 10
68.34106186758537
 20
-141.3932627424297
 30
0.0
 10
68.28592270232542
 20
-141.3932627424297
 30
0.0
 10
68.24115520346753
 20
-141.4380655201958
 30
0.0
 10
68.24115520346753
 20
-141.4931694090714
 30
0.0
 10
68.24115520346753
 20
-141.5489788535018
 30
0.0
 10
68.28592270232542
 20
-141.5937816312685
 30
0.0
 10
68.34106186758537
 20
-141.5937816312685
 30
0.0
 10
68.39651853283722
 20
-141.5937816312685
 30
0.0
 10
68.4409685317032
 20
-141.5489788535018
 30
0.0
 10
68.4409685317032
 20
-141.4931694090714
 30
0.0
  0
POLYLINE
  5
D8
330
41
100
AcDbEntity
  8
_U+30EC_U+30A4_U+30E4_U+30FC 1
 62
   179
420
  2234388
370
     9
100
AcDb2dPolyline
 66
     1
 10
0.0
 20
0.0
 30
0.0
  0
VERTEX
  5
D9
330
D8
100
AcDbEntity
  8
_U+30EC_U+30A4_U+30E4_U+30FC 1
 62
   179
420
  2234388
370
     9
100
AcDbVertex
100
AcDb2dVertex
 10
69.34908906409068
 20
-118.5400360814762
 30
0.0
  0
VERTEX
  5
DA
330
D8
100
AcDbEntity
  8
_U+30EC_U+30A4_U+30E4_U+30FC 1
 62
   179
420
  2234388
370
     9
100
AcDbVertex
100
AcDb2dVertex
 10
66.87481162721475
 20
-118.5400360814762
 30
0.0
  0
SEQEND
  5
DB
330
D8
100
AcDbEntity
  8
_U+30EC_U+30A4_U+30E4_U+30FC 1
 62
   179
420
  2234388
370
     9
  0
SPLINE
  5
DC
330
41
100
AcDbEntity
  8
_U+30EC_U+30A4_U+30E4_U+30FC 1
 62
   179
420
  2234388
370
     9
100
AcDbSpline
210
0.0
220
0.0
230
1.0
 70
    11
 71
     3
 72
    17
 73
    13
 74
     0
 42
0.0000000001
 43
0.0000000001
 12
1.0
 22
0.0
 32
0.0
 13
1.0
 23
0.0
 33
0.0
 40
0.0
 40
0.0
 40
0.0
 40
0.0
 40
1.0
 40
1.0
 40
1.0
 40
2.0
 40
2.0
 40
2.0
 40
3.0
 40
3.0
 40
3.0
 40
4.0
 40
4.0
 40
4.0
 40
4.0
 10
68.4409685317032
 20
-118.538660248143
 30
0.0
 10
68.4409685317032
 20
-118.4835563592681
 30
0.0
 10
68.39651853283722
 20
-118.4391063592791
 30
0.0
 10
68.34106186758537
 20
-118.4391063592791
 30
0.0
 10
68.28592270232542
 20
-118.4391063592791
 30
0.0
 10
68.24115520346753
 20
-118.4835563592681
 30
0.0
 10
68.24115520346753
 20
-118.538660248143
 30
0.0
 10
68.24115520346753
 20
-118.5944696925737
 30
0.0
 10
68.28592270232542
 20
-118.6392724703401
 30
0.0
 10
68.34106186758537
 20
-118.6392724703401
 30
0.0
 10
68.39651853283722
 20
-118.6392724703401
 30
0.0
 10
68.4409685317032
 20
-118.5944696925737
 30
0.0
 10
68.4409685317032
 20
-118.538660248143
 30
0.0
  0
POLYLINE
  5
DD
330
41
100
AcDbEntity
  8
_U+30EC_U+30A4_U+30E4_U+30FC 1
 62
   179
420
  2234388
370
    25
100
AcDb2dPolyline
 66
     1
 10
0.0
 20
0.0
 30
0.0
  0
VERTEX
  5
DE
330
DD
100
AcDbEntity
  8
_U+30EC_U+30A4_U+30E4_U+30FC 1
 62
   179
420
  2234388
370
    25
100
AcDbVertex
100
AcDb2dVertex
 10
71.84883887092674
 20
-124.4507924688874
 30
0.0
  0
VERTEX
  5
DF
330
DD
100
AcDbEntity
  8
_U+30EC_U+30A4_U+30E4_U+30FC 1
 62
   179
420
  2234388
370
    25
100
AcDbVertex
100
AcDb2dVertex
 10
71.84883887092674
 20
-119.5399846923373
 30
0.0
  0
VERTEX
  5
E0
330
DD
100
AcDbEntity
  8
_U+30EC_U+30A4_U+30E4_U+30FC 1
 62
   179
420
  2234388
370
    25
100
AcDbVertex
100
AcDb2dVertex
 10
73.84905172706485
 20
-119.5399846923373
 30
0.0
  0
VERTEX
  5
E1
330
DD
100
AcDbEntity
  8
_U+30EC_U+30A4_U+30E4_U+30FC 1
 62
   179
420
  2234388
370
    25
100
AcDbVertex
100
AcDb2dVertex
 10
73.84905172706485
 20
-118.5400360814762
 30
0.0
  0
VERTEX
  5
E2
330
DD
100
AcDbEntity
  8
_U+30EC_U+30A4_U+30E4_U+30FC 1
 62
   179
420
  2234388
370
    25
100
AcDbVertex
100
AcDb2dVertex
 10
70.84906664895452
 20
-118.5400360814762
 30
0.0
  0
VERTEX
  5
E3
330
DD
100
AcDbEntity
  8
_U+30EC_U+30A4_U+30E4_U+30FC 1
 62
   179
420
  2234388
370
    25
100
AcDbVertex
100
AcDb2dVertex
 10
70.84906664895452
 20
-141.4945452424042
 30
0.0
  0
VERTEX
  5
E4
330
DD
100
AcDbEntity
  8
_U+30EC_U+30A4_U+30E4_U+30FC 1
 62
   179
420
  2234388
370
    25
100
AcDbVertex
100
AcDb2dVertex
 10
75.84930167603422
 20
-141.4945452424042
 30
0.0
  0
VERTEX
  5
E5
330
DD
100
AcDbEntity
  8
_U+30EC_U+30A4_U+30E4_U+30FC 1
 62
   179
420
  2234388
370
    25
100
AcDbVertex
100
AcDb2dVertex
 10
75.84930167603422
 20
-138.4945582987099
 30
0.0
  0
VERTEX
  5
E6
330
DD
100
AcDbEntity
  8
_U+30EC_U+30A4_U+30E4_U+30FC 1
 62
   179
420
  2234388
370
    25
100
AcDbVertex
100
AcDb2dVertex
 10
74.84917670154952
 20
-138.4945582987099
 30
0.0
  0
VERTEX
  5
E7
330
DD
100
AcDbEntity
  8
_U+30EC_U+30A4_U+30E4_U+30FC 1
 62
   179
420
  2234388
370
    25
100
AcDbVertex
100
AcDb2dVertex
 10
74.84917670154952
 20
-140.4947730204317
 30
0.0
  0
VERTEX
  5
E8
330
DD
100
AcDbEntity
  8
_U+30EC_U+30A4_U+30E4_U+30FC 1
 62
   179
420
  2234388
370
    25
100
AcDbVertex
100
AcDb2dVertex
 10
71.84883887092674
 20
-140.4947730204317
 30
0.0
  0
VERTEX
  5
E9
330
DD
100
AcDbEntity
  8
_U+30EC_U+30A4_U+30E4_U+30FC 1
 62
   179
420
  2234388
370
    25
100
AcDbVertex
100
AcDb2dVertex
 10
71.84883887092674
 20
-125.4505646908596
 30
0.0
  0
VERTEX
  5
EA
330
DD
100
AcDbEntity
  8
_U+30EC_U+30A4_U+30E4_U+30FC 1
 62
   179
420
  2234388
370
    25
100
AcDbVertex
100
AcDb2dVertex
 10
110.8487016164585
 20
-125.4505646908596
 30
0.0
  0
VERTEX
  5
EB
330
DD
100
AcDbEntity
  8
_U+30EC_U+30A4_U+30E4_U+30FC 1
 62
   179
420
  2234388
370
    25
100
AcDbVertex
100
AcDb2dVertex
 10
110.8487016164585
 20
-124.4507924688874
 30
0.0
  0
VERTEX
  5
EC
330
DD
100
AcDbEntity
  8
_U+30EC_U+30A4_U+30E4_U+30FC 1
 62
   179
420
  2234388
370
    25
100
AcDbVertex
100
AcDb2dVertex
 10
105.8491703551182
 20
-124.4507924688874
 30
0.0
  0
VERTEX
  5
ED
330
DD
100
AcDbEntity
  8
_U+30EC_U+30A4_U+30E4_U+30FC 1
 62
   179
420
  2234388
370
    25
100
AcDbVertex
100
AcDb2dVertex
 10
105.5487800850041
 20
-124.6506058021706
 30
0.0
  0
VERTEX
  5
EE
330
DD
100
AcDbEntity
  8
_U+30EC_U+30A4_U+30E4_U+30FC 1
 62
   179
420
  2234388
370
    25
100
AcDbVertex
100
AcDb2dVertex
 10
105.2490600926506
 20
-124.4507924688874
 30
0.0
  0
VERTEX
  5
EF
330
DD
100
AcDbEntity
  8
_U+30EC_U+30A4_U+30E4_U+30FC 1
 62
   179
420
  2234388
370
    25
100
AcDbVertex
100
AcDb2dVertex
 10
71.84883887092674
 20
-124.4507924688874
 30
0.0
  0
SEQEND
  5
F1
330
DD
100
AcDbEntity
  8
_U+30EC_U+30A4_U+30E4_U+30FC 1
 62
   179
420
  2234388
370
    25
  0
HATCH
  5
F0
330
41
100
AcDbEntity
  8
_U+30EC_U+30A4_U+30E4_U+30FC 1
 62
     9
420
 13224394
100
AcDbHatch
 10
0.0
 20
0.0
 30
0.0
210
0.0
220
0.0
230
1.0
  2
SOLID
 70
     1
 71
     0
 91
        1
 92
        1
 93
       17
 72
     1
 10
71.84883887092674
 20
-124.4507924688874
 11
71.84883887092674
 21
-119.5399846923373
 72
     1
 10
71.84883887092674
 20
-119.5399846923373
 11
73.84905172706485
 21
-119.5399846923373
 72
     1
 10
73.84905172706485
 20
-119.5399846923373
 11
73.84905172706485
 21
-118.5400360814762
 72
     1
 10
73.84905172706485
 20
-118.5400360814762
 11
70.84906664895452
 21
-118.5400360814762
 72
     1
 10
70.84906664895452
 20
-118.5400360814762
 11
70.84906664895452
 21
-141.4945452424042
 72
     1
 10
70.84906664895452
 20
-141.4945452424042
 11
75.84930167603422
 21
-141.4945452424042
 72
     1
 10
75.84930167603422
 20
-141.4945452424042
 11
75.84930167603422
 21
-138.4945582987099
 72
     1
 10
75.84930167603422
 20
-138.4945582987099
 11
74.84917670154952
 21
-138.4945582987099
 72
     1
 10
74.84917670154952
 20
-138.4945582987099
 11
74.84917670154952
 21
-140.4947730204317
 72
     1
 10
74.84917670154952
 20
-140.4947730204317
 11
71.84883887092674
 21
-140.4947730204317
 72
     1
 10
71.84883887092674
 20
-140.4947730204317
 11
71.84883887092674
 21
-125.4505646908596
 72
     1
 10
71.84883887092674
 20
-125.4505646908596
 11
110.8487016164585
 21
-125.4505646908596
 72
     1
 10
110.8487016164585
 20
-125.4505646908596
 11
110.8487016164585
 21
-124.4507924688874
 72
     1
 10
110.8487016164585
 20
-124.4507924688874
 11
105.8491703551182
 21
-124.4507924688874
 72
     1
 10
105.8491703551182
 20
-124.4507924688874
 11
105.5487800850041
 21
-124.6506058021706
 72
     1
 10
105.5487800850041
 20
-124.6506058021706
 11
105.2490600926506
 21
-124.4507924688874
 72
     1
 10
105.2490600926506
 20
-124.4507924688874
 11
71.84883887092674
 21
-124.4507924688874
 97
        0
 75
     2
 76
     1
 98
        0
  0
ENDBLK
  5
44
330
41
100
AcDbEntity
  8
0
100
AcDbBlockEnd
  0
BLOCK
  5
55
330
53
100
AcDbEntity
  8
0
100
AcDbBlockBegin
  2
block 3
 70
     0
 10
0.0
 20
0.0
 30
0.0
  3
block 3
  1

  0
SPLINE
  5
57
330
53
100
AcDbEntity
  8
_U+30EC_U+30A4_U+30E4_U+30FC 1
370
     0
100
AcDbSpline
210
0.0
220
0.0
230
1.0
 70
    11
 71
     3
 72
    53
 73
    49
 74
     0
 42
0.0000000001
 43
0.0000000001
 12
1.0
 22
0.0
 32
0.0
 13
1.0
 23
0.0
 33
0.0
 40
0.0
 40
0.0
 40
0.0
 40
0.0
 40
1.0
 40
1.0
 40
1.0
 40
2.0
 40
2.0
 40
2.0
 40
3.0
 40
3.0
 40
3.0
 40
4.0
 40
4.0
 40
4.0
 40
5.0
 40
5.0
 40
5.0
 40
6.0
 40
6.0
 40
6.0
 40
7.0
 40
7.0
 40
7.0
 40
8.0
 40
8.0
 40
8.0
 40
9.0
 40
9.0
 40
9.0
 40
10.0
 40
10.0
 40
10.0
 40
11.0
 40
11.0
 40
11.0
 40
12.0
 40
12.0
 40
12.0
 40
13.0
 40
13.0
 40
13.0
 40
14.0
 40
14.0
 40
14.0
 40
15.0
 40
15.0
 40
15.0
 40
16.0
 40
16.0
 40
16.0
 40
16.0
 10
73.25340981241581
 20
-144.9492919559502
 30
0.0
 10
73.17520614490064
 20
-144.9492919559502
 30
0.0
 10
73.07357582808578
 20
-144.9324109880725
 30
0.0
 10
72.9719455112709
 20
-144.8690212311439
 30
0.0
 10
72.79865720836284
 20
-144.7591226851644
 30
0.0
 10
72.77729761635429
 20
-144.6278645471764
 30
0.0
 10
72.75834959118542
 20
-144.5200330584881
 30
0.0
 10
72.75834959118542
 20
-144.5200330584881
 30
0.0
 10
72.98055824998403
 20
-144.5200330584881
 30
0.0
 10
72.98055824998403
 20
-144.5200330584881
 30
0.0
 10
73.0353352681995
 20
-144.718815067987
 30
0.0
 10
73.16245929160522
 20
-144.7484428891601
 30
0.0
 10
73.25547686970697
 20
-144.7484428891601
 30
0.0
 10
73.39500323685958
 20
-144.7484428891601
 30
0.0
 10
73.54727645730763
 20
-144.6488796296364
 30
0.0
 10
73.54727645730763
 20
-144.416335684382
 30
0.0
 10
73.54727645730763
 20
-144.160365089828
 30
0.0
 10
73.36744247297759
 20
-144.0904296514774
 30
0.0
 10
73.24686413099384
 20
-144.0904296514774
 30
0.0
 10
73.21516925252955
 20
-144.0904296514774
 30
0.0
 10
73.07357582808578
 20
-144.0904296514774
 30
0.0
 10
72.98469236456633
 20
-144.2196207321743
 30
0.0
 10
72.98469236456633
 20
-144.2196207321743
 30
0.0
 10
72.80899249481858
 20
-144.2006727070054
 30
0.0
 10
72.80899249481858
 20
-144.2006727070054
 30
0.0
 10
72.80899249481858
 20
-144.2006727070054
 30
0.0
 10
72.92957083680233
 20
-143.3542127462795
 30
0.0
 10
72.92957083680233
 20
-143.3542127462795
 30
0.0
 10
72.92957083680233
 20
-143.3542127462795
 30
0.0
 10
73.7081624164688
 20
-143.3542127462795
 30
0.0
 10
73.7081624164688
 20
-143.3542127462795
 30
0.0
 10
73.7081624164688
 20
-143.3542127462795
 30
0.0
 10
73.7081624164688
 20
-143.5488606411961
 30
0.0
 10
73.7081624164688
 20
-143.5488606411961
 30
0.0
 10
73.7081624164688
 20
-143.5488606411961
 30
0.0
 10
73.09252385325465
 20
-143.5488606411961
 30
0.0
 10
73.09252385325465
 20
-143.5488606411961
 30
0.0
 10
73.09252385325465
 20
-143.5488606411961
 30
0.0
 10
73.0270670390349
 20
-143.9719183667848
 30
0.0
 10
73.0270670390349
 20
-143.9719183667848
 30
0.0
 10
73.08838973867235
 20
-143.9381564310294
 30
0.0
 10
73.17072752076982
 20
-143.8978488138519
 30
0.0
 10
73.28923880546242
 20
-143.8978488138519
 30
0.0
 10
73.54314234272533
 20
-143.8978488138519
 30
0.0
 10
73.78016491211052
 20
-144.084228479604
 30
0.0
 10
73.78016491211052
 20
-144.3973876592132
 30
0.0
 10
73.78016491211052
 20
-144.7146809534047
 30
0.0
 10
73.55588919602076
 20
-144.9492919559502
 30
0.0
 10
73.25340981241581
 20
-144.9492919559502
 30
0.0
  0
HATCH
  5
58
330
53
100
AcDbEntity
  8
_U+30EC_U+30A4_U+30E4_U+30FC 1
 62
   179
420
  2234388
100
AcDbHatch
 10
0.0
 20
0.0
 30
0.0
210
0.0
220
0.0
230
1.0
  2
SOLID
 70
     1
 71
     0
 91
        1
 92
        1
 93
        1
 72
     4
 94
        3
 73
     0
 74
     1
 95
       53
 96
       49
 40
0.0
 40
0.0
 40
0.0
 40
0.0
 40
1.0
 40
1.0
 40
1.0
 40
2.0
 40
2.0
 40
2.0
 40
3.0
 40
3.0
 40
3.0
 40
4.0
 40
4.0
 40
4.0
 40
5.0
 40
5.0
 40
5.0
 40
6.0
 40
6.0
 40
6.0
 40
7.0
 40
7.0
 40
7.0
 40
8.0
 40
8.0
 40
8.0
 40
9.0
 40
9.0
 40
9.0
 40
10.0
 40
10.0
 40
10.0
 40
11.0
 40
11.0
 40
11.0
 40
12.0
 40
12.0
 40
12.0
 40
13.0
 40
13.0
 40
13.0
 40
14.0
 40
14.0
 40
14.0
 40
15.0
 40
15.0
 40
15.0
 40
16.0
 40
16.0
 40
16.0
 40
16.0
 10
73.25340981241581
 20
-144.9492919559502
 10
73.17520614490064
 20
-144.9492919559502
 10
73.07357582808578
 20
-144.9324109880725
 10
72.9719455112709
 20
-144.8690212311439
 10
72.79865720836284
 20
-144.7591226851644
 10
72.77729761635429
 20
-144.6278645471764
 10
72.75834959118542
 20
-144.5200330584881
 10
72.75834959118542
 20
-144.5200330584881
 10
72.98055824998403
 20
-144.5200330584881
 10
72.98055824998403
 20
-144.5200330584881
 10
73.0353352681995
 20
-144.718815067987
 10
73.16245929160522
 20
-144.7484428891601
 10
73.25547686970697
 20
-144.7484428891601
 10
73.39500323685958
 20
-144.7484428891601
 10
73.54727645730763
 20
-144.6488796296364
 10
73.54727645730763
 20
-144.416335684382
 10
73.54727645730763
 20
-144.160365089828
 10
73.36744247297759
 20
-144.0904296514774
 10
73.24686413099384
 20
-144.0904296514774
 10
73.21516925252955
 20
-144.0904296514774
 10
73.07357582808578
 20
-144.0904296514774
 10
72.98469236456633
 20
-144.2196207321743
 10
72.98469236456633
 20
-144.2196207321743
 10
72.80899249481858
 20
-144.2006727070054
 10
72.80899249481858
 20
-144.2006727070054
 10
72.80899249481858
 20
-144.2006727070054
 10
72.92957083680233
 20
-143.3542127462795
 10
72.92957083680233
 20
-143.3542127462795
 10
72.92957083680233
 20
-143.3542127462795
 10
73.7081624164688
 20
-143.3542127462795
 10
73.7081624164688
 20
-143.3542127462795
 10
73.7081624164688
 20
-143.3542127462795
 10
73.7081624164688
 20
-143.5488606411961
 10
73.7081624164688
 20
-143.5488606411961
 10
73.7081624164688
 20
-143.5488606411961
 10
73.09252385325465
 20
-143.5488606411961
 10
73.09252385325465
 20
-143.5488606411961
 10
73.09252385325465
 20
-143.5488606411961
 10
73.0270670390349
 20
-143.9719183667848
 10
73.0270670390349
 20
-143.9719183667848
 10
73.08838973867235
 20
-143.9381564310294
 10
73.17072752076982
 20
-143.8978488138519
 10
73.28923880546242
 20
-143.8978488138519
 10
73.54314234272533
 20
-143.8978488138519
 10
73.78016491211052
 20
-144.084228479604
 10
73.78016491211052
 20
-144.3973876592132
 10
73.78016491211052
 20
-144.7146809534047
 10
73.55588919602076
 20
-144.9492919559502
 10
73.25340981241581
 20
-144.9492919559502
 97
        0
 97
        0
 75
     2
 76
     1
 98
        0
  0
ENDBLK
  5
56
330
53
100
AcDbEntity
  8
0
100
AcDbBlockEnd
  0
BLOCK
  5
77
330
75
100
AcDbEntity
  8
0
100
AcDbBlockBegin
  2
block 4
 70
     0
 10
0.0
 20
0.0
 30
0.0
  3
block 4
  1

  0
SPLINE
  5
79
330
75
100
AcDbEntity
  8
_U+30EC_U+30A4_U+30E4_U+30FC 1
370
     0
100
AcDbSpline
210
0.0
220
0.0
230
1.0
 70
    11
 71
     3
 72
    26
 73
    22
 74
     0
 42
0.0000000001
 43
0.0000000001
 12
1.0
 22
0.0
 32
0.0
 13
1.0
 23
0.0
 33
0.0
 40
0.0
 40
0.0
 40
0.0
 40
0.0
 40
1.0
 40
1.0
 40
1.0
 40
2.0
 40
2.0
 40
2.0
 40
3.0
 40
3.0
 40
3.0
 40
4.0
 40
4.0
 40
4.0
 40
5.0
 40
5.0
 40
5.0
 40
6.0
 40
6.0
 40
6.0
 40
7.0
 40
7.0
 40
7.0
 40
7.0
 10
115.8661403790196
 20
-132.6065483609456
 30
0.0
 10
115.8661403790196
 20
-132.6065483609456
 30
0.0
 10
114.761987275997
 20
-132.6065483609456
 30
0.0
 10
114.761987275997
 20
-132.6065483609456
 30
0.0
 10
114.761987275997
 20
-132.6065483609456
 30
0.0
 10
114.761987275997
 20
-132.9365885084325
 30
0.0
 10
114.761987275997
 20
-132.9365885084325
 30
0.0
 10
114.761987275997
 20
-132.9365885084325
 30
0.0
 10
114.6138481701313
 20
-132.9365885084325
 30
0.0
 10
114.6138481701313
 20
-132.9365885084325
 30
0.0
 10
114.5990342595447
 20
-132.6044813036544
 30
0.0
 10
114.4360812430924
 20
-132.5579725146036
 30
0.0
 10
114.3217040729821
 20
-132.5283446934304
 30
0.0
 10
114.3217040729821
 20
-132.5283446934304
 30
0.0
 10
114.3217040729821
 20
-132.3822726448558
 30
0.0
 10
114.3217040729821
 20
-132.3822726448558
 30
0.0
 10
114.3217040729821
 20
-132.3822726448558
 30
0.0
 10
115.8661403790196
 20
-132.3822726448558
 30
0.0
 10
115.8661403790196
 20
-132.3822726448558
 30
0.0
 10
115.8661403790196
 20
-132.3822726448558
 30
0.0
 10
115.8661403790196
 20
-132.6065483609456
 30
0.0
 10
115.8661403790196
 20
-132.6065483609456
 30
0.0
  0
HATCH
  5
7A
330
75
100
AcDbEntity
  8
_U+30EC_U+30A4_U+30E4_U+30FC 1
 62
   179
420
  2234388
100
AcDbHatch
 10
0.0
 20
0.0
 30
0.0
210
0.0
220
0.0
230
1.0
  2
SOLID
 70
     1
 71
     0
 91
        1
 92
        1
 93
        1
 72
     4
 94
        3
 73
     0
 74
     1
 95
       26
 96
       22
 40
0.0
 40
0.0
 40
0.0
 40
0.0
 40
1.0
 40
1.0
 40
1.0
 40
2.0
 40
2.0
 40
2.0
 40
3.0
 40
3.0
 40
3.0
 40
4.0
 40
4.0
 40
4.0
 40
5.0
 40
5.0
 40
5.0
 40
6.0
 40
6.0
 40
6.0
 40
7.0
 40
7.0
 40
7.0
 40
7.0
 10
115.8661403790196
 20
-132.6065483609456
 10
115.8661403790196
 20
-132.6065483609456
 10
114.761987275997
 20
-132.6065483609456
 10
114.761987275997
 20
-132.6065483609456
 10
114.761987275997
 20
-132.6065483609456
 10
114.761987275997
 20
-132.9365885084325
 10
114.761987275997
 20
-132.9365885084325
 10
114.761987275997
 20
-132.9365885084325
 10
114.6138481701313
 20
-132.9365885084325
 10
114.6138481701313
 20
-132.9365885084325
 10
114.5990342595447
 20
-132.6044813036544
 10
114.4360812430924
 20
-132.5579725146036
 10
114.3217040729821
 20
-132.5283446934304
 10
114.3217040729821
 20
-132.5283446934304
 10
114.3217040729821
 20
-132.3822726448558
 10
114.3217040729821
 20
-132.3822726448558
 10
114.3217040729821
 20
-132.3822726448558
 10
115.8661403790196
 20
-132.3822726448558
 10
115.8661403790196
 20
-132.3822726448558
 10
115.8661403790196
 20
-132.3822726448558
 10
115.8661403790196
 20
-132.6065483609456
 10
115.8661403790196
 20
-132.6065483609456
 97
        0
 97
        0
 75
     2
 76
     1
 98
        0
  0
SPLINE
  5
7B
330
75
100
AcDbEntity
  8
_U+30EC_U+30A4_U+30E4_U+30FC 1
370
     0
100
AcDbSpline
210
0.0
220
0.0
230
1.0
 70
    11
 71
     3
 72
    62
 73
    58
 74
     0
 42
0.0000000001
 43
0.0000000001
 12
1.0
 22
0.0
 32
0.0
 13
1.0
 23
0.0
 33
0.0
 40
0.0
 40
0.0
 40
0.0
 40
0.0
 40
1.0
 40
1.0
 40
1.0
 40
2.0
 40
2.0
 40
2.0
 40
3.0
 40
3.0
 40
3.0
 40
4.0
 40
4.0
 40
4.0
 40
5.0
 40
5.0
 40
5.0
 40
6.0
 40
6.0
 40
6.0
 40
7.0
 40
7.0
 40
7.0
 40
8.0
 40
8.0
 40
8.0
 40
9.0
 40
9.0
 40
9.0
 40
10.0
 40
10.0
 40
10.0
 40
11.0
 40
11.0
 40
11.0
 40
12.0
 40
12.0
 40
12.0
 40
13.0
 40
13.0
 40
13.0
 40
14.0
 40
14.0
 40
14.0
 40
15.0
 40
15.0
 40
15.0
 40
16.0
 40
16.0
 40
16.0
 40
17.0
 40
17.0
 40
17.0
 40
18.0
 40
18.0
 40
18.0
 40
19.0
 40
19.0
 40
19.0
 40
19.0
 10
115.9167832826528
 20
-131.3893961260068
 30
0.0
 10
115.9167832826528
 20
-131.4848252709482
 30
0.0
 10
115.8957682001927
 20
-131.702555305616
 30
0.0
 10
115.7097330439892
 20
-131.8276122717306
 30
0.0
 10
115.5974229311701
 20
-131.9016818246635
 30
0.0
 10
115.4982041811949
 20
-131.9058159392458
 30
0.0
 10
115.4134548322578
 20
-131.9099500538281
 30
0.0
 10
115.4134548322578
 20
-131.9099500538281
 30
0.0
 10
115.4134548322578
 20
-131.6898084523206
 30
0.0
 10
115.4134548322578
 20
-131.6898084523206
 30
0.0
 10
115.4875243851906
 20
-131.6877413950295
 30
0.0
 10
115.7221353877361
 20
-131.6774061085737
 30
0.0
 10
115.7221353877361
 20
-131.3938747501377
 30
0.0
 10
115.7221353877361
 20
-131.2564154402762
 30
0.0
 10
115.6525444589341
 20
-131.1037977102796
 30
0.0
 10
115.424134628262
 20
-131.1037977102796
 30
0.0
 10
115.3076904008606
 20
-131.1037977102796
 30
0.0
 10
115.2591145545186
 20
-131.1420382701659
 30
0.0
 10
115.2274196760543
 20
-131.1737331486302
 30
0.0
 10
115.1533501231214
 20
-131.247802701563
 30
0.0
 10
115.140603269826
 20
-131.3642469289645
 30
0.0
 10
115.140603269826
 20
-131.41902394718
 30
0.0
 10
115.140603269826
 20
-131.4383164818974
 30
0.0
 10
115.1426703271171
 20
-131.474145474944
 30
0.0
 10
115.1468044416994
 20
-131.501706238826
 30
0.0
 10
115.1468044416994
 20
-131.501706238826
 30
0.0
 10
114.9521565467828
 20
-131.501706238826
 30
0.0
 10
114.9521565467828
 20
-131.501706238826
 30
0.0
 10
114.9587022282048
 20
-131.4634656789397
 30
0.0
 10
114.9607692854959
 20
-131.4214355140196
 30
0.0
 10
114.9607692854959
 20
-131.4148898325977
 30
0.0
 10
114.9607692854959
 20
-131.3494330183779
 30
0.0
 10
114.9394096934874
 20
-131.150651008879
 30
0.0
 10
114.7027316336507
 20
-131.150651008879
 30
0.0
 10
114.5249647066118
 20
-131.150651008879
 30
0.0
 10
114.4698431788478
 20
-131.2815646373185
 30
0.0
 10
114.4698431788478
 20
-131.3918076928465
 30
0.0
 10
114.4698431788478
 20
-131.6560465165652
 30
0.0
 10
114.7027316336507
 20
-131.6646592552783
 30
0.0
 10
114.7743896197439
 20
-131.6687933698606
 30
0.0
 10
114.7743896197439
 20
-131.6687933698606
 30
0.0
 10
114.7743896197439
 20
-131.8720540034903
 30
0.0
 10
114.7743896197439
 20
-131.8720540034903
 30
0.0
 10
114.6496771631779
 20
-131.8634412647772
 30
0.0
 10
114.2731282266401
 20
-131.8358805008952
 30
0.0
 10
114.2731282266401
 20
-131.3790608395511
 30
0.0
 10
114.2731282266401
 20
-131.1547851234613
 30
0.0
 10
114.4002522500458
 20
-130.9136284394938
 30
0.0
 10
114.6961859522287
 20
-130.9136284394938
 30
0.0
 10
114.8825656179808
 20
-130.9136284394938
 30
0.0
 10
114.9649034000782
 20
-131.0087130748867
 30
0.0
 10
115.0262260997157
 20
-131.1082763344104
 30
0.0
 10
115.0537868635977
 20
-131.046953634773
 30
0.0
 10
115.134057588404
 20
-130.8650525931518
 30
0.0
 10
115.4113877749666
 20
-130.8650525931518
 30
0.0
 10
115.7496961516181
 20
-130.8650525931518
 30
0.0
 10
115.9167832826528
 20
-131.1124104489927
 30
0.0
 10
115.9167832826528
 20
-131.3893961260068
 30
0.0
  0
HATCH
  5
7C
330
75
100
AcDbEntity
  8
_U+30EC_U+30A4_U+30E4_U+30FC 1
 62
   179
420
  2234388
100
AcDbHatch
 10
0.0
 20
0.0
 30
0.0
210
0.0
220
0.0
230
1.0
  2
SOLID
 70
     1
 71
     0
 91
        1
 92
        1
 93
        1
 72
     4
 94
        3
 73
     0
 74
     1
 95
       62
 96
       58
 40
0.0
 40
0.0
 40
0.0
 40
0.0
 40
1.0
 40
1.0
 40
1.0
 40
2.0
 40
2.0
 40
2.0
 40
3.0
 40
3.0
 40
3.0
 40
4.0
 40
4.0
 40
4.0
 40
5.0
 40
5.0
 40
5.0
 40
6.0
 40
6.0
 40
6.0
 40
7.0
 40
7.0
 40
7.0
 40
8.0
 40
8.0
 40
8.0
 40
9.0
 40
9.0
 40
9.0
 40
10.0
 40
10.0
 40
10.0
 40
11.0
 40
11.0
 40
11.0
 40
12.0
 40
12.0
 40
12.0
 40
13.0
 40
13.0
 40
13.0
 40
14.0
 40
14.0
 40
14.0
 40
15.0
 40
15.0
 40
15.0
 40
16.0
 40
16.0
 40
16.0
 40
17.0
 40
17.0
 40
17.0
 40
18.0
 40
18.0
 40
18.0
 40
19.0
 40
19.0
 40
19.0
 40
19.0
 10
115.9167832826528
 20
-131.3893961260068
 10
115.9167832826528
 20
-131.4848252709482
 10
115.8957682001927
 20
-131.702555305616
 10
115.7097330439892
 20
-131.8276122717306
 10
115.5974229311701
 20
-131.9016818246635
 10
115.4982041811949
 20
-131.9058159392458
 10
115.4134548322578
 20
-131.9099500538281
 10
115.4134548322578
 20
-131.9099500538281
 10
115.4134548322578
 20
-131.6898084523206
 10
115.4134548322578
 20
-131.6898084523206
 10
115.4875243851906
 20
-131.6877413950295
 10
115.7221353877361
 20
-131.6774061085737
 10
115.7221353877361
 20
-131.3938747501377
 10
115.7221353877361
 20
-131.2564154402762
 10
115.6525444589341
 20
-131.1037977102796
 10
115.424134628262
 20
-131.1037977102796
 10
115.3076904008606
 20
-131.1037977102796
 10
115.2591145545186
 20
-131.1420382701659
 10
115.2274196760543
 20
-131.1737331486302
 10
115.1533501231214
 20
-131.247802701563
 10
115.140603269826
 20
-131.3642469289645
 10
115.140603269826
 20
-131.41902394718
 10
115.140603269826
 20
-131.4383164818974
 10
115.1426703271171
 20
-131.474145474944
 10
115.1468044416994
 20
-131.501706238826
 10
115.1468044416994
 20
-131.501706238826
 10
114.9521565467828
 20
-131.501706238826
 10
114.9521565467828
 20
-131.501706238826
 10
114.9587022282048
 20
-131.4634656789397
 10
114.9607692854959
 20
-131.4214355140196
 10
114.9607692854959
 20
-131.4148898325977
 10
114.9607692854959
 20
-131.3494330183779
 10
114.9394096934874
 20
-131.150651008879
 10
114.7027316336507
 20
-131.150651008879
 10
114.5249647066118
 20
-131.150651008879
 10
114.4698431788478
 20
-131.2815646373185
 10
114.4698431788478
 20
-131.3918076928465
 10
114.4698431788478
 20
-131.6560465165652
 10
114.7027316336507
 20
-131.6646592552783
 10
114.7743896197439
 20
-131.6687933698606
 10
114.7743896197439
 20
-131.6687933698606
 10
114.7743896197439
 20
-131.8720540034903
 10
114.7743896197439
 20
-131.8720540034903
 10
114.6496771631779
 20
-131.8634412647772
 10
114.2731282266401
 20
-131.8358805008952
 10
114.2731282266401
 20
-131.3790608395511
 10
114.2731282266401
 20
-131.1547851234613
 10
114.4002522500458
 20
-130.9136284394938
 10
114.6961859522287
 20
-130.9136284394938
 10
114.8825656179808
 20
-130.9136284394938
 10
114.9649034000782
 20
-131.0087130748867
 10
115.0262260997157
 20
-131.1082763344104
 10
115.0537868635977
 20
-131.046953634773
 10
115.134057588404
 20
-130.8650525931518
 10
115.4113877749666
 20
-130.8650525931518
 10
115.7496961516181
 20
-130.8650525931518
 10
115.9167832826528
 20
-131.1124104489927
 10
115.9167832826528
 20
-131.3893961260068
 97
        0
 97
        0
 75
     2
 76
     1
 98
        0
  0
ENDBLK
  5
78
330
75
100
AcDbEntity
  8
0
100
AcDbBlockEnd
  0
BLOCK
  5
7F
330
7D
100
AcDbEntity
  8
0
100
AcDbBlockBegin
  2
block 5
 70
     0
 10
0.0
 20
0.0
 30
0.0
  3
block 5
  1

  0
SPLINE
  5
81
330
7D
100
AcDbEntity
  8
_U+30EC_U+30A4_U+30E4_U+30FC 1
370
     0
100
AcDbSpline
210
0.0
220
0.0
230
1.0
 70
    11
 71
     3
 72
    26
 73
    22
 74
     0
 42
0.0000000001
 43
0.0000000001
 12
1.0
 22
0.0
 32
0.0
 13
1.0
 23
0.0
 33
0.0
 40
0.0
 40
0.0
 40
0.0
 40
0.0
 40
1.0
 40
1.0
 40
1.0
 40
2.0
 40
2.0
 40
2.0
 40
3.0
 40
3.0
 40
3.0
 40
4.0
 40
4.0
 40
4.0
 40
5.0
 40
5.0
 40
5.0
 40
6.0
 40
6.0
 40
6.0
 40
7.0
 40
7.0
 40
7.0
 40
7.0
 10
115.8661403790196
 20
-122.3608343878126
 30
0.0
 10
115.8661403790196
 20
-122.3608343878126
 30
0.0
 10
114.761987275997
 20
-122.3608343878126
 30
0.0
 10
114.761987275997
 20
-122.3608343878126
 30
0.0
 10
114.761987275997
 20
-122.3608343878126
 30
0.0
 10
114.761987275997
 20
-122.6908745352995
 30
0.0
 10
114.761987275997
 20
-122.6908745352995
 30
0.0
 10
114.761987275997
 20
-122.6908745352995
 30
0.0
 10
114.6138481701313
 20
-122.6908745352995
 30
0.0
 10
114.6138481701313
 20
-122.6908745352995
 30
0.0
 10
114.5990342595447
 20
-122.3587673305214
 30
0.0
 10
114.4360812430924
 20
-122.3122585414706
 30
0.0
 10
114.3217040729821
 20
-122.2826307202974
 30
0.0
 10
114.3217040729821
 20
-122.2826307202974
 30
0.0
 10
114.3217040729821
 20
-122.1365586717228
 30
0.0
 10
114.3217040729821
 20
-122.1365586717228
 30
0.0
 10
114.3217040729821
 20
-122.1365586717228
 30
0.0
 10
115.8661403790196
 20
-122.1365586717228
 30
0.0
 10
115.8661403790196
 20
-122.1365586717228
 30
0.0
 10
115.8661403790196
 20
-122.1365586717228
 30
0.0
 10
115.8661403790196
 20
-122.3608343878126
 30
0.0
 10
115.8661403790196
 20
-122.3608343878126
 30
0.0
  0
HATCH
  5
82
330
7D
100
AcDbEntity
  8
_U+30EC_U+30A4_U+30E4_U+30FC 1
 62
   179
420
  2234388
100
AcDbHatch
 10
0.0
 20
0.0
 30
0.0
210
0.0
220
0.0
230
1.0
  2
SOLID
 70
     1
 71
     0
 91
        1
 92
        1
 93
        1
 72
     4
 94
        3
 73
     0
 74
     1
 95
       26
 96
       22
 40
0.0
 40
0.0
 40
0.0
 40
0.0
 40
1.0
 40
1.0
 40
1.0
 40
2.0
 40
2.0
 40
2.0
 40
3.0
 40
3.0
 40
3.0
 40
4.0
 40
4.0
 40
4.0
 40
5.0
 40
5.0
 40
5.0
 40
6.0
 40
6.0
 40
6.0
 40
7.0
 40
7.0
 40
7.0
 40
7.0
 10
115.8661403790196
 20
-122.3608343878126
 10
115.8661403790196
 20
-122.3608343878126
 10
114.761987275997
 20
-122.3608343878126
 10
114.761987275997
 20
-122.3608343878126
 10
114.761987275997
 20
-122.3608343878126
 10
114.761987275997
 20
-122.6908745352995
 10
114.761987275997
 20
-122.6908745352995
 10
114.761987275997
 20
-122.6908745352995
 10
114.6138481701313
 20
-122.6908745352995
 10
114.6138481701313
 20
-122.6908745352995
 10
114.5990342595447
 20
-122.3587673305214
 10
114.4360812430924
 20
-122.3122585414706
 10
114.3217040729821
 20
-122.2826307202974
 10
114.3217040729821
 20
-122.2826307202974
 10
114.3217040729821
 20
-122.1365586717228
 10
114.3217040729821
 20
-122.1365586717228
 10
114.3217040729821
 20
-122.1365586717228
 10
115.8661403790196
 20
-122.1365586717228
 10
115.8661403790196
 20
-122.1365586717228
 10
115.8661403790196
 20
-122.1365586717228
 10
115.8661403790196
 20
-122.3608343878126
 10
115.8661403790196
 20
-122.3608343878126
 97
        0
 97
        0
 75
     2
 76
     1
 98
        0
  0
ENDBLK
  5
80
330
7D
100
AcDbEntity
  8
0
100
AcDbBlockEnd
  0
BLOCK
  5
85
330
83
100
AcDbEntity
  8
0
100
AcDbBlockBegin
  2
block 6
 70
     0
 10
0.0
 20
0.0
 30
0.0
  3
block 6
  1

  0
SPLINE
  5
87
330
83
100
AcDbEntity
  8
_U+30EC_U+30A4_U+30E4_U+30FC 1
370
     0
100
AcDbSpline
210
0.0
220
0.0
230
1.0
 70
    11
 71
     3
 72
    62
 73
    58
 74
     0
 42
0.0000000001
 43
0.0000000001
 12
1.0
 22
0.0
 32
0.0
 13
1.0
 23
0.0
 33
0.0
 40
0.0
 40
0.0
 40
0.0
 40
0.0
 40
1.0
 40
1.0
 40
1.0
 40
2.0
 40
2.0
 40
2.0
 40
3.0
 40
3.0
 40
3.0
 40
4.0
 40
4.0
 40
4.0
 40
5.0
 40
5.0
 40
5.0
 40
6.0
 40
6.0
 40
6.0
 40
7.0
 40
7.0
 40
7.0
 40
8.0
 40
8.0
 40
8.0
 40
9.0
 40
9.0
 40
9.0
 40
10.0
 40
10.0
 40
10.0
 40
11.0
 40
11.0
 40
11.0
 40
12.0
 40
12.0
 40
12.0
 40
13.0
 40
13.0
 40
13.0
 40
14.0
 40
14.0
 40
14.0
 40
15.0
 40
15.0
 40
15.0
 40
16.0
 40
16.0
 40
16.0
 40
17.0
 40
17.0
 40
17.0
 40
18.0
 40
18.0
 40
18.0
 40
19.0
 40
19.0
 40
19.0
 40
19.0
 10
115.9167832826528
 20
-139.9725070179583
 30
0.0
 10
115.9167832826528
 20
-140.0679361628997
 30
0.0
 10
115.8957682001927
 20
-140.2856661975675
 30
0.0
 10
115.7097330439892
 20
-140.410723163682
 30
0.0
 10
115.5974229311701
 20
-140.4847927166149
 30
0.0
 10
115.4982041811949
 20
-140.4889268311972
 30
0.0
 10
115.4134548322578
 20
-140.4930609457795
 30
0.0
 10
115.4134548322578
 20
-140.4930609457795
 30
0.0
 10
115.4134548322578
 20
-140.2729193442721
 30
0.0
 10
115.4134548322578
 20
-140.2729193442721
 30
0.0
 10
115.4875243851906
 20
-140.2708522869809
 30
0.0
 10
115.7221353877361
 20
-140.2605170005251
 30
0.0
 10
115.7221353877361
 20
-139.9769856420891
 30
0.0
 10
115.7221353877361
 20
-139.8395263322276
 30
0.0
 10
115.6525444589341
 20
-139.6869086022311
 30
0.0
 10
115.424134628262
 20
-139.6869086022311
 30
0.0
 10
115.3076904008606
 20
-139.6869086022311
 30
0.0
 10
115.2591145545186
 20
-139.7251491621173
 30
0.0
 10
115.2274196760543
 20
-139.7568440405816
 30
0.0
 10
115.1533501231214
 20
-139.8309135935145
 30
0.0
 10
115.140603269826
 20
-139.947357820916
 30
0.0
 10
115.140603269826
 20
-140.0021348391314
 30
0.0
 10
115.140603269826
 20
-140.0214273738488
 30
0.0
 10
115.1426703271171
 20
-140.0572563668954
 30
0.0
 10
115.1468044416994
 20
-140.0848171307774
 30
0.0
 10
115.1468044416994
 20
-140.0848171307774
 30
0.0
 10
114.9521565467828
 20
-140.0848171307774
 30
0.0
 10
114.9521565467828
 20
-140.0848171307774
 30
0.0
 10
114.9587022282048
 20
-140.0465765708911
 30
0.0
 10
114.9607692854959
 20
-140.0045464059711
 30
0.0
 10
114.9607692854959
 20
-139.9980007245491
 30
0.0
 10
114.9607692854959
 20
-139.9325439103294
 30
0.0
 10
114.9394096934874
 20
-139.7337619008304
 30
0.0
 10
114.7027316336507
 20
-139.7337619008304
 30
0.0
 10
114.5249647066118
 20
-139.7337619008304
 30
0.0
 10
114.4698431788478
 20
-139.86467552927
 30
0.0
 10
114.4698431788478
 20
-139.9749185847979
 30
0.0
 10
114.4698431788478
 20
-140.2391574085166
 30
0.0
 10
114.7027316336507
 20
-140.2477701472297
 30
0.0
 10
114.7743896197439
 20
-140.251904261812
 30
0.0
 10
114.7743896197439
 20
-140.251904261812
 30
0.0
 10
114.7743896197439
 20
-140.4551648954418
 30
0.0
 10
114.7743896197439
 20
-140.4551648954418
 30
0.0
 10
114.6496771631779
 20
-140.4465521567286
 30
0.0
 10
114.2731282266401
 20
-140.4189913928466
 30
0.0
 10
114.2731282266401
 20
-139.9621717315025
 30
0.0
 10
114.2731282266401
 20
-139.7378960154128
 30
0.0
 10
114.4002522500458
 20
-139.4967393314453
 30
0.0
 10
114.6961859522287
 20
-139.4967393314453
 30
0.0
 10
114.8825656179808
 20
-139.4967393314453
 30
0.0
 10
114.9649034000782
 20
-139.5918239668381
 30
0.0
 10
115.0262260997157
 20
-139.6913872263619
 30
0.0
 10
115.0537868635977
 20
-139.6300645267244
 30
0.0
 10
115.134057588404
 20
-139.4481634851032
 30
0.0
 10
115.4113877749666
 20
-139.4481634851032
 30
0.0
 10
115.7496961516181
 20
-139.4481634851032
 30
0.0
 10
115.9167832826528
 20
-139.6955213409442
 30
0.0
 10
115.9167832826528
 20
-139.9725070179583
 30
0.0
  0
HATCH
  5
88
330
83
100
AcDbEntity
  8
_U+30EC_U+30A4_U+30E4_U+30FC 1
 62
   179
420
  2234388
100
AcDbHatch
 10
0.0
 20
0.0
 30
0.0
210
0.0
220
0.0
230
1.0
  2
SOLID
 70
     1
 71
     0
 91
        1
 92
        1
 93
        1
 72
     4
 94
        3
 73
     0
 74
     1
 95
       62
 96
       58
 40
0.0
 40
0.0
 40
0.0
 40
0.0
 40
1.0
 40
1.0
 40
1.0
 40
2.0
 40
2.0
 40
2.0
 40
3.0
 40
3.0
 40
3.0
 40
4.0
 40
4.0
 40
4.0
 40
5.0
 40
5.0
 40
5.0
 40
6.0
 40
6.0
 40
6.0
 40
7.0
 40
7.0
 40
7.0
 40
8.0
 40
8.0
 40
8.0
 40
9.0
 40
9.0
 40
9.0
 40
10.0
 40
10.0
 40
10.0
 40
11.0
 40
11.0
 40
11.0
 40
12.0
 40
12.0
 40
12.0
 40
13.0
 40
13.0
 40
13.0
 40
14.0
 40
14.0
 40
14.0
 40
15.0
 40
15.0
 40
15.0
 40
16.0
 40
16.0
 40
16.0
 40
17.0
 40
17.0
 40
17.0
 40
18.0
 40
18.0
 40
18.0
 40
19.0
 40
19.0
 40
19.0
 40
19.0
 10
115.9167832826528
 20
-139.9725070179583
 10
115.9167832826528
 20
-140.0679361628997
 10
115.8957682001927
 20
-140.2856661975675
 10
115.7097330439892
 20
-140.410723163682
 10
115.5974229311701
 20
-140.4847927166149
 10
115.4982041811949
 20
-140.4889268311972
 10
115.4134548322578
 20
-140.4930609457795
 10
115.4134548322578
 20
-140.4930609457795
 10
115.4134548322578
 20
-140.2729193442721
 10
115.4134548322578
 20
-140.2729193442721
 10
115.4875243851906
 20
-140.2708522869809
 10
115.7221353877361
 20
-140.2605170005251
 10
115.7221353877361
 20
-139.9769856420891
 10
115.7221353877361
 20
-139.8395263322276
 10
115.6525444589341
 20
-139.6869086022311
 10
115.424134628262
 20
-139.6869086022311
 10
115.3076904008606
 20
-139.6869086022311
 10
115.2591145545186
 20
-139.7251491621173
 10
115.2274196760543
 20
-139.7568440405816
 10
115.1533501231214
 20
-139.8309135935145
 10
115.140603269826
 20
-139.947357820916
 10
115.140603269826
 20
-140.0021348391314
 10
115.140603269826
 20
-140.0214273738488
 10
115.1426703271171
 20
-140.0572563668954
 10
115.1468044416994
 20
-140.0848171307774
 10
115.1468044416994
 20
-140.0848171307774
 10
114.9521565467828
 20
-140.0848171307774
 10
114.9521565467828
 20
-140.0848171307774
 10
114.9587022282048
 20
-140.0465765708911
 10
114.9607692854959
 20
-140.0045464059711
 10
114.9607692854959
 20
-139.9980007245491
 10
114.9607692854959
 20
-139.9325439103294
 10
114.9394096934874
 20
-139.7337619008304
 10
114.7027316336507
 20
-139.7337619008304
 10
114.5249647066118
 20
-139.7337619008304
 10
114.4698431788478
 20
-139.86467552927
 10
114.4698431788478
 20
-139.9749185847979
 10
114.4698431788478
 20
-140.2391574085166
 10
114.7027316336507
 20
-140.2477701472297
 10
114.7743896197439
 20
-140.251904261812
 10
114.7743896197439
 20
-140.251904261812
 10
114.7743896197439
 20
-140.4551648954418
 10
114.7743896197439
 20
-140.4551648954418
 10
114.6496771631779
 20
-140.4465521567286
 10
114.2731282266401
 20
-140.4189913928466
 10
114.2731282266401
 20
-139.9621717315025
 10
114.2731282266401
 20
-139.7378960154128
 10
114.4002522500458
 20
-139.4967393314453
 10
114.6961859522287
 20
-139.4967393314453
 10
114.8825656179808
 20
-139.4967393314453
 10
114.9649034000782
 20
-139.5918239668381
 10
115.0262260997157
 20
-139.6913872263619
 10
115.0537868635977
 20
-139.6300645267244
 10
115.134057588404
 20
-139.4481634851032
 10
115.4113877749666
 20
-139.4481634851032
 10
115.7496961516181
 20
-139.4481634851032
 10
115.9167832826528
 20
-139.6955213409442
 10
115.9167832826528
 20
-139.9725070179583
 97
        0
 97
        0
 75
     2
 76
     1
 98
        0
  0
ENDBLK
  5
86
330
83
100
AcDbEntity
  8
0
100
AcDbBlockEnd
  0
BLOCK
  5
95
330
93
100
AcDbEntity
  8
0
100
AcDbBlockBegin
  2
block 7
 70
     0
 10
0.0
 20
0.0
 30
0.0
  3
block 7
  1

  0
SPLINE
  5
97
330
93
100
AcDbEntity
  8
_U+30EC_U+30A4_U+30E4_U+30FC 1
370
     0
100
AcDbSpline
210
0.0
220
0.0
230
1.0
 70
    11
 71
     3
 72
    62
 73
    58
 74
     0
 42
0.0000000001
 43
0.0000000001
 12
1.0
 22
0.0
 32
0.0
 13
1.0
 23
0.0
 33
0.0
 40
0.0
 40
0.0
 40
0.0
 40
0.0
 40
1.0
 40
1.0
 40
1.0
 40
2.0
 40
2.0
 40
2.0
 40
3.0
 40
3.0
 40
3.0
 40
4.0
 40
4.0
 40
4.0
 40
5.0
 40
5.0
 40
5.0
 40
6.0
 40
6.0
 40
6.0
 40
7.0
 40
7.0
 40
7.0
 40
8.0
 40
8.0
 40
8.0
 40
9.0
 40
9.0
 40
9.0
 40
10.0
 40
10.0
 40
10.0
 40
11.0
 40
11.0
 40
11.0
 40
12.0
 40
12.0
 40
12.0
 40
13.0
 40
13.0
 40
13.0
 40
14.0
 40
14.0
 40
14.0
 40
15.0
 40
15.0
 40
15.0
 40
16.0
 40
16.0
 40
16.0
 40
17.0
 40
17.0
 40
17.0
 40
18.0
 40
18.0
 40
18.0
 40
19.0
 40
19.0
 40
19.0
 40
19.0
 10
72.30669757306916
 20
-115.2318983001851
 30
0.0
 10
72.21126842812774
 20
-115.2318983001851
 30
0.0
 10
71.99353839345996
 20
-115.2108832177251
 30
0.0
 10
71.86848142734539
 20
-115.0248480615216
 30
0.0
 10
71.79441187441252
 20
-114.9125379487024
 30
0.0
 10
71.79027775983022
 20
-114.8133191987272
 30
0.0
 10
71.78614364524792
 20
-114.7285698497901
 30
0.0
 10
71.78614364524792
 20
-114.7285698497901
 30
0.0
 10
72.00628524675538
 20
-114.7285698497901
 30
0.0
 10
72.00628524675538
 20
-114.7285698497901
 30
0.0
 10
72.00835230404653
 20
-114.802639402723
 30
0.0
 10
72.01868759050228
 20
-115.0372504052685
 30
0.0
 10
72.30221894893833
 20
-115.0372504052685
 30
0.0
 10
72.4396782587998
 20
-115.0372504052685
 30
0.0
 10
72.59229598879638
 20
-114.9676594764664
 30
0.0
 10
72.59229598879638
 20
-114.7392496457944
 30
0.0
 10
72.59229598879638
 20
-114.6228054183929
 30
0.0
 10
72.5540554289101
 20
-114.5742295720509
 30
0.0
 10
72.5223605504458
 20
-114.5425346935866
 30
0.0
 10
72.44829099751293
 20
-114.4684651406537
 30
0.0
 10
72.33184677011148
 20
-114.4557182873583
 30
0.0
 10
72.27706975189601
 20
-114.4557182873583
 30
0.0
 10
72.25777721717861
 20
-114.4557182873583
 30
0.0
 10
72.22194822413202
 20
-114.4577853446495
 30
0.0
 10
72.19438746025001
 20
-114.4619194592318
 30
0.0
 10
72.19438746025001
 20
-114.4619194592318
 30
0.0
 10
72.19438746025001
 20
-114.2672715643151
 30
0.0
 10
72.19438746025001
 20
-114.2672715643151
 30
0.0
 10
72.23262802013629
 20
-114.2738172457371
 30
0.0
 10
72.27465818505634
 20
-114.2758843030283
 30
0.0
 10
72.28120386647831
 20
-114.2758843030283
 30
0.0
 10
72.34666068069806
 20
-114.2758843030283
 30
0.0
 10
72.54544269019698
 20
-114.2545247110197
 30
0.0
 10
72.54544269019698
 20
-114.017846651183
 30
0.0
 10
72.54544269019698
 20
-113.8400797241441
 30
0.0
 10
72.41452906175748
 20
-113.7849581963802
 30
0.0
 10
72.30428600622949
 20
-113.7849581963802
 30
0.0
 10
72.04004718251082
 20
-113.7849581963802
 30
0.0
 10
72.0314344437977
 20
-114.017846651183
 30
0.0
 10
72.02730032921541
 20
-114.0895046372762
 30
0.0
 10
72.02730032921541
 20
-114.0895046372762
 30
0.0
 10
71.82403969558565
 20
-114.0895046372762
 30
0.0
 10
71.82403969558565
 20
-114.0895046372762
 30
0.0
 10
71.83265243429878
 20
-113.9647921807102
 30
0.0
 10
71.86021319818079
 20
-113.5882432441724
 30
0.0
 10
72.31703285952491
 20
-113.5882432441724
 30
0.0
 10
72.54130857561468
 20
-113.5882432441724
 30
0.0
 10
72.78246525958217
 20
-113.7153672675781
 30
0.0
 10
72.78246525958217
 20
-114.0113009697611
 30
0.0
 10
72.78246525958217
 20
-114.1976806355131
 30
0.0
 10
72.68738062418927
 20
-114.2800184176106
 30
0.0
 10
72.58781736466555
 20
-114.341341117248
 30
0.0
 10
72.649140064303
 20
-114.36890188113
 30
0.0
 10
72.83104110592419
 20
-114.4491726059363
 30
0.0
 10
72.83104110592419
 20
-114.7265027924989
 30
0.0
 10
72.83104110592419
 20
-115.0648111691505
 30
0.0
 10
72.58368325008325
 20
-115.2318983001851
 30
0.0
 10
72.30669757306916
 20
-115.2318983001851
 30
0.0
  0
HATCH
  5
98
330
93
100
AcDbEntity
  8
_U+30EC_U+30A4_U+30E4_U+30FC 1
 62
   179
420
  2234388
100
AcDbHatch
 10
0.0
 20
0.0
 30
0.0
210
0.0
220
0.0
230
1.0
  2
SOLID
 70
     1
 71
     0
 91
        1
 92
        1
 93
        1
 72
     4
 94
        3
 73
     0
 74
     1
 95
       62
 96
       58
 40
0.0
 40
0.0
 40
0.0
 40
0.0
 40
1.0
 40
1.0
 40
1.0
 40
2.0
 40
2.0
 40
2.0
 40
3.0
 40
3.0
 40
3.0
 40
4.0
 40
4.0
 40
4.0
 40
5.0
 40
5.0
 40
5.0
 40
6.0
 40
6.0
 40
6.0
 40
7.0
 40
7.0
 40
7.0
 40
8.0
 40
8.0
 40
8.0
 40
9.0
 40
9.0
 40
9.0
 40
10.0
 40
10.0
 40
10.0
 40
11.0
 40
11.0
 40
11.0
 40
12.0
 40
12.0
 40
12.0
 40
13.0
 40
13.0
 40
13.0
 40
14.0
 40
14.0
 40
14.0
 40
15.0
 40
15.0
 40
15.0
 40
16.0
 40
16.0
 40
16.0
 40
17.0
 40
17.0
 40
17.0
 40
18.0
 40
18.0
 40
18.0
 40
19.0
 40
19.0
 40
19.0
 40
19.0
 10
72.30669757306916
 20
-115.2318983001851
 10
72.21126842812774
 20
-115.2318983001851
 10
71.99353839345996
 20
-115.2108832177251
 10
71.86848142734539
 20
-115.0248480615216
 10
71.79441187441252
 20
-114.9125379487024
 10
71.79027775983022
 20
-114.8133191987272
 10
71.78614364524792
 20
-114.7285698497901
 10
71.78614364524792
 20
-114.7285698497901
 10
72.00628524675538
 20
-114.7285698497901
 10
72.00628524675538
 20
-114.7285698497901
 10
72.00835230404653
 20
-114.802639402723
 10
72.01868759050228
 20
-115.0372504052685
 10
72.30221894893833
 20
-115.0372504052685
 10
72.4396782587998
 20
-115.0372504052685
 10
72.59229598879638
 20
-114.9676594764664
 10
72.59229598879638
 20
-114.7392496457944
 10
72.59229598879638
 20
-114.6228054183929
 10
72.5540554289101
 20
-114.5742295720509
 10
72.5223605504458
 20
-114.5425346935866
 10
72.44829099751293
 20
-114.4684651406537
 10
72.33184677011148
 20
-114.4557182873583
 10
72.27706975189601
 20
-114.4557182873583
 10
72.25777721717861
 20
-114.4557182873583
 10
72.22194822413202
 20
-114.4577853446495
 10
72.19438746025001
 20
-114.4619194592318
 10
72.19438746025001
 20
-114.4619194592318
 10
72.19438746025001
 20
-114.2672715643151
 10
72.19438746025001
 20
-114.2672715643151
 10
72.23262802013629
 20
-114.2738172457371
 10
72.27465818505634
 20
-114.2758843030283
 10
72.28120386647831
 20
-114.2758843030283
 10
72.34666068069806
 20
-114.2758843030283
 10
72.54544269019698
 20
-114.2545247110197
 10
72.54544269019698
 20
-114.017846651183
 10
72.54544269019698
 20
-113.8400797241441
 10
72.41452906175748
 20
-113.7849581963802
 10
72.30428600622949
 20
-113.7849581963802
 10
72.04004718251082
 20
-113.7849581963802
 10
72.0314344437977
 20
-114.017846651183
 10
72.02730032921541
 20
-114.0895046372762
 10
72.02730032921541
 20
-114.0895046372762
 10
71.82403969558565
 20
-114.0895046372762
 10
71.82403969558565
 20
-114.0895046372762
 10
71.83265243429878
 20
-113.9647921807102
 10
71.86021319818079
 20
-113.5882432441724
 10
72.31703285952491
 20
-113.5882432441724
 10
72.54130857561468
 20
-113.5882432441724
 10
72.78246525958217
 20
-113.7153672675781
 10
72.78246525958217
 20
-114.0113009697611
 10
72.78246525958217
 20
-114.1976806355131
 10
72.68738062418927
 20
-114.2800184176106
 10
72.58781736466555
 20
-114.341341117248
 10
72.649140064303
 20
-114.36890188113
 10
72.83104110592419
 20
-114.4491726059363
 10
72.83104110592419
 20
-114.7265027924989
 10
72.83104110592419
 20
-115.0648111691505
 10
72.58368325008325
 20
-115.2318983001851
 10
72.30669757306916
 20
-115.2318983001851
 97
        0
 97
        0
 75
     2
 76
     1
 98
        0
  0
ENDBLK
  5
96
330
93
100
AcDbEntity
  8
0
100
AcDbBlockEnd
  0
BLOCK
  5
AD
330
AB
100
AcDbEntity
  8
0
100
AcDbBlockBegin
  2
block 8
 70
     0
 10
0.0
 20
0.0
 30
0.0
  3
block 8
  1

  0
POLYLINE
  5
AF
330
AB
100
AcDbEntity
  8
_U+30EC_U+30A4_U+30E4_U+30FC 1
370
     0
100
AcDb2dPolyline
 66
     1
 10
0.0
 20
0.0
 30
0.0
  0
VERTEX
  5
B0
330
AF
100
AcDbEntity
  8
_U+30EC_U+30A4_U+30E4_U+30FC 1
370
     0
100
AcDbVertex
100
AcDb2dVertex
 10
90.59257538967825
 20
-111.8150525979143
 30
0.0
  0
VERTEX
  5
B1
330
AF
100
AcDbEntity
  8
_U+30EC_U+30A4_U+30E4_U+30FC 1
370
     0
100
AcDbVertex
100
AcDb2dVertex
 10
90.59257538967825
 20
-112.161973713279
 30
0.0
  0
VERTEX
  5
B2
330
AF
100
AcDbEntity
  8
_U+30EC_U+30A4_U+30E4_U+30FC 1
370
     0
100
AcDbVertex
100
AcDb2dVertex
 10
90.37484535501046
 20
-112.161973713279
 30
0.0
  0
VERTEX
  5
B3
330
AF
100
AcDbEntity
  8
_U+30EC_U+30A4_U+30E4_U+30FC 1
370
     0
100
AcDbVertex
100
AcDb2dVertex
 10
90.37484535501046
 20
-111.8150525979143
 30
0.0
  0
VERTEX
  5
B4
330
AF
100
AcDbEntity
  8
_U+30EC_U+30A4_U+30E4_U+30FC 1
370
     0
100
AcDbVertex
100
AcDb2dVertex
 10
89.7188991746189
 20
-111.8150525979143
 30
0.0
  0
VERTEX
  5
B5
330
AF
100
AcDbEntity
  8
_U+30EC_U+30A4_U+30E4_U+30FC 1
370
     0
100
AcDbVertex
100
AcDb2dVertex
 10
89.7188991746189
 20
-111.5907768818245
 30
0.0
  0
VERTEX
  5
B6
330
AF
100
AcDbEntity
  8
_U+30EC_U+30A4_U+30E4_U+30FC 1
370
     0
100
AcDbVertex
100
AcDb2dVertex
 10
90.39792749476163
 20
-110.6175374072415
 30
0.0
  0
VERTEX
  5
B7
330
AF
100
AcDbEntity
  8
_U+30EC_U+30A4_U+30E4_U+30FC 1
370
     0
100
AcDbVertex
100
AcDb2dVertex
 10
90.59257538967825
 20
-110.6175374072415
 30
0.0
  0
VERTEX
  5
B8
330
AF
100
AcDbEntity
  8
_U+30EC_U+30A4_U+30E4_U+30FC 1
370
     0
100
AcDbVertex
100
AcDb2dVertex
 10
90.59257538967825
 20
-111.6162705884154
 30
0.0
  0
VERTEX
  5
B9
330
AF
100
AcDbEntity
  8
_U+30EC_U+30A4_U+30E4_U+30FC 1
370
     0
100
AcDbVertex
100
AcDb2dVertex
 10
90.79997013789028
 20
-111.6162705884154
 30
0.0
  0
VERTEX
  5
BA
330
AF
100
AcDbEntity
  8
_U+30EC_U+30A4_U+30E4_U+30FC 1
370
     0
100
AcDbVertex
100
AcDb2dVertex
 10
90.79997013789028
 20
-111.8150525979143
 30
0.0
  0
VERTEX
  5
BB
330
AF
100
AcDbEntity
  8
_U+30EC_U+30A4_U+30E4_U+30FC 1
370
     0
100
AcDbVertex
100
AcDb2dVertex
 10
90.59257538967825
 20
-111.8150525979143
 30
0.0
  0
SEQEND
  5
BC
330
AF
100
AcDbEntity
  8
_U+30EC_U+30A4_U+30E4_U+30FC 1
370
     0
  0
POLYLINE
  5
BD
330
AB
100
AcDbEntity
  8
_U+30EC_U+30A4_U+30E4_U+30FC 1
370
     0
100
AcDb2dPolyline
 66
     1
 10
0.0
 20
0.0
 30
0.0
  0
VERTEX
  5
BE
330
BD
100
AcDbEntity
  8
_U+30EC_U+30A4_U+30E4_U+30FC 1
370
     0
100
AcDbVertex
100
AcDb2dVertex
 10
90.37484535501046
 20
-110.9603244080238
 30
0.0
  0
VERTEX
  5
BF
330
BD
100
AcDbEntity
  8
_U+30EC_U+30A4_U+30E4_U+30FC 1
370
     0
100
AcDbVertex
100
AcDb2dVertex
 10
89.91768118411781
 20
-111.6162705884154
 30
0.0
  0
VERTEX
  5
C0
330
BD
100
AcDbEntity
  8
_U+30EC_U+30A4_U+30E4_U+30FC 1
370
     0
100
AcDbVertex
100
AcDb2dVertex
 10
90.37484535501046
 20
-111.6162705884154
 30
0.0
  0
VERTEX
  5
C1
330
BD
100
AcDbEntity
  8
_U+30EC_U+30A4_U+30E4_U+30FC 1
370
     0
100
AcDbVertex
100
AcDb2dVertex
 10
90.37484535501046
 20
-110.9603244080238
 30
0.0
  0
SEQEND
  5
C2
330
BD
100
AcDbEntity
  8
_U+30EC_U+30A4_U+30E4_U+30FC 1
370
     0
  0
HATCH
  5
C3
330
AB
100
AcDbEntity
  8
_U+30EC_U+30A4_U+30E4_U+30FC 1
 62
   179
420
  2234388
100
AcDbHatch
 10
0.0
 20
0.0
 30
0.0
210
0.0
220
0.0
230
1.0
  2
SOLID
 70
     1
 71
     0
 91
        2
 92
        1
 93
       11
 72
     1
 10
90.59257538967825
 20
-111.8150525979143
 11
90.59257538967825
 21
-112.161973713279
 72
     1
 10
90.59257538967825
 20
-112.161973713279
 11
90.37484535501046
 21
-112.161973713279
 72
     1
 10
90.37484535501046
 20
-112.161973713279
 11
90.37484535501046
 21
-111.8150525979143
 72
     1
 10
90.37484535501046
 20
-111.8150525979143
 11
89.7188991746189
 21
-111.8150525979143
 72
     1
 10
89.7188991746189
 20
-111.8150525979143
 11
89.7188991746189
 21
-111.5907768818245
 72
     1
 10
89.7188991746189
 20
-111.5907768818245
 11
90.39792749476163
 21
-110.6175374072415
 72
     1
 10
90.39792749476163
 20
-110.6175374072415
 11
90.59257538967825
 21
-110.6175374072415
 72
     1
 10
90.59257538967825
 20
-110.6175374072415
 11
90.59257538967825
 21
-111.6162705884154
 72
     1
 10
90.59257538967825
 20
-111.6162705884154
 11
90.79997013789028
 21
-111.6162705884154
 72
     1
 10
90.79997013789028
 20
-111.6162705884154
 11
90.79997013789028
 21
-111.8150525979143
 72
     1
 10
90.79997013789028
 20
-111.8150525979143
 11
90.59257538967825
 21
-111.8150525979143
 97
        0
 92
        1
 93
        3
 72
     1
 10
90.37484535501046
 20
-110.9603244080238
 11
89.91768118411781
 21
-111.6162705884154
 72
     1
 10
89.91768118411781
 20
-111.6162705884154
 11
90.37484535501046
 21
-111.6162705884154
 72
     1
 10
90.37484535501046
 20
-111.6162705884154
 11
90.37484535501046
 21
-110.9603244080238
 97
        0
 75
     2
 76
     1
 98
        0
  0
SPLINE
  5
C4
330
AB
100
AcDbEntity
  8
_U+30EC_U+30A4_U+30E4_U+30FC 1
370
     0
100
AcDbSpline
210
0.0
220
0.0
230
1.0
 70
    11
 71
     3
 72
    29
 73
    25
 74
     0
 42
0.0000000001
 43
0.0000000001
 12
1.0
 22
0.0
 32
0.0
 13
1.0
 23
0.0
 33
0.0
 40
0.0
 40
0.0
 40
0.0
 40
0.0
 40
1.0
 40
1.0
 40
1.0
 40
2.0
 40
2.0
 40
2.0
 40
3.0
 40
3.0
 40
3.0
 40
4.0
 40
4.0
 40
4.0
 40
5.0
 40
5.0
 40
5.0
 40
6.0
 40
6.0
 40
6.0
 40
7.0
 40
7.0
 40
7.0
 40
8.0
 40
8.0
 40
8.0
 40
8.0
 10
91.83522133120786
 20
-111.9842067862401
 30
0.0
 10
91.72704533297102
 20
-112.1936685917433
 30
0.0
 10
91.55375703006295
 20
-112.2126166169121
 30
0.0
 10
91.43731280266151
 20
-112.2126166169121
 30
0.0
 10
91.27642684350035
 20
-112.2126166169121
 30
0.0
 10
91.13483341905658
 20
-112.1661078278613
 30
0.0
 10
91.03974878366368
 20
-111.9842067862401
 30
0.0
 10
90.93605140955766
 20
-111.7895588913235
 30
0.0
 10
90.91675887484026
 20
-111.5528808314868
 30
0.0
 10
90.91675887484026
 20
-111.3899278150345
 30
0.0
 10
90.91675887484026
 20
-111.245922823751
 30
0.0
 10
90.9339843522665
 20
-110.9940863437793
 30
0.0
 10
91.03974878366368
 20
-110.7953043342803
 30
0.0
 10
91.147580272352
 20
-110.5923882101991
 30
0.0
 10
91.30846623151317
 20
-110.5689615608994
 30
0.0
 10
91.43731280266151
 20
-110.5689615608994
 30
0.0
 10
91.59613170453153
 20
-110.5689615608994
 30
0.0
 10
91.73979218626644
 20
-110.6134032926592
 30
0.0
 10
91.83522133120786
 20
-110.7953043342803
 30
0.0
 10
91.93444008118306
 20
-110.9878851719058
 30
0.0
 10
91.95786673048276
 20
-111.2162950025779
 30
0.0
 10
91.95786673048276
 20
-111.3899278150345
 30
0.0
 10
91.95786673048276
 20
-111.5611490606514
 30
0.0
 10
91.93650713847421
 20
-111.7916259486146
 30
0.0
 10
91.83522133120786
 20
-111.9842067862401
 30
0.0
  0
SPLINE
  5
C5
330
AB
100
AcDbEntity
  8
_U+30EC_U+30A4_U+30E4_U+30FC 1
370
     0
100
AcDbSpline
210
0.0
220
0.0
230
1.0
 70
    11
 71
     3
 72
    17
 73
    13
 74
     0
 42
0.0000000001
 43
0.0000000001
 12
1.0
 22
0.0
 32
0.0
 13
1.0
 23
0.0
 33
0.0
 40
0.0
 40
0.0
 40
0.0
 40
0.0
 40
1.0
 40
1.0
 40
1.0
 40
2.0
 40
2.0
 40
2.0
 40
3.0
 40
3.0
 40
3.0
 40
4.0
 40
4.0
 40
4.0
 40
4.0
 10
91.43731280266151
 20
-110.7615423985249
 30
0.0
 10
91.1875433799809
 20
-110.7615423985249
 30
0.0
 10
91.14103459093002
 20
-111.045073756961
 30
0.0
 10
91.14103459093002
 20
-111.3899278150345
 30
0.0
 10
91.14103459093002
 20
-111.7092881665171
 30
0.0
 10
91.17720809352515
 20
-112.0179687219955
 30
0.0
 10
91.43731280266151
 20
-112.0179687219955
 30
0.0
 10
91.68501516805097
 20
-112.0179687219955
 30
0.0
 10
91.733591014393
 20
-111.7368489303991
 30
0.0
 10
91.733591014393
 20
-111.3899278150345
 30
0.0
 10
91.733591014393
 20
-111.0702229540033
 30
0.0
 10
91.69535045450672
 20
-110.7615423985249
 30
0.0
 10
91.43731280266151
 20
-110.7615423985249
 30
0.0
  0
HATCH
  5
C6
330
AB
100
AcDbEntity
  8
_U+30EC_U+30A4_U+30E4_U+30FC 1
 62
   179
420
  2234388
100
AcDbHatch
 10
0.0
 20
0.0
 30
0.0
210
0.0
220
0.0
230
1.0
  2
SOLID
 70
     1
 71
     0
 91
        2
 92
        1
 93
        1
 72
     4
 94
        3
 73
     0
 74
     1
 95
       29
 96
       25
 40
0.0
 40
0.0
 40
0.0
 40
0.0
 40
1.0
 40
1.0
 40
1.0
 40
2.0
 40
2.0
 40
2.0
 40
3.0
 40
3.0
 40
3.0
 40
4.0
 40
4.0
 40
4.0
 40
5.0
 40
5.0
 40
5.0
 40
6.0
 40
6.0
 40
6.0
 40
7.0
 40
7.0
 40
7.0
 40
8.0
 40
8.0
 40
8.0
 40
8.0
 10
91.83522133120786
 20
-111.9842067862401
 10
91.72704533297102
 20
-112.1936685917433
 10
91.55375703006295
 20
-112.2126166169121
 10
91.43731280266151
 20
-112.2126166169121
 10
91.27642684350035
 20
-112.2126166169121
 10
91.13483341905658
 20
-112.1661078278613
 10
91.03974878366368
 20
-111.9842067862401
 10
90.93605140955766
 20
-111.7895588913235
 10
90.91675887484026
 20
-111.5528808314868
 10
90.91675887484026
 20
-111.3899278150345
 10
90.91675887484026
 20
-111.245922823751
 10
90.9339843522665
 20
-110.9940863437793
 10
91.03974878366368
 20
-110.7953043342803
 10
91.147580272352
 20
-110.5923882101991
 10
91.30846623151317
 20
-110.5689615608994
 10
91.43731280266151
 20
-110.5689615608994
 10
91.59613170453153
 20
-110.5689615608994
 10
91.73979218626644
 20
-110.6134032926592
 10
91.83522133120786
 20
-110.7953043342803
 10
91.93444008118306
 20
-110.9878851719058
 10
91.95786673048276
 20
-111.2162950025779
 10
91.95786673048276
 20
-111.3899278150345
 10
91.95786673048276
 20
-111.5611490606514
 10
91.93650713847421
 20
-111.7916259486146
 10
91.83522133120786
 20
-111.9842067862401
 97
        0
 97
        0
 92
        1
 93
        1
 72
     4
 94
        3
 73
     0
 74
     1
 95
       17
 96
       13
 40
0.0
 40
0.0
 40
0.0
 40
0.0
 40
1.0
 40
1.0
 40
1.0
 40
2.0
 40
2.0
 40
2.0
 40
3.0
 40
3.0
 40
3.0
 40
4.0
 40
4.0
 40
4.0
 40
4.0
 10
91.43731280266151
 20
-110.7615423985249
 10
91.1875433799809
 20
-110.7615423985249
 10
91.14103459093002
 20
-111.045073756961
 10
91.14103459093002
 20
-111.3899278150345
 10
91.14103459093002
 20
-111.7092881665171
 10
91.17720809352515
 20
-112.0179687219955
 10
91.43731280266151
 20
-112.0179687219955
 10
91.68501516805097
 20
-112.0179687219955
 10
91.733591014393
 20
-111.7368489303991
 10
91.733591014393
 20
-111.3899278150345
 10
91.733591014393
 20
-111.0702229540033
 10
91.69535045450672
 20
-110.7615423985249
 10
91.43731280266151
 20
-110.7615423985249
 97
        0
 97
        0
 75
     2
 76
     1
 98
        0
  0
ENDBLK
  5
AE
330
AB
100
AcDbEntity
  8
0
100
AcDbBlockEnd
  0
BLOCK
  5
D1
330
CF
100
AcDbEntity
  8
0
100
AcDbBlockBegin
  2
block 9
 70
     0
 10
0.0
 20
0.0
 30
0.0
  3
block 9
  1

  0
SPLINE
  5
D3
330
CF
100
AcDbEntity
  8
_U+30EC_U+30A4_U+30E4_U+30FC 1
370
     0
100
AcDbSpline
210
0.0
220
0.0
230
1.0
 70
    11
 71
     3
 72
    44
 73
    40
 74
     0
 42
0.0000000001
 43
0.0000000001
 12
1.0
 22
0.0
 32
0.0
 13
1.0
 23
0.0
 33
0.0
 40
0.0
 40
0.0
 40
0.0
 40
0.0
 40
1.0
 40
1.0
 40
1.0
 40
2.0
 40
2.0
 40
2.0
 40
3.0
 40
3.0
 40
3.0
 40
4.0
 40
4.0
 40
4.0
 40
5.0
 40
5.0
 40
5.0
 40
6.0
 40
6.0
 40
6.0
 40
7.0
 40
7.0
 40
7.0
 40
8.0
 40
8.0
 40
8.0
 40
9.0
 40
9.0
 40
9.0
 40
10.0
 40
10.0
 40
10.0
 40
11.0
 40
11.0
 40
11.0
 40
12.0
 40
12.0
 40
12.0
 40
13.0
 40
13.0
 40
13.0
 40
13.0
 10
67.02278237256722
 20
-130.5932345593656
 30
0.0
 10
67.18142901966299
 20
-130.8109645940334
 30
0.0
 10
67.25549857259585
 20
-130.9039821721351
 30
0.0
 10
67.39933130910504
 20
-130.9529025280257
 30
0.0
 10
67.39933130910504
 20
-130.9529025280257
 30
0.0
 10
67.39933130910504
 20
-130.1743109483592
 30
0.0
 10
67.39933130910504
 20
-130.1743109483592
 30
0.0
 10
67.39933130910504
 20
-130.1743109483592
 30
0.0
 10
67.60448674525166
 20
-130.1743109483592
 30
0.0
 10
67.60448674525166
 20
-130.1743109483592
 30
0.0
 10
67.60448674525166
 20
-130.1743109483592
 30
0.0
 10
67.60448674525166
 20
-131.2023274411578
 30
0.0
 10
67.60448674525166
 20
-131.2023274411578
 30
0.0
 10
67.24688583388273
 20
-131.1706325626935
 30
0.0
 10
67.16868216636756
 20
-131.1051757484737
 30
0.0
 10
66.87033689734491
 20
-130.7200140732228
 30
0.0
 10
66.671554887846
 20
-130.4640434786687
 30
0.0
 10
66.60385876156084
 20
-130.398586664449
 30
0.0
 10
66.46639945169937
 20
-130.398586664449
 30
0.0
 10
66.34788816700679
 20
-130.398586664449
 30
0.0
 10
66.21680228379303
 20
-130.4705891600907
 30
0.0
 10
66.21680228379303
 20
-130.6669596027499
 30
0.0
 10
66.21680228379303
 20
-130.9274088214348
 30
0.0
 10
66.44727917175624
 20
-130.9356770505994
 30
0.0
 10
66.56372339915768
 20
-130.9401556747302
 30
0.0
 10
66.56372339915768
 20
-130.9401556747302
 30
0.0
 10
66.56372339915768
 20
-131.16443139082
 30
0.0
 10
66.56372339915768
 20
-131.16443139082
 30
0.0
 10
66.43677163052622
 20
-131.1558186521069
 30
0.0
 10
66.32463377248135
 20
-131.1451388561026
 30
0.0
 10
66.20612248778875
 20
-131.0648681312963
 30
0.0
 10
66.04540878340184
 20
-130.9549695853168
 30
0.0
 10
66.01147459287213
 20
-130.7689344291133
 30
0.0
 10
66.01147459287213
 20
-130.6524902017119
 30
0.0
 10
66.01147459287213
 20
-130.3751600151493
 30
0.0
 10
66.19561494655873
 20
-130.1681097764857
 30
0.0
 10
66.46846650899053
 20
-130.1681097764857
 30
0.0
 10
66.6968763396626
 20
-130.1681097764857
 30
0.0
 10
66.79643959918631
 20
-130.2842094943387
 30
0.0
 10
67.02278237256722
 20
-130.5932345593656
 30
0.0
  0
HATCH
  5
D4
330
CF
100
AcDbEntity
  8
_U+30EC_U+30A4_U+30E4_U+30FC 1
 62
   179
420
  2234388
100
AcDbHatch
 10
0.0
 20
0.0
 30
0.0
210
0.0
220
0.0
230
1.0
  2
SOLID
 70
     1
 71
     0
 91
        1
 92
        1
 93
        1
 72
     4
 94
        3
 73
     0
 74
     1
 95
       44
 96
       40
 40
0.0
 40
0.0
 40
0.0
 40
0.0
 40
1.0
 40
1.0
 40
1.0
 40
2.0
 40
2.0
 40
2.0
 40
3.0
 40
3.0
 40
3.0
 40
4.0
 40
4.0
 40
4.0
 40
5.0
 40
5.0
 40
5.0
 40
6.0
 40
6.0
 40
6.0
 40
7.0
 40
7.0
 40
7.0
 40
8.0
 40
8.0
 40
8.0
 40
9.0
 40
9.0
 40
9.0
 40
10.0
 40
10.0
 40
10.0
 40
11.0
 40
11.0
 40
11.0
 40
12.0
 40
12.0
 40
12.0
 40
13.0
 40
13.0
 40
13.0
 40
13.0
 10
67.02278237256722
 20
-130.5932345593656
 10
67.18142901966299
 20
-130.8109645940334
 10
67.25549857259585
 20
-130.9039821721351
 10
67.39933130910504
 20
-130.9529025280257
 10
67.39933130910504
 20
-130.9529025280257
 10
67.39933130910504
 20
-130.1743109483592
 10
67.39933130910504
 20
-130.1743109483592
 10
67.39933130910504
 20
-130.1743109483592
 10
67.60448674525166
 20
-130.1743109483592
 10
67.60448674525166
 20
-130.1743109483592
 10
67.60448674525166
 20
-130.1743109483592
 10
67.60448674525166
 20
-131.2023274411578
 10
67.60448674525166
 20
-131.2023274411578
 10
67.24688583388273
 20
-131.1706325626935
 10
67.16868216636756
 20
-131.1051757484737
 10
66.87033689734491
 20
-130.7200140732228
 10
66.671554887846
 20
-130.4640434786687
 10
66.60385876156084
 20
-130.398586664449
 10
66.46639945169937
 20
-130.398586664449
 10
66.34788816700679
 20
-130.398586664449
 10
66.21680228379303
 20
-130.4705891600907
 10
66.21680228379303
 20
-130.6669596027499
 10
66.21680228379303
 20
-130.9274088214348
 10
66.44727917175624
 20
-130.9356770505994
 10
66.56372339915768
 20
-130.9401556747302
 10
66.56372339915768
 20
-130.9401556747302
 10
66.56372339915768
 20
-131.16443139082
 10
66.56372339915768
 20
-131.16443139082
 10
66.43677163052622
 20
-131.1558186521069
 10
66.32463377248135
 20
-131.1451388561026
 10
66.20612248778875
 20
-131.0648681312963
 10
66.04540878340184
 20
-130.9549695853168
 10
66.01147459287213
 20
-130.7689344291133
 10
66.01147459287213
 20
-130.6524902017119
 10
66.01147459287213
 20
-130.3751600151493
 10
66.19561494655873
 20
-130.1681097764857
 10
66.46846650899053
 20
-130.1681097764857
 10
66.6968763396626
 20
-130.1681097764857
 10
66.79643959918631
 20
-130.2842094943387
 10
67.02278237256722
 20
-130.5932345593656
 97
        0
 97
        0
 75
     2
 76
     1
 98
        0
  0
SPLINE
  5
D5
330
CF
100
AcDbEntity
  8
_U+30EC_U+30A4_U+30E4_U+30FC 1
370
     0
100
AcDbSpline
210
0.0
220
0.0
230
1.0
 70
    11
 71
     3
 72
    62
 73
    58
 74
     0
 42
0.0000000001
 43
0.0000000001
 12
1.0
 22
0.0
 32
0.0
 13
1.0
 23
0.0
 33
0.0
 40
0.0
 40
0.0
 40
0.0
 40
0.0
 40
1.0
 40
1.0
 40
1.0
 40
2.0
 40
2.0
 40
2.0
 40
3.0
 40
3.0
 40
3.0
 40
4.0
 40
4.0
 40
4.0
 40
5.0
 40
5.0
 40
5.0
 40
6.0
 40
6.0
 40
6.0
 40
7.0
 40
7.0
 40
7.0
 40
8.0
 40
8.0
 40
8.0
 40
9.0
 40
9.0
 40
9.0
 40
10.0
 40
10.0
 40
10.0
 40
11.0
 40
11.0
 40
11.0
 40
12.0
 40
12.0
 40
12.0
 40
13.0
 40
13.0
 40
13.0
 40
14.0
 40
14.0
 40
14.0
 40
15.0
 40
15.0
 40
15.0
 40
16.0
 40
16.0
 40
16.0
 40
17.0
 40
17.0
 40
17.0
 40
18.0
 40
18.0
 40
18.0
 40
19.0
 40
19.0
 40
19.0
 40
19.0
 10
67.6553019036591
 20
-129.5176757488706
 30
0.0
 10
67.6553019036591
 20
-129.613104893812
 30
0.0
 10
67.63411456642481
 20
-129.8311794380283
 30
0.0
 10
67.44790715544706
 20
-129.9558918945944
 30
0.0
 10
67.33576929740217
 20
-130.0296169379787
 30
0.0
 10
67.23637829265272
 20
-130.0340955621095
 30
0.0
 10
67.15180119848984
 20
-130.0382296766918
 30
0.0
 10
67.15180119848984
 20
-130.0382296766918
 30
0.0
 10
67.15180119848984
 20
-129.8180880751844
 30
0.0
 10
67.15180119848984
 20
-129.8180880751844
 30
0.0
 10
67.2258707514227
 20
-129.8160210178932
 30
0.0
 10
67.46065400874248
 20
-129.8056857314375
 30
0.0
 10
67.46065400874248
 20
-129.5221543730014
 30
0.0
 10
67.46065400874248
 20
-129.3846950631399
 30
0.0
 10
67.39089082516617
 20
-129.2324218426919
 30
0.0
 10
67.16230873971985
 20
-129.2324218426919
 30
0.0
 10
67.04603676709266
 20
-129.2324218426919
 30
0.0
 10
66.99728866597637
 20
-129.2703178930296
 30
0.0
 10
66.96559378751208
 20
-129.3020127714939
 30
0.0
 10
66.89152423457921
 20
-129.3760823244268
 30
0.0
 10
66.87894963605804
 20
-129.4925265518283
 30
0.0
 10
66.87894963605804
 20
-129.5473035700437
 30
0.0
 10
66.87894963605804
 20
-129.5665961047611
 30
0.0
 10
66.8810166933492
 20
-129.6024250978077
 30
0.0
 10
66.8851508079315
 20
-129.6299858616897
 30
0.0
 10
66.8851508079315
 20
-129.6299858616897
 30
0.0
 10
66.69050291301488
 20
-129.6299858616897
 30
0.0
 10
66.69050291301488
 20
-129.6299858616897
 30
0.0
 10
66.6968763396626
 20
-129.592089811352
 30
0.0
 10
66.69911565172801
 20
-129.5493706273349
 30
0.0
 10
66.69911565172801
 20
-129.5431694554614
 30
0.0
 10
66.69911565172801
 20
-129.4777126412417
 30
0.0
 10
66.67792831449371
 20
-129.2785861221942
 30
0.0
 10
66.44090574510852
 20
-129.2785861221942
 30
0.0
 10
66.26331107284389
 20
-129.2785861221942
 30
0.0
 10
66.2081895450799
 20
-129.4101887697308
 30
0.0
 10
66.2081895450799
 20
-129.5197428061617
 30
0.0
 10
66.2081895450799
 20
-129.7843261394289
 30
0.0
 10
66.44090574510852
 20
-129.7929388781421
 30
0.0
 10
66.51290824075025
 20
-129.7970729927243
 30
0.0
 10
66.51290824075025
 20
-129.7970729927243
 30
0.0
 10
66.51290824075025
 20
-129.9999891168056
 30
0.0
 10
66.51290824075025
 20
-129.9999891168056
 30
0.0
 10
66.38802352940994
 20
-129.991720887641
 30
0.0
 10
66.01147459287213
 20
-129.964160123759
 30
0.0
 10
66.01147459287213
 20
-129.5073404624148
 30
0.0
 10
66.01147459287213
 20
-129.2830647463251
 30
0.0
 10
66.13842636150359
 20
-129.0419080623576
 30
0.0
 10
66.43453231846081
 20
-129.0419080623576
 30
0.0
 10
66.62073972943857
 20
-129.0419080623576
 30
0.0
 10
66.70324976631031
 20
-129.1369926977505
 30
0.0
 10
66.76457246594775
 20
-129.2365559572742
 30
0.0
 10
66.79213322982974
 20
-129.1752332576368
 30
0.0
 10
66.87257620941033
 20
-128.9933322160156
 30
0.0
 10
67.14973414119868
 20
-128.9933322160156
 30
0.0
 10
67.48821477262447
 20
-128.9933322160156
 30
0.0
 10
67.6553019036591
 20
-129.2406900718565
 30
0.0
 10
67.6553019036591
 20
-129.5176757488706
 30
0.0
  0
HATCH
  5
D6
330
CF
100
AcDbEntity
  8
_U+30EC_U+30A4_U+30E4_U+30FC 1
 62
   179
420
  2234388
100
AcDbHatch
 10
0.0
 20
0.0
 30
0.0
210
0.0
220
0.0
230
1.0
  2
SOLID
 70
     1
 71
     0
 91
        1
 92
        1
 93
        1
 72
     4
 94
        3
 73
     0
 74
     1
 95
       62
 96
       58
 40
0.0
 40
0.0
 40
0.0
 40
0.0
 40
1.0
 40
1.0
 40
1.0
 40
2.0
 40
2.0
 40
2.0
 40
3.0
 40
3.0
 40
3.0
 40
4.0
 40
4.0
 40
4.0
 40
5.0
 40
5.0
 40
5.0
 40
6.0
 40
6.0
 40
6.0
 40
7.0
 40
7.0
 40
7.0
 40
8.0
 40
8.0
 40
8.0
 40
9.0
 40
9.0
 40
9.0
 40
10.0
 40
10.0
 40
10.0
 40
11.0
 40
11.0
 40
11.0
 40
12.0
 40
12.0
 40
12.0
 40
13.0
 40
13.0
 40
13.0
 40
14.0
 40
14.0
 40
14.0
 40
15.0
 40
15.0
 40
15.0
 40
16.0
 40
16.0
 40
16.0
 40
17.0
 40
17.0
 40
17.0
 40
18.0
 40
18.0
 40
18.0
 40
19.0
 40
19.0
 40
19.0
 40
19.0
 10
67.6553019036591
 20
-129.5176757488706
 10
67.6553019036591
 20
-129.613104893812
 10
67.63411456642481
 20
-129.8311794380283
 10
67.44790715544706
 20
-129.9558918945944
 10
67.33576929740217
 20
-130.0296169379787
 10
67.23637829265272
 20
-130.0340955621095
 10
67.15180119848984
 20
-130.0382296766918
 10
67.15180119848984
 20
-130.0382296766918
 10
67.15180119848984
 20
-129.8180880751844
 10
67.15180119848984
 20
-129.8180880751844
 10
67.2258707514227
 20
-129.8160210178932
 10
67.46065400874248
 20
-129.8056857314375
 10
67.46065400874248
 20
-129.5221543730014
 10
67.46065400874248
 20
-129.3846950631399
 10
67.39089082516617
 20
-129.2324218426919
 10
67.16230873971985
 20
-129.2324218426919
 10
67.04603676709266
 20
-129.2324218426919
 10
66.99728866597637
 20
-129.2703178930296
 10
66.96559378751208
 20
-129.3020127714939
 10
66.89152423457921
 20
-129.3760823244268
 10
66.87894963605804
 20
-129.4925265518283
 10
66.87894963605804
 20
-129.5473035700437
 10
66.87894963605804
 20
-129.5665961047611
 10
66.8810166933492
 20
-129.6024250978077
 10
66.8851508079315
 20
-129.6299858616897
 10
66.8851508079315
 20
-129.6299858616897
 10
66.69050291301488
 20
-129.6299858616897
 10
66.69050291301488
 20
-129.6299858616897
 10
66.6968763396626
 20
-129.592089811352
 10
66.69911565172801
 20
-129.5493706273349
 10
66.69911565172801
 20
-129.5431694554614
 10
66.69911565172801
 20
-129.4777126412417
 10
66.67792831449371
 20
-129.2785861221942
 10
66.44090574510852
 20
-129.2785861221942
 10
66.26331107284389
 20
-129.2785861221942
 10
66.2081895450799
 20
-129.4101887697308
 10
66.2081895450799
 20
-129.5197428061617
 10
66.2081895450799
 20
-129.7843261394289
 10
66.44090574510852
 20
-129.7929388781421
 10
66.51290824075025
 20
-129.7970729927243
 10
66.51290824075025
 20
-129.7970729927243
 10
66.51290824075025
 20
-129.9999891168056
 10
66.51290824075025
 20
-129.9999891168056
 10
66.38802352940994
 20
-129.991720887641
 10
66.01147459287213
 20
-129.964160123759
 10
66.01147459287213
 20
-129.5073404624148
 10
66.01147459287213
 20
-129.2830647463251
 10
66.13842636150359
 20
-129.0419080623576
 10
66.43453231846081
 20
-129.0419080623576
 10
66.62073972943857
 20
-129.0419080623576
 10
66.70324976631031
 20
-129.1369926977505
 10
66.76457246594775
 20
-129.2365559572742
 10
66.79213322982974
 20
-129.1752332576368
 10
66.87257620941033
 20
-128.9933322160156
 10
67.14973414119868
 20
-128.9933322160156
 10
67.48821477262447
 20
-128.9933322160156
 10
67.6553019036591
 20
-129.2406900718565
 10
67.6553019036591
 20
-129.5176757488706
 97
        0
 97
        0
 75
     2
 76
     1
 98
        0
  0
ENDBLK
  5
D2
330
CF
100
AcDbEntity
  8
0
100
AcDbBlockEnd
  0
ENDSEC
  0
SECTION
  2
ENTITIES
  0
INSERT
  5
42
330
1F
100
AcDbEntity
  8
_U+30EC_U+30A4_U+30E4_U+30FC 1
100
AcDbBlockReference
  2
block 2
 10
0.0
 20
0.0
 30
0.0
  0
ENDSEC
  0
SECTION
  2
OBJECTS
  0
DICTIONARY
  5
C
330
0
100
AcDbDictionary
281
     1
  3
ACAD_GROUP
350
D
  3
ACAD_LAYOUT
350
1A
  3
ACAD_MATERIAL
350
3B
  3
ACAD_MLEADERSTYLE
350
F3
  3
ACAD_MLINESTYLE
350
17
  3
ACAD_PLOTSETTINGS
350
19
  3
ACAD_PLOTSTYLENAME
350
E
  3
ACAD_TABLESTYLE
350
F2
  3
ACAD_VISUALSTYLE
350
2A
  0
SUN
  5
3F
330
29
100
AcDbSun
 90
        1
290
     0
 63
     7
421
 16777215
 40
1.0
291
     1
 91
  2455826
 92
 54000000
292
     0
 70
     2
 71
   256
280
     1
  0
DICTIONARY
  5
D
102
{ACAD_REACTORS
330
C
102
}
330
C
100
AcDbDictionary
281
     1
  0
DICTIONARY
  5
1A
102
{ACAD_REACTORS
330
C
102
}
330
C
100
AcDbDictionary
281
     1
  3
Layout1
350
1E
  3
Layout2
350
26
  3
Model
350
22
  0
DICTIONARY
  5
3B
102
{ACAD_REACTORS
330
C
102
}
330
C
100
AcDbDictionary
281
     1
  3
ByBlock
350
3D
  3
ByLayer
350
3C
  3
Global
350
3E
  0
DICTIONARY
  5
F3
102
{ACAD_REACTORS
330
C
102
}
330
C
100
AcDbDictionary
281
     1
  0
DICTIONARY
  5
17
102
{ACAD_REACTORS
330
C
102
}
330
C
100
AcDbDictionary
281
     1
  3
Standard
350
18
  0
DICTIONARY
  5
19
102
{ACAD_REACTORS
330
C
102
}
330
C
100
AcDbDictionary
281
     1
  0
ACDBDICTIONARYWDFLT
  5
E
102
{ACAD_REACTORS
330
C
102
}
330
C
100
AcDbDictionary
281
     1
  3
Normal
350
F
100
AcDbDictionaryWithDefault
340
F
  0
DICTIONARY
  5
F2
102
{ACAD_REACTORS
330
C
102
}
330
C
100
AcDbDictionary
281
     1
  0
DICTIONARY
  5
2A
102
{ACAD_REACTORS
330
C
102
}
330
C
100
AcDbDictionary
281
     1
  3
2dWireframe
350
2F
  3
3D Hidden
350
31
  3
3dWireframe
350
30
  3
Basic
350
32
  3
Brighten
350
36
  3
ColorChange
350
3A
  3
Conceptual
350
34
  3
Dim
350
35
  3
Facepattern
350
39
  3
Flat
350
2B
  3
FlatWithEdges
350
2C
  3
Gouraud
350
2D
  3
GouraudWithEdges
350
2E
  3
Linepattern
350
38
  3
Realistic
350
33
  3
Thicken
350
37
  0
LAYOUT
  5
1E
102
{ACAD_REACTORS
330
1A
102
}
330
1A
100
AcDbPlotSettings
  1

  2
none_device
  4

  6

 40
0.0
 41
0.0
 42
0.0
 43
0.0
 44
0.0
 45
0.0
 46
0.0
 47
0.0
 48
0.0
 49
0.0
140
0.0
141
0.0
142
1.0
143
1.0
 70
   688
 72
     0
 73
     0
 74
     5
  7

 75
    16
 76
     0
 77
     2
 78
   300
147
1.0
148
0.0
149
0.0
100
AcDbLayout
  1
Layout1
 70
     1
 71
     1
 10
0.0
 20
0.0
 11
12.0
 21
9.0
 12
0.0
 22
0.0
 32
0.0
 14
1.000000000000000E+20
 24
1.000000000000000E+20
 34
1.000000000000000E+20
 15
-1.000000000000000E+20
 25
-1.000000000000000E+20
 35
-1.000000000000000E+20
146
0.0
 13
0.0
 23
0.0
 33
0.0
 16
1.0
 26
0.0
 36
0.0
 17
0.0
 27
1.0
 37
0.0
 76
     0
330
1B
  0
LAYOUT
  5
26
102
{ACAD_REACTORS
330
1A
102
}
330
1A
100
AcDbPlotSettings
  1

  2
none_device
  4

  6

 40
0.0
 41
0.0
 42
0.0
 43
0.0
 44
0.0
 45
0.0
 46
0.0
 47
0.0
 48
0.0
 49
0.0
140
0.0
141
0.0
142
1.0
143
1.0
 70
   688
 72
     0
 73
     0
 74
     5
  7

 75
    16
 76
     0
 77
     2
 78
   300
147
1.0
148
0.0
149
0.0
100
AcDbLayout
  1
Layout2
 70
     1
 71
     2
 10
0.0
 20
0.0
 11
0.0
 21
0.0
 12
0.0
 22
0.0
 32
0.0
 14
0.0
 24
0.0
 34
0.0
 15
0.0
 25
0.0
 35
0.0
146
0.0
 13
0.0
 23
0.0
 33
0.0
 16
1.0
 26
0.0
 36
0.0
 17
0.0
 27
1.0
 37
0.0
 76
     0
330
23
  0
LAYOUT
  5
22
102
{ACAD_REACTORS
330
1A
102
}
330
1A
100
AcDbPlotSettings
  1

  2
none_device
  4

  6

 40
0.0
 41
0.0
 42
0.0
 43
0.0
 44
0.0
 45
0.0
 46
0.0
 47
0.0
 48
0.0
 49
0.0
140
0.0
141
0.0
142
1.0
143
1.0
 70
  1712
 72
     0
 73
     0
 74
     0
  7

 75
     0
 76
     0
 77
     2
 78
   300
147
1.0
148
0.0
149
0.0
100
AcDbLayout
  1
Model
 70
     1
 71
     0
 10
0.0
 20
0.0
 11
12.0
 21
9.0
 12
0.0
 22
0.0
 32
0.0
 14
1.000000000000000E+20
 24
1.000000000000000E+20
 34
1.000000000000000E+20
 15
-1.000000000000000E+20
 25
-1.000000000000000E+20
 35
-1.000000000000000E+20
146
0.0
 13
0.0
 23
0.0
 33
0.0
 16
1.0
 26
0.0
 36
0.0
 17
0.0
 27
1.0
 37
0.0
 76
     0
330
1F
331
29
  0
MATERIAL
  5
3D
102
{ACAD_REACTORS
330
3B
102
}
330
3B
100
AcDbMaterial
  1
ByBlock
 72
     1
 94
      127
  0
MATERIAL
  5
3C
102
{ACAD_REACTORS
330
3B
102
}
330
3B
100
AcDbMaterial
  1
ByLayer
 72
     1
 94
      127
  0
MATERIAL
  5
3E
102
{ACAD_REACTORS
330
3B
102
}
330
3B
100
AcDbMaterial
  1
Global
 72
     1
 94
      127
  0
MLINESTYLE
  5
18
102
{ACAD_REACTORS
330
17
102
}
330
17
100
AcDbMlineStyle
  2
Standard
 70
     0
  3

 62
   256
 51
90.0
 52
90.0
 71
     2
 49
0.5
 62
   256
  6
BYLAYER
 49
-0.5
 62
   256
  6
BYLAYER
  0
ACDBPLACEHOLDER
  5
F
102
{ACAD_REACTORS
330
E
102
}
330
E
  0
VISUALSTYLE
  5
2F
102
{ACAD_REACTORS
330
2A
102
}
330
2A
100
AcDbVisualStyle
  2
2dWireframe
 70
     4
177
     2
291
     0
 71
     0
176
     1
 72
     2
176
     1
 73
     0
176
     1
 90
        0
176
     1
 40
-0.6
176
     1
 41
-30.0
176
     1
 62
     5
 63
     7
421
 16777215
176
     1
 74
     1
176
     1
 91
        4
176
     1
 64
     7
176
     1
 65
   257
176
     1
 75
     1
176
     1
175
     1
176
     1
 42
1.0
176
     1
 92
        0
176
     1
 66
   257
176
     1
 43
1.0
176
     1
 76
     1
176
     1
 77
     6
176
     1
 78
     2
176
     1
 67
     7
176
     1
 79
     5
176
     1
170
     0
176
     1
171
     0
176
     1
290
     0
176
     1
 93
        1
176
     1
 44
0.0
176
     1
173
     0
176
     1
  0
VISUALSTYLE
  5
31
102
{ACAD_REACTORS
330
2A
102
}
330
2A
100
AcDbVisualStyle
  2
3D Hidden
 70
     6
177
     2
291
     0
 71
     1
176
     1
 72
     2
176
     1
 73
     2
176
     1
 90
        0
176
     1
 40
-0.6
176
     1
 41
-30.0
176
     1
 62
     5
 63
     7
421
 16777215
176
     1
 74
     2
176
     1
 91
        2
176
     1
 64
     7
176
     1
 65
   257
176
     1
 75
     2
176
     1
175
     1
176
     1
 42
40.0
176
     1
 92
        0
176
     1
 66
   257
176
     1
 43
1.0
176
     1
 76
     1
176
     1
 77
     6
176
     1
 78
     2
176
     1
 67
     7
176
     1
 79
     3
176
     1
170
     0
176
     1
171
     0
176
     1
290
     0
176
     1
 93
        1
176
     1
 44
0.0
176
     1
173
     0
176
     1
  0
VISUALSTYLE
  5
30
102
{ACAD_REACTORS
330
2A
102
}
330
2A
100
AcDbVisualStyle
  2
3dWireframe
 70
     5
177
     2
291
     0
 71
     0
176
     1
 72
     2
176
     1
 73
     0
176
     1
 90
        0
176
     1
 40
-0.6
176
     1
 41
-30.0
176
     1
 62
     5
 63
     7
421
 16777215
176
     1
 74
     1
176
     1
 91
        4
176
     1
 64
     7
176
     1
 65
   257
176
     1
 75
     1
176
     1
175
     1
176
     1
 42
1.0
176
     1
 92
        0
176
     1
 66
   257
176
     1
 43
1.0
176
     1
 76
     1
176
     1
 77
     6
176
     1
 78
     2
176
     1
 67
     7
176
     1
 79
     5
176
     1
170
     0
176
     1
171
     0
176
     1
290
     0
176
     1
 93
        1
176
     1
 44
0.0
176
     1
173
     0
176
     1
  0
VISUALSTYLE
  5
32
102
{ACAD_REACTORS
330
2A
102
}
330
2A
100
AcDbVisualStyle
  2
Basic
 70
     7
177
     2
291
     1
 71
     1
176
     1
 72
     0
176
     1
 73
     1
176
     1
 90
        0
176
     1
 40
-0.6
176
     1
 41
-30.0
176
     1
 62
     5
 63
     7
421
 16777215
176
     1
 74
     0
176
     1
 91
        4
176
     1
 64
     7
176
     1
 65
   257
176
     1
 75
     1
176
     1
175
     1
176
     1
 42
1.0
176
     1
 92
        8
176
     1
 66
     7
176
     1
 43
1.0
176
     1
 76
     1
176
     1
 77
     6
176
     1
 78
     2
176
     1
 67
     7
176
     1
 79
     5
176
     1
170
     0
176
     1
171
     0
176
     1
290
     0
176
     1
 93
        1
176
     1
 44
0.0
176
     1
173
     0
176
     1
  0
VISUALSTYLE
  5
36
102
{ACAD_REACTORS
330
2A
102
}
330
2A
100
AcDbVisualStyle
  2
Brighten
 70
    12
177
     2
291
     1
 71
     2
176
     1
 72
     2
176
     1
 73
     0
176
     1
 90
        0
176
     1
 40
-0.6
176
     1
 41
-30.0
176
     1
 62
     5
 63
     7
421
 16777215
176
     1
 74
     1
176
     1
 91
        4
176
     1
 64
     7
176
     1
 65
   257
176
     1
 75
     1
176
     1
175
     1
176
     1
 42
1.0
176
     1
 92
        8
176
     1
 66
     7
176
     1
 43
1.0
176
     1
 76
     1
176
     1
 77
     6
176
     1
 78
     2
176
     1
 67
     7
176
     1
 79
     5
176
     1
170
     0
176
     1
171
     0
176
     1
290
     0
176
     1
 93
        1
176
     1
 44
50.0
176
     1
173
     0
176
     1
  0
VISUALSTYLE
  5
3A
102
{ACAD_REACTORS
330
2A
102
}
330
2A
100
AcDbVisualStyle
  2
ColorChange
 70
    16
177
     2
291
     1
 71
     2
176
     1
 72
     2
176
     1
 73
     3
176
     1
 90
        0
176
     1
 40
-0.6
176
     1
 41
-30.0
176
     1
 62
     5
 63
     8
421
  8421504
176
     1
 74
     1
176
     1
 91
        4
176
     1
 64
     7
176
     1
 65
   257
176
     1
 75
     1
176
     1
175
     1
176
     1
 42
1.0
176
     1
 92
        8
176
     1
 66
     8
424
  8421504
176
     1
 43
1.0
176
     1
 76
     1
176
     1
 77
     6
176
     1
 78
     2
176
     1
 67
     7
176
     1
 79
     5
176
     1
170
     0
176
     1
171
     0
176
     1
290
     0
176
     1
 93
        1
176
     1
 44
0.0
176
     1
173
     0
176
     1
  0
VISUALSTYLE
  5
34
102
{ACAD_REACTORS
330
2A
102
}
330
2A
100
AcDbVisualStyle
  2
Conceptual
 70
     9
177
     2
291
     0
 71
     3
176
     1
 72
     2
176
     1
 73
     0
176
     1
 90
        0
176
     1
 40
-0.6
176
     1
 41
-30.0
176
     1
 62
     5
 63
     7
421
 16777215
176
     1
 74
     2
176
     1
 91
        2
176
     1
 64
     7
176
     1
 65
   257
176
     1
 75
     1
176
     1
175
     1
176
     1
 42
40.0
176
     1
 92
        8
176
     1
 66
     7
176
     1
 43
1.0
176
     1
 76
     1
176
     1
 77
     6
176
     1
 78
     2
176
     1
 67
     7
176
     1
 79
     3
176
     1
170
     0
176
     1
171
     0
176
     1
290
     0
176
     1
 93
        1
176
     1
 44
0.0
176
     1
173
     0
176
     1
  0
VISUALSTYLE
  5
35
102
{ACAD_REACTORS
330
2A
102
}
330
2A
100
AcDbVisualStyle
  2
Dim
 70
    11
177
     2
291
     1
 71
     2
176
     1
 72
     2
176
     1
 73
     0
176
     1
 90
        0
176
     1
 40
-0.6
176
     1
 41
-30.0
176
     1
 62
     5
 63
     7
421
 16777215
176
     1
 74
     1
176
     1
 91
        4
176
     1
 64
     7
176
     1
 65
   257
176
     1
 75
     1
176
     1
175
     1
176
     1
 42
1.0
176
     1
 92
        8
176
     1
 66
     7
176
     1
 43
1.0
176
     1
 76
     1
176
     1
 77
     6
176
     1
 78
     2
176
     1
 67
     7
176
     1
 79
     5
176
     1
170
     0
176
     1
171
     0
176
     1
290
     0
176
     1
 93
        1
176
     1
 44
-50.0
176
     1
173
     0
176
     1
  0
VISUALSTYLE
  5
39
102
{ACAD_REACTORS
330
2A
102
}
330
2A
100
AcDbVisualStyle
  2
Facepattern
 70
    15
177
     2
291
     1
 71
     2
176
     1
 72
     2
176
     1
 73
     0
176
     1
 90
        0
176
     1
 40
-0.6
176
     1
 41
-30.0
176
     1
 62
     5
 63
     7
421
 16777215
176
     1
 74
     1
176
     1
 91
        4
176
     1
 64
     7
176
     1
 65
   257
176
     1
 75
     1
176
     1
175
     1
176
     1
 42
1.0
176
     1
 92
        8
176
     1
 66
     7
176
     1
 43
1.0
176
     1
 76
     1
176
     1
 77
     6
176
     1
 78
     2
176
     1
 67
     7
176
     1
 79
     5
176
     1
170
     0
176
     1
171
     0
176
     1
290
     0
176
     1
 93
        1
176
     1
 44
0.0
176
     1
173
     0
176
     1
  0
VISUALSTYLE
  5
2B
102
{ACAD_REACTORS
330
2A
102
}
330
2A
100
AcDbVisualStyle
  2
Flat
 70
     0
177
     2
291
     1
 71
     2
176
     1
 72
     1
176
     1
 73
     1
176
     1
 90
        2
176
     1
 40
-0.6
176
     1
 41
30.0
176
     1
 62
     5
 63
     7
421
 16777215
176
     1
 74
     0
176
     1
 91
        4
176
     1
 64
     7
176
     1
 65
   257
176
     1
 75
     1
176
     1
175
     1
176
     1
 42
1.0
176
     1
 92
        8
176
     1
 66
     7
176
     1
 43
1.0
176
     1
 76
     1
176
     1
 77
     6
176
     1
 78
     2
176
     1
 67
     7
176
     1
 79
     5
176
     1
170
     0
176
     1
171
     0
176
     1
290
     0
176
     1
 93
       13
176
     1
 44
0.0
176
     1
173
     0
176
     1
  0
VISUALSTYLE
  5
2C
102
{ACAD_REACTORS
330
2A
102
}
330
2A
100
AcDbVisualStyle
  2
FlatWithEdges
 70
     1
177
     2
291
     1
 71
     2
176
     1
 72
     1
176
     1
 73
     1
176
     1
 90
        2
176
     1
 40
-0.6
176
     1
 41
30.0
176
     1
 62
     5
 63
     7
421
 16777215
176
     1
 74
     1
176
     1
 91
        4
176
     1
 64
     7
176
     1
 65
   257
176
     1
 75
     1
176
     1
175
     1
176
     1
 42
1.0
176
     1
 92
        0
176
     1
 66
   257
176
     1
 43
1.0
176
     1
 76
     1
176
     1
 77
     6
176
     1
 78
     2
176
     1
 67
     7
176
     1
 79
     5
176
     1
170
     0
176
     1
171
     0
176
     1
290
     0
176
     1
 93
       13
176
     1
 44
0.0
176
     1
173
     0
176
     1
  0
VISUALSTYLE
  5
2D
102
{ACAD_REACTORS
330
2A
102
}
330
2A
100
AcDbVisualStyle
  2
Gouraud
 70
     2
177
     2
291
     1
 71
     2
176
     1
 72
     2
176
     1
 73
     1
176
     1
 90
        2
176
     1
 40
-0.6
176
     1
 41
30.0
176
     1
 62
     5
 63
     7
421
 16777215
176
     1
 74
     0
176
     1
 91
        4
176
     1
 64
     7
176
     1
 65
   257
176
     1
 75
     1
176
     1
175
     1
176
     1
 42
1.0
176
     1
 92
        0
176
     1
 66
     7
176
     1
 43
1.0
176
     1
 76
     1
176
     1
 77
     6
176
     1
 78
     2
176
     1
 67
     7
176
     1
 79
     5
176
     1
170
     0
176
     1
171
     0
176
     1
290
     0
176
     1
 93
       13
176
     1
 44
0.0
176
     1
173
     0
176
     1
  0
VISUALSTYLE
  5
2E
102
{ACAD_REACTORS
330
2A
102
}
330
2A
100
AcDbVisualStyle
  2
GouraudWithEdges
 70
     3
177
     2
291
     1
 71
     2
176
     1
 72
     2
176
     1
 73
     1
176
     1
 90
        2
176
     1
 40
-0.6
176
     1
 41
30.0
176
     1
 62
     5
 63
     7
421
 16777215
176
     1
 74
     1
176
     1
 91
        4
176
     1
 64
     7
176
     1
 65
   257
176
     1
 75
     1
176
     1
175
     1
176
     1
 42
1.0
176
     1
 92
        0
176
     1
 66
   257
176
     1
 43
1.0
176
     1
 76
     1
176
     1
 77
     6
176
     1
 78
     2
176
     1
 67
     7
176
     1
 79
     5
176
     1
170
     0
176
     1
171
     0
176
     1
290
     0
176
     1
 93
       13
176
     1
 44
0.0
176
     1
173
     0
176
     1
  0
VISUALSTYLE
  5
38
102
{ACAD_REACTORS
330
2A
102
}
330
2A
100
AcDbVisualStyle
  2
Linepattern
 70
    14
177
     2
291
     1
 71
     2
176
     1
 72
     2
176
     1
 73
     0
176
     1
 90
        0
176
     1
 40
-0.6
176
     1
 41
-30.0
176
     1
 62
     5
 63
     7
421
 16777215
176
     1
 74
     1
176
     1
 91
        4
176
     1
 64
     7
176
     1
 65
   257
176
     1
 75
     7
176
     1
175
     7
176
     1
 42
1.0
176
     1
 92
        8
176
     1
 66
     7
176
     1
 43
1.0
176
     1
 76
     1
176
     1
 77
     6
176
     1
 78
     2
176
     1
 67
     7
176
     1
 79
     5
176
     1
170
     0
176
     1
171
     0
176
     1
290
     0
176
     1
 93
        1
176
     1
 44
0.0
176
     1
173
     0
176
     1
  0
VISUALSTYLE
  5
33
102
{ACAD_REACTORS
330
2A
102
}
330
2A
100
AcDbVisualStyle
  2
Realistic
 70
     8
177
     2
291
     0
 71
     2
176
     1
 72
     2
176
     1
 73
     0
176
     1
 90
        0
176
     1
 40
-0.6
176
     1
 41
-30.0
176
     1
 62
     5
 63
     7
421
 16777215
176
     1
 74
     1
176
     1
 91
        0
176
     1
 64
     7
176
     1
 65
   257
176
     1
 75
     1
176
     1
175
     1
176
     1
 42
1.0
176
     1
 92
        8
176
     1
 66
     8
424
  7895160
176
     1
 43
1.0
176
     1
 76
     1
176
     1
 77
     6
176
     1
 78
     2
176
     1
 67
     7
176
     1
 79
     5
176
     1
170
     0
176
     1
171
     0
176
     1
290
     0
176
     1
 93
       13
176
     1
 44
0.0
176
     1
173
     0
176
     1
  0
VISUALSTYLE
  5
37
102
{ACAD_REACTORS
330
2A
102
}
330
2A
100
AcDbVisualStyle
  2
Thicken
 70
    13
177
     2
291
     1
 71
     2
176
     1
 72
     2
176
     1
 73
     0
176
     1
 90
        0
176
     1
 40
-0.6
176
     1
 41
-30.0
176
     1
 62
     5
 63
     7
421
 16777215
176
     1
 74
     1
176
     1
 91
        4
176
     1
 64
     7
176
     1
 65
   257
176
     1
 75
     1
176
     1
175
     1
176
     1
 42
1.0
176
     1
 92
       12
176
     1
 66
     7
176
     1
 43
1.0
176
     1
 76
     1
176
     1
 77
     6
176
     1
 78
     2
176
     1
 67
     7
176
     1
 79
     5
176
     1
170
     0
176
     1
171
     0
176
     1
290
     0
176
     1
 93
        1
176
     1
 44
0.0
176
     1
173
     0
176
     1
  0
ENDSEC
  0
EOF
