  0
SECTION
  2
HEADER
  9
$ACADVER
  1
AC1024
  9
$ACADMAINTVER
 70
     6
  9
$DWGCODEPAGE
  3
UNDEFINED
  9
$INSBASE
 10
0.0
 20
0.0
 30
0.0
  9
$EXTMIN
 10
1.000000000000000E+20
 20
1.000000000000000E+20
 30
1.000000000000000E+20
  9
$EXTMAX
 10
-1.000000000000000E+20
 20
-1.000000000000000E+20
 30
-1.000000000000000E+20
  9
$LIMMIN
 10
0.0
 20
0.0
  9
$LIMMAX
 10
12.0
 20
9.0
  9
$ORTHOMODE
 70
     0
  9
$REGENMODE
 70
     1
  9
$FILLMODE
 70
     1
  9
$QTEXTMODE
 70
     0
  9
$MIRRTEXT
 70
     1
  9
$LTSCALE
 40
1.0
  9
$ATTMODE
 70
     1
  9
$TEXTSIZE
 40
0.2
  9
$TRACEWID
 40
0.05
  9
$TEXTSTYLE
  7
Standard
  9
$CLAYER
  8
0
  9
$CELTYPE
  6
ByLayer
  9
$CECOLOR
 62
   256
  9
$CELTSCALE
 40
1.0
  9
$DISPSILH
 70
     0
  9
$DIMSCALE
 40
1.0
  9
$DIMASZ
 40
0.18
  9
$DIMEXO
 40
0.0625
  9
$DIMDLI
 40
0.38
  9
$DIMRND
 40
0.0
  9
$DIMDLE
 40
0.0
  9
$DIMEXE
 40
0.18
  9
$DIMTP
 40
0.0
  9
$DIMTM
 40
0.0
  9
$DIMTXT
 40
0.18
  9
$DIMCEN
 40
0.09
  9
$DIMTSZ
 40
0.0
  9
$DIMTOL
 70
     0
  9
$DIMLIM
 70
     0
  9
$DIMTIH
 70
     1
  9
$DIMTOH
 70
     1
  9
$DIMSE1
 70
     0
  9
$DIMSE2
 70
     0
  9
$DIMTAD
 70
     0
  9
$DIMZIN
 70
     0
  9
$DIMBLK
  1

  9
$DIMASO
 70
     1
  9
$DIMSHO
 70
     1
  9
$DIMPOST
  1

  9
$DIMAPOST
  1

  9
$DIMALT
 70
     0
  9
$DIMALTD
 70
     2
  9
$DIMALTF
 40
25.4
  9
$DIMLFAC
 40
1.0
  9
$DIMTOFL
 70
     0
  9
$DIMTVP
 40
0.0
  9
$DIMTIX
 70
     0
  9
$DIMSOXD
 70
     0
  9
$DIMSAH
 70
     0
  9
$DIMBLK1
  1

  9
$DIMBLK2
  1

  9
$DIMSTYLE
  2
Standard
  9
$DIMCLRD
 70
     0
  9
$DIMCLRE
 70
     0
  9
$DIMCLRT
 70
     0
  9
$DIMTFAC
 40
1.0
  9
$DIMGAP
 40
0.09
  9
$DIMJUST
 70
     0
  9
$DIMSD1
 70
     0
  9
$DIMSD2
 70
     0
  9
$DIMTOLJ
 70
     1
  9
$DIMTZIN
 70
     0
  9
$DIMALTZ
 70
     0
  9
$DIMALTTZ
 70
     0
  9
$DIMUPT
 70
     0
  9
$DIMDEC
 70
     4
  9
$DIMTDEC
 70
     4
  9
$DIMALTU
 70
     2
  9
$DIMALTTD
 70
     2
  9
$DIMTXSTY
  7
Standard
  9
$DIMAUNIT
 70
     0
  9
$DIMADEC
 70
     0
  9
$DIMALTRND
 40
0.0
  9
$DIMAZIN
 70
     0
  9
$DIMDSEP
 70
    46
  9
$DIMATFIT
 70
     3
  9
$DIMFRAC
 70
     0
  9
$DIMLDRBLK
  1

  9
$DIMLUNIT
 70
     2
  9
$DIMLWD
 70
    -2
  9
$DIMLWE
 70
    -2
  9
$DIMTMOVE
 70
     0
  9
$DIMFXL
 40
1.0
  9
$DIMFXLON
 70
     0
  9
$DIMJOGANG
 40
0.7853981633974483
  9
$DIMTFILL
 70
     0
  9
$DIMTFILLCLR
 70
     0
  9
$DIMARCSYM
 70
     0
  9
$DIMLTYPE
  6

  9
$DIMLTEX1
  6

  9
$DIMLTEX2
  6

  9
$DIMTXTDIRECTION
 70
     0
  9
$LUNITS
 70
     2
  9
$LUPREC
 70
     4
  9
$SKETCHINC
 40
0.1
  9
$FILLETRAD
 40
0.5
  9
$AUNITS
 70
     0
  9
$AUPREC
 70
     0
  9
$MENU
  1
.
  9
$ELEVATION
 40
0.0
  9
$PELEVATION
 40
0.0
  9
$THICKNESS
 40
0.0
  9
$LIMCHECK
 70
     0
  9
$CHAMFERA
 40
0.5
  9
$CHAMFERB
 40
0.5
  9
$CHAMFERC
 40
1.0
  9
$CHAMFERD
 40
0.0
  9
$SKPOLY
 70
     0
  9
$TDCREATE
 40
2457917.614050915
  9
$TDUCREATE
 40
2457917.239050926
  9
$TDUPDATE
 40
2457917.614050915
  9
$TDUUPDATE
 40
2457917.239050926
  9
$TDINDWG
 40
0.0000000116
  9
$TDUSRTIMER
 40
0.0000000116
  9
$USRTIMER
 70
     1
  9
$ANGBASE
 50
0.0
  9
$ANGDIR
 70
     0
  9
$PDMODE
 70
     0
  9
$PDSIZE
 40
0.0
  9
$PLINEWID
 40
0.0
  9
$SPLFRAME
 70
     0
  9
$SPLINETYPE
 70
     6
  9
$SPLINESEGS
 70
     8
  9
$HANDSEED
  5
F6
  9
$SURFTAB1
 70
     6
  9
$SURFTAB2
 70
     6
  9
$SURFTYPE
 70
     6
  9
$SURFU
 70
     6
  9
$SURFV
 70
     6
  9
$UCSBASE
  2

  9
$UCSNAME
  2

  9
$UCSORG
 10
0.0
 20
0.0
 30
0.0
  9
$UCSXDIR
 10
1.0
 20
0.0
 30
0.0
  9
$UCSYDIR
 10
0.0
 20
1.0
 30
0.0
  9
$UCSORTHOREF
  2

  9
$UCSORTHOVIEW
 70
     0
  9
$UCSORGTOP
 10
0.0
 20
0.0
 30
0.0
  9
$UCSORGBOTTOM
 10
0.0
 20
0.0
 30
0.0
  9
$UCSORGLEFT
 10
0.0
 20
0.0
 30
0.0
  9
$UCSORGRIGHT
 10
0.0
 20
0.0
 30
0.0
  9
$UCSORGFRONT
 10
0.0
 20
0.0
 30
0.0
  9
$UCSORGBACK
 10
0.0
 20
0.0
 30
0.0
  9
$PUCSBASE
  2

  9
$PUCSNAME
  2

  9
$PUCSORG
 10
0.0
 20
0.0
 30
0.0
  9
$PUCSXDIR
 10
1.0
 20
0.0
 30
0.0
  9
$PUCSYDIR
 10
0.0
 20
1.0
 30
0.0
  9
$PUCSORTHOREF
  2

  9
$PUCSORTHOVIEW
 70
     0
  9
$PUCSORGTOP
 10
0.0
 20
0.0
 30
0.0
  9
$PUCSORGBOTTOM
 10
0.0
 20
0.0
 30
0.0
  9
$PUCSORGLEFT
 10
0.0
 20
0.0
 30
0.0
  9
$PUCSORGRIGHT
 10
0.0
 20
0.0
 30
0.0
  9
$PUCSORGFRONT
 10
0.0
 20
0.0
 30
0.0
  9
$PUCSORGBACK
 10
0.0
 20
0.0
 30
0.0
  9
$USERI1
 70
     0
  9
$USERI2
 70
     0
  9
$USERI3
 70
     0
  9
$USERI4
 70
     0
  9
$USERI5
 70
     0
  9
$USERR1
 40
0.0
  9
$USERR2
 40
0.0
  9
$USERR3
 40
0.0
  9
$USERR4
 40
0.0
  9
$USERR5
 40
0.0
  9
$WORLDVIEW
 70
     1
  9
$SHADEDGE
 70
     3
  9
$SHADEDIF
 70
    70
  9
$TILEMODE
 70
     1
  9
$MAXACTVP
 70
    64
  9
$PINSBASE
 10
0.0
 20
0.0
 30
0.0
  9
$PLIMCHECK
 70
     0
  9
$PEXTMIN
 10
1.000000000000000E+20
 20
1.000000000000000E+20
 30
1.000000000000000E+20
  9
$PEXTMAX
 10
-1.000000000000000E+20
 20
-1.000000000000000E+20
 30
-1.000000000000000E+20
  9
$PLIMMIN
 10
0.0
 20
0.0
  9
$PLIMMAX
 10
12.0
 20
9.0
  9
$UNITMODE
 70
     0
  9
$VISRETAIN
 70
     1
  9
$PLINEGEN
 70
     0
  9
$PSLTSCALE
 70
     1
  9
$TREEDEPTH
 70
  3020
  9
$CMLSTYLE
  2
Standard
  9
$CMLJUST
 70
     0
  9
$CMLSCALE
 40
1.0
  9
$PROXYGRAPHICS
 70
     1
  9
$MEASUREMENT
 70
     0
  9
$CELWEIGHT
370
    -1
  9
$ENDCAPS
280
     0
  9
$JOINSTYLE
280
     0
  9
$LWDISPLAY
290
     1
  9
$INSUNITS
 70
     1
  9
$HYPERLINKBASE
  1

  9
$STYLESHEET
  1

  9
$XEDIT
290
     1
  9
$CEPSNTYPE
380
     0
  9
$PSTYLEMODE
290
     1
  9
$FINGERPRINTGUID
  2
{559C3BA6-ECBB-1B76-91A5-FE215194CBB6}
  9
$VERSIONGUID
  2
{FAEB1C32-E019-11D5-929B-00C0DF256EC4}
  9
$EXTNAMES
290
     1
  9
$PSVPSCALE
 40
0.0
  9
$OLESTARTUP
290
     0
  9
$SORTENTS
280
   127
  9
$INDEXCTL
280
     0
  9
$HIDETEXT
280
     1
  9
$XCLIPFRAME
280
     2
  9
$HALOGAP
280
     0
  9
$OBSCOLOR
 70
   257
  9
$OBSLTYPE
280
     0
  9
$INTERSECTIONDISPLAY
280
     0
  9
$INTERSECTIONCOLOR
 70
   257
  9
$DIMASSOC
280
     2
  9
$PROJECTNAME
  1

  9
$CAMERADISPLAY
290
     0
  9
$LENSLENGTH
 40
50.0
  9
$CAMERAHEIGHT
 40
0.0
  9
$STEPSPERSEC
 40
2.0
  9
$STEPSIZE
 40
6.0
  9
$3DDWFPREC
 40
2.0
  9
$PSOLWIDTH
 40
0.25
  9
$PSOLHEIGHT
 40
4.0
  9
$LOFTANG1
 40
1.570796326794897
  9
$LOFTANG2
 40
1.570796326794897
  9
$LOFTMAG1
 40
0.0
  9
$LOFTMAG2
 40
0.0
  9
$LOFTPARAM
 70
     7
  9
$LOFTNORMALS
280
     1
  9
$LATITUDE
 40
37.795
  9
$LONGITUDE
 40
-122.394
  9
$NORTHDIRECTION
 40
0.0
  9
$TIMEZONE
 70
 -8000
  9
$LIGHTGLYPHDISPLAY
280
     1
  9
$TILEMODELIGHTSYNCH
280
     1
  9
$CMATERIAL
347
3C
  9
$SOLIDHIST
280
     1
  9
$SHOWHIST
280
     1
  9
$DWFFRAME
280
     2
  9
$DGNFRAME
280
     2
  9
$REALWORLDSCALE
290
     1
  9
$INTERFERECOLOR
 62
   256
  9
$CSHADOW
280
     0
  9
$SHADOWPLANELOCATION
 40
0.0
  0
ENDSEC
  0
SECTION
  2
CLASSES
  0
CLASS
  1
ACDBDICTIONARYWDFLT
  2
AcDbDictionaryWithDefault
  3
ObjectDBX Classes
 90
        0
 91
        4
280
     0
281
     0
  0
CLASS
  1
VISUALSTYLE
  2
AcDbVisualStyle
  3
ObjectDBX Classes
 90
     4095
 91
        4
280
     0
281
     0
  0
CLASS
  1
MATERIAL
  2
AcDbMaterial
  3
ObjectDBX Classes
 90
     1153
 91
        4
280
     0
281
     0
  0
CLASS
  1
SUN
  2
AcDbSun
  3
SCENEOE
 90
     1024
 91
        4
280
     0
281
     0
  0
ENDSEC
  0
SECTION
  2
TABLES
  0
TABLE
  2
VPORT
  5
8
330
0
100
AcDbSymbolTable
 70
     1
  0
VPORT
  5
29
330
8
100
AcDbSymbolTableRecord
100
AcDbViewportTableRecord
  2
*Active
 70
     0
 10
0.0
 20
0.0
 11
1.0
 21
1.0
 12
0.0
 22
0.0
 13
0.0
 23
0.0
 14
0.5
 24
0.5
 15
0.5
 25
0.5
 16
0.0
 26
0.0
 36
1.0
 17
91.00082462281999
 27
-128.4993055234307
 37
0.0
 40
256.9986110468615
 41
0.7081814508812795
 42
50.0
 43
0.0
 44
0.0
 50
0.0
 51
0.0
 71
     0
 72
   100
 73
     1
 74
     3
 75
     0
 76
     0
 77
     0
 78
     0
281
     0
 65
     1
110
0.0
120
0.0
130
0.0
111
1.0
121
0.0
131
0.0
112
0.0
122
1.0
132
0.0
 79
     0
146
0.0
 60
     3
 61
     5
292
     1
282
     1
141
0.0
142
0.0
 63
   250
361
3F
  0
ENDTAB
  0
TABLE
  2
LTYPE
  5
5
330
0
100
AcDbSymbolTable
 70
     1
  0
LTYPE
  5
14
330
5
100
AcDbSymbolTableRecord
100
AcDbLinetypeTableRecord
  2
ByBlock
 70
     0
  3

 72
    65
 73
     0
 40
0.0
  0
LTYPE
  5
15
330
5
100
AcDbSymbolTableRecord
100
AcDbLinetypeTableRecord
  2
ByLayer
 70
     0
  3

 72
    65
 73
     0
 40
0.0
  0
LTYPE
  5
16
330
5
100
AcDbSymbolTableRecord
100
AcDbLinetypeTableRecord
  2
Continuous
 70
     0
  3
Solid line
 72
    65
 73
     0
 40
0.0
  0
ENDTAB
  0
TABLE
  2
LAYER
  5
2
330
0
100
AcDbSymbolTable
 70
     2
  0
LAYER
  5
10
330
2
100
AcDbSymbolTableRecord
100
AcDbLayerTableRecord
  2
0
 70
     0
 62
     7
  6
Continuous
370
    -3
390
F
347
3E
  0
LAYER
  5
40
330
2
100
AcDbSymbolTableRecord
100
AcDbLayerTableRecord
  2
_U+30EC_U+30A4_U+30E4_U+30FC 1
 70
     0
 62
     7
  6
Continuous
370
    -3
390
F
347
3E
  0
ENDTAB
  0
TABLE
  2
STYLE
  5
3
330
0
100
AcDbSymbolTable
 70
     1
  0
STYLE
  5
11
330
3
100
AcDbSymbolTableRecord
100
AcDbTextStyleTableRecord
  2
Standard
 70
     0
 40
0.0
 41
1.0
 50
0.0
 71
     0
 42
0.2
  3
txt
  4

  0
ENDTAB
  0
TABLE
  2
VIEW
  5
6
330
0
100
AcDbSymbolTable
 70
     0
  0
ENDTAB
  0
TABLE
  2
UCS
  5
7
330
0
100
AcDbSymbolTable
 70
     0
  0
ENDTAB
  0
TABLE
  2
APPID
  5
9
330
0
100
AcDbSymbolTable
 70
     1
  0
APPID
  5
12
330
9
100
AcDbSymbolTableRecord
100
AcDbRegAppTableRecord
  2
ACAD
 70
     0
  0
ENDTAB
  0
TABLE
  2
DIMSTYLE
  5
A
330
0
100
AcDbSymbolTable
 70
     1
100
AcDbDimStyleTable
  0
DIMSTYLE
105
27
330
A
100
AcDbSymbolTableRecord
100
AcDbDimStyleTableRecord
  2
Standard
 70
     0
178
     0
340
11
  0
ENDTAB
  0
TABLE
  2
BLOCK_RECORD
  5
1
330
0
100
AcDbSymbolTable
 70
     9
  0
BLOCK_RECORD
  5
1F
330
1
100
AcDbSymbolTableRecord
100
AcDbBlockTableRecord
  2
*Model_Space
340
22
 70
     0
280
     1
281
     0
  0
BLOCK_RECORD
  5
1B
330
1
100
AcDbSymbolTableRecord
100
AcDbBlockTableRecord
  2
*Paper_Space
340
1E
 70
     0
280
     1
281
     0
  0
BLOCK_RECORD
  5
23
330
1
100
AcDbSymbolTableRecord
100
AcDbBlockTableRecord
  2
*Paper_Space0
340
26
 70
     0
280
     1
281
     0
  0
BLOCK_RECORD
  5
41
330
1
100
AcDbSymbolTableRecord
100
AcDbBlockTableRecord
  2
block 2
340
0
102
{BLKREFS
331
42
102
}
 70
     0
280
     1
281
     0
  0
BLOCK_RECORD
  5
53
330
1
100
AcDbSymbolTableRecord
100
AcDbBlockTableRecord
  2
block 3
340
0
102
{BLKREFS
331
54
102
}
 70
     0
280
     1
281
     0
  0
BLOCK_RECORD
  5
75
330
1
100
AcDbSymbolTableRecord
100
AcDbBlockTableRecord
  2
block 4
340
0
102
{BLKREFS
331
76
102
}
 70
     0
280
     1
281
     0
  0
BLOCK_RECORD
  5
7E
330
1
100
AcDbSymbolTableRecord
100
AcDbBlockTableRecord
  2
block 5
340
0
102
{BLKREFS
331
7F
102
}
 70
     0
280
     1
281
     0
  0
BLOCK_RECORD
  5
84
330
1
100
AcDbSymbolTableRecord
100
AcDbBlockTableRecord
  2
block 6
340
0
102
{BLKREFS
331
85
102
}
 70
     0
280
     1
281
     0
  0
BLOCK_RECORD
  5
94
330
1
100
AcDbSymbolTableRecord
100
AcDbBlockTableRecord
  2
block 7
340
0
102
{BLKREFS
331
95
102
}
 70
     0
280
     1
281
     0
  0
BLOCK_RECORD
  5
AC
330
1
100
AcDbSymbolTableRecord
100
AcDbBlockTableRecord
  2
block 8
340
0
102
{BLKREFS
331
AD
102
}
 70
     0
280
     1
281
     0
  0
BLOCK_RECORD
  5
D0
330
1
100
AcDbSymbolTableRecord
100
AcDbBlockTableRecord
  2
block 9
340
0
102
{BLKREFS
331
D1
102
}
 70
     0
280
     1
281
     0
  0
ENDTAB
  0
ENDSEC
  0
SECTION
  2
BLOCKS
  0
BLOCK
  5
20
330
1F
100
AcDbEntity
  8
0
100
AcDbBlockBegin
  2
*Model_Space
 70
     0
 10
0.0
 20
0.0
 30
0.0
  3
*Model_Space
  1

  0
ENDBLK
  5
21
330
1F
100
AcDbEntity
  8
0
100
AcDbBlockEnd
  0
BLOCK
  5
1C
330
1B
100
AcDbEntity
 67
     1
  8
0
100
AcDbBlockBegin
  2
*Paper_Space
 70
     0
 10
0.0
 20
0.0
 30
0.0
  3
*Paper_Space
  1

  0
ENDBLK
  5
1D
330
1B
100
AcDbEntity
 67
     1
  8
0
100
AcDbBlockEnd
  0
BLOCK
  5
24
330
23
100
AcDbEntity
  8
0
100
AcDbBlockBegin
  2
*Paper_Space0
 70
     0
 10
0.0
 20
0.0
 30
0.0
  3
*Paper_Space0
  1

  0
ENDBLK
  5
25
330
23
100
AcDbEntity
  8
0
100
AcDbBlockEnd
  0
BLOCK
  5
43
330
41
100
AcDbEntity
  8
0
100
AcDbBlockBegin
  2
block 2
 70
     0
 10
0.0
 20
0.0
 30
0.0
  3
block 2
  1

  0
SPLINE
  5
45
330
41
100
AcDbEntity
  8
_U+30EC_U+30A4_U+30E4_U+30FC 1
 62
   179
420
  2234388
370
     9
100
AcDbSpline
210
0.0
220
0.0
230
1.0
 70
    11
 71
     3
 72
    17
 73
    13
 74
     0
 42
0.0000000001
 43
0.0000000001
 12
1.0
 22
0.0
 32
0.0
 13
1.0
 23
0.0
 33
0.0
 40
0.0
 40
0.0
 40
0.0
 40
0.0
 40
1.0
 40
1.0
 40
1.0
 40
2.0
 40
2.0
 40
2.0
 40
3.0
 40
3.0
 40
3.0
 40
4.0
 40
4.0
 40
4.0
 40
4.0
 10
70.70075708516231
 20
-144.2265269083876
 30
0.0
 10
70.70075708516231
 20
-144.1713877417352
 30
0.0
 10
70.65598958630441
 20
-144.126620241746
 30
0.0
 10
70.6001801432838
 20
-144.126620241746
 30
0.0
 10
70.54504097802385
 20
-144.126620241746
 30
0.0
 10
70.50027347916595
 20
-144.1713877417352
 30
0.0
 10
70.50027347916595
 20
-144.2265269083876
 30
0.0
 10
70.50027347916595
 20
-144.2816307972632
 30
0.0
 10
70.54504097802385
 20
-144.3264335750293
 30
0.0
 10
70.6001801432838
 20
-144.3264335750293
 30
0.0
 10
70.65598958630441
 20
-144.3264335750293
 30
0.0
 10
70.70075708516231
 20
-144.2816307972632
 30
0.0
 10
70.70075708516231
 20
-144.2265269083876
 30
0.0
  0
POLYLINE
  5
46
330
41
100
AcDbEntity
  8
_U+30EC_U+30A4_U+30E4_U+30FC 1
 62
   179
420
  2234388
370
     9
100
AcDb2dPolyline
 66
     1
 10
0.0
 20
0.0
 30
0.0
  0
VERTEX
  5
47
330
46
100
AcDbEntity
  8
_U+30EC_U+30A4_U+30E4_U+30FC 1
 62
   179
420
  2234388
370
     9
100
AcDbVertex
100
AcDb2dVertex
 10
70.6001801432838
 20
-144.2265269083876
 30
0.0
  0
VERTEX
  5
48
330
46
100
AcDbEntity
  8
_U+30EC_U+30A4_U+30E4_U+30FC 1
 62
   179
420
  2234388
370
     9
100
AcDbVertex
100
AcDb2dVertex
 10
75.60002890461591
 20
-144.2265269083876
 30
0.0
  0
SEQEND
  5
49
330
46
100
AcDbEntity
  8
_U+30EC_U+30A4_U+30E4_U+30FC 1
 62
   179
420
  2234388
370
     9
  0
POLYLINE
  5
4A
330
41
100
AcDbEntity
  8
_U+30EC_U+30A4_U+30E4_U+30FC 1
 62
   179
420
  2234388
370
     9
100
AcDb2dPolyline
 66
     1
 10
0.0
 20
0.0
 30
0.0
  0
VERTEX
  5
4B
330
4A
100
AcDbEntity
  8
_U+30EC_U+30A4_U+30E4_U+30FC 1
 62
   179
420
  2234388
370
     9
100
AcDbVertex
100
AcDb2dVertex
 10
70.6001801432838
 20
-141.7656902423362
 30
0.0
  0
VERTEX
  5
4C
330
4A
100
AcDbEntity
  8
_U+30EC_U+30A4_U+30E4_U+30FC 1
 62
   179
420
  2234388
370
     9
100
AcDbVertex
100
AcDb2dVertex
 10
70.6001801432838
 20
-145.2262638525826
 30
0.0
  0
SEQEND
  5
4D
330
4A
100
AcDbEntity
  8
_U+30EC_U+30A4_U+30E4_U+30FC 1
 62
   179
420
  2234388
370
     9
  0
SPLINE
  5
4E
330
41
100
AcDbEntity
  8
_U+30EC_U+30A4_U+30E4_U+30FC 1
 62
   179
420
  2234388
370
     9
100
AcDbSpline
210
0.0
220
0.0
230
1.0
 70
    11
 71
     3
 72
    17
 73
    13
 74
     0
 42
0.0000000001
 43
0.0000000001
 12
1.0
 22
0.0
 32
0.0
 13
1.0
 23
0.0
 33
0.0
 40
0.0
 40
0.0
 40
0.0
 40
0.0
 40
1.0
 40
1.0
 40
1.0
 40
2.0
 40
2.0
 40
2.0
 40
3.0
 40
3.0
 40
3.0
 40
4.0
 40
4.0
 40
4.0
 40
4.0
 10
75.7006411242713
 20
-144.2265269083876
 30
0.0
 10
75.7006411242713
 20
-144.1713877417352
 30
0.0
 10
75.65583834763655
 20
-144.126620241746
 30
0.0
 10
75.60002890461591
 20
-144.126620241746
 30
0.0
 10
75.54492501713284
 20
-144.126620241746
 30
0.0
 10
75.50012224049807
 20
-144.1713877417352
 30
0.0
 10
75.50012224049807
 20
-144.2265269083876
 30
0.0
 10
75.50012224049807
 20
-144.2816307972632
 30
0.0
 10
75.54492501713284
 20
-144.3264335750293
 30
0.0
 10
75.60002890461591
 20
-144.3264335750293
 30
0.0
 10
75.65583834763655
 20
-144.3264335750293
 30
0.0
 10
75.7006411242713
 20
-144.2816307972632
 30
0.0
 10
75.7006411242713
 20
-144.2265269083876
 30
0.0
  0
POLYLINE
  5
4F
330
41
100
AcDbEntity
  8
_U+30EC_U+30A4_U+30E4_U+30FC 1
 62
   179
420
  2234388
370
     9
100
AcDb2dPolyline
 66
     1
 10
0.0
 20
0.0
 30
0.0
  0
VERTEX
  5
50
330
4F
100
AcDbEntity
  8
_U+30EC_U+30A4_U+30E4_U+30FC 1
 62
   179
420
  2234388
370
     9
100
AcDbVertex
100
AcDb2dVertex
 10
75.60002890461591
 20
-141.7656902423362
 30
0.0
  0
VERTEX
  5
51
330
4F
100
AcDbEntity
  8
_U+30EC_U+30A4_U+30E4_U+30FC 1
 62
   179
420
  2234388
370
     9
100
AcDbVertex
100
AcDb2dVertex
 10
75.60002890461591
 20
-145.2262638525826
 30
0.0
  0
SEQEND
  5
52
330
4F
100
AcDbEntity
  8
_U+30EC_U+30A4_U+30E4_U+30FC 1
 62
   179
420
  2234388
370
     9
  0
INSERT
  5
54
330
41
100
AcDbEntity
  8
_U+30EC_U+30A4_U+30E4_U+30FC 1
100
AcDbBlockReference
  2
block 3
 10
0.0
 20
0.0
 30
0.0
  0
SPLINE
  5
59
330
41
100
AcDbEntity
  8
_U+30EC_U+30A4_U+30E4_U+30FC 1
 62
   179
420
  2234388
370
     9
100
AcDbSpline
210
0.0
220
0.0
230
1.0
 70
    11
 71
     3
 72
    17
 73
    13
 74
     0
 42
0.0000000001
 43
0.0000000001
 12
1.0
 22
0.0
 32
0.0
 13
1.0
 23
0.0
 33
0.0
 40
0.0
 40
0.0
 40
0.0
 40
0.0
 40
1.0
 40
1.0
 40
1.0
 40
2.0
 40
2.0
 40
2.0
 40
3.0
 40
3.0
 40
3.0
 40
4.0
 40
4.0
 40
4.0
 40
4.0
 10
113.2740487768049
 20
-140.2257094093881
 30
0.0
 10
113.2740487768049
 20
-140.2808485760412
 30
0.0
 10
113.3188515534397
 20
-140.3256160760297
 30
0.0
 10
113.3739583049899
 20
-140.3256160760297
 30
0.0
 10
113.4290946061827
 20
-140.3256160760297
 30
0.0
 10
113.4738621050406
 20
-140.2808485760412
 30
0.0
 10
113.4738621050406
 20
-140.2257094093881
 30
0.0
 10
113.4738621050406
 20
-140.1706055205132
 30
0.0
 10
113.4290946061827
 20
-140.1258027427465
 30
0.0
 10
113.3739583049899
 20
-140.1258027427465
 30
0.0
 10
113.3188515534397
 20
-140.1258027427465
 30
0.0
 10
113.2740487768049
 20
-140.1706055205132
 30
0.0
 10
113.2740487768049
 20
-140.2257094093881
 30
0.0
  0
SPLINE
  5
5A
330
41
100
AcDbEntity
  8
_U+30EC_U+30A4_U+30E4_U+30FC 1
 62
   179
420
  2234388
370
     9
100
AcDbSpline
210
0.0
220
0.0
230
1.0
 70
    11
 71
     3
 72
    17
 73
    13
 74
     0
 42
0.0000000001
 43
0.0000000001
 12
1.0
 22
0.0
 32
0.0
 13
1.0
 23
0.0
 33
0.0
 40
0.0
 40
0.0
 40
0.0
 40
0.0
 40
1.0
 40
1.0
 40
1.0
 40
2.0
 40
2.0
 40
2.0
 40
3.0
 40
3.0
 40
3.0
 40
4.0
 40
4.0
 40
4.0
 40
4.0
 10
113.2740487768049
 20
-127.225495523749
 30
0.0
 10
113.2740487768049
 20
-127.2805994126243
 30
0.0
 10
113.3188515534397
 20
-127.325402190391
 30
0.0
 10
113.3739583049899
 20
-127.325402190391
 30
0.0
 10
113.4290946061827
 20
-127.325402190391
 30
0.0
 10
113.4738621050406
 20
-127.2805994126243
 30
0.0
 10
113.4738621050406
 20
-127.225495523749
 30
0.0
 10
113.4738621050406
 20
-127.1696860793186
 30
0.0
 10
113.4290946061827
 20
-127.1248833015522
 30
0.0
 10
113.3739583049899
 20
-127.1248833015522
 30
0.0
 10
113.3188515534397
 20
-127.1248833015522
 30
0.0
 10
113.2740487768049
 20
-127.1696860793186
 30
0.0
 10
113.2740487768049
 20
-127.225495523749
 30
0.0
  0
POLYLINE
  5
5B
330
41
100
AcDbEntity
  8
_U+30EC_U+30A4_U+30E4_U+30FC 1
 62
   179
420
  2234388
370
     9
100
AcDb2dPolyline
 66
     1
 10
0.0
 20
0.0
 30
0.0
  0
VERTEX
  5
5C
330
5B
100
AcDbEntity
  8
_U+30EC_U+30A4_U+30E4_U+30FC 1
 62
   179
420
  2234388
370
     9
100
AcDbVertex
100
AcDb2dVertex
 10
113.3739583049899
 20
-127.2275416348599
 30
0.0
  0
VERTEX
  5
5D
330
5B
100
AcDbEntity
  8
_U+30EC_U+30A4_U+30E4_U+30FC 1
 62
   179
420
  2234388
370
     9
100
AcDbVertex
100
AcDb2dVertex
 10
113.3739583049899
 20
-140.2257094093881
 30
0.0
  0
SEQEND
  5
5E
330
5B
100
AcDbEntity
  8
_U+30EC_U+30A4_U+30E4_U+30FC 1
 62
   179
420
  2234388
370
     9
  0
POLYLINE
  5
5F
330
41
100
AcDbEntity
  8
_U+30EC_U+30A4_U+30E4_U+30FC 1
 62
   179
420
  2234388
370
     9
100
AcDb2dPolyline
 66
     1
 10
0.0
 20
0.0
 30
0.0
  0
VERTEX
  5
60
330
5F
100
AcDbEntity
  8
_U+30EC_U+30A4_U+30E4_U+30FC 1
 62
   179
420
  2234388
370
     9
100
AcDbVertex
100
AcDb2dVertex
 10
111.7499429823548
 20
-127.225495523749
 30
0.0
  0
VERTEX
  5
61
330
5F
100
AcDbEntity
  8
_U+30EC_U+30A4_U+30E4_U+30FC 1
 62
   179
420
  2234388
370
     9
100
AcDbVertex
100
AcDb2dVertex
 10
114.3737305269624
 20
-127.225495523749
 30
0.0
  0
SEQEND
  5
62
330
5F
100
AcDbEntity
  8
_U+30EC_U+30A4_U+30E4_U+30FC 1
 62
   179
420
  2234388
370
     9
  0
SPLINE
  5
63
330
41
100
AcDbEntity
  8
_U+30EC_U+30A4_U+30E4_U+30FC 1
 62
   179
420
  2234388
370
     9
100
AcDbSpline
210
0.0
220
0.0
230
1.0
 70
    11
 71
     3
 72
    17
 73
    13
 74
     0
 42
0.0000000001
 43
0.0000000001
 12
1.0
 22
0.0
 32
0.0
 13
1.0
 23
0.0
 33
0.0
 40
0.0
 40
0.0
 40
0.0
 40
0.0
 40
1.0
 40
1.0
 40
1.0
 40
2.0
 40
2.0
 40
2.0
 40
3.0
 40
3.0
 40
3.0
 40
4.0
 40
4.0
 40
4.0
 40
4.0
 10
113.2740487768049
 20
-126.2255469128879
 30
0.0
 10
113.2740487768049
 20
-126.2806508017632
 30
0.0
 10
113.3188515534397
 20
-126.3254535795299
 30
0.0
 10
113.3739583049899
 20
-126.3254535795299
 30
0.0
 10
113.4290946061827
 20
-126.3254535795299
 30
0.0
 10
113.4738621050406
 20
-126.2806508017632
 30
0.0
 10
113.4738621050406
 20
-126.2255469128879
 30
0.0
 10
113.4738621050406
 20
-126.1697374684575
 30
0.0
 10
113.4290946061827
 20
-126.1249346906911
 30
0.0
 10
113.3739583049899
 20
-126.1249346906911
 30
0.0
 10
113.3188515534397
 20
-126.1249346906911
 30
0.0
 10
113.2740487768049
 20
-126.1697374684575
 30
0.0
 10
113.2740487768049
 20
-126.2255469128879
 30
0.0
  0
POLYLINE
  5
64
330
41
100
AcDbEntity
  8
_U+30EC_U+30A4_U+30E4_U+30FC 1
 62
   179
420
  2234388
370
     9
100
AcDb2dPolyline
 66
     1
 10
0.0
 20
0.0
 30
0.0
  0
VERTEX
  5
65
330
64
100
AcDbEntity
  8
_U+30EC_U+30A4_U+30E4_U+30FC 1
 62
   179
420
  2234388
370
     9
100
AcDbVertex
100
AcDb2dVertex
 10
113.3739583049899
 20
-123.2277824691931
 30
0.0
  0
VERTEX
  5
66
330
64
100
AcDbEntity
  8
_U+30EC_U+30A4_U+30E4_U+30FC 1
 62
   179
420
  2234388
370
     9
100
AcDbVertex
100
AcDb2dVertex
 10
113.3739583049899
 20
-140.2257094093881
 30
0.0
  0
SEQEND
  5
67
330
64
100
AcDbEntity
  8
_U+30EC_U+30A4_U+30E4_U+30FC 1
 62
   179
420
  2234388
370
     9
  0
POLYLINE
  5
68
330
41
100
AcDbEntity
  8
_U+30EC_U+30A4_U+30E4_U+30FC 1
 62
   179
420
  2234388
370
     9
100
AcDb2dPolyline
 66
     1
 10
0.0
 20
0.0
 30
0.0
  0
VERTEX
  5
69
330
68
100
AcDbEntity
  8
_U+30EC_U+30A4_U+30E4_U+30FC 1
 62
   179
420
  2234388
370
     9
100
AcDbVertex
100
AcDb2dVertex
 10
111.7499429823548
 20
-126.2255469128879
 30
0.0
  0
VERTEX
  5
6A
330
68
100
AcDbEntity
  8
_U+30EC_U+30A4_U+30E4_U+30FC 1
 62
   179
420
  2234388
370
     9
100
AcDbVertex
100
AcDb2dVertex
 10
114.3737305269624
 20
-126.2255469128879
 30
0.0
  0
SEQEND
  5
6B
330
68
100
AcDbEntity
  8
_U+30EC_U+30A4_U+30E4_U+30FC 1
 62
   179
420
  2234388
370
     9
  0
POLYLINE
  5
6C
330
41
100
AcDbEntity
  8
_U+30EC_U+30A4_U+30E4_U+30FC 1
 62
   179
420
  2234388
370
     9
100
AcDb2dPolyline
 66
     1
 10
0.0
 20
0.0
 30
0.0
  0
VERTEX
  5
6D
330
6C
100
AcDbEntity
  8
_U+30EC_U+30A4_U+30E4_U+30FC 1
 62
   179
420
  2234388
370
     9
100
AcDbVertex
100
AcDb2dVertex
 10
76.75001387527735
 20
-140.2257094093881
 30
0.0
  0
VERTEX
  5
6E
330
6C
100
AcDbEntity
  8
_U+30EC_U+30A4_U+30E4_U+30FC 1
 62
   179
420
  2234388
370
     9
100
AcDbVertex
100
AcDb2dVertex
 10
114.3737305269624
 20
-140.2257094093881
 30
0.0
  0
SEQEND
  5
6F
330
6C
100
AcDbEntity
  8
_U+30EC_U+30A4_U+30E4_U+30FC 1
 62
   179
420
  2234388
370
     9
  0
SPLINE
  5
70
330
41
100
AcDbEntity
  8
_U+30EC_U+30A4_U+30E4_U+30FC 1
 62
   179
420
  2234388
370
     9
100
AcDbSpline
210
0.0
220
0.0
230
1.0
 70
    11
 71
     3
 72
    17
 73
    13
 74
     0
 42
0.0000000001
 43
0.0000000001
 12
1.0
 22
0.0
 32
0.0
 13
1.0
 23
0.0
 33
0.0
 40
0.0
 40
0.0
 40
0.0
 40
0.0
 40
1.0
 40
1.0
 40
1.0
 40
2.0
 40
2.0
 40
2.0
 40
3.0
 40
3.0
 40
3.0
 40
4.0
 40
4.0
 40
4.0
 40
4.0
 10
113.2740487768049
 20
-137.2257224656937
 30
0.0
 10
113.2740487768049
 20
-137.2808616323462
 30
0.0
 10
113.3188515534397
 20
-137.3256291323354
 30
0.0
 10
113.3739583049899
 20
-137.3256291323354
 30
0.0
 10
113.4290946061827
 20
-137.3256291323354
 30
0.0
 10
113.4738621050406
 20
-137.2808616323462
 30
0.0
 10
113.4738621050406
 20
-137.2257224656937
 30
0.0
 10
113.4738621050406
 20
-137.1706185768182
 30
0.0
 10
113.4290946061827
 20
-137.1258157990521
 30
0.0
 10
113.3739583049899
 20
-137.1258157990521
 30
0.0
 10
113.3188515534397
 20
-137.1258157990521
 30
0.0
 10
113.2740487768049
 20
-137.1706185768182
 30
0.0
 10
113.2740487768049
 20
-137.2257224656937
 30
0.0
  0
POLYLINE
  5
71
330
41
100
AcDbEntity
  8
_U+30EC_U+30A4_U+30E4_U+30FC 1
 62
   179
420
  2234388
370
     9
100
AcDb2dPolyline
 66
     1
 10
0.0
 20
0.0
 30
0.0
  0
VERTEX
  5
72
330
71
100
AcDbEntity
  8
_U+30EC_U+30A4_U+30E4_U+30FC 1
 62
   179
420
  2234388
370
     9
100
AcDbVertex
100
AcDb2dVertex
 10
76.75001387527735
 20
-137.2257224656937
 30
0.0
  0
VERTEX
  5
73
330
71
100
AcDbEntity
  8
_U+30EC_U+30A4_U+30E4_U+30FC 1
 62
   179
420
  2234388
370
     9
100
AcDbVertex
100
AcDb2dVertex
 10
114.3737305269624
 20
-137.2257224656937
 30
0.0
  0
SEQEND
  5
74
330
71
100
AcDbEntity
  8
_U+30EC_U+30A4_U+30E4_U+30FC 1
 62
   179
420
  2234388
370
     9
  0
INSERT
  5
76
330
41
100
AcDbEntity
  8
_U+30EC_U+30A4_U+30E4_U+30FC 1
100
AcDbBlockReference
  2
block 4
 10
0.0
 20
0.0
 30
0.0
  0
INSERT
  5
7F
330
41
100
AcDbEntity
  8
_U+30EC_U+30A4_U+30E4_U+30FC 1
100
AcDbBlockReference
  2
block 5
 10
0.0
 20
0.0
 30
0.0
  0
INSERT
  5
85
330
41
100
AcDbEntity
  8
_U+30EC_U+30A4_U+30E4_U+30FC 1
100
AcDbBlockReference
  2
block 6
 10
0.0
 20
0.0
 30
0.0
  0
SPLINE
  5
8A
330
41
100
AcDbEntity
  8
_U+30EC_U+30A4_U+30E4_U+30FC 1
 62
   179
420
  2234388
370
     9
100
AcDbSpline
210
0.0
220
0.0
230
1.0
 70
    11
 71
     3
 72
    17
 73
    13
 74
     0
 42
0.0000000001
 43
0.0000000001
 12
1.0
 22
0.0
 32
0.0
 13
1.0
 23
0.0
 33
0.0
 40
0.0
 40
0.0
 40
0.0
 40
0.0
 40
1.0
 40
1.0
 40
1.0
 40
2.0
 40
2.0
 40
2.0
 40
3.0
 40
3.0
 40
3.0
 40
4.0
 40
4.0
 40
4.0
 40
4.0
 10
70.6001801432838
 20
-117.3452835817749
 30
0.0
 10
70.54504097802385
 20
-117.3452835817749
 30
0.0
 10
70.50027347916595
 20
-117.3900863595413
 30
0.0
 10
70.50027347916595
 20
-117.4451902484165
 30
0.0
 10
70.50027347916595
 20
-117.5003294150693
 30
0.0
 10
70.54504097802385
 20
-117.5450969150582
 30
0.0
 10
70.6001801432838
 20
-117.5450969150582
 30
0.0
 10
70.65528403076686
 20
-117.5450969150582
 30
0.0
 10
70.70008680740163
 20
-117.5003294150693
 30
0.0
 10
70.70008680740163
 20
-117.4451902484165
 30
0.0
 10
70.70008680740163
 20
-117.3900863595413
 30
0.0
 10
70.65528403076686
 20
-117.3452835817749
 30
0.0
 10
70.6001801432838
 20
-117.3452835817749
 30
0.0
  0
POLYLINE
  5
8B
330
41
100
AcDbEntity
  8
_U+30EC_U+30A4_U+30E4_U+30FC 1
 62
   179
420
  2234388
370
     9
100
AcDb2dPolyline
 66
     1
 10
0.0
 20
0.0
 30
0.0
  0
VERTEX
  5
8C
330
8B
100
AcDbEntity
  8
_U+30EC_U+30A4_U+30E4_U+30FC 1
 62
   179
420
  2234388
370
     9
100
AcDbVertex
100
AcDb2dVertex
 10
73.56951062308542
 20
-117.4451902484165
 30
0.0
  0
VERTEX
  5
8D
330
8B
100
AcDbEntity
  8
_U+30EC_U+30A4_U+30E4_U+30FC 1
 62
   179
420
  2234388
370
     9
100
AcDbVertex
100
AcDb2dVertex
 10
70.6001801432838
 20
-117.4451902484165
 30
0.0
  0
SEQEND
  5
8E
330
8B
100
AcDbEntity
  8
_U+30EC_U+30A4_U+30E4_U+30FC 1
 62
   179
420
  2234388
370
     9
  0
SPLINE
  5
8F
330
41
100
AcDbEntity
  8
_U+30EC_U+30A4_U+30E4_U+30FC 1
 62
   179
420
  2234388
370
     9
100
AcDbSpline
210
0.0
220
0.0
230
1.0
 70
    11
 71
     3
 72
    17
 73
    13
 74
     0
 42
0.0000000001
 43
0.0000000001
 12
1.0
 22
0.0
 32
0.0
 13
1.0
 23
0.0
 33
0.0
 40
0.0
 40
0.0
 40
0.0
 40
0.0
 40
1.0
 40
1.0
 40
1.0
 40
2.0
 40
2.0
 40
2.0
 40
3.0
 40
3.0
 40
3.0
 40
4.0
 40
4.0
 40
4.0
 40
4.0
 10
73.56951062308542
 20
-117.3452835817749
 30
0.0
 10
73.51437145782546
 20
-117.3452835817749
 30
0.0
 10
73.46960395896758
 20
-117.3900863595413
 30
0.0
 10
73.46960395896758
 20
-117.4451902484165
 30
0.0
 10
73.46960395896758
 20
-117.5003294150693
 30
0.0
 10
73.51437145782546
 20
-117.5450969150582
 30
0.0
 10
73.56951062308542
 20
-117.5450969150582
 30
0.0
 10
73.62461451056849
 20
-117.5450969150582
 30
0.0
 10
73.66941728720325
 20
-117.5003294150693
 30
0.0
 10
73.66941728720325
 20
-117.4451902484165
 30
0.0
 10
73.66941728720325
 20
-117.3900863595413
 30
0.0
 10
73.62461451056849
 20
-117.3452835817749
 30
0.0
 10
73.56951062308542
 20
-117.3452835817749
 30
0.0
  0
POLYLINE
  5
90
330
41
100
AcDbEntity
  8
_U+30EC_U+30A4_U+30E4_U+30FC 1
 62
   179
420
  2234388
370
     9
100
AcDb2dPolyline
 66
     1
 10
0.0
 20
0.0
 30
0.0
  0
VERTEX
  5
91
330
90
100
AcDbEntity
  8
_U+30EC_U+30A4_U+30E4_U+30FC 1
 62
   179
420
  2234388
370
     9
100
AcDbVertex
100
AcDb2dVertex
 10
73.56951062308542
 20
-115.9851841376703
 30
0.0
  0
VERTEX
  5
92
330
90
100
AcDbEntity
  8
_U+30EC_U+30A4_U+30E4_U+30FC 1
 62
   179
420
  2234388
370
     9
100
AcDbVertex
100
AcDb2dVertex
 10
73.56951062308542
 20
-118.7257383036519
 30
0.0
  0
SEQEND
  5
93
330
90
100
AcDbEntity
  8
_U+30EC_U+30A4_U+30E4_U+30FC 1
 62
   179
420
  2234388
370
     9
  0
INSERT
  5
95
330
41
100
AcDbEntity
  8
_U+30EC_U+30A4_U+30E4_U+30FC 1
100
AcDbBlockReference
  2
block 7
 10
0.0
 20
0.0
 30
0.0
  0
SPLINE
  5
9A
330
41
100
AcDbEntity
  8
_U+30EC_U+30A4_U+30E4_U+30FC 1
 62
   179
420
  2234388
370
     9
100
AcDbSpline
210
0.0
220
0.0
230
1.0
 70
    11
 71
     3
 72
    17
 73
    13
 74
     0
 42
0.0000000001
 43
0.0000000001
 12
1.0
 22
0.0
 32
0.0
 13
1.0
 23
0.0
 33
0.0
 40
0.0
 40
0.0
 40
0.0
 40
0.0
 40
1.0
 40
1.0
 40
1.0
 40
2.0
 40
2.0
 40
2.0
 40
3.0
 40
3.0
 40
3.0
 40
4.0
 40
4.0
 40
4.0
 40
4.0
 10
70.6001801432838
 20
-114.3263524714185
 30
0.0
 10
70.54504097802385
 20
-114.3263524714185
 30
0.0
 10
70.50027347916595
 20
-114.3711552491849
 30
0.0
 10
70.50027347916595
 20
-114.4262591380601
 30
0.0
 10
70.50027347916595
 20
-114.4813983047129
 30
0.0
 10
70.54504097802385
 20
-114.5261658047017
 30
0.0
 10
70.6001801432838
 20
-114.5261658047017
 30
0.0
 10
70.65528403076686
 20
-114.5261658047017
 30
0.0
 10
70.70008680740163
 20
-114.4813983047129
 30
0.0
 10
70.70008680740163
 20
-114.4262591380601
 30
0.0
 10
70.70008680740163
 20
-114.3711552491849
 30
0.0
 10
70.65528403076686
 20
-114.3263524714185
 30
0.0
 10
70.6001801432838
 20
-114.3263524714185
 30
0.0
  0
POLYLINE
  5
9B
330
41
100
AcDbEntity
  8
_U+30EC_U+30A4_U+30E4_U+30FC 1
 62
   179
420
  2234388
370
     9
100
AcDb2dPolyline
 66
     1
 10
0.0
 20
0.0
 30
0.0
  0
VERTEX
  5
9C
330
9B
100
AcDbEntity
  8
_U+30EC_U+30A4_U+30E4_U+30FC 1
 62
   179
420
  2234388
370
     9
100
AcDbVertex
100
AcDb2dVertex
 10
110.5999580116933
 20
-114.4262591380601
 30
0.0
  0
VERTEX
  5
9D
330
9B
100
AcDbEntity
  8
_U+30EC_U+30A4_U+30E4_U+30FC 1
 62
   179
420
  2234388
370
     9
100
AcDbVertex
100
AcDb2dVertex
 10
70.6001801432838
 20
-114.4262591380601
 30
0.0
  0
SEQEND
  5
9E
330
9B
100
AcDbEntity
  8
_U+30EC_U+30A4_U+30E4_U+30FC 1
 62
   179
420
  2234388
370
     9
  0
POLYLINE
  5
9F
330
41
100
AcDbEntity
  8
_U+30EC_U+30A4_U+30E4_U+30FC 1
 62
   179
420
  2234388
370
     9
100
AcDb2dPolyline
 66
     1
 10
0.0
 20
0.0
 30
0.0
  0
VERTEX
  5
A0
330
9F
100
AcDbEntity
  8
_U+30EC_U+30A4_U+30E4_U+30FC 1
 62
   179
420
  2234388
370
     9
100
AcDbVertex
100
AcDb2dVertex
 10
110.5903271786057
 20
-114.426435526949
 30
0.0
  0
VERTEX
  5
A1
330
9F
100
AcDbEntity
  8
_U+30EC_U+30A4_U+30E4_U+30FC 1
 62
   179
420
  2234388
370
     9
100
AcDbVertex
100
AcDb2dVertex
 10
70.59016125465051
 20
-114.426435526949
 30
0.0
  0
SEQEND
  5
A2
330
9F
100
AcDbEntity
  8
_U+30EC_U+30A4_U+30E4_U+30FC 1
 62
   179
420
  2234388
370
     9
  0
POLYLINE
  5
A3
330
41
100
AcDbEntity
  8
_U+30EC_U+30A4_U+30E4_U+30FC 1
 62
   179
420
  2234388
370
     9
100
AcDb2dPolyline
 66
     1
 10
0.0
 20
0.0
 30
0.0
  0
VERTEX
  5
A4
330
A3
100
AcDbEntity
  8
_U+30EC_U+30A4_U+30E4_U+30FC 1
 62
   179
420
  2234388
370
     9
100
AcDbVertex
100
AcDb2dVertex
 10
70.6001801432838
 20
-112.9662177495361
 30
0.0
  0
VERTEX
  5
A5
330
A3
100
AcDbEntity
  8
_U+30EC_U+30A4_U+30E4_U+30FC 1
 62
   179
420
  2234388
370
     9
100
AcDbVertex
100
AcDb2dVertex
 10
70.6001801432838
 20
-118.7257383036519
 30
0.0
  0
SEQEND
  5
A6
330
A3
100
AcDbEntity
  8
_U+30EC_U+30A4_U+30E4_U+30FC 1
 62
   179
420
  2234388
370
     9
  0
SPLINE
  5
A7
330
41
100
AcDbEntity
  8
_U+30EC_U+30A4_U+30E4_U+30FC 1
 62
   179
420
  2234388
370
     9
100
AcDbSpline
210
0.0
220
0.0
230
1.0
 70
    11
 71
     3
 72
    17
 73
    13
 74
     0
 42
0.0000000001
 43
0.0000000001
 12
1.0
 22
0.0
 32
0.0
 13
1.0
 23
0.0
 33
0.0
 40
0.0
 40
0.0
 40
0.0
 40
0.0
 40
1.0
 40
1.0
 40
1.0
 40
2.0
 40
2.0
 40
2.0
 40
3.0
 40
3.0
 40
3.0
 40
4.0
 40
4.0
 40
4.0
 40
4.0
 10
110.5999580116933
 20
-114.3263524714185
 30
0.0
 10
110.5448541242103
 20
-114.3263524714185
 30
0.0
 10
110.5000513475755
 20
-114.3711552491849
 30
0.0
 10
110.5000513475755
 20
-114.4262591380601
 30
0.0
 10
110.5000513475755
 20
-114.4813983047129
 30
0.0
 10
110.5448541242103
 20
-114.5261658047017
 30
0.0
 10
110.5999580116933
 20
-114.5261658047017
 30
0.0
 10
110.6550999723361
 20
-114.5261658047017
 30
0.0
 10
110.6998646758112
 20
-114.4813983047129
 30
0.0
 10
110.6998646758112
 20
-114.4262591380601
 30
0.0
 10
110.6998646758112
 20
-114.3711552491849
 30
0.0
 10
110.6550999723361
 20
-114.3263524714185
 30
0.0
 10
110.5999580116933
 20
-114.3263524714185
 30
0.0
  0
POLYLINE
  5
A8
330
41
100
AcDbEntity
  8
_U+30EC_U+30A4_U+30E4_U+30FC 1
 62
   179
420
  2234388
370
     9
100
AcDb2dPolyline
 66
     1
 10
0.0
 20
0.0
 30
0.0
  0
VERTEX
  5
A9
330
A8
100
AcDbEntity
  8
_U+30EC_U+30A4_U+30E4_U+30FC 1
 62
   179
420
  2234388
370
     9
100
AcDbVertex
100
AcDb2dVertex
 10
110.5999580116933
 20
-112.9662177495361
 30
0.0
  0
VERTEX
  5
AA
330
A8
100
AcDbEntity
  8
_U+30EC_U+30A4_U+30E4_U+30FC 1
 62
   179
420
  2234388
370
     9
100
AcDbVertex
100
AcDb2dVertex
 10
110.5999580116933
 20
-124.9255255243242
 30
0.0
  0
SEQEND
  5
AB
330
A8
100
AcDbEntity
  8
_U+30EC_U+30A4_U+30E4_U+30FC 1
 62
   179
420
  2234388
370
     9
  0
INSERT
  5
AD
330
41
100
AcDbEntity
  8
_U+30EC_U+30A4_U+30E4_U+30FC 1
100
AcDbBlockReference
  2
block 8
 10
0.0
 20
0.0
 30
0.0
  0
POLYLINE
  5
C8
330
41
100
AcDbEntity
  8
_U+30EC_U+30A4_U+30E4_U+30FC 1
 62
   179
420
  2234388
370
     9
100
AcDb2dPolyline
 66
     1
 10
0.0
 20
0.0
 30
0.0
  0
VERTEX
  5
C9
330
C8
100
AcDbEntity
  8
_U+30EC_U+30A4_U+30E4_U+30FC 1
 62
   179
420
  2234388
370
     9
100
AcDbVertex
100
AcDb2dVertex
 10
68.09835076266633
 20
-140.2257094093881
 30
0.0
  0
VERTEX
  5
CA
330
C8
100
AcDbEntity
  8
_U+30EC_U+30A4_U+30E4_U+30FC 1
 62
   179
420
  2234388
370
     9
100
AcDbVertex
100
AcDb2dVertex
 10
68.09835076266633
 20
-120.2259258032767
 30
0.0
  0
SEQEND
  5
CB
330
C8
100
AcDbEntity
  8
_U+30EC_U+30A4_U+30E4_U+30FC 1
 62
   179
420
  2234388
370
     9
  0
POLYLINE
  5
CC
330
41
100
AcDbEntity
  8
_U+30EC_U+30A4_U+30E4_U+30FC 1
 62
   179
420
  2234388
370
     9
100
AcDb2dPolyline
 66
     1
 10
0.0
 20
0.0
 30
0.0
  0
VERTEX
  5
CD
330
CC
100
AcDbEntity
  8
_U+30EC_U+30A4_U+30E4_U+30FC 1
 62
   179
420
  2234388
370
     9
100
AcDbVertex
100
AcDb2dVertex
 10
69.10016907044115
 20
-140.2257094093881
 30
0.0
  0
VERTEX
  5
CE
330
CC
100
AcDbEntity
  8
_U+30EC_U+30A4_U+30E4_U+30FC 1
 62
   179
420
  2234388
370
     9
100
AcDbVertex
100
AcDb2dVertex
 10
66.62589163356523
 20
-140.2257094093881
 30
0.0
  0
SEQEND
  5
CF
330
CC
100
AcDbEntity
  8
_U+30EC_U+30A4_U+30E4_U+30FC 1
 62
   179
420
  2234388
370
     9
  0
INSERT
  5
D1
330
41
100
AcDbEntity
  8
_U+30EC_U+30A4_U+30E4_U+30FC 1
100
AcDbBlockReference
  2
block 9
 10
0.0
 20
0.0
 30
0.0
  0
SPLINE
  5
D9
330
41
100
AcDbEntity
  8
_U+30EC_U+30A4_U+30E4_U+30FC 1
 62
   179
420
  2234388
370
     9
100
AcDbSpline
210
0.0
220
0.0
230
1.0
 70
    11
 71
     3
 72
    17
 73
    13
 74
     0
 42
0.0000000001
 43
0.0000000001
 12
1.0
 22
0.0
 32
0.0
 13
1.0
 23
0.0
 33
0.0
 40
0.0
 40
0.0
 40
0.0
 40
0.0
 40
1.0
 40
1.0
 40
1.0
 40
2.0
 40
2.0
 40
2.0
 40
3.0
 40
3.0
 40
3.0
 40
4.0
 40
4.0
 40
4.0
 40
4.0
 10
68.19204853805368
 20
-140.2243335760552
 30
0.0
 10
68.19204853805368
 20
-140.1692296871796
 30
0.0
 10
68.1475985391877
 20
-140.1247796871913
 30
0.0
 10
68.09214187393584
 20
-140.1247796871913
 30
0.0
 10
68.0370027086759
 20
-140.1247796871913
 30
0.0
 10
67.992235209818
 20
-140.1692296871796
 30
0.0
 10
67.992235209818
 20
-140.2243335760552
 30
0.0
 10
67.992235209818
 20
-140.2801430204856
 30
0.0
 10
68.0370027086759
 20
-140.3249457982524
 30
0.0
 10
68.09214187393584
 20
-140.3249457982524
 30
0.0
 10
68.1475985391877
 20
-140.3249457982524
 30
0.0
 10
68.19204853805368
 20
-140.2801430204856
 30
0.0
 10
68.19204853805368
 20
-140.2243335760552
 30
0.0
  0
POLYLINE
  5
DA
330
41
100
AcDbEntity
  8
_U+30EC_U+30A4_U+30E4_U+30FC 1
 62
   179
420
  2234388
370
     9
100
AcDb2dPolyline
 66
     1
 10
0.0
 20
0.0
 30
0.0
  0
VERTEX
  5
DB
330
DA
100
AcDbEntity
  8
_U+30EC_U+30A4_U+30E4_U+30FC 1
 62
   179
420
  2234388
370
     9
100
AcDbVertex
100
AcDb2dVertex
 10
69.10016907044115
 20
-120.2257494143881
 30
0.0
  0
VERTEX
  5
DC
330
DA
100
AcDbEntity
  8
_U+30EC_U+30A4_U+30E4_U+30FC 1
 62
   179
420
  2234388
370
     9
100
AcDbVertex
100
AcDb2dVertex
 10
66.62589163356523
 20
-120.2257494143881
 30
0.0
  0
SEQEND
  5
DD
330
DA
100
AcDbEntity
  8
_U+30EC_U+30A4_U+30E4_U+30FC 1
 62
   179
420
  2234388
370
     9
  0
SPLINE
  5
DE
330
41
100
AcDbEntity
  8
_U+30EC_U+30A4_U+30E4_U+30FC 1
 62
   179
420
  2234388
370
     9
100
AcDbSpline
210
0.0
220
0.0
230
1.0
 70
    11
 71
     3
 72
    17
 73
    13
 74
     0
 42
0.0000000001
 43
0.0000000001
 12
1.0
 22
0.0
 32
0.0
 13
1.0
 23
0.0
 33
0.0
 40
0.0
 40
0.0
 40
0.0
 40
0.0
 40
1.0
 40
1.0
 40
1.0
 40
2.0
 40
2.0
 40
2.0
 40
3.0
 40
3.0
 40
3.0
 40
4.0
 40
4.0
 40
4.0
 40
4.0
 10
68.19204853805368
 20
-120.2243735810549
 30
0.0
 10
68.19204853805368
 20
-120.1692344144022
 30
0.0
 10
68.1475985391877
 20
-120.1247844144132
 30
0.0
 10
68.09214187393584
 20
-120.1247844144132
 30
0.0
 10
68.0370027086759
 20
-120.1247844144132
 30
0.0
 10
67.992235209818
 20
-120.1692344144022
 30
0.0
 10
67.992235209818
 20
-120.2243735810549
 30
0.0
 10
67.992235209818
 20
-120.2801830254854
 30
0.0
 10
68.0370027086759
 20
-120.3249505254743
 30
0.0
 10
68.09214187393584
 20
-120.3249505254743
 30
0.0
 10
68.1475985391877
 20
-120.3249505254743
 30
0.0
 10
68.19204853805368
 20
-120.2801830254854
 30
0.0
 10
68.19204853805368
 20
-120.2243735810549
 30
0.0
  0
POLYLINE
  5
DF
330
41
100
AcDbEntity
  8
_U+30EC_U+30A4_U+30E4_U+30FC 1
 62
   179
420
  2234388
370
    25
100
AcDb2dPolyline
 66
     1
 10
0.0
 20
0.0
 30
0.0
  0
VERTEX
  5
E0
330
DF
100
AcDbEntity
  8
_U+30EC_U+30A4_U+30E4_U+30FC 1
 62
   179
420
  2234388
370
    25
100
AcDbVertex
100
AcDb2dVertex
 10
71.6002698399916
 20
-126.2257233017768
 30
0.0
  0
VERTEX
  5
E1
330
DF
100
AcDbEntity
  8
_U+30EC_U+30A4_U+30E4_U+30FC 1
 62
   179
420
  2234388
370
    25
100
AcDbVertex
100
AcDb2dVertex
 10
71.6002698399916
 20
-121.2256627474714
 30
0.0
  0
VERTEX
  5
E2
330
DF
100
AcDbEntity
  8
_U+30EC_U+30A4_U+30E4_U+30FC 1
 62
   179
420
  2234388
370
    25
100
AcDbVertex
100
AcDb2dVertex
 10
73.6001670111922
 20
-121.2256627474714
 30
0.0
  0
VERTEX
  5
E3
330
DF
100
AcDbEntity
  8
_U+30EC_U+30A4_U+30E4_U+30FC 1
 62
   179
420
  2234388
370
    25
100
AcDbVertex
100
AcDb2dVertex
 10
73.6001670111922
 20
-120.2257494143881
 30
0.0
  0
VERTEX
  5
E4
330
DF
100
AcDbEntity
  8
_U+30EC_U+30A4_U+30E4_U+30FC 1
 62
   179
420
  2234388
370
    25
100
AcDbVertex
100
AcDb2dVertex
 10
70.6001801432838
 20
-120.2257494143881
 30
0.0
  0
VERTEX
  5
E5
330
DF
100
AcDbEntity
  8
_U+30EC_U+30A4_U+30E4_U+30FC 1
 62
   179
420
  2234388
370
    25
100
AcDbVertex
100
AcDb2dVertex
 10
70.6001801432838
 20
-140.2257094093881
 30
0.0
  0
VERTEX
  5
E6
330
DF
100
AcDbEntity
  8
_U+30EC_U+30A4_U+30E4_U+30FC 1
 62
   179
420
  2234388
370
    25
100
AcDbVertex
100
AcDb2dVertex
 10
75.60002890461591
 20
-140.2257094093881
 30
0.0
  0
VERTEX
  5
E7
330
DF
100
AcDbEntity
  8
_U+30EC_U+30A4_U+30E4_U+30FC 1
 62
   179
420
  2234388
370
    25
100
AcDbVertex
100
AcDb2dVertex
 10
75.60002890461591
 20
-137.2257224656937
 30
0.0
  0
VERTEX
  5
E8
330
DF
100
AcDbEntity
  8
_U+30EC_U+30A4_U+30E4_U+30FC 1
 62
   179
420
  2234388
370
    25
100
AcDbVertex
100
AcDb2dVertex
 10
74.6002567079
 20
-137.2257224656937
 30
0.0
  0
VERTEX
  5
E9
330
DF
100
AcDbEntity
  8
_U+30EC_U+30A4_U+30E4_U+30FC 1
 62
   179
420
  2234388
370
    25
100
AcDbVertex
100
AcDb2dVertex
 10
74.6002567079
 20
-139.2252669096382
 30
0.0
  0
VERTEX
  5
EA
330
DF
100
AcDbEntity
  8
_U+30EC_U+30A4_U+30E4_U+30FC 1
 62
   179
420
  2234388
370
    25
100
AcDbVertex
100
AcDb2dVertex
 10
71.6002698399916
 20
-139.2252669096382
 30
0.0
  0
VERTEX
  5
EB
330
DF
100
AcDbEntity
  8
_U+30EC_U+30A4_U+30E4_U+30FC 1
 62
   179
420
  2234388
370
    25
100
AcDbVertex
100
AcDb2dVertex
 10
71.6002698399916
 20
-127.225495523749
 30
0.0
  0
VERTEX
  5
EC
330
DF
100
AcDbEntity
  8
_U+30EC_U+30A4_U+30E4_U+30FC 1
 62
   179
420
  2234388
370
    25
100
AcDbVertex
100
AcDb2dVertex
 10
110.5999580116933
 20
-127.225495523749
 30
0.0
  0
VERTEX
  5
ED
330
DF
100
AcDbEntity
  8
_U+30EC_U+30A4_U+30E4_U+30FC 1
 62
   179
420
  2234388
370
    25
100
AcDbVertex
100
AcDb2dVertex
 10
110.5999580116933
 20
-126.2257233017768
 30
0.0
  0
VERTEX
  5
EE
330
DF
100
AcDbEntity
  8
_U+30EC_U+30A4_U+30E4_U+30FC 1
 62
   179
420
  2234388
370
    25
100
AcDbVertex
100
AcDb2dVertex
 10
105.5997564725924
 20
-126.2257233017768
 30
0.0
  0
VERTEX
  5
EF
330
DF
100
AcDbEntity
  8
_U+30EC_U+30A4_U+30E4_U+30FC 1
 62
   179
420
  2234388
370
    25
100
AcDbVertex
100
AcDb2dVertex
 10
105.3000364802389
 20
-126.4255366350604
 30
0.0
  0
VERTEX
  5
F0
330
DF
100
AcDbEntity
  8
_U+30EC_U+30A4_U+30E4_U+30FC 1
 62
   179
420
  2234388
370
    25
100
AcDbVertex
100
AcDb2dVertex
 10
104.9996109323479
 20
-126.2257233017768
 30
0.0
  0
VERTEX
  5
F1
330
DF
100
AcDbEntity
  8
_U+30EC_U+30A4_U+30E4_U+30FC 1
 62
   179
420
  2234388
370
    25
100
AcDbVertex
100
AcDb2dVertex
 10
71.6002698399916
 20
-126.2257233017768
 30
0.0
  0
SEQEND
  5
F3
330
DF
100
AcDbEntity
  8
_U+30EC_U+30A4_U+30E4_U+30FC 1
 62
   179
420
  2234388
370
    25
  0
HATCH
  5
F2
330
41
100
AcDbEntity
  8
_U+30EC_U+30A4_U+30E4_U+30FC 1
 62
     9
420
 13224394
100
AcDbHatch
 10
0.0
 20
0.0
 30
0.0
210
0.0
220
0.0
230
1.0
  2
SOLID
 70
     1
 71
     0
 91
        1
 92
        1
 93
       17
 72
     1
 10
71.6002698399916
 20
-126.2257233017768
 11
71.6002698399916
 21
-121.2256627474714
 72
     1
 10
71.6002698399916
 20
-121.2256627474714
 11
73.6001670111922
 21
-121.2256627474714
 72
     1
 10
73.6001670111922
 20
-121.2256627474714
 11
73.6001670111922
 21
-120.2257494143881
 72
     1
 10
73.6001670111922
 20
-120.2257494143881
 11
70.6001801432838
 21
-120.2257494143881
 72
     1
 10
70.6001801432838
 20
-120.2257494143881
 11
70.6001801432838
 21
-140.2257094093881
 72
     1
 10
70.6001801432838
 20
-140.2257094093881
 11
75.60002890461591
 21
-140.2257094093881
 72
     1
 10
75.60002890461591
 20
-140.2257094093881
 11
75.60002890461591
 21
-137.2257224656937
 72
     1
 10
75.60002890461591
 20
-137.2257224656937
 11
74.6002567079
 21
-137.2257224656937
 72
     1
 10
74.6002567079
 20
-137.2257224656937
 11
74.6002567079
 21
-139.2252669096382
 72
     1
 10
74.6002567079
 20
-139.2252669096382
 11
71.6002698399916
 21
-139.2252669096382
 72
     1
 10
71.6002698399916
 20
-139.2252669096382
 11
71.6002698399916
 21
-127.225495523749
 72
     1
 10
71.6002698399916
 20
-127.225495523749
 11
110.5999580116933
 21
-127.225495523749
 72
     1
 10
110.5999580116933
 20
-127.225495523749
 11
110.5999580116933
 21
-126.2257233017768
 72
     1
 10
110.5999580116933
 20
-126.2257233017768
 11
105.5997564725924
 21
-126.2257233017768
 72
     1
 10
105.5997564725924
 20
-126.2257233017768
 11
105.3000364802389
 21
-126.4255366350604
 72
     1
 10
105.3000364802389
 20
-126.4255366350604
 11
104.9996109323479
 21
-126.2257233017768
 72
     1
 10
104.9996109323479
 20
-126.2257233017768
 11
71.6002698399916
 21
-126.2257233017768
 97
        0
 75
     2
 76
     1
 98
        0
  0
ENDBLK
  5
44
330
41
100
AcDbEntity
  8
0
100
AcDbBlockEnd
  0
BLOCK
  5
55
330
53
100
AcDbEntity
  8
0
100
AcDbBlockBegin
  2
block 3
 70
     0
 10
0.0
 20
0.0
 30
0.0
  3
block 3
  1

  0
SPLINE
  5
57
330
53
100
AcDbEntity
  8
_U+30EC_U+30A4_U+30E4_U+30FC 1
370
     0
100
AcDbSpline
210
0.0
220
0.0
230
1.0
 70
    11
 71
     3
 72
    53
 73
    49
 74
     0
 42
0.0000000001
 43
0.0000000001
 12
1.0
 22
0.0
 32
0.0
 13
1.0
 23
0.0
 33
0.0
 40
0.0
 40
0.0
 40
0.0
 40
0.0
 40
1.0
 40
1.0
 40
1.0
 40
2.0
 40
2.0
 40
2.0
 40
3.0
 40
3.0
 40
3.0
 40
4.0
 40
4.0
 40
4.0
 40
5.0
 40
5.0
 40
5.0
 40
6.0
 40
6.0
 40
6.0
 40
7.0
 40
7.0
 40
7.0
 40
8.0
 40
8.0
 40
8.0
 40
9.0
 40
9.0
 40
9.0
 40
10.0
 40
10.0
 40
10.0
 40
11.0
 40
11.0
 40
11.0
 40
12.0
 40
12.0
 40
12.0
 40
13.0
 40
13.0
 40
13.0
 40
14.0
 40
14.0
 40
14.0
 40
15.0
 40
15.0
 40
15.0
 40
16.0
 40
16.0
 40
16.0
 40
16.0
 10
73.00450166360652
 20
-143.6808077982812
 30
0.0
 10
72.92629799609135
 20
-143.6808077982812
 30
0.0
 10
72.82466767927647
 20
-143.6639268304035
 30
0.0
 10
72.72303736246161
 20
-143.6005370734749
 30
0.0
 10
72.54974905955353
 20
-143.4906385274954
 30
0.0
 10
72.52838946754498
 20
-143.3593803895074
 30
0.0
 10
72.50944144237612
 20
-143.2515489008191
 30
0.0
 10
72.50944144237612
 20
-143.2515489008191
 30
0.0
 10
72.73165010117474
 20
-143.2515489008191
 30
0.0
 10
72.73165010117474
 20
-143.2515489008191
 30
0.0
 10
72.7864271193902
 20
-143.450330910318
 30
0.0
 10
72.91355114279592
 20
-143.4799587314911
 30
0.0
 10
73.00656872089766
 20
-143.4799587314911
 30
0.0
 10
73.14609508805029
 20
-143.4799587314911
 30
0.0
 10
73.29836830849833
 20
-143.3803954719674
 30
0.0
 10
73.29836830849833
 20
-143.1478515267131
 30
0.0
 10
73.29836830849833
 20
-142.891880932159
 30
0.0
 10
73.11853432416828
 20
-142.8219454938084
 30
0.0
 10
72.99795598218454
 20
-142.8219454938084
 30
0.0
 10
72.96626110372024
 20
-142.8219454938084
 30
0.0
 10
72.82466767927647
 20
-142.8219454938084
 30
0.0
 10
72.73578421575704
 20
-142.9511365745053
 30
0.0
 10
72.73578421575704
 20
-142.9511365745053
 30
0.0
 10
72.56008434600929
 20
-142.9321885493364
 30
0.0
 10
72.56008434600929
 20
-142.9321885493364
 30
0.0
 10
72.56008434600929
 20
-142.9321885493364
 30
0.0
 10
72.68066268799303
 20
-142.0857285886105
 30
0.0
 10
72.68066268799303
 20
-142.0857285886105
 30
0.0
 10
72.68066268799303
 20
-142.0857285886105
 30
0.0
 10
73.45925426765949
 20
-142.0857285886105
 30
0.0
 10
73.45925426765949
 20
-142.0857285886105
 30
0.0
 10
73.45925426765949
 20
-142.0857285886105
 30
0.0
 10
73.45925426765949
 20
-142.2803764835271
 30
0.0
 10
73.45925426765949
 20
-142.2803764835271
 30
0.0
 10
73.45925426765949
 20
-142.2803764835271
 30
0.0
 10
72.84361570444536
 20
-142.2803764835271
 30
0.0
 10
72.84361570444536
 20
-142.2803764835271
 30
0.0
 10
72.84361570444536
 20
-142.2803764835271
 30
0.0
 10
72.7781588902256
 20
-142.7034342091158
 30
0.0
 10
72.7781588902256
 20
-142.7034342091158
 30
0.0
 10
72.83948158986306
 20
-142.6696722733604
 30
0.0
 10
72.92181937196052
 20
-142.6293646561829
 30
0.0
 10
73.04033065665311
 20
-142.6293646561829
 30
0.0
 10
73.29423419391603
 20
-142.6293646561829
 30
0.0
 10
73.53125676330122
 20
-142.815744321935
 30
0.0
 10
73.53125676330122
 20
-143.1289035015442
 30
0.0
 10
73.53125676330122
 20
-143.4461967957357
 30
0.0
 10
73.30698104721145
 20
-143.6808077982812
 30
0.0
 10
73.00450166360652
 20
-143.6808077982812
 30
0.0
  0
HATCH
  5
58
330
53
100
AcDbEntity
  8
_U+30EC_U+30A4_U+30E4_U+30FC 1
 62
   179
420
  2234388
100
AcDbHatch
 10
0.0
 20
0.0
 30
0.0
210
0.0
220
0.0
230
1.0
  2
SOLID
 70
     1
 71
     0
 91
        1
 92
        1
 93
        1
 72
     4
 94
        3
 73
     0
 74
     1
 95
       53
 96
       49
 40
0.0
 40
0.0
 40
0.0
 40
0.0
 40
1.0
 40
1.0
 40
1.0
 40
2.0
 40
2.0
 40
2.0
 40
3.0
 40
3.0
 40
3.0
 40
4.0
 40
4.0
 40
4.0
 40
5.0
 40
5.0
 40
5.0
 40
6.0
 40
6.0
 40
6.0
 40
7.0
 40
7.0
 40
7.0
 40
8.0
 40
8.0
 40
8.0
 40
9.0
 40
9.0
 40
9.0
 40
10.0
 40
10.0
 40
10.0
 40
11.0
 40
11.0
 40
11.0
 40
12.0
 40
12.0
 40
12.0
 40
13.0
 40
13.0
 40
13.0
 40
14.0
 40
14.0
 40
14.0
 40
15.0
 40
15.0
 40
15.0
 40
16.0
 40
16.0
 40
16.0
 40
16.0
 10
73.00450166360652
 20
-143.6808077982812
 10
72.92629799609135
 20
-143.6808077982812
 10
72.82466767927647
 20
-143.6639268304035
 10
72.72303736246161
 20
-143.6005370734749
 10
72.54974905955353
 20
-143.4906385274954
 10
72.52838946754498
 20
-143.3593803895074
 10
72.50944144237612
 20
-143.2515489008191
 10
72.50944144237612
 20
-143.2515489008191
 10
72.73165010117474
 20
-143.2515489008191
 10
72.73165010117474
 20
-143.2515489008191
 10
72.7864271193902
 20
-143.450330910318
 10
72.91355114279592
 20
-143.4799587314911
 10
73.00656872089766
 20
-143.4799587314911
 10
73.14609508805029
 20
-143.4799587314911
 10
73.29836830849833
 20
-143.3803954719674
 10
73.29836830849833
 20
-143.1478515267131
 10
73.29836830849833
 20
-142.891880932159
 10
73.11853432416828
 20
-142.8219454938084
 10
72.99795598218454
 20
-142.8219454938084
 10
72.96626110372024
 20
-142.8219454938084
 10
72.82466767927647
 20
-142.8219454938084
 10
72.73578421575704
 20
-142.9511365745053
 10
72.73578421575704
 20
-142.9511365745053
 10
72.56008434600929
 20
-142.9321885493364
 10
72.56008434600929
 20
-142.9321885493364
 10
72.56008434600929
 20
-142.9321885493364
 10
72.68066268799303
 20
-142.0857285886105
 10
72.68066268799303
 20
-142.0857285886105
 10
72.68066268799303
 20
-142.0857285886105
 10
73.45925426765949
 20
-142.0857285886105
 10
73.45925426765949
 20
-142.0857285886105
 10
73.45925426765949
 20
-142.0857285886105
 10
73.45925426765949
 20
-142.2803764835271
 10
73.45925426765949
 20
-142.2803764835271
 10
73.45925426765949
 20
-142.2803764835271
 10
72.84361570444536
 20
-142.2803764835271
 10
72.84361570444536
 20
-142.2803764835271
 10
72.84361570444536
 20
-142.2803764835271
 10
72.7781588902256
 20
-142.7034342091158
 10
72.7781588902256
 20
-142.7034342091158
 10
72.83948158986306
 20
-142.6696722733604
 10
72.92181937196052
 20
-142.6293646561829
 10
73.04033065665311
 20
-142.6293646561829
 10
73.29423419391603
 20
-142.6293646561829
 10
73.53125676330122
 20
-142.815744321935
 10
73.53125676330122
 20
-143.1289035015442
 10
73.53125676330122
 20
-143.4461967957357
 10
73.30698104721145
 20
-143.6808077982812
 10
73.00450166360652
 20
-143.6808077982812
 97
        0
 97
        0
 75
     2
 76
     1
 98
        0
  0
ENDBLK
  5
56
330
53
100
AcDbEntity
  8
0
100
AcDbBlockEnd
  0
BLOCK
  5
77
330
75
100
AcDbEntity
  8
0
100
AcDbBlockBegin
  2
block 4
 70
     0
 10
0.0
 20
0.0
 30
0.0
  3
block 4
  1

  0
SPLINE
  5
79
330
75
100
AcDbEntity
  8
_U+30EC_U+30A4_U+30E4_U+30FC 1
370
     0
100
AcDbSpline
210
0.0
220
0.0
230
1.0
 70
    11
 71
     3
 72
    26
 73
    22
 74
     0
 42
0.0000000001
 43
0.0000000001
 12
1.0
 22
0.0
 32
0.0
 13
1.0
 23
0.0
 33
0.0
 40
0.0
 40
0.0
 40
0.0
 40
0.0
 40
1.0
 40
1.0
 40
1.0
 40
2.0
 40
2.0
 40
2.0
 40
3.0
 40
3.0
 40
3.0
 40
4.0
 40
4.0
 40
4.0
 40
5.0
 40
5.0
 40
5.0
 40
6.0
 40
6.0
 40
6.0
 40
7.0
 40
7.0
 40
7.0
 40
7.0
 10
115.6174044849845
 20
-132.9682833868968
 30
0.0
 10
115.6174044849845
 20
-132.9682833868968
 30
0.0
 10
114.513251381962
 20
-132.9682833868968
 30
0.0
 10
114.513251381962
 20
-132.9682833868968
 30
0.0
 10
114.513251381962
 20
-132.9682833868968
 30
0.0
 10
114.513251381962
 20
-133.2983235343838
 30
0.0
 10
114.513251381962
 20
-133.2983235343838
 30
0.0
 10
114.513251381962
 20
-133.2983235343838
 30
0.0
 10
114.3651122760962
 20
-133.2983235343838
 30
0.0
 10
114.3651122760962
 20
-133.2983235343838
 30
0.0
 10
114.3502983655097
 20
-132.9662163296057
 30
0.0
 10
114.1873453490573
 20
-132.9197075405548
 30
0.0
 10
114.072968178947
 20
-132.8900797193816
 30
0.0
 10
114.072968178947
 20
-132.8900797193816
 30
0.0
 10
114.072968178947
 20
-132.7440076708071
 30
0.0
 10
114.072968178947
 20
-132.7440076708071
 30
0.0
 10
114.072968178947
 20
-132.7440076708071
 30
0.0
 10
115.6174044849845
 20
-132.7440076708071
 30
0.0
 10
115.6174044849845
 20
-132.7440076708071
 30
0.0
 10
115.6174044849845
 20
-132.7440076708071
 30
0.0
 10
115.6174044849845
 20
-132.9682833868968
 30
0.0
 10
115.6174044849845
 20
-132.9682833868968
 30
0.0
  0
HATCH
  5
7A
330
75
100
AcDbEntity
  8
_U+30EC_U+30A4_U+30E4_U+30FC 1
 62
   179
420
  2234388
100
AcDbHatch
 10
0.0
 20
0.0
 30
0.0
210
0.0
220
0.0
230
1.0
  2
SOLID
 70
     1
 71
     0
 91
        1
 92
        1
 93
        1
 72
     4
 94
        3
 73
     0
 74
     1
 95
       26
 96
       22
 40
0.0
 40
0.0
 40
0.0
 40
0.0
 40
1.0
 40
1.0
 40
1.0
 40
2.0
 40
2.0
 40
2.0
 40
3.0
 40
3.0
 40
3.0
 40
4.0
 40
4.0
 40
4.0
 40
5.0
 40
5.0
 40
5.0
 40
6.0
 40
6.0
 40
6.0
 40
7.0
 40
7.0
 40
7.0
 40
7.0
 10
115.6174044849845
 20
-132.9682833868968
 10
115.6174044849845
 20
-132.9682833868968
 10
114.513251381962
 20
-132.9682833868968
 10
114.513251381962
 20
-132.9682833868968
 10
114.513251381962
 20
-132.9682833868968
 10
114.513251381962
 20
-133.2983235343838
 10
114.513251381962
 20
-133.2983235343838
 10
114.513251381962
 20
-133.2983235343838
 10
114.3651122760962
 20
-133.2983235343838
 10
114.3651122760962
 20
-133.2983235343838
 10
114.3502983655097
 20
-132.9662163296057
 10
114.1873453490573
 20
-132.9197075405548
 10
114.072968178947
 20
-132.8900797193816
 10
114.072968178947
 20
-132.8900797193816
 10
114.072968178947
 20
-132.7440076708071
 10
114.072968178947
 20
-132.7440076708071
 10
114.072968178947
 20
-132.7440076708071
 10
115.6174044849845
 20
-132.7440076708071
 10
115.6174044849845
 20
-132.7440076708071
 10
115.6174044849845
 20
-132.7440076708071
 10
115.6174044849845
 20
-132.9682833868968
 10
115.6174044849845
 20
-132.9682833868968
 97
        0
 97
        0
 75
     2
 76
     1
 98
        0
  0
SPLINE
  5
7B
330
75
100
AcDbEntity
  8
_U+30EC_U+30A4_U+30E4_U+30FC 1
370
     0
100
AcDbSpline
210
0.0
220
0.0
230
1.0
 70
    11
 71
     3
 72
    29
 73
    25
 74
     0
 42
0.0000000001
 43
0.0000000001
 12
1.0
 22
0.0
 32
0.0
 13
1.0
 23
0.0
 33
0.0
 40
0.0
 40
0.0
 40
0.0
 40
0.0
 40
1.0
 40
1.0
 40
1.0
 40
2.0
 40
2.0
 40
2.0
 40
3.0
 40
3.0
 40
3.0
 40
4.0
 40
4.0
 40
4.0
 40
5.0
 40
5.0
 40
5.0
 40
6.0
 40
6.0
 40
6.0
 40
7.0
 40
7.0
 40
7.0
 40
8.0
 40
8.0
 40
8.0
 40
8.0
 10
115.4396375579456
 20
-131.3449543942471
 30
0.0
 10
115.6490993634488
 20
-131.453130392484
 30
0.0
 10
115.6680473886177
 20
-131.626418695392
 30
0.0
 10
115.6680473886177
 20
-131.7428629227934
 30
0.0
 10
115.6680473886177
 20
-131.9037488819546
 30
0.0
 10
115.6215385995668
 20
-132.0453423063984
 30
0.0
 10
115.4396375579456
 20
-132.1404269417913
 30
0.0
 10
115.244989663029
 20
-132.2441243158973
 30
0.0
 10
115.0083116031924
 20
-132.2634168506147
 30
0.0
 10
114.84535858674
 20
-132.2634168506147
 30
0.0
 10
114.7013535954566
 20
-132.2634168506147
 30
0.0
 10
114.4495171154849
 20
-132.2461913731885
 30
0.0
 10
114.2507351059859
 20
-132.1404269417913
 30
0.0
 10
114.0478189819047
 20
-132.032595453103
 30
0.0
 10
114.024392332605
 20
-131.8717094939418
 30
0.0
 10
114.024392332605
 20
-131.7428629227934
 30
0.0
 10
114.024392332605
 20
-131.5840440209234
 30
0.0
 10
114.0688340643647
 20
-131.4403835391885
 30
0.0
 10
114.2507351059859
 20
-131.3449543942471
 30
0.0
 10
114.4433159436114
 20
-131.2457356442719
 30
0.0
 10
114.6717257742835
 20
-131.2223089949722
 30
0.0
 10
114.84535858674
 20
-131.2223089949722
 30
0.0
 10
115.016579832357
 20
-131.2223089949722
 30
0.0
 10
115.2470567203202
 20
-131.2436685869808
 30
0.0
 10
115.4396375579456
 20
-131.3449543942471
 30
0.0
  0
SPLINE
  5
7C
330
75
100
AcDbEntity
  8
_U+30EC_U+30A4_U+30E4_U+30FC 1
370
     0
100
AcDbSpline
210
0.0
220
0.0
230
1.0
 70
    11
 71
     3
 72
    17
 73
    13
 74
     0
 42
0.0000000001
 43
0.0000000001
 12
1.0
 22
0.0
 32
0.0
 13
1.0
 23
0.0
 33
0.0
 40
0.0
 40
0.0
 40
0.0
 40
0.0
 40
1.0
 40
1.0
 40
1.0
 40
2.0
 40
2.0
 40
2.0
 40
3.0
 40
3.0
 40
3.0
 40
4.0
 40
4.0
 40
4.0
 40
4.0
 10
114.2169731702305
 20
-131.7428629227934
 30
0.0
 10
114.2169731702305
 20
-131.9926323454741
 30
0.0
 10
114.5005045286665
 20
-132.039141134525
 30
0.0
 10
114.84535858674
 20
-132.039141134525
 30
0.0
 10
115.1647189382227
 20
-132.039141134525
 30
0.0
 10
115.4733994937011
 20
-132.0029676319298
 30
0.0
 10
115.4733994937011
 20
-131.7428629227934
 30
0.0
 10
115.4733994937011
 20
-131.495160557404
 30
0.0
 10
115.1922797021047
 20
-131.446584711062
 30
0.0
 10
114.84535858674
 20
-131.446584711062
 30
0.0
 10
114.5256537257089
 20
-131.446584711062
 30
0.0
 10
114.2169731702305
 20
-131.4848252709482
 30
0.0
 10
114.2169731702305
 20
-131.7428629227934
 30
0.0
  0
HATCH
  5
7D
330
75
100
AcDbEntity
  8
_U+30EC_U+30A4_U+30E4_U+30FC 1
 62
   179
420
  2234388
100
AcDbHatch
 10
0.0
 20
0.0
 30
0.0
210
0.0
220
0.0
230
1.0
  2
SOLID
 70
     1
 71
     0
 91
        2
 92
        1
 93
        1
 72
     4
 94
        3
 73
     0
 74
     1
 95
       29
 96
       25
 40
0.0
 40
0.0
 40
0.0
 40
0.0
 40
1.0
 40
1.0
 40
1.0
 40
2.0
 40
2.0
 40
2.0
 40
3.0
 40
3.0
 40
3.0
 40
4.0
 40
4.0
 40
4.0
 40
5.0
 40
5.0
 40
5.0
 40
6.0
 40
6.0
 40
6.0
 40
7.0
 40
7.0
 40
7.0
 40
8.0
 40
8.0
 40
8.0
 40
8.0
 10
115.4396375579456
 20
-131.3449543942471
 10
115.6490993634488
 20
-131.453130392484
 10
115.6680473886177
 20
-131.626418695392
 10
115.6680473886177
 20
-131.7428629227934
 10
115.6680473886177
 20
-131.9037488819546
 10
115.6215385995668
 20
-132.0453423063984
 10
115.4396375579456
 20
-132.1404269417913
 10
115.244989663029
 20
-132.2441243158973
 10
115.0083116031924
 20
-132.2634168506147
 10
114.84535858674
 20
-132.2634168506147
 10
114.7013535954566
 20
-132.2634168506147
 10
114.4495171154849
 20
-132.2461913731885
 10
114.2507351059859
 20
-132.1404269417913
 10
114.0478189819047
 20
-132.032595453103
 10
114.024392332605
 20
-131.8717094939418
 10
114.024392332605
 20
-131.7428629227934
 10
114.024392332605
 20
-131.5840440209234
 10
114.0688340643647
 20
-131.4403835391885
 10
114.2507351059859
 20
-131.3449543942471
 10
114.4433159436114
 20
-131.2457356442719
 10
114.6717257742835
 20
-131.2223089949722
 10
114.84535858674
 20
-131.2223089949722
 10
115.016579832357
 20
-131.2223089949722
 10
115.2470567203202
 20
-131.2436685869808
 10
115.4396375579456
 20
-131.3449543942471
 97
        0
 97
        0
 92
        1
 93
        1
 72
     4
 94
        3
 73
     0
 74
     1
 95
       17
 96
       13
 40
0.0
 40
0.0
 40
0.0
 40
0.0
 40
1.0
 40
1.0
 40
1.0
 40
2.0
 40
2.0
 40
2.0
 40
3.0
 40
3.0
 40
3.0
 40
4.0
 40
4.0
 40
4.0
 40
4.0
 10
114.2169731702305
 20
-131.7428629227934
 10
114.2169731702305
 20
-131.9926323454741
 10
114.5005045286665
 20
-132.039141134525
 10
114.84535858674
 20
-132.039141134525
 10
115.1647189382227
 20
-132.039141134525
 10
115.4733994937011
 20
-132.0029676319298
 10
115.4733994937011
 20
-131.7428629227934
 10
115.4733994937011
 20
-131.495160557404
 10
115.1922797021047
 20
-131.446584711062
 10
114.84535858674
 20
-131.446584711062
 10
114.5256537257089
 20
-131.446584711062
 10
114.2169731702305
 20
-131.4848252709482
 10
114.2169731702305
 20
-131.7428629227934
 97
        0
 97
        0
 75
     2
 76
     1
 98
        0
  0
ENDBLK
  5
78
330
75
100
AcDbEntity
  8
0
100
AcDbBlockEnd
  0
BLOCK
  5
80
330
7E
100
AcDbEntity
  8
0
100
AcDbBlockBegin
  2
block 5
 70
     0
 10
0.0
 20
0.0
 30
0.0
  3
block 5
  1

  0
SPLINE
  5
82
330
7E
100
AcDbEntity
  8
_U+30EC_U+30A4_U+30E4_U+30FC 1
370
     0
100
AcDbSpline
210
0.0
220
0.0
230
1.0
 70
    11
 71
     3
 72
    26
 73
    22
 74
     0
 42
0.0000000001
 43
0.0000000001
 12
1.0
 22
0.0
 32
0.0
 13
1.0
 23
0.0
 33
0.0
 40
0.0
 40
0.0
 40
0.0
 40
0.0
 40
1.0
 40
1.0
 40
1.0
 40
2.0
 40
2.0
 40
2.0
 40
3.0
 40
3.0
 40
3.0
 40
4.0
 40
4.0
 40
4.0
 40
5.0
 40
5.0
 40
5.0
 40
6.0
 40
6.0
 40
6.0
 40
7.0
 40
7.0
 40
7.0
 40
7.0
 10
115.617059975436
 20
-124.2218749689445
 30
0.0
 10
115.617059975436
 20
-124.2218749689445
 30
0.0
 10
114.5129068724134
 20
-124.2218749689445
 30
0.0
 10
114.5129068724134
 20
-124.2218749689445
 30
0.0
 10
114.5129068724134
 20
-124.2218749689445
 30
0.0
 10
114.5129068724134
 20
-124.5519151164315
 30
0.0
 10
114.5129068724134
 20
-124.5519151164315
 30
0.0
 10
114.5129068724134
 20
-124.5519151164315
 30
0.0
 10
114.3647677665477
 20
-124.5519151164315
 30
0.0
 10
114.3647677665477
 20
-124.5519151164315
 30
0.0
 10
114.3499538559611
 20
-124.2198079116534
 30
0.0
 10
114.1870008395088
 20
-124.1732991226025
 30
0.0
 10
114.0726236693985
 20
-124.1436713014294
 30
0.0
 10
114.0726236693985
 20
-124.1436713014294
 30
0.0
 10
114.0726236693985
 20
-123.9975992528548
 30
0.0
 10
114.0726236693985
 20
-123.9975992528548
 30
0.0
 10
114.0726236693985
 20
-123.9975992528548
 30
0.0
 10
115.617059975436
 20
-123.9975992528548
 30
0.0
 10
115.617059975436
 20
-123.9975992528548
 30
0.0
 10
115.617059975436
 20
-123.9975992528548
 30
0.0
 10
115.617059975436
 20
-124.2218749689445
 30
0.0
 10
115.617059975436
 20
-124.2218749689445
 30
0.0
  0
HATCH
  5
83
330
7E
100
AcDbEntity
  8
_U+30EC_U+30A4_U+30E4_U+30FC 1
 62
   179
420
  2234388
100
AcDbHatch
 10
0.0
 20
0.0
 30
0.0
210
0.0
220
0.0
230
1.0
  2
SOLID
 70
     1
 71
     0
 91
        1
 92
        1
 93
        1
 72
     4
 94
        3
 73
     0
 74
     1
 95
       26
 96
       22
 40
0.0
 40
0.0
 40
0.0
 40
0.0
 40
1.0
 40
1.0
 40
1.0
 40
2.0
 40
2.0
 40
2.0
 40
3.0
 40
3.0
 40
3.0
 40
4.0
 40
4.0
 40
4.0
 40
5.0
 40
5.0
 40
5.0
 40
6.0
 40
6.0
 40
6.0
 40
7.0
 40
7.0
 40
7.0
 40
7.0
 10
115.617059975436
 20
-124.2218749689445
 10
115.617059975436
 20
-124.2218749689445
 10
114.5129068724134
 20
-124.2218749689445
 10
114.5129068724134
 20
-124.2218749689445
 10
114.5129068724134
 20
-124.2218749689445
 10
114.5129068724134
 20
-124.5519151164315
 10
114.5129068724134
 20
-124.5519151164315
 10
114.5129068724134
 20
-124.5519151164315
 10
114.3647677665477
 20
-124.5519151164315
 10
114.3647677665477
 20
-124.5519151164315
 10
114.3499538559611
 20
-124.2198079116534
 10
114.1870008395088
 20
-124.1732991226025
 10
114.0726236693985
 20
-124.1436713014294
 10
114.0726236693985
 20
-124.1436713014294
 10
114.0726236693985
 20
-123.9975992528548
 10
114.0726236693985
 20
-123.9975992528548
 10
114.0726236693985
 20
-123.9975992528548
 10
115.617059975436
 20
-123.9975992528548
 10
115.617059975436
 20
-123.9975992528548
 10
115.617059975436
 20
-123.9975992528548
 10
115.617059975436
 20
-124.2218749689445
 10
115.617059975436
 20
-124.2218749689445
 97
        0
 97
        0
 75
     2
 76
     1
 98
        0
  0
ENDBLK
  5
81
330
7E
100
AcDbEntity
  8
0
100
AcDbBlockEnd
  0
BLOCK
  5
86
330
84
100
AcDbEntity
  8
0
100
AcDbBlockBegin
  2
block 6
 70
     0
 10
0.0
 20
0.0
 30
0.0
  3
block 6
  1

  0
SPLINE
  5
88
330
84
100
AcDbEntity
  8
_U+30EC_U+30A4_U+30E4_U+30FC 1
370
     0
100
AcDbSpline
210
0.0
220
0.0
230
1.0
 70
    11
 71
     3
 72
    62
 73
    58
 74
     0
 42
0.0000000001
 43
0.0000000001
 12
1.0
 22
0.0
 32
0.0
 13
1.0
 23
0.0
 33
0.0
 40
0.0
 40
0.0
 40
0.0
 40
0.0
 40
1.0
 40
1.0
 40
1.0
 40
2.0
 40
2.0
 40
2.0
 40
3.0
 40
3.0
 40
3.0
 40
4.0
 40
4.0
 40
4.0
 40
5.0
 40
5.0
 40
5.0
 40
6.0
 40
6.0
 40
6.0
 40
7.0
 40
7.0
 40
7.0
 40
8.0
 40
8.0
 40
8.0
 40
9.0
 40
9.0
 40
9.0
 40
10.0
 40
10.0
 40
10.0
 40
11.0
 40
11.0
 40
11.0
 40
12.0
 40
12.0
 40
12.0
 40
13.0
 40
13.0
 40
13.0
 40
14.0
 40
14.0
 40
14.0
 40
15.0
 40
15.0
 40
15.0
 40
16.0
 40
16.0
 40
16.0
 40
17.0
 40
17.0
 40
17.0
 40
18.0
 40
18.0
 40
18.0
 40
19.0
 40
19.0
 40
19.0
 40
19.0
 10
115.6680473886177
 20
-138.7047118793863
 30
0.0
 10
115.6680473886177
 20
-138.8001410243278
 30
0.0
 10
115.6470323061577
 20
-139.0178710589955
 30
0.0
 10
115.4609971499542
 20
-139.1429280251101
 30
0.0
 10
115.3486870371351
 20
-139.216997578043
 30
0.0
 10
115.2494682871599
 20
-139.2211316926253
 30
0.0
 10
115.1647189382227
 20
-139.2252658072076
 30
0.0
 10
115.1647189382227
 20
-139.2252658072076
 30
0.0
 10
115.1647189382227
 20
-139.0051242057001
 30
0.0
 10
115.1647189382227
 20
-139.0051242057001
 30
0.0
 10
115.2387884911556
 20
-139.003057148409
 30
0.0
 10
115.4733994937011
 20
-138.9927218619532
 30
0.0
 10
115.4733994937011
 20
-138.7091905035172
 30
0.0
 10
115.4733994937011
 20
-138.5717311936557
 30
0.0
 10
115.4038085648991
 20
-138.4191134636591
 30
0.0
 10
115.175398734227
 20
-138.4191134636591
 30
0.0
 10
115.0589545068255
 20
-138.4191134636591
 30
0.0
 10
115.0103786604835
 20
-138.4573540235454
 30
0.0
 10
114.9786837820192
 20
-138.4890489020097
 30
0.0
 10
114.9046142290863
 20
-138.5631184549426
 30
0.0
 10
114.8918673757909
 20
-138.679562682344
 30
0.0
 10
114.8918673757909
 20
-138.7343397005595
 30
0.0
 10
114.8918673757909
 20
-138.7536322352769
 30
0.0
 10
114.8939344330821
 20
-138.7894612283235
 30
0.0
 10
114.8980685476644
 20
-138.8170219922055
 30
0.0
 10
114.8980685476644
 20
-138.8170219922055
 30
0.0
 10
114.7034206527478
 20
-138.8170219922055
 30
0.0
 10
114.7034206527478
 20
-138.8170219922055
 30
0.0
 10
114.7099663341697
 20
-138.7787814323192
 30
0.0
 10
114.7120333914609
 20
-138.7367512673991
 30
0.0
 10
114.7120333914609
 20
-138.7302055859772
 30
0.0
 10
114.7120333914609
 20
-138.6647487717574
 30
0.0
 10
114.6906737994523
 20
-138.4659667622585
 30
0.0
 10
114.4539957396157
 20
-138.4659667622585
 30
0.0
 10
114.2762288125768
 20
-138.4659667622585
 30
0.0
 10
114.2211072848128
 20
-138.596880390698
 30
0.0
 10
114.2211072848128
 20
-138.707123446226
 30
0.0
 10
114.2211072848128
 20
-138.9713622699447
 30
0.0
 10
114.4539957396157
 20
-138.9799750086578
 30
0.0
 10
114.5256537257089
 20
-138.9841091232401
 30
0.0
 10
114.5256537257089
 20
-138.9841091232401
 30
0.0
 10
114.5256537257089
 20
-139.1873697568698
 30
0.0
 10
114.5256537257089
 20
-139.1873697568698
 30
0.0
 10
114.4009412691428
 20
-139.1787570181567
 30
0.0
 10
114.024392332605
 20
-139.1511962542747
 30
0.0
 10
114.024392332605
 20
-138.6943765929306
 30
0.0
 10
114.024392332605
 20
-138.4701008768408
 30
0.0
 10
114.1515163560107
 20
-138.2289441928733
 30
0.0
 10
114.4474500581937
 20
-138.2289441928733
 30
0.0
 10
114.6338297239457
 20
-138.2289441928733
 30
0.0
 10
114.7161675060432
 20
-138.3240288282662
 30
0.0
 10
114.7774902056806
 20
-138.4235920877899
 30
0.0
 10
114.8050509695626
 20
-138.3622693881525
 30
0.0
 10
114.885321694369
 20
-138.1803683465313
 30
0.0
 10
115.1626518809316
 20
-138.1803683465313
 30
0.0
 10
115.5009602575831
 20
-138.1803683465313
 30
0.0
 10
115.6680473886177
 20
-138.4277262023722
 30
0.0
 10
115.6680473886177
 20
-138.7047118793863
 30
0.0
  0
HATCH
  5
89
330
84
100
AcDbEntity
  8
_U+30EC_U+30A4_U+30E4_U+30FC 1
 62
   179
420
  2234388
100
AcDbHatch
 10
0.0
 20
0.0
 30
0.0
210
0.0
220
0.0
230
1.0
  2
SOLID
 70
     1
 71
     0
 91
        1
 92
        1
 93
        1
 72
     4
 94
        3
 73
     0
 74
     1
 95
       62
 96
       58
 40
0.0
 40
0.0
 40
0.0
 40
0.0
 40
1.0
 40
1.0
 40
1.0
 40
2.0
 40
2.0
 40
2.0
 40
3.0
 40
3.0
 40
3.0
 40
4.0
 40
4.0
 40
4.0
 40
5.0
 40
5.0
 40
5.0
 40
6.0
 40
6.0
 40
6.0
 40
7.0
 40
7.0
 40
7.0
 40
8.0
 40
8.0
 40
8.0
 40
9.0
 40
9.0
 40
9.0
 40
10.0
 40
10.0
 40
10.0
 40
11.0
 40
11.0
 40
11.0
 40
12.0
 40
12.0
 40
12.0
 40
13.0
 40
13.0
 40
13.0
 40
14.0
 40
14.0
 40
14.0
 40
15.0
 40
15.0
 40
15.0
 40
16.0
 40
16.0
 40
16.0
 40
17.0
 40
17.0
 40
17.0
 40
18.0
 40
18.0
 40
18.0
 40
19.0
 40
19.0
 40
19.0
 40
19.0
 10
115.6680473886177
 20
-138.7047118793863
 10
115.6680473886177
 20
-138.8001410243278
 10
115.6470323061577
 20
-139.0178710589955
 10
115.4609971499542
 20
-139.1429280251101
 10
115.3486870371351
 20
-139.216997578043
 10
115.2494682871599
 20
-139.2211316926253
 10
115.1647189382227
 20
-139.2252658072076
 10
115.1647189382227
 20
-139.2252658072076
 10
115.1647189382227
 20
-139.0051242057001
 10
115.1647189382227
 20
-139.0051242057001
 10
115.2387884911556
 20
-139.003057148409
 10
115.4733994937011
 20
-138.9927218619532
 10
115.4733994937011
 20
-138.7091905035172
 10
115.4733994937011
 20
-138.5717311936557
 10
115.4038085648991
 20
-138.4191134636591
 10
115.175398734227
 20
-138.4191134636591
 10
115.0589545068255
 20
-138.4191134636591
 10
115.0103786604835
 20
-138.4573540235454
 10
114.9786837820192
 20
-138.4890489020097
 10
114.9046142290863
 20
-138.5631184549426
 10
114.8918673757909
 20
-138.679562682344
 10
114.8918673757909
 20
-138.7343397005595
 10
114.8918673757909
 20
-138.7536322352769
 10
114.8939344330821
 20
-138.7894612283235
 10
114.8980685476644
 20
-138.8170219922055
 10
114.8980685476644
 20
-138.8170219922055
 10
114.7034206527478
 20
-138.8170219922055
 10
114.7034206527478
 20
-138.8170219922055
 10
114.7099663341697
 20
-138.7787814323192
 10
114.7120333914609
 20
-138.7367512673991
 10
114.7120333914609
 20
-138.7302055859772
 10
114.7120333914609
 20
-138.6647487717574
 10
114.6906737994523
 20
-138.4659667622585
 10
114.4539957396157
 20
-138.4659667622585
 10
114.2762288125768
 20
-138.4659667622585
 10
114.2211072848128
 20
-138.596880390698
 10
114.2211072848128
 20
-138.707123446226
 10
114.2211072848128
 20
-138.9713622699447
 10
114.4539957396157
 20
-138.9799750086578
 10
114.5256537257089
 20
-138.9841091232401
 10
114.5256537257089
 20
-138.9841091232401
 10
114.5256537257089
 20
-139.1873697568698
 10
114.5256537257089
 20
-139.1873697568698
 10
114.4009412691428
 20
-139.1787570181567
 10
114.024392332605
 20
-139.1511962542747
 10
114.024392332605
 20
-138.6943765929306
 10
114.024392332605
 20
-138.4701008768408
 10
114.1515163560107
 20
-138.2289441928733
 10
114.4474500581937
 20
-138.2289441928733
 10
114.6338297239457
 20
-138.2289441928733
 10
114.7161675060432
 20
-138.3240288282662
 10
114.7774902056806
 20
-138.4235920877899
 10
114.8050509695626
 20
-138.3622693881525
 10
114.885321694369
 20
-138.1803683465313
 10
115.1626518809316
 20
-138.1803683465313
 10
115.5009602575831
 20
-138.1803683465313
 10
115.6680473886177
 20
-138.4277262023722
 10
115.6680473886177
 20
-138.7047118793863
 97
        0
 97
        0
 75
     2
 76
     1
 98
        0
  0
ENDBLK
  5
87
330
84
100
AcDbEntity
  8
0
100
AcDbBlockEnd
  0
BLOCK
  5
96
330
94
100
AcDbEntity
  8
0
100
AcDbBlockBegin
  2
block 7
 70
     0
 10
0.0
 20
0.0
 30
0.0
  3
block 7
  1

  0
SPLINE
  5
98
330
94
100
AcDbEntity
  8
_U+30EC_U+30A4_U+30E4_U+30FC 1
370
     0
100
AcDbSpline
210
0.0
220
0.0
230
1.0
 70
    11
 71
     3
 72
    62
 73
    58
 74
     0
 42
0.0000000001
 43
0.0000000001
 12
1.0
 22
0.0
 32
0.0
 13
1.0
 23
0.0
 33
0.0
 40
0.0
 40
0.0
 40
0.0
 40
0.0
 40
1.0
 40
1.0
 40
1.0
 40
2.0
 40
2.0
 40
2.0
 40
3.0
 40
3.0
 40
3.0
 40
4.0
 40
4.0
 40
4.0
 40
5.0
 40
5.0
 40
5.0
 40
6.0
 40
6.0
 40
6.0
 40
7.0
 40
7.0
 40
7.0
 40
8.0
 40
8.0
 40
8.0
 40
9.0
 40
9.0
 40
9.0
 40
10.0
 40
10.0
 40
10.0
 40
11.0
 40
11.0
 40
11.0
 40
12.0
 40
12.0
 40
12.0
 40
13.0
 40
13.0
 40
13.0
 40
14.0
 40
14.0
 40
14.0
 40
15.0
 40
15.0
 40
15.0
 40
16.0
 40
16.0
 40
16.0
 40
17.0
 40
17.0
 40
17.0
 40
18.0
 40
18.0
 40
18.0
 40
19.0
 40
19.0
 40
19.0
 40
19.0
 10
72.0576171694856
 20
-116.9168945020208
 30
0.0
 10
71.96218802454418
 20
-116.9168945020208
 30
0.0
 10
71.7444579898764
 20
-116.8958794195608
 30
0.0
 10
71.61940102376182
 20
-116.7098442633573
 30
0.0
 10
71.54533147082894
 20
-116.5975341505381
 30
0.0
 10
71.54119735624664
 20
-116.4983154005629
 30
0.0
 10
71.53706324166434
 20
-116.4135660516258
 30
0.0
 10
71.53706324166434
 20
-116.4135660516258
 30
0.0
 10
71.75720484317182
 20
-116.4135660516258
 30
0.0
 10
71.75720484317182
 20
-116.4135660516258
 30
0.0
 10
71.75927190046296
 20
-116.4876356045586
 30
0.0
 10
71.76960718691872
 20
-116.7222466071042
 30
0.0
 10
72.05313854535477
 20
-116.7222466071042
 30
0.0
 10
72.19059785521624
 20
-116.7222466071042
 30
0.0
 10
72.34321558521282
 20
-116.6526556783021
 30
0.0
 10
72.34321558521282
 20
-116.4242458476301
 30
0.0
 10
72.34321558521282
 20
-116.3078016202286
 30
0.0
 10
72.30497502532654
 20
-116.2592257738866
 30
0.0
 10
72.27328014686223
 20
-116.2275308954223
 30
0.0
 10
72.19921059392937
 20
-116.1534613424894
 30
0.0
 10
72.08276636652792
 20
-116.140714489194
 30
0.0
 10
72.02798934831245
 20
-116.140714489194
 30
0.0
 10
72.00869681359505
 20
-116.140714489194
 30
0.0
 10
71.97286782054846
 20
-116.1427815464851
 30
0.0
 10
71.94530705666645
 20
-116.1469156610674
 30
0.0
 10
71.94530705666645
 20
-116.1469156610674
 30
0.0
 10
71.94530705666645
 20
-115.9522677661508
 30
0.0
 10
71.94530705666645
 20
-115.9522677661508
 30
0.0
 10
71.98354761655273
 20
-115.9588134475728
 30
0.0
 10
72.02557778147278
 20
-115.960880504864
 30
0.0
 10
72.03212346289475
 20
-115.960880504864
 30
0.0
 10
72.0975802771145
 20
-115.960880504864
 30
0.0
 10
72.29636228661342
 20
-115.9395209128554
 30
0.0
 10
72.29636228661342
 20
-115.7028428530187
 30
0.0
 10
72.29636228661342
 20
-115.5250759259798
 30
0.0
 10
72.16544865817391
 20
-115.4699543982158
 30
0.0
 10
72.05520560264593
 20
-115.4699543982158
 30
0.0
 10
71.79096677892726
 20
-115.4699543982158
 30
0.0
 10
71.78235404021413
 20
-115.7028428530187
 30
0.0
 10
71.77821992563183
 20
-115.7745008391119
 30
0.0
 10
71.77821992563183
 20
-115.7745008391119
 30
0.0
 10
71.57495929200209
 20
-115.7745008391119
 30
0.0
 10
71.57495929200209
 20
-115.7745008391119
 30
0.0
 10
71.58357203071522
 20
-115.6497883825459
 30
0.0
 10
71.61113279459722
 20
-115.2732394460081
 30
0.0
 10
72.06795245594135
 20
-115.2732394460081
 30
0.0
 10
72.29222817203112
 20
-115.2732394460081
 30
0.0
 10
72.5333848559986
 20
-115.4003634694138
 30
0.0
 10
72.5333848559986
 20
-115.6962971715968
 30
0.0
 10
72.5333848559986
 20
-115.8826768373488
 30
0.0
 10
72.43830022060571
 20
-115.9650146194463
 30
0.0
 10
72.33873696108199
 20
-116.0263373190837
 30
0.0
 10
72.40005966071944
 20
-116.0538980829657
 30
0.0
 10
72.58196070234062
 20
-116.134168807772
 30
0.0
 10
72.58196070234062
 20
-116.4114989943346
 30
0.0
 10
72.58196070234062
 20
-116.7498073709862
 30
0.0
 10
72.33460284649969
 20
-116.9168945020208
 30
0.0
 10
72.0576171694856
 20
-116.9168945020208
 30
0.0
  0
HATCH
  5
99
330
94
100
AcDbEntity
  8
_U+30EC_U+30A4_U+30E4_U+30FC 1
 62
   179
420
  2234388
100
AcDbHatch
 10
0.0
 20
0.0
 30
0.0
210
0.0
220
0.0
230
1.0
  2
SOLID
 70
     1
 71
     0
 91
        1
 92
        1
 93
        1
 72
     4
 94
        3
 73
     0
 74
     1
 95
       62
 96
       58
 40
0.0
 40
0.0
 40
0.0
 40
0.0
 40
1.0
 40
1.0
 40
1.0
 40
2.0
 40
2.0
 40
2.0
 40
3.0
 40
3.0
 40
3.0
 40
4.0
 40
4.0
 40
4.0
 40
5.0
 40
5.0
 40
5.0
 40
6.0
 40
6.0
 40
6.0
 40
7.0
 40
7.0
 40
7.0
 40
8.0
 40
8.0
 40
8.0
 40
9.0
 40
9.0
 40
9.0
 40
10.0
 40
10.0
 40
10.0
 40
11.0
 40
11.0
 40
11.0
 40
12.0
 40
12.0
 40
12.0
 40
13.0
 40
13.0
 40
13.0
 40
14.0
 40
14.0
 40
14.0
 40
15.0
 40
15.0
 40
15.0
 40
16.0
 40
16.0
 40
16.0
 40
17.0
 40
17.0
 40
17.0
 40
18.0
 40
18.0
 40
18.0
 40
19.0
 40
19.0
 40
19.0
 40
19.0
 10
72.0576171694856
 20
-116.9168945020208
 10
71.96218802454418
 20
-116.9168945020208
 10
71.7444579898764
 20
-116.8958794195608
 10
71.61940102376182
 20
-116.7098442633573
 10
71.54533147082894
 20
-116.5975341505381
 10
71.54119735624664
 20
-116.4983154005629
 10
71.53706324166434
 20
-116.4135660516258
 10
71.53706324166434
 20
-116.4135660516258
 10
71.75720484317182
 20
-116.4135660516258
 10
71.75720484317182
 20
-116.4135660516258
 10
71.75927190046296
 20
-116.4876356045586
 10
71.76960718691872
 20
-116.7222466071042
 10
72.05313854535477
 20
-116.7222466071042
 10
72.19059785521624
 20
-116.7222466071042
 10
72.34321558521282
 20
-116.6526556783021
 10
72.34321558521282
 20
-116.4242458476301
 10
72.34321558521282
 20
-116.3078016202286
 10
72.30497502532654
 20
-116.2592257738866
 10
72.27328014686223
 20
-116.2275308954223
 10
72.19921059392937
 20
-116.1534613424894
 10
72.08276636652792
 20
-116.140714489194
 10
72.02798934831245
 20
-116.140714489194
 10
72.00869681359505
 20
-116.140714489194
 10
71.97286782054846
 20
-116.1427815464851
 10
71.94530705666645
 20
-116.1469156610674
 10
71.94530705666645
 20
-116.1469156610674
 10
71.94530705666645
 20
-115.9522677661508
 10
71.94530705666645
 20
-115.9522677661508
 10
71.98354761655273
 20
-115.9588134475728
 10
72.02557778147278
 20
-115.960880504864
 10
72.03212346289475
 20
-115.960880504864
 10
72.0975802771145
 20
-115.960880504864
 10
72.29636228661342
 20
-115.9395209128554
 10
72.29636228661342
 20
-115.7028428530187
 10
72.29636228661342
 20
-115.5250759259798
 10
72.16544865817391
 20
-115.4699543982158
 10
72.05520560264593
 20
-115.4699543982158
 10
71.79096677892726
 20
-115.4699543982158
 10
71.78235404021413
 20
-115.7028428530187
 10
71.77821992563183
 20
-115.7745008391119
 10
71.77821992563183
 20
-115.7745008391119
 10
71.57495929200209
 20
-115.7745008391119
 10
71.57495929200209
 20
-115.7745008391119
 10
71.58357203071522
 20
-115.6497883825459
 10
71.61113279459722
 20
-115.2732394460081
 10
72.06795245594135
 20
-115.2732394460081
 10
72.29222817203112
 20
-115.2732394460081
 10
72.5333848559986
 20
-115.4003634694138
 10
72.5333848559986
 20
-115.6962971715968
 10
72.5333848559986
 20
-115.8826768373488
 10
72.43830022060571
 20
-115.9650146194463
 10
72.33873696108199
 20
-116.0263373190837
 10
72.40005966071944
 20
-116.0538980829657
 10
72.58196070234062
 20
-116.134168807772
 10
72.58196070234062
 20
-116.4114989943346
 10
72.58196070234062
 20
-116.7498073709862
 10
72.33460284649969
 20
-116.9168945020208
 10
72.0576171694856
 20
-116.9168945020208
 97
        0
 97
        0
 75
     2
 76
     1
 98
        0
  0
ENDBLK
  5
97
330
94
100
AcDbEntity
  8
0
100
AcDbBlockEnd
  0
BLOCK
  5
AE
330
AC
100
AcDbEntity
  8
0
100
AcDbBlockBegin
  2
block 8
 70
     0
 10
0.0
 20
0.0
 30
0.0
  3
block 8
  1

  0
POLYLINE
  5
B0
330
AC
100
AcDbEntity
  8
_U+30EC_U+30A4_U+30E4_U+30FC 1
370
     0
100
AcDb2dPolyline
 66
     1
 10
0.0
 20
0.0
 30
0.0
  0
VERTEX
  5
B1
330
B0
100
AcDbEntity
  8
_U+30EC_U+30A4_U+30E4_U+30FC 1
370
     0
100
AcDbVertex
100
AcDb2dVertex
 10
90.34349498609468
 20
-113.500737818847
 30
0.0
  0
VERTEX
  5
B2
330
B0
100
AcDbEntity
  8
_U+30EC_U+30A4_U+30E4_U+30FC 1
370
     0
100
AcDbVertex
100
AcDb2dVertex
 10
90.34349498609468
 20
-113.8476589342117
 30
0.0
  0
VERTEX
  5
B3
330
B0
100
AcDbEntity
  8
_U+30EC_U+30A4_U+30E4_U+30FC 1
370
     0
100
AcDbVertex
100
AcDb2dVertex
 10
90.1257649514269
 20
-113.8476589342117
 30
0.0
  0
VERTEX
  5
B4
330
B0
100
AcDbEntity
  8
_U+30EC_U+30A4_U+30E4_U+30FC 1
370
     0
100
AcDbVertex
100
AcDb2dVertex
 10
90.1257649514269
 20
-113.500737818847
 30
0.0
  0
VERTEX
  5
B5
330
B0
100
AcDbEntity
  8
_U+30EC_U+30A4_U+30E4_U+30FC 1
370
     0
100
AcDbVertex
100
AcDb2dVertex
 10
89.46981877103532
 20
-113.500737818847
 30
0.0
  0
VERTEX
  5
B6
330
B0
100
AcDbEntity
  8
_U+30EC_U+30A4_U+30E4_U+30FC 1
370
     0
100
AcDbVertex
100
AcDb2dVertex
 10
89.46981877103532
 20
-113.2764621027573
 30
0.0
  0
VERTEX
  5
B7
330
B0
100
AcDbEntity
  8
_U+30EC_U+30A4_U+30E4_U+30FC 1
370
     0
100
AcDbVertex
100
AcDb2dVertex
 10
90.14884709117807
 20
-112.3032226281742
 30
0.0
  0
VERTEX
  5
B8
330
B0
100
AcDbEntity
  8
_U+30EC_U+30A4_U+30E4_U+30FC 1
370
     0
100
AcDbVertex
100
AcDb2dVertex
 10
90.34349498609468
 20
-112.3032226281742
 30
0.0
  0
VERTEX
  5
B9
330
B0
100
AcDbEntity
  8
_U+30EC_U+30A4_U+30E4_U+30FC 1
370
     0
100
AcDbVertex
100
AcDb2dVertex
 10
90.34349498609468
 20
-113.3019558093481
 30
0.0
  0
VERTEX
  5
BA
330
B0
100
AcDbEntity
  8
_U+30EC_U+30A4_U+30E4_U+30FC 1
370
     0
100
AcDbVertex
100
AcDb2dVertex
 10
90.55088973430672
 20
-113.3019558093481
 30
0.0
  0
VERTEX
  5
BB
330
B0
100
AcDbEntity
  8
_U+30EC_U+30A4_U+30E4_U+30FC 1
370
     0
100
AcDbVertex
100
AcDb2dVertex
 10
90.55088973430672
 20
-113.500737818847
 30
0.0
  0
VERTEX
  5
BC
330
B0
100
AcDbEntity
  8
_U+30EC_U+30A4_U+30E4_U+30FC 1
370
     0
100
AcDbVertex
100
AcDb2dVertex
 10
90.34349498609468
 20
-113.500737818847
 30
0.0
  0
SEQEND
  5
BD
330
B0
100
AcDbEntity
  8
_U+30EC_U+30A4_U+30E4_U+30FC 1
370
     0
  0
POLYLINE
  5
BE
330
AC
100
AcDbEntity
  8
_U+30EC_U+30A4_U+30E4_U+30FC 1
370
     0
100
AcDb2dPolyline
 66
     1
 10
0.0
 20
0.0
 30
0.0
  0
VERTEX
  5
BF
330
BE
100
AcDbEntity
  8
_U+30EC_U+30A4_U+30E4_U+30FC 1
370
     0
100
AcDbVertex
100
AcDb2dVertex
 10
90.1257649514269
 20
-112.6460096289566
 30
0.0
  0
VERTEX
  5
C0
330
BE
100
AcDbEntity
  8
_U+30EC_U+30A4_U+30E4_U+30FC 1
370
     0
100
AcDbVertex
100
AcDb2dVertex
 10
89.66860078053425
 20
-113.3019558093481
 30
0.0
  0
VERTEX
  5
C1
330
BE
100
AcDbEntity
  8
_U+30EC_U+30A4_U+30E4_U+30FC 1
370
     0
100
AcDbVertex
100
AcDb2dVertex
 10
90.1257649514269
 20
-113.3019558093481
 30
0.0
  0
VERTEX
  5
C2
330
BE
100
AcDbEntity
  8
_U+30EC_U+30A4_U+30E4_U+30FC 1
370
     0
100
AcDbVertex
100
AcDb2dVertex
 10
90.1257649514269
 20
-112.6460096289566
 30
0.0
  0
SEQEND
  5
C3
330
BE
100
AcDbEntity
  8
_U+30EC_U+30A4_U+30E4_U+30FC 1
370
     0
  0
HATCH
  5
C4
330
AC
100
AcDbEntity
  8
_U+30EC_U+30A4_U+30E4_U+30FC 1
 62
   179
420
  2234388
100
AcDbHatch
 10
0.0
 20
0.0
 30
0.0
210
0.0
220
0.0
230
1.0
  2
SOLID
 70
     1
 71
     0
 91
        2
 92
        1
 93
       11
 72
     1
 10
90.34349498609468
 20
-113.500737818847
 11
90.34349498609468
 21
-113.8476589342117
 72
     1
 10
90.34349498609468
 20
-113.8476589342117
 11
90.1257649514269
 21
-113.8476589342117
 72
     1
 10
90.1257649514269
 20
-113.8476589342117
 11
90.1257649514269
 21
-113.500737818847
 72
     1
 10
90.1257649514269
 20
-113.500737818847
 11
89.46981877103532
 21
-113.500737818847
 72
     1
 10
89.46981877103532
 20
-113.500737818847
 11
89.46981877103532
 21
-113.2764621027573
 72
     1
 10
89.46981877103532
 20
-113.2764621027573
 11
90.14884709117807
 21
-112.3032226281742
 72
     1
 10
90.14884709117807
 20
-112.3032226281742
 11
90.34349498609468
 21
-112.3032226281742
 72
     1
 10
90.34349498609468
 20
-112.3032226281742
 11
90.34349498609468
 21
-113.3019558093481
 72
     1
 10
90.34349498609468
 20
-113.3019558093481
 11
90.55088973430672
 21
-113.3019558093481
 72
     1
 10
90.55088973430672
 20
-113.3019558093481
 11
90.55088973430672
 21
-113.500737818847
 72
     1
 10
90.55088973430672
 20
-113.500737818847
 11
90.34349498609468
 21
-113.500737818847
 97
        0
 92
        1
 93
        3
 72
     1
 10
90.1257649514269
 20
-112.6460096289566
 11
89.66860078053425
 21
-113.3019558093481
 72
     1
 10
89.66860078053425
 20
-113.3019558093481
 11
90.1257649514269
 21
-113.3019558093481
 72
     1
 10
90.1257649514269
 20
-113.3019558093481
 11
90.1257649514269
 21
-112.6460096289566
 97
        0
 75
     2
 76
     1
 98
        0
  0
SPLINE
  5
C5
330
AC
100
AcDbEntity
  8
_U+30EC_U+30A4_U+30E4_U+30FC 1
370
     0
100
AcDbSpline
210
0.0
220
0.0
230
1.0
 70
    11
 71
     3
 72
    29
 73
    25
 74
     0
 42
0.0000000001
 43
0.0000000001
 12
1.0
 22
0.0
 32
0.0
 13
1.0
 23
0.0
 33
0.0
 40
0.0
 40
0.0
 40
0.0
 40
0.0
 40
1.0
 40
1.0
 40
1.0
 40
2.0
 40
2.0
 40
2.0
 40
3.0
 40
3.0
 40
3.0
 40
4.0
 40
4.0
 40
4.0
 40
5.0
 40
5.0
 40
5.0
 40
6.0
 40
6.0
 40
6.0
 40
7.0
 40
7.0
 40
7.0
 40
8.0
 40
8.0
 40
8.0
 40
8.0
 10
91.5861409276243
 20
-113.6698920071728
 30
0.0
 10
91.47796492938745
 20
-113.879353812676
 30
0.0
 10
91.30467662647939
 20
-113.8983018378449
 30
0.0
 10
91.18823239907795
 20
-113.8983018378449
 30
0.0
 10
91.02734643991678
 20
-113.8983018378449
 30
0.0
 10
90.88575301547301
 20
-113.851793048794
 30
0.0
 10
90.79066838008012
 20
-113.6698920071728
 30
0.0
 10
90.6869710059741
 20
-113.4752441122562
 30
0.0
 10
90.66767847125669
 20
-113.2385660524195
 30
0.0
 10
90.66767847125669
 20
-113.0756130359672
 30
0.0
 10
90.66767847125669
 20
-112.9316080446838
 30
0.0
 10
90.68490394868294
 20
-112.679771564712
 30
0.0
 10
90.79066838008012
 20
-112.4809895552131
 30
0.0
 10
90.89849986876844
 20
-112.2780734311319
 30
0.0
 10
91.0593858279296
 20
-112.2546467818322
 30
0.0
 10
91.18823239907795
 20
-112.2546467818322
 30
0.0
 10
91.34705130094797
 20
-112.2546467818322
 30
0.0
 10
91.49071178268288
 20
-112.2990885135919
 30
0.0
 10
91.5861409276243
 20
-112.4809895552131
 30
0.0
 10
91.6853596775995
 20
-112.6735703928386
 30
0.0
 10
91.7087863268992
 20
-112.9019802235106
 30
0.0
 10
91.7087863268992
 20
-113.0756130359672
 30
0.0
 10
91.7087863268992
 20
-113.2468342815841
 30
0.0
 10
91.68742673489065
 20
-113.4773111695473
 30
0.0
 10
91.5861409276243
 20
-113.6698920071728
 30
0.0
  0
SPLINE
  5
C6
330
AC
100
AcDbEntity
  8
_U+30EC_U+30A4_U+30E4_U+30FC 1
370
     0
100
AcDbSpline
210
0.0
220
0.0
230
1.0
 70
    11
 71
     3
 72
    17
 73
    13
 74
     0
 42
0.0000000001
 43
0.0000000001
 12
1.0
 22
0.0
 32
0.0
 13
1.0
 23
0.0
 33
0.0
 40
0.0
 40
0.0
 40
0.0
 40
0.0
 40
1.0
 40
1.0
 40
1.0
 40
2.0
 40
2.0
 40
2.0
 40
3.0
 40
3.0
 40
3.0
 40
4.0
 40
4.0
 40
4.0
 40
4.0
 10
91.18823239907795
 20
-112.4472276194576
 30
0.0
 10
90.93846297639733
 20
-112.4472276194576
 30
0.0
 10
90.89195418734646
 20
-112.7307589778937
 30
0.0
 10
90.89195418734646
 20
-113.0756130359672
 30
0.0
 10
90.89195418734646
 20
-113.3949733874499
 30
0.0
 10
90.92812768994159
 20
-113.7036539429283
 30
0.0
 10
91.18823239907795
 20
-113.7036539429283
 30
0.0
 10
91.4359347644674
 20
-113.7036539429283
 30
0.0
 10
91.48451061080944
 20
-113.4225341513319
 30
0.0
 10
91.48451061080944
 20
-113.0756130359672
 30
0.0
 10
91.48451061080944
 20
-112.755908174936
 30
0.0
 10
91.44627005092316
 20
-112.4472276194576
 30
0.0
 10
91.18823239907795
 20
-112.4472276194576
 30
0.0
  0
HATCH
  5
C7
330
AC
100
AcDbEntity
  8
_U+30EC_U+30A4_U+30E4_U+30FC 1
 62
   179
420
  2234388
100
AcDbHatch
 10
0.0
 20
0.0
 30
0.0
210
0.0
220
0.0
230
1.0
  2
SOLID
 70
     1
 71
     0
 91
        2
 92
        1
 93
        1
 72
     4
 94
        3
 73
     0
 74
     1
 95
       29
 96
       25
 40
0.0
 40
0.0
 40
0.0
 40
0.0
 40
1.0
 40
1.0
 40
1.0
 40
2.0
 40
2.0
 40
2.0
 40
3.0
 40
3.0
 40
3.0
 40
4.0
 40
4.0
 40
4.0
 40
5.0
 40
5.0
 40
5.0
 40
6.0
 40
6.0
 40
6.0
 40
7.0
 40
7.0
 40
7.0
 40
8.0
 40
8.0
 40
8.0
 40
8.0
 10
91.5861409276243
 20
-113.6698920071728
 10
91.47796492938745
 20
-113.879353812676
 10
91.30467662647939
 20
-113.8983018378449
 10
91.18823239907795
 20
-113.8983018378449
 10
91.02734643991678
 20
-113.8983018378449
 10
90.88575301547301
 20
-113.851793048794
 10
90.79066838008012
 20
-113.6698920071728
 10
90.6869710059741
 20
-113.4752441122562
 10
90.66767847125669
 20
-113.2385660524195
 10
90.66767847125669
 20
-113.0756130359672
 10
90.66767847125669
 20
-112.9316080446838
 10
90.68490394868294
 20
-112.679771564712
 10
90.79066838008012
 20
-112.4809895552131
 10
90.89849986876844
 20
-112.2780734311319
 10
91.0593858279296
 20
-112.2546467818322
 10
91.18823239907795
 20
-112.2546467818322
 10
91.34705130094797
 20
-112.2546467818322
 10
91.49071178268288
 20
-112.2990885135919
 10
91.5861409276243
 20
-112.4809895552131
 10
91.6853596775995
 20
-112.6735703928386
 10
91.7087863268992
 20
-112.9019802235106
 10
91.7087863268992
 20
-113.0756130359672
 10
91.7087863268992
 20
-113.2468342815841
 10
91.68742673489065
 20
-113.4773111695473
 10
91.5861409276243
 20
-113.6698920071728
 97
        0
 97
        0
 92
        1
 93
        1
 72
     4
 94
        3
 73
     0
 74
     1
 95
       17
 96
       13
 40
0.0
 40
0.0
 40
0.0
 40
0.0
 40
1.0
 40
1.0
 40
1.0
 40
2.0
 40
2.0
 40
2.0
 40
3.0
 40
3.0
 40
3.0
 40
4.0
 40
4.0
 40
4.0
 40
4.0
 10
91.18823239907795
 20
-112.4472276194576
 10
90.93846297639733
 20
-112.4472276194576
 10
90.89195418734646
 20
-112.7307589778937
 10
90.89195418734646
 20
-113.0756130359672
 10
90.89195418734646
 20
-113.3949733874499
 10
90.92812768994159
 20
-113.7036539429283
 10
91.18823239907795
 20
-113.7036539429283
 10
91.4359347644674
 20
-113.7036539429283
 10
91.48451061080944
 20
-113.4225341513319
 10
91.48451061080944
 20
-113.0756130359672
 10
91.48451061080944
 20
-112.755908174936
 10
91.44627005092316
 20
-112.4472276194576
 10
91.18823239907795
 20
-112.4472276194576
 97
        0
 97
        0
 75
     2
 76
     1
 98
        0
  0
ENDBLK
  5
AF
330
AC
100
AcDbEntity
  8
0
100
AcDbBlockEnd
  0
BLOCK
  5
D2
330
D0
100
AcDbEntity
  8
0
100
AcDbBlockBegin
  2
block 9
 70
     0
 10
0.0
 20
0.0
 30
0.0
  3
block 9
  1

  0
SPLINE
  5
D4
330
D0
100
AcDbEntity
  8
_U+30EC_U+30A4_U+30E4_U+30FC 1
370
     0
100
AcDbSpline
210
0.0
220
0.0
230
1.0
 70
    11
 71
     3
 72
    44
 73
    40
 74
     0
 42
0.0000000001
 43
0.0000000001
 12
1.0
 22
0.0
 32
0.0
 13
1.0
 23
0.0
 33
0.0
 40
0.0
 40
0.0
 40
0.0
 40
0.0
 40
1.0
 40
1.0
 40
1.0
 40
2.0
 40
2.0
 40
2.0
 40
3.0
 40
3.0
 40
3.0
 40
4.0
 40
4.0
 40
4.0
 40
5.0
 40
5.0
 40
5.0
 40
6.0
 40
6.0
 40
6.0
 40
7.0
 40
7.0
 40
7.0
 40
8.0
 40
8.0
 40
8.0
 40
9.0
 40
9.0
 40
9.0
 40
10.0
 40
10.0
 40
10.0
 40
11.0
 40
11.0
 40
11.0
 40
12.0
 40
12.0
 40
12.0
 40
13.0
 40
13.0
 40
13.0
 40
13.0
 10
66.77387422375793
 20
-130.6318196288004
 30
0.0
 10
66.93252087085368
 20
-130.8498941730167
 30
0.0
 10
67.00659042378655
 20
-130.943256260667
 30
0.0
 10
67.15042316029573
 20
-130.9914875974605
 30
0.0
 10
67.15042316029573
 20
-130.9914875974605
 30
0.0
 10
67.15042316029573
 20
-130.2132405273425
 30
0.0
 10
67.15042316029573
 20
-130.2132405273425
 30
0.0
 10
67.15042316029573
 20
-130.2132405273425
 30
0.0
 10
67.35557859644236
 20
-130.2132405273425
 30
0.0
 10
67.35557859644236
 20
-130.2132405273425
 30
0.0
 10
67.35557859644236
 20
-130.2132405273425
 30
0.0
 10
67.35557859644236
 20
-131.2412570201411
 30
0.0
 10
67.35557859644236
 20
-131.2412570201411
 30
0.0
 10
66.99797768507342
 20
-131.2095621416768
 30
0.0
 10
66.91977401755825
 20
-131.144105327457
 30
0.0
 10
66.62142874853562
 20
-130.7589436522061
 30
0.0
 10
66.42264673903671
 20
-130.502973057652
 30
0.0
 10
66.35495061275154
 20
-130.4375162434323
 30
0.0
 10
66.21749130289007
 20
-130.4375162434323
 30
0.0
 10
66.09898001819748
 20
-130.4375162434323
 30
0.0
 10
65.96789413498372
 20
-130.5091742295255
 30
0.0
 10
65.96789413498372
 20
-130.7062336912818
 30
0.0
 10
65.96789413498372
 20
-130.9663384004182
 30
0.0
 10
66.19837102294694
 20
-130.9749511391313
 30
0.0
 10
66.31481525034839
 20
-130.9790852537136
 30
0.0
 10
66.31481525034839
 20
-130.9790852537136
 30
0.0
 10
66.31481525034839
 20
-131.2030164602548
 30
0.0
 10
66.31481525034839
 20
-131.2030164602548
 30
0.0
 10
66.18786348171693
 20
-131.1947482310902
 30
0.0
 10
66.07572562367204
 20
-131.1844129446345
 30
0.0
 10
65.95721433897945
 20
-131.1037977102796
 30
0.0
 10
65.79650063459255
 20
-130.9938991643001
 30
0.0
 10
65.76256644406283
 20
-130.8075194985481
 30
0.0
 10
65.76256644406283
 20
-130.6910752711467
 30
0.0
 10
65.76256644406283
 20
-130.4140895941326
 30
0.0
 10
65.94670679774944
 20
-130.2066948459206
 30
0.0
 10
66.21955836018122
 20
-130.2066948459206
 30
0.0
 10
66.44796819085329
 20
-130.2066948459206
 30
0.0
 10
66.54753145037701
 20
-130.323139073322
 30
0.0
 10
66.77387422375793
 20
-130.6318196288004
 30
0.0
  0
HATCH
  5
D5
330
D0
100
AcDbEntity
  8
_U+30EC_U+30A4_U+30E4_U+30FC 1
 62
   179
420
  2234388
100
AcDbHatch
 10
0.0
 20
0.0
 30
0.0
210
0.0
220
0.0
230
1.0
  2
SOLID
 70
     1
 71
     0
 91
        1
 92
        1
 93
        1
 72
     4
 94
        3
 73
     0
 74
     1
 95
       44
 96
       40
 40
0.0
 40
0.0
 40
0.0
 40
0.0
 40
1.0
 40
1.0
 40
1.0
 40
2.0
 40
2.0
 40
2.0
 40
3.0
 40
3.0
 40
3.0
 40
4.0
 40
4.0
 40
4.0
 40
5.0
 40
5.0
 40
5.0
 40
6.0
 40
6.0
 40
6.0
 40
7.0
 40
7.0
 40
7.0
 40
8.0
 40
8.0
 40
8.0
 40
9.0
 40
9.0
 40
9.0
 40
10.0
 40
10.0
 40
10.0
 40
11.0
 40
11.0
 40
11.0
 40
12.0
 40
12.0
 40
12.0
 40
13.0
 40
13.0
 40
13.0
 40
13.0
 10
66.77387422375793
 20
-130.6318196288004
 10
66.93252087085368
 20
-130.8498941730167
 10
67.00659042378655
 20
-130.943256260667
 10
67.15042316029573
 20
-130.9914875974605
 10
67.15042316029573
 20
-130.9914875974605
 10
67.15042316029573
 20
-130.2132405273425
 10
67.15042316029573
 20
-130.2132405273425
 10
67.15042316029573
 20
-130.2132405273425
 10
67.35557859644236
 20
-130.2132405273425
 10
67.35557859644236
 20
-130.2132405273425
 10
67.35557859644236
 20
-130.2132405273425
 10
67.35557859644236
 20
-131.2412570201411
 10
67.35557859644236
 20
-131.2412570201411
 10
66.99797768507342
 20
-131.2095621416768
 10
66.91977401755825
 20
-131.144105327457
 10
66.62142874853562
 20
-130.7589436522061
 10
66.42264673903671
 20
-130.502973057652
 10
66.35495061275154
 20
-130.4375162434323
 10
66.21749130289007
 20
-130.4375162434323
 10
66.09898001819748
 20
-130.4375162434323
 10
65.96789413498372
 20
-130.5091742295255
 10
65.96789413498372
 20
-130.7062336912818
 10
65.96789413498372
 20
-130.9663384004182
 10
66.19837102294694
 20
-130.9749511391313
 10
66.31481525034839
 20
-130.9790852537136
 10
66.31481525034839
 20
-130.9790852537136
 10
66.31481525034839
 20
-131.2030164602548
 10
66.31481525034839
 20
-131.2030164602548
 10
66.18786348171693
 20
-131.1947482310902
 10
66.07572562367204
 20
-131.1844129446345
 10
65.95721433897945
 20
-131.1037977102796
 10
65.79650063459255
 20
-130.9938991643001
 10
65.76256644406283
 20
-130.8075194985481
 10
65.76256644406283
 20
-130.6910752711467
 10
65.76256644406283
 20
-130.4140895941326
 10
65.94670679774944
 20
-130.2066948459206
 10
66.21955836018122
 20
-130.2066948459206
 10
66.44796819085329
 20
-130.2066948459206
 10
66.54753145037701
 20
-130.323139073322
 10
66.77387422375793
 20
-130.6318196288004
 97
        0
 97
        0
 75
     2
 76
     1
 98
        0
  0
SPLINE
  5
D6
330
D0
100
AcDbEntity
  8
_U+30EC_U+30A4_U+30E4_U+30FC 1
370
     0
100
AcDbSpline
210
0.0
220
0.0
230
1.0
 70
    11
 71
     3
 72
    29
 73
    25
 74
     0
 42
0.0000000001
 43
0.0000000001
 12
1.0
 22
0.0
 32
0.0
 13
1.0
 23
0.0
 33
0.0
 40
0.0
 40
0.0
 40
0.0
 40
0.0
 40
1.0
 40
1.0
 40
1.0
 40
2.0
 40
2.0
 40
2.0
 40
3.0
 40
3.0
 40
3.0
 40
4.0
 40
4.0
 40
4.0
 40
5.0
 40
5.0
 40
5.0
 40
6.0
 40
6.0
 40
6.0
 40
7.0
 40
7.0
 40
7.0
 40
8.0
 40
8.0
 40
8.0
 40
8.0
 10
67.17781166940347
 20
-129.150428570143
 30
0.0
 10
67.38727347490666
 20
-129.2586045683798
 30
0.0
 10
67.40639375484979
 20
-129.4318928712879
 30
0.0
 10
67.40639375484979
 20
-129.5483370986893
 30
0.0
 10
67.40639375484979
 20
-129.7092230578505
 30
0.0
 10
67.35988496579893
 20
-129.8508164822942
 30
0.0
 10
67.17781166940347
 20
-129.9462456272357
 30
0.0
 10
66.98316377448685
 20
-130.0495984917931
 30
0.0
 10
66.74631345987592
 20
-130.0688910265106
 30
0.0
 10
66.5833604434236
 20
-130.0688910265106
 30
0.0
 10
66.43952770691443
 20
-130.0688910265106
 30
0.0
 10
66.18786348171693
 20
-130.0516655490843
 30
0.0
 10
65.98890921744375
 20
-129.9462456272357
 30
0.0
 10
65.78582083858826
 20
-129.8380696289988
 30
0.0
 10
65.76256644406283
 20
-129.6775281793862
 30
0.0
 10
65.76256644406283
 20
-129.5483370986893
 30
0.0
 10
65.76256644406283
 20
-129.3895181968193
 30
0.0
 10
65.80700817582256
 20
-129.2458577150844
 30
0.0
 10
65.98890921744375
 20
-129.150428570143
 30
0.0
 10
66.18149005506922
 20
-129.0512098201678
 30
0.0
 10
66.40989988574128
 20
-129.027783170868
 30
0.0
 10
66.5833604434236
 20
-129.027783170868
 30
0.0
 10
66.75475394381479
 20
-129.027783170868
 30
0.0
 10
66.98540308655227
 20
-129.0491427628766
 30
0.0
 10
67.17781166940347
 20
-129.150428570143
 30
0.0
  0
SPLINE
  5
D7
330
D0
100
AcDbEntity
  8
_U+30EC_U+30A4_U+30E4_U+30FC 1
370
     0
100
AcDbSpline
210
0.0
220
0.0
230
1.0
 70
    11
 71
     3
 72
    17
 73
    13
 74
     0
 42
0.0000000001
 43
0.0000000001
 12
1.0
 22
0.0
 32
0.0
 13
1.0
 23
0.0
 33
0.0
 40
0.0
 40
0.0
 40
0.0
 40
0.0
 40
1.0
 40
1.0
 40
1.0
 40
2.0
 40
2.0
 40
2.0
 40
3.0
 40
3.0
 40
3.0
 40
4.0
 40
4.0
 40
4.0
 40
4.0
 10
65.9551472816883
 20
-129.5483370986893
 30
0.0
 10
65.9551472816883
 20
-129.7981065213699
 30
0.0
 10
66.23867864012436
 20
-129.8442708008723
 30
0.0
 10
66.5833604434236
 20
-129.8442708008723
 30
0.0
 10
66.90289304968053
 20
-129.8442708008723
 30
0.0
 10
67.21174585993317
 20
-129.8084418078257
 30
0.0
 10
67.21174585993317
 20
-129.5483370986893
 30
0.0
 10
67.21174585993317
 20
-129.3006347332999
 30
0.0
 10
66.93028155878827
 20
-129.2520588869578
 30
0.0
 10
66.5833604434236
 20
-129.2520588869578
 30
0.0
 10
66.26400009194094
 20
-129.2520588869578
 30
0.0
 10
65.9551472816883
 20
-129.2902994468441
 30
0.0
 10
65.9551472816883
 20
-129.5483370986893
 30
0.0
  0
HATCH
  5
D8
330
D0
100
AcDbEntity
  8
_U+30EC_U+30A4_U+30E4_U+30FC 1
 62
   179
420
  2234388
100
AcDbHatch
 10
0.0
 20
0.0
 30
0.0
210
0.0
220
0.0
230
1.0
  2
SOLID
 70
     1
 71
     0
 91
        2
 92
        1
 93
        1
 72
     4
 94
        3
 73
     0
 74
     1
 95
       29
 96
       25
 40
0.0
 40
0.0
 40
0.0
 40
0.0
 40
1.0
 40
1.0
 40
1.0
 40
2.0
 40
2.0
 40
2.0
 40
3.0
 40
3.0
 40
3.0
 40
4.0
 40
4.0
 40
4.0
 40
5.0
 40
5.0
 40
5.0
 40
6.0
 40
6.0
 40
6.0
 40
7.0
 40
7.0
 40
7.0
 40
8.0
 40
8.0
 40
8.0
 40
8.0
 10
67.17781166940347
 20
-129.150428570143
 10
67.38727347490666
 20
-129.2586045683798
 10
67.40639375484979
 20
-129.4318928712879
 10
67.40639375484979
 20
-129.5483370986893
 10
67.40639375484979
 20
-129.7092230578505
 10
67.35988496579893
 20
-129.8508164822942
 10
67.17781166940347
 20
-129.9462456272357
 10
66.98316377448685
 20
-130.0495984917931
 10
66.74631345987592
 20
-130.0688910265106
 10
66.5833604434236
 20
-130.0688910265106
 10
66.43952770691443
 20
-130.0688910265106
 10
66.18786348171693
 20
-130.0516655490843
 10
65.98890921744375
 20
-129.9462456272357
 10
65.78582083858826
 20
-129.8380696289988
 10
65.76256644406283
 20
-129.6775281793862
 10
65.76256644406283
 20
-129.5483370986893
 10
65.76256644406283
 20
-129.3895181968193
 10
65.80700817582256
 20
-129.2458577150844
 10
65.98890921744375
 20
-129.150428570143
 10
66.18149005506922
 20
-129.0512098201678
 10
66.40989988574128
 20
-129.027783170868
 10
66.5833604434236
 20
-129.027783170868
 10
66.75475394381479
 20
-129.027783170868
 10
66.98540308655227
 20
-129.0491427628766
 10
67.17781166940347
 20
-129.150428570143
 97
        0
 97
        0
 92
        1
 93
        1
 72
     4
 94
        3
 73
     0
 74
     1
 95
       17
 96
       13
 40
0.0
 40
0.0
 40
0.0
 40
0.0
 40
1.0
 40
1.0
 40
1.0
 40
2.0
 40
2.0
 40
2.0
 40
3.0
 40
3.0
 40
3.0
 40
4.0
 40
4.0
 40
4.0
 40
4.0
 10
65.9551472816883
 20
-129.5483370986893
 10
65.9551472816883
 20
-129.7981065213699
 10
66.23867864012436
 20
-129.8442708008723
 10
66.5833604434236
 20
-129.8442708008723
 10
66.90289304968053
 20
-129.8442708008723
 10
67.21174585993317
 20
-129.8084418078257
 10
67.21174585993317
 20
-129.5483370986893
 10
67.21174585993317
 20
-129.3006347332999
 10
66.93028155878827
 20
-129.2520588869578
 10
66.5833604434236
 20
-129.2520588869578
 10
66.26400009194094
 20
-129.2520588869578
 10
65.9551472816883
 20
-129.2902994468441
 10
65.9551472816883
 20
-129.5483370986893
 97
        0
 97
        0
 75
     2
 76
     1
 98
        0
  0
ENDBLK
  5
D3
330
D0
100
AcDbEntity
  8
0
100
AcDbBlockEnd
  0
ENDSEC
  0
SECTION
  2
ENTITIES
  0
INSERT
  5
42
330
1F
100
AcDbEntity
  8
_U+30EC_U+30A4_U+30E4_U+30FC 1
100
AcDbBlockReference
  2
block 2
 10
0.0
 20
0.0
 30
0.0
  0
ENDSEC
  0
SECTION
  2
OBJECTS
  0
DICTIONARY
  5
C
330
0
100
AcDbDictionary
281
     1
  3
ACAD_GROUP
350
D
  3
ACAD_LAYOUT
350
1A
  3
ACAD_MATERIAL
350
3B
  3
ACAD_MLEADERSTYLE
350
F5
  3
ACAD_MLINESTYLE
350
17
  3
ACAD_PLOTSETTINGS
350
19
  3
ACAD_PLOTSTYLENAME
350
E
  3
ACAD_TABLESTYLE
350
F4
  3
ACAD_VISUALSTYLE
350
2A
  0
SUN
  5
3F
330
29
100
AcDbSun
 90
        1
290
     0
 63
     7
421
 16777215
 40
1.0
291
     1
 91
  2455826
 92
 54000000
292
     0
 70
     2
 71
   256
280
     1
  0
DICTIONARY
  5
D
102
{ACAD_REACTORS
330
C
102
}
330
C
100
AcDbDictionary
281
     1
  0
DICTIONARY
  5
1A
102
{ACAD_REACTORS
330
C
102
}
330
C
100
AcDbDictionary
281
     1
  3
Layout1
350
1E
  3
Layout2
350
26
  3
Model
350
22
  0
DICTIONARY
  5
3B
102
{ACAD_REACTORS
330
C
102
}
330
C
100
AcDbDictionary
281
     1
  3
ByBlock
350
3D
  3
ByLayer
350
3C
  3
Global
350
3E
  0
DICTIONARY
  5
F5
102
{ACAD_REACTORS
330
C
102
}
330
C
100
AcDbDictionary
281
     1
  0
DICTIONARY
  5
17
102
{ACAD_REACTORS
330
C
102
}
330
C
100
AcDbDictionary
281
     1
  3
Standard
350
18
  0
DICTIONARY
  5
19
102
{ACAD_REACTORS
330
C
102
}
330
C
100
AcDbDictionary
281
     1
  0
ACDBDICTIONARYWDFLT
  5
E
102
{ACAD_REACTORS
330
C
102
}
330
C
100
AcDbDictionary
281
     1
  3
Normal
350
F
100
AcDbDictionaryWithDefault
340
F
  0
DICTIONARY
  5
F4
102
{ACAD_REACTORS
330
C
102
}
330
C
100
AcDbDictionary
281
     1
  0
DICTIONARY
  5
2A
102
{ACAD_REACTORS
330
C
102
}
330
C
100
AcDbDictionary
281
     1
  3
2dWireframe
350
2F
  3
3D Hidden
350
31
  3
3dWireframe
350
30
  3
Basic
350
32
  3
Brighten
350
36
  3
ColorChange
350
3A
  3
Conceptual
350
34
  3
Dim
350
35
  3
Facepattern
350
39
  3
Flat
350
2B
  3
FlatWithEdges
350
2C
  3
Gouraud
350
2D
  3
GouraudWithEdges
350
2E
  3
Linepattern
350
38
  3
Realistic
350
33
  3
Thicken
350
37
  0
LAYOUT
  5
1E
102
{ACAD_REACTORS
330
1A
102
}
330
1A
100
AcDbPlotSettings
  1

  2
none_device
  4

  6

 40
0.0
 41
0.0
 42
0.0
 43
0.0
 44
0.0
 45
0.0
 46
0.0
 47
0.0
 48
0.0
 49
0.0
140
0.0
141
0.0
142
1.0
143
1.0
 70
   688
 72
     0
 73
     0
 74
     5
  7

 75
    16
 76
     0
 77
     2
 78
   300
147
1.0
148
0.0
149
0.0
100
AcDbLayout
  1
Layout1
 70
     1
 71
     1
 10
0.0
 20
0.0
 11
12.0
 21
9.0
 12
0.0
 22
0.0
 32
0.0
 14
1.000000000000000E+20
 24
1.000000000000000E+20
 34
1.000000000000000E+20
 15
-1.000000000000000E+20
 25
-1.000000000000000E+20
 35
-1.000000000000000E+20
146
0.0
 13
0.0
 23
0.0
 33
0.0
 16
1.0
 26
0.0
 36
0.0
 17
0.0
 27
1.0
 37
0.0
 76
     0
330
1B
  0
LAYOUT
  5
26
102
{ACAD_REACTORS
330
1A
102
}
330
1A
100
AcDbPlotSettings
  1

  2
none_device
  4

  6

 40
0.0
 41
0.0
 42
0.0
 43
0.0
 44
0.0
 45
0.0
 46
0.0
 47
0.0
 48
0.0
 49
0.0
140
0.0
141
0.0
142
1.0
143
1.0
 70
   688
 72
     0
 73
     0
 74
     5
  7

 75
    16
 76
     0
 77
     2
 78
   300
147
1.0
148
0.0
149
0.0
100
AcDbLayout
  1
Layout2
 70
     1
 71
     2
 10
0.0
 20
0.0
 11
0.0
 21
0.0
 12
0.0
 22
0.0
 32
0.0
 14
0.0
 24
0.0
 34
0.0
 15
0.0
 25
0.0
 35
0.0
146
0.0
 13
0.0
 23
0.0
 33
0.0
 16
1.0
 26
0.0
 36
0.0
 17
0.0
 27
1.0
 37
0.0
 76
     0
330
23
  0
LAYOUT
  5
22
102
{ACAD_REACTORS
330
1A
102
}
330
1A
100
AcDbPlotSettings
  1

  2
none_device
  4

  6

 40
0.0
 41
0.0
 42
0.0
 43
0.0
 44
0.0
 45
0.0
 46
0.0
 47
0.0
 48
0.0
 49
0.0
140
0.0
141
0.0
142
1.0
143
1.0
 70
  1712
 72
     0
 73
     0
 74
     0
  7

 75
     0
 76
     0
 77
     2
 78
   300
147
1.0
148
0.0
149
0.0
100
AcDbLayout
  1
Model
 70
     1
 71
     0
 10
0.0
 20
0.0
 11
12.0
 21
9.0
 12
0.0
 22
0.0
 32
0.0
 14
1.000000000000000E+20
 24
1.000000000000000E+20
 34
1.000000000000000E+20
 15
-1.000000000000000E+20
 25
-1.000000000000000E+20
 35
-1.000000000000000E+20
146
0.0
 13
0.0
 23
0.0
 33
0.0
 16
1.0
 26
0.0
 36
0.0
 17
0.0
 27
1.0
 37
0.0
 76
     0
330
1F
331
29
  0
MATERIAL
  5
3D
102
{ACAD_REACTORS
330
3B
102
}
330
3B
100
AcDbMaterial
  1
ByBlock
 72
     1
 94
      127
  0
MATERIAL
  5
3C
102
{ACAD_REACTORS
330
3B
102
}
330
3B
100
AcDbMaterial
  1
ByLayer
 72
     1
 94
      127
  0
MATERIAL
  5
3E
102
{ACAD_REACTORS
330
3B
102
}
330
3B
100
AcDbMaterial
  1
Global
 72
     1
 94
      127
  0
MLINESTYLE
  5
18
102
{ACAD_REACTORS
330
17
102
}
330
17
100
AcDbMlineStyle
  2
Standard
 70
     0
  3

 62
   256
 51
90.0
 52
90.0
 71
     2
 49
0.5
 62
   256
  6
BYLAYER
 49
-0.5
 62
   256
  6
BYLAYER
  0
ACDBPLACEHOLDER
  5
F
102
{ACAD_REACTORS
330
E
102
}
330
E
  0
VISUALSTYLE
  5
2F
102
{ACAD_REACTORS
330
2A
102
}
330
2A
100
AcDbVisualStyle
  2
2dWireframe
 70
     4
177
     2
291
     0
 71
     0
176
     1
 72
     2
176
     1
 73
     0
176
     1
 90
        0
176
     1
 40
-0.6
176
     1
 41
-30.0
176
     1
 62
     5
 63
     7
421
 16777215
176
     1
 74
     1
176
     1
 91
        4
176
     1
 64
     7
176
     1
 65
   257
176
     1
 75
     1
176
     1
175
     1
176
     1
 42
1.0
176
     1
 92
        0
176
     1
 66
   257
176
     1
 43
1.0
176
     1
 76
     1
176
     1
 77
     6
176
     1
 78
     2
176
     1
 67
     7
176
     1
 79
     5
176
     1
170
     0
176
     1
171
     0
176
     1
290
     0
176
     1
 93
        1
176
     1
 44
0.0
176
     1
173
     0
176
     1
  0
VISUALSTYLE
  5
31
102
{ACAD_REACTORS
330
2A
102
}
330
2A
100
AcDbVisualStyle
  2
3D Hidden
 70
     6
177
     2
291
     0
 71
     1
176
     1
 72
     2
176
     1
 73
     2
176
     1
 90
        0
176
     1
 40
-0.6
176
     1
 41
-30.0
176
     1
 62
     5
 63
     7
421
 16777215
176
     1
 74
     2
176
     1
 91
        2
176
     1
 64
     7
176
     1
 65
   257
176
     1
 75
     2
176
     1
175
     1
176
     1
 42
40.0
176
     1
 92
        0
176
     1
 66
   257
176
     1
 43
1.0
176
     1
 76
     1
176
     1
 77
     6
176
     1
 78
     2
176
     1
 67
     7
176
     1
 79
     3
176
     1
170
     0
176
     1
171
     0
176
     1
290
     0
176
     1
 93
        1
176
     1
 44
0.0
176
     1
173
     0
176
     1
  0
VISUALSTYLE
  5
30
102
{ACAD_REACTORS
330
2A
102
}
330
2A
100
AcDbVisualStyle
  2
3dWireframe
 70
     5
177
     2
291
     0
 71
     0
176
     1
 72
     2
176
     1
 73
     0
176
     1
 90
        0
176
     1
 40
-0.6
176
     1
 41
-30.0
176
     1
 62
     5
 63
     7
421
 16777215
176
     1
 74
     1
176
     1
 91
        4
176
     1
 64
     7
176
     1
 65
   257
176
     1
 75
     1
176
     1
175
     1
176
     1
 42
1.0
176
     1
 92
        0
176
     1
 66
   257
176
     1
 43
1.0
176
     1
 76
     1
176
     1
 77
     6
176
     1
 78
     2
176
     1
 67
     7
176
     1
 79
     5
176
     1
170
     0
176
     1
171
     0
176
     1
290
     0
176
     1
 93
        1
176
     1
 44
0.0
176
     1
173
     0
176
     1
  0
VISUALSTYLE
  5
32
102
{ACAD_REACTORS
330
2A
102
}
330
2A
100
AcDbVisualStyle
  2
Basic
 70
     7
177
     2
291
     1
 71
     1
176
     1
 72
     0
176
     1
 73
     1
176
     1
 90
        0
176
     1
 40
-0.6
176
     1
 41
-30.0
176
     1
 62
     5
 63
     7
421
 16777215
176
     1
 74
     0
176
     1
 91
        4
176
     1
 64
     7
176
     1
 65
   257
176
     1
 75
     1
176
     1
175
     1
176
     1
 42
1.0
176
     1
 92
        8
176
     1
 66
     7
176
     1
 43
1.0
176
     1
 76
     1
176
     1
 77
     6
176
     1
 78
     2
176
     1
 67
     7
176
     1
 79
     5
176
     1
170
     0
176
     1
171
     0
176
     1
290
     0
176
     1
 93
        1
176
     1
 44
0.0
176
     1
173
     0
176
     1
  0
VISUALSTYLE
  5
36
102
{ACAD_REACTORS
330
2A
102
}
330
2A
100
AcDbVisualStyle
  2
Brighten
 70
    12
177
     2
291
     1
 71
     2
176
     1
 72
     2
176
     1
 73
     0
176
     1
 90
        0
176
     1
 40
-0.6
176
     1
 41
-30.0
176
     1
 62
     5
 63
     7
421
 16777215
176
     1
 74
     1
176
     1
 91
        4
176
     1
 64
     7
176
     1
 65
   257
176
     1
 75
     1
176
     1
175
     1
176
     1
 42
1.0
176
     1
 92
        8
176
     1
 66
     7
176
     1
 43
1.0
176
     1
 76
     1
176
     1
 77
     6
176
     1
 78
     2
176
     1
 67
     7
176
     1
 79
     5
176
     1
170
     0
176
     1
171
     0
176
     1
290
     0
176
     1
 93
        1
176
     1
 44
50.0
176
     1
173
     0
176
     1
  0
VISUALSTYLE
  5
3A
102
{ACAD_REACTORS
330
2A
102
}
330
2A
100
AcDbVisualStyle
  2
ColorChange
 70
    16
177
     2
291
     1
 71
     2
176
     1
 72
     2
176
     1
 73
     3
176
     1
 90
        0
176
     1
 40
-0.6
176
     1
 41
-30.0
176
     1
 62
     5
 63
     8
421
  8421504
176
     1
 74
     1
176
     1
 91
        4
176
     1
 64
     7
176
     1
 65
   257
176
     1
 75
     1
176
     1
175
     1
176
     1
 42
1.0
176
     1
 92
        8
176
     1
 66
     8
424
  8421504
176
     1
 43
1.0
176
     1
 76
     1
176
     1
 77
     6
176
     1
 78
     2
176
     1
 67
     7
176
     1
 79
     5
176
     1
170
     0
176
     1
171
     0
176
     1
290
     0
176
     1
 93
        1
176
     1
 44
0.0
176
     1
173
     0
176
     1
  0
VISUALSTYLE
  5
34
102
{ACAD_REACTORS
330
2A
102
}
330
2A
100
AcDbVisualStyle
  2
Conceptual
 70
     9
177
     2
291
     0
 71
     3
176
     1
 72
     2
176
     1
 73
     0
176
     1
 90
        0
176
     1
 40
-0.6
176
     1
 41
-30.0
176
     1
 62
     5
 63
     7
421
 16777215
176
     1
 74
     2
176
     1
 91
        2
176
     1
 64
     7
176
     1
 65
   257
176
     1
 75
     1
176
     1
175
     1
176
     1
 42
40.0
176
     1
 92
        8
176
     1
 66
     7
176
     1
 43
1.0
176
     1
 76
     1
176
     1
 77
     6
176
     1
 78
     2
176
     1
 67
     7
176
     1
 79
     3
176
     1
170
     0
176
     1
171
     0
176
     1
290
     0
176
     1
 93
        1
176
     1
 44
0.0
176
     1
173
     0
176
     1
  0
VISUALSTYLE
  5
35
102
{ACAD_REACTORS
330
2A
102
}
330
2A
100
AcDbVisualStyle
  2
Dim
 70
    11
177
     2
291
     1
 71
     2
176
     1
 72
     2
176
     1
 73
     0
176
     1
 90
        0
176
     1
 40
-0.6
176
     1
 41
-30.0
176
     1
 62
     5
 63
     7
421
 16777215
176
     1
 74
     1
176
     1
 91
        4
176
     1
 64
     7
176
     1
 65
   257
176
     1
 75
     1
176
     1
175
     1
176
     1
 42
1.0
176
     1
 92
        8
176
     1
 66
     7
176
     1
 43
1.0
176
     1
 76
     1
176
     1
 77
     6
176
     1
 78
     2
176
     1
 67
     7
176
     1
 79
     5
176
     1
170
     0
176
     1
171
     0
176
     1
290
     0
176
     1
 93
        1
176
     1
 44
-50.0
176
     1
173
     0
176
     1
  0
VISUALSTYLE
  5
39
102
{ACAD_REACTORS
330
2A
102
}
330
2A
100
AcDbVisualStyle
  2
Facepattern
 70
    15
177
     2
291
     1
 71
     2
176
     1
 72
     2
176
     1
 73
     0
176
     1
 90
        0
176
     1
 40
-0.6
176
     1
 41
-30.0
176
     1
 62
     5
 63
     7
421
 16777215
176
     1
 74
     1
176
     1
 91
        4
176
     1
 64
     7
176
     1
 65
   257
176
     1
 75
     1
176
     1
175
     1
176
     1
 42
1.0
176
     1
 92
        8
176
     1
 66
     7
176
     1
 43
1.0
176
     1
 76
     1
176
     1
 77
     6
176
     1
 78
     2
176
     1
 67
     7
176
     1
 79
     5
176
     1
170
     0
176
     1
171
     0
176
     1
290
     0
176
     1
 93
        1
176
     1
 44
0.0
176
     1
173
     0
176
     1
  0
VISUALSTYLE
  5
2B
102
{ACAD_REACTORS
330
2A
102
}
330
2A
100
AcDbVisualStyle
  2
Flat
 70
     0
177
     2
291
     1
 71
     2
176
     1
 72
     1
176
     1
 73
     1
176
     1
 90
        2
176
     1
 40
-0.6
176
     1
 41
30.0
176
     1
 62
     5
 63
     7
421
 16777215
176
     1
 74
     0
176
     1
 91
        4
176
     1
 64
     7
176
     1
 65
   257
176
     1
 75
     1
176
     1
175
     1
176
     1
 42
1.0
176
     1
 92
        8
176
     1
 66
     7
176
     1
 43
1.0
176
     1
 76
     1
176
     1
 77
     6
176
     1
 78
     2
176
     1
 67
     7
176
     1
 79
     5
176
     1
170
     0
176
     1
171
     0
176
     1
290
     0
176
     1
 93
       13
176
     1
 44
0.0
176
     1
173
     0
176
     1
  0
VISUALSTYLE
  5
2C
102
{ACAD_REACTORS
330
2A
102
}
330
2A
100
AcDbVisualStyle
  2
FlatWithEdges
 70
     1
177
     2
291
     1
 71
     2
176
     1
 72
     1
176
     1
 73
     1
176
     1
 90
        2
176
     1
 40
-0.6
176
     1
 41
30.0
176
     1
 62
     5
 63
     7
421
 16777215
176
     1
 74
     1
176
     1
 91
        4
176
     1
 64
     7
176
     1
 65
   257
176
     1
 75
     1
176
     1
175
     1
176
     1
 42
1.0
176
     1
 92
        0
176
     1
 66
   257
176
     1
 43
1.0
176
     1
 76
     1
176
     1
 77
     6
176
     1
 78
     2
176
     1
 67
     7
176
     1
 79
     5
176
     1
170
     0
176
     1
171
     0
176
     1
290
     0
176
     1
 93
       13
176
     1
 44
0.0
176
     1
173
     0
176
     1
  0
VISUALSTYLE
  5
2D
102
{ACAD_REACTORS
330
2A
102
}
330
2A
100
AcDbVisualStyle
  2
Gouraud
 70
     2
177
     2
291
     1
 71
     2
176
     1
 72
     2
176
     1
 73
     1
176
     1
 90
        2
176
     1
 40
-0.6
176
     1
 41
30.0
176
     1
 62
     5
 63
     7
421
 16777215
176
     1
 74
     0
176
     1
 91
        4
176
     1
 64
     7
176
     1
 65
   257
176
     1
 75
     1
176
     1
175
     1
176
     1
 42
1.0
176
     1
 92
        0
176
     1
 66
     7
176
     1
 43
1.0
176
     1
 76
     1
176
     1
 77
     6
176
     1
 78
     2
176
     1
 67
     7
176
     1
 79
     5
176
     1
170
     0
176
     1
171
     0
176
     1
290
     0
176
     1
 93
       13
176
     1
 44
0.0
176
     1
173
     0
176
     1
  0
VISUALSTYLE
  5
2E
102
{ACAD_REACTORS
330
2A
102
}
330
2A
100
AcDbVisualStyle
  2
GouraudWithEdges
 70
     3
177
     2
291
     1
 71
     2
176
     1
 72
     2
176
     1
 73
     1
176
     1
 90
        2
176
     1
 40
-0.6
176
     1
 41
30.0
176
     1
 62
     5
 63
     7
421
 16777215
176
     1
 74
     1
176
     1
 91
        4
176
     1
 64
     7
176
     1
 65
   257
176
     1
 75
     1
176
     1
175
     1
176
     1
 42
1.0
176
     1
 92
        0
176
     1
 66
   257
176
     1
 43
1.0
176
     1
 76
     1
176
     1
 77
     6
176
     1
 78
     2
176
     1
 67
     7
176
     1
 79
     5
176
     1
170
     0
176
     1
171
     0
176
     1
290
     0
176
     1
 93
       13
176
     1
 44
0.0
176
     1
173
     0
176
     1
  0
VISUALSTYLE
  5
38
102
{ACAD_REACTORS
330
2A
102
}
330
2A
100
AcDbVisualStyle
  2
Linepattern
 70
    14
177
     2
291
     1
 71
     2
176
     1
 72
     2
176
     1
 73
     0
176
     1
 90
        0
176
     1
 40
-0.6
176
     1
 41
-30.0
176
     1
 62
     5
 63
     7
421
 16777215
176
     1
 74
     1
176
     1
 91
        4
176
     1
 64
     7
176
     1
 65
   257
176
     1
 75
     7
176
     1
175
     7
176
     1
 42
1.0
176
     1
 92
        8
176
     1
 66
     7
176
     1
 43
1.0
176
     1
 76
     1
176
     1
 77
     6
176
     1
 78
     2
176
     1
 67
     7
176
     1
 79
     5
176
     1
170
     0
176
     1
171
     0
176
     1
290
     0
176
     1
 93
        1
176
     1
 44
0.0
176
     1
173
     0
176
     1
  0
VISUALSTYLE
  5
33
102
{ACAD_REACTORS
330
2A
102
}
330
2A
100
AcDbVisualStyle
  2
Realistic
 70
     8
177
     2
291
     0
 71
     2
176
     1
 72
     2
176
     1
 73
     0
176
     1
 90
        0
176
     1
 40
-0.6
176
     1
 41
-30.0
176
     1
 62
     5
 63
     7
421
 16777215
176
     1
 74
     1
176
     1
 91
        0
176
     1
 64
     7
176
     1
 65
   257
176
     1
 75
     1
176
     1
175
     1
176
     1
 42
1.0
176
     1
 92
        8
176
     1
 66
     8
424
  7895160
176
     1
 43
1.0
176
     1
 76
     1
176
     1
 77
     6
176
     1
 78
     2
176
     1
 67
     7
176
     1
 79
     5
176
     1
170
     0
176
     1
171
     0
176
     1
290
     0
176
     1
 93
       13
176
     1
 44
0.0
176
     1
173
     0
176
     1
  0
VISUALSTYLE
  5
37
102
{ACAD_REACTORS
330
2A
102
}
330
2A
100
AcDbVisualStyle
  2
Thicken
 70
    13
177
     2
291
     1
 71
     2
176
     1
 72
     2
176
     1
 73
     0
176
     1
 90
        0
176
     1
 40
-0.6
176
     1
 41
-30.0
176
     1
 62
     5
 63
     7
421
 16777215
176
     1
 74
     1
176
     1
 91
        4
176
     1
 64
     7
176
     1
 65
   257
176
     1
 75
     1
176
     1
175
     1
176
     1
 42
1.0
176
     1
 92
       12
176
     1
 66
     7
176
     1
 43
1.0
176
     1
 76
     1
176
     1
 77
     6
176
     1
 78
     2
176
     1
 67
     7
176
     1
 79
     5
176
     1
170
     0
176
     1
171
     0
176
     1
290
     0
176
     1
 93
        1
176
     1
 44
0.0
176
     1
173
     0
176
     1
  0
ENDSEC
  0
EOF
