  0
SECTION
  2
HEADER
  9
$ACADVER
  1
AC1024
  9
$ACADMAINTVER
 70
     6
  9
$DWGCODEPAGE
  3
UNDEFINED
  9
$INSBASE
 10
0.0
 20
0.0
 30
0.0
  9
$EXTMIN
 10
1.000000000000000E+20
 20
1.000000000000000E+20
 30
1.000000000000000E+20
  9
$EXTMAX
 10
-1.000000000000000E+20
 20
-1.000000000000000E+20
 30
-1.000000000000000E+20
  9
$LIMMIN
 10
0.0
 20
0.0
  9
$LIMMAX
 10
12.0
 20
9.0
  9
$ORTHOMODE
 70
     0
  9
$REGENMODE
 70
     1
  9
$FILLMODE
 70
     1
  9
$QTEXTMODE
 70
     0
  9
$MIRRTEXT
 70
     1
  9
$LTSCALE
 40
1.0
  9
$ATTMODE
 70
     1
  9
$TEXTSIZE
 40
0.2
  9
$TRACEWID
 40
0.05
  9
$TEXTSTYLE
  7
Standard
  9
$CLAYER
  8
0
  9
$CELTYPE
  6
ByLayer
  9
$CECOLOR
 62
   256
  9
$CELTSCALE
 40
1.0
  9
$DISPSILH
 70
     0
  9
$DIMSCALE
 40
1.0
  9
$DIMASZ
 40
0.18
  9
$DIMEXO
 40
0.0625
  9
$DIMDLI
 40
0.38
  9
$DIMRND
 40
0.0
  9
$DIMDLE
 40
0.0
  9
$DIMEXE
 40
0.18
  9
$DIMTP
 40
0.0
  9
$DIMTM
 40
0.0
  9
$DIMTXT
 40
0.18
  9
$DIMCEN
 40
0.09
  9
$DIMTSZ
 40
0.0
  9
$DIMTOL
 70
     0
  9
$DIMLIM
 70
     0
  9
$DIMTIH
 70
     1
  9
$DIMTOH
 70
     1
  9
$DIMSE1
 70
     0
  9
$DIMSE2
 70
     0
  9
$DIMTAD
 70
     0
  9
$DIMZIN
 70
     0
  9
$DIMBLK
  1

  9
$DIMASO
 70
     1
  9
$DIMSHO
 70
     1
  9
$DIMPOST
  1

  9
$DIMAPOST
  1

  9
$DIMALT
 70
     0
  9
$DIMALTD
 70
     2
  9
$DIMALTF
 40
25.4
  9
$DIMLFAC
 40
1.0
  9
$DIMTOFL
 70
     0
  9
$DIMTVP
 40
0.0
  9
$DIMTIX
 70
     0
  9
$DIMSOXD
 70
     0
  9
$DIMSAH
 70
     0
  9
$DIMBLK1
  1

  9
$DIMBLK2
  1

  9
$DIMSTYLE
  2
Standard
  9
$DIMCLRD
 70
     0
  9
$DIMCLRE
 70
     0
  9
$DIMCLRT
 70
     0
  9
$DIMTFAC
 40
1.0
  9
$DIMGAP
 40
0.09
  9
$DIMJUST
 70
     0
  9
$DIMSD1
 70
     0
  9
$DIMSD2
 70
     0
  9
$DIMTOLJ
 70
     1
  9
$DIMTZIN
 70
     0
  9
$DIMALTZ
 70
     0
  9
$DIMALTTZ
 70
     0
  9
$DIMUPT
 70
     0
  9
$DIMDEC
 70
     4
  9
$DIMTDEC
 70
     4
  9
$DIMALTU
 70
     2
  9
$DIMALTTD
 70
     2
  9
$DIMTXSTY
  7
Standard
  9
$DIMAUNIT
 70
     0
  9
$DIMADEC
 70
     0
  9
$DIMALTRND
 40
0.0
  9
$DIMAZIN
 70
     0
  9
$DIMDSEP
 70
    46
  9
$DIMATFIT
 70
     3
  9
$DIMFRAC
 70
     0
  9
$DIMLDRBLK
  1

  9
$DIMLUNIT
 70
     2
  9
$DIMLWD
 70
    -2
  9
$DIMLWE
 70
    -2
  9
$DIMTMOVE
 70
     0
  9
$DIMFXL
 40
1.0
  9
$DIMFXLON
 70
     0
  9
$DIMJOGANG
 40
0.7853981633974483
  9
$DIMTFILL
 70
     0
  9
$DIMTFILLCLR
 70
     0
  9
$DIMARCSYM
 70
     0
  9
$DIMLTYPE
  6

  9
$DIMLTEX1
  6

  9
$DIMLTEX2
  6

  9
$DIMTXTDIRECTION
 70
     0
  9
$LUNITS
 70
     2
  9
$LUPREC
 70
     4
  9
$SKETCHINC
 40
0.1
  9
$FILLETRAD
 40
0.5
  9
$AUNITS
 70
     0
  9
$AUPREC
 70
     0
  9
$MENU
  1
.
  9
$ELEVATION
 40
0.0
  9
$PELEVATION
 40
0.0
  9
$THICKNESS
 40
0.0
  9
$LIMCHECK
 70
     0
  9
$CHAMFERA
 40
0.5
  9
$CHAMFERB
 40
0.5
  9
$CHAMFERC
 40
1.0
  9
$CHAMFERD
 40
0.0
  9
$SKPOLY
 70
     0
  9
$TDCREATE
 40
2457917.614027766
  9
$TDUCREATE
 40
2457917.239027778
  9
$TDUPDATE
 40
2457917.614027766
  9
$TDUUPDATE
 40
2457917.239027778
  9
$TDINDWG
 40
0.0000000116
  9
$TDUSRTIMER
 40
0.0000000116
  9
$USRTIMER
 70
     1
  9
$ANGBASE
 50
0.0
  9
$ANGDIR
 70
     0
  9
$PDMODE
 70
     0
  9
$PDSIZE
 40
0.0
  9
$PLINEWID
 40
0.0
  9
$SPLFRAME
 70
     0
  9
$SPLINETYPE
 70
     6
  9
$SPLINESEGS
 70
     8
  9
$HANDSEED
  5
FD
  9
$SURFTAB1
 70
     6
  9
$SURFTAB2
 70
     6
  9
$SURFTYPE
 70
     6
  9
$SURFU
 70
     6
  9
$SURFV
 70
     6
  9
$UCSBASE
  2

  9
$UCSNAME
  2

  9
$UCSORG
 10
0.0
 20
0.0
 30
0.0
  9
$UCSXDIR
 10
1.0
 20
0.0
 30
0.0
  9
$UCSYDIR
 10
0.0
 20
1.0
 30
0.0
  9
$UCSORTHOREF
  2

  9
$UCSORTHOVIEW
 70
     0
  9
$UCSORGTOP
 10
0.0
 20
0.0
 30
0.0
  9
$UCSORGBOTTOM
 10
0.0
 20
0.0
 30
0.0
  9
$UCSORGLEFT
 10
0.0
 20
0.0
 30
0.0
  9
$UCSORGRIGHT
 10
0.0
 20
0.0
 30
0.0
  9
$UCSORGFRONT
 10
0.0
 20
0.0
 30
0.0
  9
$UCSORGBACK
 10
0.0
 20
0.0
 30
0.0
  9
$PUCSBASE
  2

  9
$PUCSNAME
  2

  9
$PUCSORG
 10
0.0
 20
0.0
 30
0.0
  9
$PUCSXDIR
 10
1.0
 20
0.0
 30
0.0
  9
$PUCSYDIR
 10
0.0
 20
1.0
 30
0.0
  9
$PUCSORTHOREF
  2

  9
$PUCSORTHOVIEW
 70
     0
  9
$PUCSORGTOP
 10
0.0
 20
0.0
 30
0.0
  9
$PUCSORGBOTTOM
 10
0.0
 20
0.0
 30
0.0
  9
$PUCSORGLEFT
 10
0.0
 20
0.0
 30
0.0
  9
$PUCSORGRIGHT
 10
0.0
 20
0.0
 30
0.0
  9
$PUCSORGFRONT
 10
0.0
 20
0.0
 30
0.0
  9
$PUCSORGBACK
 10
0.0
 20
0.0
 30
0.0
  9
$USERI1
 70
     0
  9
$USERI2
 70
     0
  9
$USERI3
 70
     0
  9
$USERI4
 70
     0
  9
$USERI5
 70
     0
  9
$USERR1
 40
0.0
  9
$USERR2
 40
0.0
  9
$USERR3
 40
0.0
  9
$USERR4
 40
0.0
  9
$USERR5
 40
0.0
  9
$WORLDVIEW
 70
     1
  9
$SHADEDGE
 70
     3
  9
$SHADEDIF
 70
    70
  9
$TILEMODE
 70
     1
  9
$MAXACTVP
 70
    64
  9
$PINSBASE
 10
0.0
 20
0.0
 30
0.0
  9
$PLIMCHECK
 70
     0
  9
$PEXTMIN
 10
1.000000000000000E+20
 20
1.000000000000000E+20
 30
1.000000000000000E+20
  9
$PEXTMAX
 10
-1.000000000000000E+20
 20
-1.000000000000000E+20
 30
-1.000000000000000E+20
  9
$PLIMMIN
 10
0.0
 20
0.0
  9
$PLIMMAX
 10
12.0
 20
9.0
  9
$UNITMODE
 70
     0
  9
$VISRETAIN
 70
     1
  9
$PLINEGEN
 70
     0
  9
$PSLTSCALE
 70
     1
  9
$TREEDEPTH
 70
  3020
  9
$CMLSTYLE
  2
Standard
  9
$CMLJUST
 70
     0
  9
$CMLSCALE
 40
1.0
  9
$PROXYGRAPHICS
 70
     1
  9
$MEASUREMENT
 70
     0
  9
$CELWEIGHT
370
    -1
  9
$ENDCAPS
280
     0
  9
$JOINSTYLE
280
     0
  9
$LWDISPLAY
290
     1
  9
$INSUNITS
 70
     1
  9
$HYPERLINKBASE
  1

  9
$STYLESHEET
  1

  9
$XEDIT
290
     1
  9
$CEPSNTYPE
380
     0
  9
$PSTYLEMODE
290
     1
  9
$FINGERPRINTGUID
  2
{31EC437E-5130-C8C9-539A-F038B0F911EC}
  9
$VERSIONGUID
  2
{FAEB1C32-E019-11D5-929B-00C0DF256EC4}
  9
$EXTNAMES
290
     1
  9
$PSVPSCALE
 40
0.0
  9
$OLESTARTUP
290
     0
  9
$SORTENTS
280
   127
  9
$INDEXCTL
280
     0
  9
$HIDETEXT
280
     1
  9
$XCLIPFRAME
280
     2
  9
$HALOGAP
280
     0
  9
$OBSCOLOR
 70
   257
  9
$OBSLTYPE
280
     0
  9
$INTERSECTIONDISPLAY
280
     0
  9
$INTERSECTIONCOLOR
 70
   257
  9
$DIMASSOC
280
     2
  9
$PROJECTNAME
  1

  9
$CAMERADISPLAY
290
     0
  9
$LENSLENGTH
 40
50.0
  9
$CAMERAHEIGHT
 40
0.0
  9
$STEPSPERSEC
 40
2.0
  9
$STEPSIZE
 40
6.0
  9
$3DDWFPREC
 40
2.0
  9
$PSOLWIDTH
 40
0.25
  9
$PSOLHEIGHT
 40
4.0
  9
$LOFTANG1
 40
1.570796326794897
  9
$LOFTANG2
 40
1.570796326794897
  9
$LOFTMAG1
 40
0.0
  9
$LOFTMAG2
 40
0.0
  9
$LOFTPARAM
 70
     7
  9
$LOFTNORMALS
280
     1
  9
$LATITUDE
 40
37.795
  9
$LONGITUDE
 40
-122.394
  9
$NORTHDIRECTION
 40
0.0
  9
$TIMEZONE
 70
 -8000
  9
$LIGHTGLYPHDISPLAY
280
     1
  9
$TILEMODELIGHTSYNCH
280
     1
  9
$CMATERIAL
347
3C
  9
$SOLIDHIST
280
     1
  9
$SHOWHIST
280
     1
  9
$DWFFRAME
280
     2
  9
$DGNFRAME
280
     2
  9
$REALWORLDSCALE
290
     1
  9
$INTERFERECOLOR
 62
   256
  9
$CSHADOW
280
     0
  9
$SHADOWPLANELOCATION
 40
0.0
  0
ENDSEC
  0
SECTION
  2
CLASSES
  0
CLASS
  1
ACDBDICTIONARYWDFLT
  2
AcDbDictionaryWithDefault
  3
ObjectDBX Classes
 90
        0
 91
        4
280
     0
281
     0
  0
CLASS
  1
VISUALSTYLE
  2
AcDbVisualStyle
  3
ObjectDBX Classes
 90
     4095
 91
        4
280
     0
281
     0
  0
CLASS
  1
MATERIAL
  2
AcDbMaterial
  3
ObjectDBX Classes
 90
     1153
 91
        4
280
     0
281
     0
  0
CLASS
  1
SUN
  2
AcDbSun
  3
SCENEOE
 90
     1024
 91
        4
280
     0
281
     0
  0
ENDSEC
  0
SECTION
  2
TABLES
  0
TABLE
  2
VPORT
  5
8
330
0
100
AcDbSymbolTable
 70
     1
  0
VPORT
  5
29
330
8
100
AcDbSymbolTableRecord
100
AcDbViewportTableRecord
  2
*Active
 70
     0
 10
0.0
 20
0.0
 11
1.0
 21
1.0
 12
0.0
 22
0.0
 13
0.0
 23
0.0
 14
0.5
 24
0.5
 15
0.5
 25
0.5
 16
0.0
 26
0.0
 36
1.0
 17
91.00082462281999
 27
-128.4993055234307
 37
0.0
 40
256.9986110468615
 41
0.7081814508812795
 42
50.0
 43
0.0
 44
0.0
 50
0.0
 51
0.0
 71
     0
 72
   100
 73
     1
 74
     3
 75
     0
 76
     0
 77
     0
 78
     0
281
     0
 65
     1
110
0.0
120
0.0
130
0.0
111
1.0
121
0.0
131
0.0
112
0.0
122
1.0
132
0.0
 79
     0
146
0.0
 60
     3
 61
     5
292
     1
282
     1
141
0.0
142
0.0
 63
   250
361
3F
  0
ENDTAB
  0
TABLE
  2
LTYPE
  5
5
330
0
100
AcDbSymbolTable
 70
     1
  0
LTYPE
  5
14
330
5
100
AcDbSymbolTableRecord
100
AcDbLinetypeTableRecord
  2
ByBlock
 70
     0
  3

 72
    65
 73
     0
 40
0.0
  0
LTYPE
  5
15
330
5
100
AcDbSymbolTableRecord
100
AcDbLinetypeTableRecord
  2
ByLayer
 70
     0
  3

 72
    65
 73
     0
 40
0.0
  0
LTYPE
  5
16
330
5
100
AcDbSymbolTableRecord
100
AcDbLinetypeTableRecord
  2
Continuous
 70
     0
  3
Solid line
 72
    65
 73
     0
 40
0.0
  0
ENDTAB
  0
TABLE
  2
LAYER
  5
2
330
0
100
AcDbSymbolTable
 70
     2
  0
LAYER
  5
10
330
2
100
AcDbSymbolTableRecord
100
AcDbLayerTableRecord
  2
0
 70
     0
 62
     7
  6
Continuous
370
    -3
390
F
347
3E
  0
LAYER
  5
40
330
2
100
AcDbSymbolTableRecord
100
AcDbLayerTableRecord
  2
_U+30EC_U+30A4_U+30E4_U+30FC 1
 70
     0
 62
     7
  6
Continuous
370
    -3
390
F
347
3E
  0
ENDTAB
  0
TABLE
  2
STYLE
  5
3
330
0
100
AcDbSymbolTable
 70
     1
  0
STYLE
  5
11
330
3
100
AcDbSymbolTableRecord
100
AcDbTextStyleTableRecord
  2
Standard
 70
     0
 40
0.0
 41
1.0
 50
0.0
 71
     0
 42
0.2
  3
txt
  4

  0
ENDTAB
  0
TABLE
  2
VIEW
  5
6
330
0
100
AcDbSymbolTable
 70
     0
  0
ENDTAB
  0
TABLE
  2
UCS
  5
7
330
0
100
AcDbSymbolTable
 70
     0
  0
ENDTAB
  0
TABLE
  2
APPID
  5
9
330
0
100
AcDbSymbolTable
 70
     1
  0
APPID
  5
12
330
9
100
AcDbSymbolTableRecord
100
AcDbRegAppTableRecord
  2
ACAD
 70
     0
  0
ENDTAB
  0
TABLE
  2
DIMSTYLE
  5
A
330
0
100
AcDbSymbolTable
 70
     1
100
AcDbDimStyleTable
  0
DIMSTYLE
105
27
330
A
100
AcDbSymbolTableRecord
100
AcDbDimStyleTableRecord
  2
Standard
 70
     0
178
     0
340
11
  0
ENDTAB
  0
TABLE
  2
BLOCK_RECORD
  5
1
330
0
100
AcDbSymbolTable
 70
     9
  0
BLOCK_RECORD
  5
1F
330
1
100
AcDbSymbolTableRecord
100
AcDbBlockTableRecord
  2
*Model_Space
340
22
 70
     0
280
     1
281
     0
  0
BLOCK_RECORD
  5
1B
330
1
100
AcDbSymbolTableRecord
100
AcDbBlockTableRecord
  2
*Paper_Space
340
1E
 70
     0
280
     1
281
     0
  0
BLOCK_RECORD
  5
23
330
1
100
AcDbSymbolTableRecord
100
AcDbBlockTableRecord
  2
*Paper_Space0
340
26
 70
     0
280
     1
281
     0
  0
BLOCK_RECORD
  5
41
330
1
100
AcDbSymbolTableRecord
100
AcDbBlockTableRecord
  2
block 2
340
0
102
{BLKREFS
331
42
102
}
 70
     0
280
     1
281
     0
  0
BLOCK_RECORD
  5
53
330
1
100
AcDbSymbolTableRecord
100
AcDbBlockTableRecord
  2
block 3
340
0
102
{BLKREFS
331
54
102
}
 70
     0
280
     1
281
     0
  0
BLOCK_RECORD
  5
75
330
1
100
AcDbSymbolTableRecord
100
AcDbBlockTableRecord
  2
block 4
340
0
102
{BLKREFS
331
76
102
}
 70
     0
280
     1
281
     0
  0
BLOCK_RECORD
  5
86
330
1
100
AcDbSymbolTableRecord
100
AcDbBlockTableRecord
  2
block 5
340
0
102
{BLKREFS
331
87
102
}
 70
     0
280
     1
281
     0
  0
BLOCK_RECORD
  5
8C
330
1
100
AcDbSymbolTableRecord
100
AcDbBlockTableRecord
  2
block 6
340
0
102
{BLKREFS
331
8D
102
}
 70
     0
280
     1
281
     0
  0
BLOCK_RECORD
  5
9C
330
1
100
AcDbSymbolTableRecord
100
AcDbBlockTableRecord
  2
block 7
340
0
102
{BLKREFS
331
9D
102
}
 70
     0
280
     1
281
     0
  0
BLOCK_RECORD
  5
B4
330
1
100
AcDbSymbolTableRecord
100
AcDbBlockTableRecord
  2
block 8
340
0
102
{BLKREFS
331
B5
102
}
 70
     0
280
     1
281
     0
  0
BLOCK_RECORD
  5
D8
330
1
100
AcDbSymbolTableRecord
100
AcDbBlockTableRecord
  2
block 9
340
0
102
{BLKREFS
331
D9
102
}
 70
     0
280
     1
281
     0
  0
ENDTAB
  0
ENDSEC
  0
SECTION
  2
BLOCKS
  0
BLOCK
  5
20
330
1F
100
AcDbEntity
  8
0
100
AcDbBlockBegin
  2
*Model_Space
 70
     0
 10
0.0
 20
0.0
 30
0.0
  3
*Model_Space
  1

  0
ENDBLK
  5
21
330
1F
100
AcDbEntity
  8
0
100
AcDbBlockEnd
  0
BLOCK
  5
1C
330
1B
100
AcDbEntity
 67
     1
  8
0
100
AcDbBlockBegin
  2
*Paper_Space
 70
     0
 10
0.0
 20
0.0
 30
0.0
  3
*Paper_Space
  1

  0
ENDBLK
  5
1D
330
1B
100
AcDbEntity
 67
     1
  8
0
100
AcDbBlockEnd
  0
BLOCK
  5
24
330
23
100
AcDbEntity
  8
0
100
AcDbBlockBegin
  2
*Paper_Space0
 70
     0
 10
0.0
 20
0.0
 30
0.0
  3
*Paper_Space0
  1

  0
ENDBLK
  5
25
330
23
100
AcDbEntity
  8
0
100
AcDbBlockEnd
  0
BLOCK
  5
43
330
41
100
AcDbEntity
  8
0
100
AcDbBlockBegin
  2
block 2
 70
     0
 10
0.0
 20
0.0
 30
0.0
  3
block 2
  1

  0
SPLINE
  5
45
330
41
100
AcDbEntity
  8
_U+30EC_U+30A4_U+30E4_U+30FC 1
 62
   179
420
  2234388
370
     9
100
AcDbSpline
210
0.0
220
0.0
230
1.0
 70
    11
 71
     3
 72
    17
 73
    13
 74
     0
 42
0.0000000001
 43
0.0000000001
 12
1.0
 22
0.0
 32
0.0
 13
1.0
 23
0.0
 33
0.0
 40
0.0
 40
0.0
 40
0.0
 40
0.0
 40
1.0
 40
1.0
 40
1.0
 40
2.0
 40
2.0
 40
2.0
 40
3.0
 40
3.0
 40
3.0
 40
4.0
 40
4.0
 40
4.0
 40
4.0
 10
70.94967707881183
 20
-142.8154157976293
 30
0.0
 10
70.94967707881183
 20
-142.7602766309768
 30
0.0
 10
70.90487430217706
 20
-142.7155091309876
 30
0.0
 10
70.84906664895452
 20
-142.7155091309876
 30
0.0
 10
70.79396097167337
 20
-142.7155091309876
 30
0.0
 10
70.7491581950386
 20
-142.7602766309768
 30
0.0
 10
70.7491581950386
 20
-142.8154157976293
 30
0.0
 10
70.7491581950386
 20
-142.8705196865048
 30
0.0
 10
70.79396097167337
 20
-142.9153224642709
 30
0.0
 10
70.84906664895452
 20
-142.9153224642709
 30
0.0
 10
70.90487430217706
 20
-142.9153224642709
 30
0.0
 10
70.94967707881183
 20
-142.8705196865048
 30
0.0
 10
70.94967707881183
 20
-142.8154157976293
 30
0.0
  0
POLYLINE
  5
46
330
41
100
AcDbEntity
  8
_U+30EC_U+30A4_U+30E4_U+30FC 1
 62
   179
420
  2234388
370
     9
100
AcDb2dPolyline
 66
     1
 10
0.0
 20
0.0
 30
0.0
  0
VERTEX
  5
47
330
46
100
AcDbEntity
  8
_U+30EC_U+30A4_U+30E4_U+30FC 1
 62
   179
420
  2234388
370
     9
100
AcDbVertex
100
AcDb2dVertex
 10
70.84906664895452
 20
-142.8154157976293
 30
0.0
  0
VERTEX
  5
48
330
46
100
AcDbEntity
  8
_U+30EC_U+30A4_U+30E4_U+30FC 1
 62
   179
420
  2234388
370
     9
100
AcDbVertex
100
AcDb2dVertex
 10
75.84912528714982
 20
-142.8154157976293
 30
0.0
  0
SEQEND
  5
49
330
46
100
AcDbEntity
  8
_U+30EC_U+30A4_U+30E4_U+30FC 1
 62
   179
420
  2234388
370
     9
  0
POLYLINE
  5
4A
330
41
100
AcDbEntity
  8
_U+30EC_U+30A4_U+30E4_U+30FC 1
 62
   179
420
  2234388
370
     9
100
AcDb2dPolyline
 66
     1
 10
0.0
 20
0.0
 30
0.0
  0
VERTEX
  5
4B
330
4A
100
AcDbEntity
  8
_U+30EC_U+30A4_U+30E4_U+30FC 1
 62
   179
420
  2234388
370
     9
100
AcDbVertex
100
AcDb2dVertex
 10
70.84906664895452
 20
-140.3545791315779
 30
0.0
  0
VERTEX
  5
4C
330
4A
100
AcDbEntity
  8
_U+30EC_U+30A4_U+30E4_U+30FC 1
 62
   179
420
  2234388
370
     9
100
AcDbVertex
100
AcDb2dVertex
 10
70.84906664895452
 20
-143.8151527418243
 30
0.0
  0
SEQEND
  5
4D
330
4A
100
AcDbEntity
  8
_U+30EC_U+30A4_U+30E4_U+30FC 1
 62
   179
420
  2234388
370
     9
  0
SPLINE
  5
4E
330
41
100
AcDbEntity
  8
_U+30EC_U+30A4_U+30E4_U+30FC 1
 62
   179
420
  2234388
370
     9
100
AcDbSpline
210
0.0
220
0.0
230
1.0
 70
    11
 71
     3
 72
    17
 73
    13
 74
     0
 42
0.0000000001
 43
0.0000000001
 12
1.0
 22
0.0
 32
0.0
 13
1.0
 23
0.0
 33
0.0
 40
0.0
 40
0.0
 40
0.0
 40
0.0
 40
1.0
 40
1.0
 40
1.0
 40
2.0
 40
2.0
 40
2.0
 40
3.0
 40
3.0
 40
3.0
 40
4.0
 40
4.0
 40
4.0
 40
4.0
 10
75.94970222902833
 20
-142.8154157976293
 30
0.0
 10
75.94970222902833
 20
-142.7602766309768
 30
0.0
 10
75.90493473017045
 20
-142.7155091309876
 30
0.0
 10
75.84912528714982
 20
-142.7155091309876
 30
0.0
 10
75.79398612188987
 20
-142.7155091309876
 30
0.0
 10
75.749218623032
 20
-142.7602766309768
 30
0.0
 10
75.749218623032
 20
-142.8154157976293
 30
0.0
 10
75.749218623032
 20
-142.8705196865048
 30
0.0
 10
75.79398612188987
 20
-142.9153224642709
 30
0.0
 10
75.84912528714982
 20
-142.9153224642709
 30
0.0
 10
75.90493473017045
 20
-142.9153224642709
 30
0.0
 10
75.94970222902833
 20
-142.8705196865048
 30
0.0
 10
75.94970222902833
 20
-142.8154157976293
 30
0.0
  0
POLYLINE
  5
4F
330
41
100
AcDbEntity
  8
_U+30EC_U+30A4_U+30E4_U+30FC 1
 62
   179
420
  2234388
370
     9
100
AcDb2dPolyline
 66
     1
 10
0.0
 20
0.0
 30
0.0
  0
VERTEX
  5
50
330
4F
100
AcDbEntity
  8
_U+30EC_U+30A4_U+30E4_U+30FC 1
 62
   179
420
  2234388
370
     9
100
AcDbVertex
100
AcDb2dVertex
 10
75.84912528714982
 20
-140.3545791315779
 30
0.0
  0
VERTEX
  5
51
330
4F
100
AcDbEntity
  8
_U+30EC_U+30A4_U+30E4_U+30FC 1
 62
   179
420
  2234388
370
     9
100
AcDbVertex
100
AcDb2dVertex
 10
75.84912528714982
 20
-143.8151527418243
 30
0.0
  0
SEQEND
  5
52
330
4F
100
AcDbEntity
  8
_U+30EC_U+30A4_U+30E4_U+30FC 1
 62
   179
420
  2234388
370
     9
  0
INSERT
  5
54
330
41
100
AcDbEntity
  8
_U+30EC_U+30A4_U+30E4_U+30FC 1
100
AcDbBlockReference
  2
block 3
 10
0.0
 20
0.0
 30
0.0
  0
SPLINE
  5
59
330
41
100
AcDbEntity
  8
_U+30EC_U+30A4_U+30E4_U+30FC 1
 62
   179
420
  2234388
370
     9
100
AcDbSpline
210
0.0
220
0.0
230
1.0
 70
    11
 71
     3
 72
    17
 73
    13
 74
     0
 42
0.0000000001
 43
0.0000000001
 12
1.0
 22
0.0
 32
0.0
 13
1.0
 23
0.0
 33
0.0
 40
0.0
 40
0.0
 40
0.0
 40
0.0
 40
1.0
 40
1.0
 40
1.0
 40
2.0
 40
2.0
 40
2.0
 40
3.0
 40
3.0
 40
3.0
 40
4.0
 40
4.0
 40
4.0
 40
4.0
 10
113.5227923815701
 20
-138.8145982986298
 30
0.0
 10
113.5227923815701
 20
-138.8697374652828
 30
0.0
 10
113.567559880428
 20
-138.9145049652714
 30
0.0
 10
113.6226990456879
 20
-138.9145049652714
 30
0.0
 10
113.677802933171
 20
-138.9145049652714
 30
0.0
 10
113.7226057098057
 20
-138.8697374652828
 30
0.0
 10
113.7226057098057
 20
-138.8145982986298
 30
0.0
 10
113.7226057098057
 20
-138.7594944097548
 30
0.0
 10
113.677802933171
 20
-138.7146916319881
 30
0.0
 10
113.6226990456879
 20
-138.7146916319881
 30
0.0
 10
113.567559880428
 20
-138.7146916319881
 30
0.0
 10
113.5227923815701
 20
-138.7594944097548
 30
0.0
 10
113.5227923815701
 20
-138.8145982986298
 30
0.0
  0
SPLINE
  5
5A
330
41
100
AcDbEntity
  8
_U+30EC_U+30A4_U+30E4_U+30FC 1
 62
   179
420
  2234388
370
     9
100
AcDbSpline
210
0.0
220
0.0
230
1.0
 70
    11
 71
     3
 72
    17
 73
    13
 74
     0
 42
0.0000000001
 43
0.0000000001
 12
1.0
 22
0.0
 32
0.0
 13
1.0
 23
0.0
 33
0.0
 40
0.0
 40
0.0
 40
0.0
 40
0.0
 40
1.0
 40
1.0
 40
1.0
 40
2.0
 40
2.0
 40
2.0
 40
3.0
 40
3.0
 40
3.0
 40
4.0
 40
4.0
 40
4.0
 40
4.0
 10
113.5227923815701
 20
-129.3143985787824
 30
0.0
 10
113.5227923815701
 20
-129.3695377454355
 30
0.0
 10
113.567559880428
 20
-129.4143405232022
 30
0.0
 10
113.6226990456879
 20
-129.4143405232022
 30
0.0
 10
113.677802933171
 20
-129.4143405232022
 30
0.0
 10
113.7226057098057
 20
-129.3695377454355
 30
0.0
 10
113.7226057098057
 20
-129.3143985787824
 30
0.0
 10
113.7226057098057
 20
-129.2585891343519
 30
0.0
 10
113.677802933171
 20
-129.2138216343634
 30
0.0
 10
113.6226990456879
 20
-129.2138216343634
 30
0.0
 10
113.567559880428
 20
-129.2138216343634
 30
0.0
 10
113.5227923815701
 20
-129.2585891343519
 30
0.0
 10
113.5227923815701
 20
-129.3143985787824
 30
0.0
  0
POLYLINE
  5
5B
330
41
100
AcDbEntity
  8
_U+30EC_U+30A4_U+30E4_U+30FC 1
 62
   179
420
  2234388
370
     9
100
AcDb2dPolyline
 66
     1
 10
0.0
 20
0.0
 30
0.0
  0
VERTEX
  5
5C
330
5B
100
AcDbEntity
  8
_U+30EC_U+30A4_U+30E4_U+30FC 1
 62
   179
420
  2234388
370
     9
100
AcDbVertex
100
AcDb2dVertex
 10
113.6226990456879
 20
-129.3164799676708
 30
0.0
  0
VERTEX
  5
5D
330
5B
100
AcDbEntity
  8
_U+30EC_U+30A4_U+30E4_U+30FC 1
 62
   179
420
  2234388
370
     9
100
AcDbVertex
100
AcDb2dVertex
 10
113.6226990456879
 20
-138.8145982986298
 30
0.0
  0
SEQEND
  5
5E
330
5B
100
AcDbEntity
  8
_U+30EC_U+30A4_U+30E4_U+30FC 1
 62
   179
420
  2234388
370
     9
  0
POLYLINE
  5
5F
330
41
100
AcDbEntity
  8
_U+30EC_U+30A4_U+30E4_U+30FC 1
 62
   179
420
  2234388
370
     9
100
AcDb2dPolyline
 66
     1
 10
0.0
 20
0.0
 30
0.0
  0
VERTEX
  5
60
330
5F
100
AcDbEntity
  8
_U+30EC_U+30A4_U+30E4_U+30FC 1
 62
   179
420
  2234388
370
     9
100
AcDbVertex
100
AcDb2dVertex
 10
111.9986865871199
 20
-129.3143985787824
 30
0.0
  0
VERTEX
  5
61
330
5F
100
AcDbEntity
  8
_U+30EC_U+30A4_U+30E4_U+30FC 1
 62
   179
420
  2234388
370
     9
100
AcDbVertex
100
AcDb2dVertex
 10
114.6224712424038
 20
-129.3143985787824
 30
0.0
  0
SEQEND
  5
62
330
5F
100
AcDbEntity
  8
_U+30EC_U+30A4_U+30E4_U+30FC 1
 62
   179
420
  2234388
370
     9
  0
SPLINE
  5
63
330
41
100
AcDbEntity
  8
_U+30EC_U+30A4_U+30E4_U+30FC 1
 62
   179
420
  2234388
370
     9
100
AcDbSpline
210
0.0
220
0.0
230
1.0
 70
    11
 71
     3
 72
    17
 73
    13
 74
     0
 42
0.0000000001
 43
0.0000000001
 12
1.0
 22
0.0
 32
0.0
 13
1.0
 23
0.0
 33
0.0
 40
0.0
 40
0.0
 40
0.0
 40
0.0
 40
1.0
 40
1.0
 40
1.0
 40
2.0
 40
2.0
 40
2.0
 40
3.0
 40
3.0
 40
3.0
 40
4.0
 40
4.0
 40
4.0
 40
4.0
 10
113.5227923815701
 20
-128.314661634588
 30
0.0
 10
113.5227923815701
 20
-128.3697655234632
 30
0.0
 10
113.567559880428
 20
-128.4145683012296
 30
0.0
 10
113.6226990456879
 20
-128.4145683012296
 30
0.0
 10
113.677802933171
 20
-128.4145683012296
 30
0.0
 10
113.7226057098057
 20
-128.3697655234632
 30
0.0
 10
113.7226057098057
 20
-128.314661634588
 30
0.0
 10
113.7226057098057
 20
-128.2588521901575
 30
0.0
 10
113.677802933171
 20
-128.2140494123908
 30
0.0
 10
113.6226990456879
 20
-128.2140494123908
 30
0.0
 10
113.567559880428
 20
-128.2140494123908
 30
0.0
 10
113.5227923815701
 20
-128.2588521901575
 30
0.0
 10
113.5227923815701
 20
-128.314661634588
 30
0.0
  0
POLYLINE
  5
64
330
41
100
AcDbEntity
  8
_U+30EC_U+30A4_U+30E4_U+30FC 1
 62
   179
420
  2234388
370
     9
100
AcDb2dPolyline
 66
     1
 10
0.0
 20
0.0
 30
0.0
  0
VERTEX
  5
65
330
64
100
AcDbEntity
  8
_U+30EC_U+30A4_U+30E4_U+30FC 1
 62
   179
420
  2234388
370
     9
100
AcDbVertex
100
AcDb2dVertex
 10
113.6226990456879
 20
-125.3165444131153
 30
0.0
  0
VERTEX
  5
66
330
64
100
AcDbEntity
  8
_U+30EC_U+30A4_U+30E4_U+30FC 1
 62
   179
420
  2234388
370
     9
100
AcDbVertex
100
AcDb2dVertex
 10
113.6226990456879
 20
-136.8143835769073
 30
0.0
  0
SEQEND
  5
67
330
64
100
AcDbEntity
  8
_U+30EC_U+30A4_U+30E4_U+30FC 1
 62
   179
420
  2234388
370
     9
  0
POLYLINE
  5
68
330
41
100
AcDbEntity
  8
_U+30EC_U+30A4_U+30E4_U+30FC 1
 62
   179
420
  2234388
370
     9
100
AcDb2dPolyline
 66
     1
 10
0.0
 20
0.0
 30
0.0
  0
VERTEX
  5
69
330
68
100
AcDbEntity
  8
_U+30EC_U+30A4_U+30E4_U+30FC 1
 62
   179
420
  2234388
370
     9
100
AcDbVertex
100
AcDb2dVertex
 10
111.9986865871199
 20
-128.314661634588
 30
0.0
  0
VERTEX
  5
6A
330
68
100
AcDbEntity
  8
_U+30EC_U+30A4_U+30E4_U+30FC 1
 62
   179
420
  2234388
370
     9
100
AcDbVertex
100
AcDb2dVertex
 10
114.6224712424038
 20
-128.314661634588
 30
0.0
  0
SEQEND
  5
6B
330
68
100
AcDbEntity
  8
_U+30EC_U+30A4_U+30E4_U+30FC 1
 62
   179
420
  2234388
370
     9
  0
POLYLINE
  5
6C
330
41
100
AcDbEntity
  8
_U+30EC_U+30A4_U+30E4_U+30FC 1
 62
   179
420
  2234388
370
     9
100
AcDb2dPolyline
 66
     1
 10
0.0
 20
0.0
 30
0.0
  0
VERTEX
  5
6D
330
6C
100
AcDbEntity
  8
_U+30EC_U+30A4_U+30E4_U+30FC 1
 62
   179
420
  2234388
370
     9
100
AcDbVertex
100
AcDb2dVertex
 10
76.99907498003438
 20
-138.8145982986298
 30
0.0
  0
VERTEX
  5
6E
330
6C
100
AcDbEntity
  8
_U+30EC_U+30A4_U+30E4_U+30FC 1
 62
   179
420
  2234388
370
     9
100
AcDbVertex
100
AcDb2dVertex
 10
114.6224712424038
 20
-138.8145982986298
 30
0.0
  0
SEQEND
  5
6F
330
6C
100
AcDbEntity
  8
_U+30EC_U+30A4_U+30E4_U+30FC 1
 62
   179
420
  2234388
370
     9
  0
SPLINE
  5
70
330
41
100
AcDbEntity
  8
_U+30EC_U+30A4_U+30E4_U+30FC 1
 62
   179
420
  2234388
370
     9
100
AcDbSpline
210
0.0
220
0.0
230
1.0
 70
    11
 71
     3
 72
    17
 73
    13
 74
     0
 42
0.0000000001
 43
0.0000000001
 12
1.0
 22
0.0
 32
0.0
 13
1.0
 23
0.0
 33
0.0
 40
0.0
 40
0.0
 40
0.0
 40
0.0
 40
1.0
 40
1.0
 40
1.0
 40
2.0
 40
2.0
 40
2.0
 40
3.0
 40
3.0
 40
3.0
 40
4.0
 40
4.0
 40
4.0
 40
4.0
 10
113.5227923815701
 20
-135.8146113549354
 30
0.0
 10
113.5227923815701
 20
-135.8697505215879
 30
0.0
 10
113.567559880428
 20
-135.914518021577
 30
0.0
 10
113.6226990456879
 20
-135.914518021577
 30
0.0
 10
113.677802933171
 20
-135.914518021577
 30
0.0
 10
113.7226057098057
 20
-135.8697505215879
 30
0.0
 10
113.7226057098057
 20
-135.8146113549354
 30
0.0
 10
113.7226057098057
 20
-135.7595074660599
 30
0.0
 10
113.677802933171
 20
-135.7147046882938
 30
0.0
 10
113.6226990456879
 20
-135.7147046882938
 30
0.0
 10
113.567559880428
 20
-135.7147046882938
 30
0.0
 10
113.5227923815701
 20
-135.7595074660599
 30
0.0
 10
113.5227923815701
 20
-135.8146113549354
 30
0.0
  0
POLYLINE
  5
71
330
41
100
AcDbEntity
  8
_U+30EC_U+30A4_U+30E4_U+30FC 1
 62
   179
420
  2234388
370
     9
100
AcDb2dPolyline
 66
     1
 10
0.0
 20
0.0
 30
0.0
  0
VERTEX
  5
72
330
71
100
AcDbEntity
  8
_U+30EC_U+30A4_U+30E4_U+30FC 1
 62
   179
420
  2234388
370
     9
100
AcDbVertex
100
AcDb2dVertex
 10
76.99907498003438
 20
-135.8146113549354
 30
0.0
  0
VERTEX
  5
73
330
71
100
AcDbEntity
  8
_U+30EC_U+30A4_U+30E4_U+30FC 1
 62
   179
420
  2234388
370
     9
100
AcDbVertex
100
AcDb2dVertex
 10
114.6224712424038
 20
-135.8146113549354
 30
0.0
  0
SEQEND
  5
74
330
71
100
AcDbEntity
  8
_U+30EC_U+30A4_U+30E4_U+30FC 1
 62
   179
420
  2234388
370
     9
  0
INSERT
  5
76
330
41
100
AcDbEntity
  8
_U+30EC_U+30A4_U+30E4_U+30FC 1
100
AcDbBlockReference
  2
block 4
 10
0.0
 20
0.0
 30
0.0
  0
INSERT
  5
87
330
41
100
AcDbEntity
  8
_U+30EC_U+30A4_U+30E4_U+30FC 1
100
AcDbBlockReference
  2
block 5
 10
0.0
 20
0.0
 30
0.0
  0
INSERT
  5
8D
330
41
100
AcDbEntity
  8
_U+30EC_U+30A4_U+30E4_U+30FC 1
100
AcDbBlockReference
  2
block 6
 10
0.0
 20
0.0
 30
0.0
  0
SPLINE
  5
92
330
41
100
AcDbEntity
  8
_U+30EC_U+30A4_U+30E4_U+30FC 1
 62
   179
420
  2234388
370
     9
100
AcDbSpline
210
0.0
220
0.0
230
1.0
 70
    11
 71
     3
 72
    17
 73
    13
 74
     0
 42
0.0000000001
 43
0.0000000001
 12
1.0
 22
0.0
 32
0.0
 13
1.0
 23
0.0
 33
0.0
 40
0.0
 40
0.0
 40
0.0
 40
0.0
 40
1.0
 40
1.0
 40
1.0
 40
2.0
 40
2.0
 40
2.0
 40
3.0
 40
3.0
 40
3.0
 40
4.0
 40
4.0
 40
4.0
 40
4.0
 10
70.84906664895452
 20
-118.9341594147109
 30
0.0
 10
70.79396097167337
 20
-118.9341594147109
 30
0.0
 10
70.7491581950386
 20
-118.9789621924776
 30
0.0
 10
70.7491581950386
 20
-119.0340660813525
 30
0.0
 10
70.7491581950386
 20
-119.0892052480056
 30
0.0
 10
70.79396097167337
 20
-119.1339727479942
 30
0.0
 10
70.84906664895452
 20
-119.1339727479942
 30
0.0
 10
70.90420402441639
 20
-119.1339727479942
 30
0.0
 10
70.94897152327427
 20
-119.0892052480056
 30
0.0
 10
70.94897152327427
 20
-119.0340660813525
 30
0.0
 10
70.94897152327427
 20
-118.9789621924776
 30
0.0
 10
70.90420402441639
 20
-118.9341594147109
 30
0.0
 10
70.84906664895452
 20
-118.9341594147109
 30
0.0
  0
POLYLINE
  5
93
330
41
100
AcDbEntity
  8
_U+30EC_U+30A4_U+30E4_U+30FC 1
 62
   179
420
  2234388
370
     9
100
AcDb2dPolyline
 66
     1
 10
0.0
 20
0.0
 30
0.0
  0
VERTEX
  5
94
330
93
100
AcDbEntity
  8
_U+30EC_U+30A4_U+30E4_U+30FC 1
 62
   179
420
  2234388
370
     9
100
AcDbVertex
100
AcDb2dVertex
 10
73.81839720376756
 20
-119.0340660813525
 30
0.0
  0
VERTEX
  5
95
330
93
100
AcDbEntity
  8
_U+30EC_U+30A4_U+30E4_U+30FC 1
 62
   179
420
  2234388
370
     9
100
AcDbVertex
100
AcDb2dVertex
 10
70.84906664895452
 20
-119.0340660813525
 30
0.0
  0
SEQEND
  5
96
330
93
100
AcDbEntity
  8
_U+30EC_U+30A4_U+30E4_U+30FC 1
 62
   179
420
  2234388
370
     9
  0
SPLINE
  5
97
330
41
100
AcDbEntity
  8
_U+30EC_U+30A4_U+30E4_U+30FC 1
 62
   179
420
  2234388
370
     9
100
AcDbSpline
210
0.0
220
0.0
230
1.0
 70
    11
 71
     3
 72
    17
 73
    13
 74
     0
 42
0.0000000001
 43
0.0000000001
 12
1.0
 22
0.0
 32
0.0
 13
1.0
 23
0.0
 33
0.0
 40
0.0
 40
0.0
 40
0.0
 40
0.0
 40
1.0
 40
1.0
 40
1.0
 40
2.0
 40
2.0
 40
2.0
 40
3.0
 40
3.0
 40
3.0
 40
4.0
 40
4.0
 40
4.0
 40
4.0
 10
73.81839720376756
 20
-118.9341594147109
 30
0.0
 10
73.76329145147498
 20
-118.9341594147109
 30
0.0
 10
73.71848867484023
 20
-118.9789621924776
 30
0.0
 10
73.71848867484023
 20
-119.0340660813525
 30
0.0
 10
73.71848867484023
 20
-119.0892052480056
 30
0.0
 10
73.76329145147498
 20
-119.1339727479942
 30
0.0
 10
73.81839720376756
 20
-119.1339727479942
 30
0.0
 10
73.87353450421801
 20
-119.1339727479942
 30
0.0
 10
73.9183020030759
 20
-119.0892052480056
 30
0.0
 10
73.9183020030759
 20
-119.0340660813525
 30
0.0
 10
73.9183020030759
 20
-118.9789621924776
 30
0.0
 10
73.87353450421801
 20
-118.9341594147109
 30
0.0
 10
73.81839720376756
 20
-118.9341594147109
 30
0.0
  0
POLYLINE
  5
98
330
41
100
AcDbEntity
  8
_U+30EC_U+30A4_U+30E4_U+30FC 1
 62
   179
420
  2234388
370
     9
100
AcDb2dPolyline
 66
     1
 10
0.0
 20
0.0
 30
0.0
  0
VERTEX
  5
99
330
98
100
AcDbEntity
  8
_U+30EC_U+30A4_U+30E4_U+30FC 1
 62
   179
420
  2234388
370
     9
100
AcDbVertex
100
AcDb2dVertex
 10
73.81839720376756
 20
-117.5740599706067
 30
0.0
  0
VERTEX
  5
9A
330
98
100
AcDbEntity
  8
_U+30EC_U+30A4_U+30E4_U+30FC 1
 62
   179
420
  2234388
370
     9
100
AcDbVertex
100
AcDb2dVertex
 10
73.81839720376756
 20
-120.3146141365879
 30
0.0
  0
SEQEND
  5
9B
330
98
100
AcDbEntity
  8
_U+30EC_U+30A4_U+30E4_U+30FC 1
 62
   179
420
  2234388
370
     9
  0
INSERT
  5
9D
330
41
100
AcDbEntity
  8
_U+30EC_U+30A4_U+30E4_U+30FC 1
100
AcDbBlockReference
  2
block 7
 10
0.0
 20
0.0
 30
0.0
  0
SPLINE
  5
A2
330
41
100
AcDbEntity
  8
_U+30EC_U+30A4_U+30E4_U+30FC 1
 62
   179
420
  2234388
370
     9
100
AcDbSpline
210
0.0
220
0.0
230
1.0
 70
    11
 71
     3
 72
    17
 73
    13
 74
     0
 42
0.0000000001
 43
0.0000000001
 12
1.0
 22
0.0
 32
0.0
 13
1.0
 23
0.0
 33
0.0
 40
0.0
 40
0.0
 40
0.0
 40
0.0
 40
1.0
 40
1.0
 40
1.0
 40
2.0
 40
2.0
 40
2.0
 40
3.0
 40
3.0
 40
3.0
 40
4.0
 40
4.0
 40
4.0
 40
4.0
 10
70.84906664895452
 20
-115.9152283043545
 30
0.0
 10
70.79396097167337
 20
-115.9152283043545
 30
0.0
 10
70.7491581950386
 20
-115.9600310821212
 30
0.0
 10
70.7491581950386
 20
-116.0151349709961
 30
0.0
 10
70.7491581950386
 20
-116.0702741376492
 30
0.0
 10
70.79396097167337
 20
-116.1150416376381
 30
0.0
 10
70.84906664895452
 20
-116.1150416376381
 30
0.0
 10
70.90420402441639
 20
-116.1150416376381
 30
0.0
 10
70.94897152327427
 20
-116.0702741376492
 30
0.0
 10
70.94897152327427
 20
-116.0151349709961
 30
0.0
 10
70.94897152327427
 20
-115.9600310821212
 30
0.0
 10
70.90420402441639
 20
-115.9152283043545
 30
0.0
 10
70.84906664895452
 20
-115.9152283043545
 30
0.0
  0
POLYLINE
  5
A3
330
41
100
AcDbEntity
  8
_U+30EC_U+30A4_U+30E4_U+30FC 1
 62
   179
420
  2234388
370
     9
100
AcDb2dPolyline
 66
     1
 10
0.0
 20
0.0
 30
0.0
  0
VERTEX
  5
A4
330
A3
100
AcDbEntity
  8
_U+30EC_U+30A4_U+30E4_U+30FC 1
 62
   179
420
  2234388
370
     9
100
AcDbVertex
100
AcDb2dVertex
 10
110.849407171996
 20
-116.0151349709961
 30
0.0
  0
VERTEX
  5
A5
330
A3
100
AcDbEntity
  8
_U+30EC_U+30A4_U+30E4_U+30FC 1
 62
   179
420
  2234388
370
     9
100
AcDbVertex
100
AcDb2dVertex
 10
70.84906664895452
 20
-116.0151349709961
 30
0.0
  0
SEQEND
  5
A6
330
A3
100
AcDbEntity
  8
_U+30EC_U+30A4_U+30E4_U+30FC 1
 62
   179
420
  2234388
370
     9
  0
POLYLINE
  5
A7
330
41
100
AcDbEntity
  8
_U+30EC_U+30A4_U+30E4_U+30FC 1
 62
   179
420
  2234388
370
     9
100
AcDb2dPolyline
 66
     1
 10
0.0
 20
0.0
 30
0.0
  0
VERTEX
  5
A8
330
A7
100
AcDbEntity
  8
_U+30EC_U+30A4_U+30E4_U+30FC 1
 62
   179
420
  2234388
370
     9
100
AcDbVertex
100
AcDb2dVertex
 10
110.8390707833708
 20
-116.015311359885
 30
0.0
  0
VERTEX
  5
A9
330
A7
100
AcDbEntity
  8
_U+30EC_U+30A4_U+30E4_U+30FC 1
 62
   179
420
  2234388
370
     9
100
AcDbVertex
100
AcDb2dVertex
 10
70.83908124830003
 20
-116.015311359885
 30
0.0
  0
SEQEND
  5
AA
330
A7
100
AcDbEntity
  8
_U+30EC_U+30A4_U+30E4_U+30FC 1
 62
   179
420
  2234388
370
     9
  0
POLYLINE
  5
AB
330
41
100
AcDbEntity
  8
_U+30EC_U+30A4_U+30E4_U+30FC 1
 62
   179
420
  2234388
370
     9
100
AcDb2dPolyline
 66
     1
 10
0.0
 20
0.0
 30
0.0
  0
VERTEX
  5
AC
330
AB
100
AcDbEntity
  8
_U+30EC_U+30A4_U+30E4_U+30FC 1
 62
   179
420
  2234388
370
     9
100
AcDbVertex
100
AcDb2dVertex
 10
70.84906664895452
 20
-114.5550935824724
 30
0.0
  0
VERTEX
  5
AD
330
AB
100
AcDbEntity
  8
_U+30EC_U+30A4_U+30E4_U+30FC 1
 62
   179
420
  2234388
370
     9
100
AcDbVertex
100
AcDb2dVertex
 10
70.84906664895452
 20
-120.3146141365879
 30
0.0
  0
SEQEND
  5
AE
330
AB
100
AcDbEntity
  8
_U+30EC_U+30A4_U+30E4_U+30FC 1
 62
   179
420
  2234388
370
     9
  0
SPLINE
  5
AF
330
41
100
AcDbEntity
  8
_U+30EC_U+30A4_U+30E4_U+30FC 1
 62
   179
420
  2234388
370
     9
100
AcDbSpline
210
0.0
220
0.0
230
1.0
 70
    11
 71
     3
 72
    17
 73
    13
 74
     0
 42
0.0000000001
 43
0.0000000001
 12
1.0
 22
0.0
 32
0.0
 13
1.0
 23
0.0
 33
0.0
 40
0.0
 40
0.0
 40
0.0
 40
0.0
 40
1.0
 40
1.0
 40
1.0
 40
2.0
 40
2.0
 40
2.0
 40
3.0
 40
3.0
 40
3.0
 40
4.0
 40
4.0
 40
4.0
 40
4.0
 10
110.849407171996
 20
-115.9152283043545
 30
0.0
 10
110.7942680067361
 20
-115.9152283043545
 30
0.0
 10
110.7494652301013
 20
-115.9600310821212
 30
0.0
 10
110.7494652301013
 20
-116.0151349709961
 30
0.0
 10
110.7494652301013
 20
-116.0702741376492
 30
0.0
 10
110.7942680067361
 20
-116.1150416376381
 30
0.0
 10
110.849407171996
 20
-116.1150416376381
 30
0.0
 10
110.9045138611628
 20
-116.1150416376381
 30
0.0
 10
110.9493166389295
 20
-116.0702741376492
 30
0.0
 10
110.9493166389295
 20
-116.0151349709961
 30
0.0
 10
110.9493166389295
 20
-115.9600310821212
 30
0.0
 10
110.9045138611628
 20
-115.9152283043545
 30
0.0
 10
110.849407171996
 20
-115.9152283043545
 30
0.0
  0
POLYLINE
  5
B0
330
41
100
AcDbEntity
  8
_U+30EC_U+30A4_U+30E4_U+30FC 1
 62
   179
420
  2234388
370
     9
100
AcDb2dPolyline
 66
     1
 10
0.0
 20
0.0
 30
0.0
  0
VERTEX
  5
B1
330
B0
100
AcDbEntity
  8
_U+30EC_U+30A4_U+30E4_U+30FC 1
 62
   179
420
  2234388
370
     9
100
AcDbVertex
100
AcDb2dVertex
 10
110.849407171996
 20
-114.5550935824724
 30
0.0
  0
VERTEX
  5
B2
330
B0
100
AcDbEntity
  8
_U+30EC_U+30A4_U+30E4_U+30FC 1
 62
   179
420
  2234388
370
     9
100
AcDbVertex
100
AcDb2dVertex
 10
110.849407171996
 20
-127.0144638571353
 30
0.0
  0
SEQEND
  5
B3
330
B0
100
AcDbEntity
  8
_U+30EC_U+30A4_U+30E4_U+30FC 1
 62
   179
420
  2234388
370
     9
  0
INSERT
  5
B5
330
41
100
AcDbEntity
  8
_U+30EC_U+30A4_U+30E4_U+30FC 1
100
AcDbBlockReference
  2
block 8
 10
0.0
 20
0.0
 30
0.0
  0
POLYLINE
  5
D0
330
41
100
AcDbEntity
  8
_U+30EC_U+30A4_U+30E4_U+30FC 1
 62
   179
420
  2234388
370
     9
100
AcDb2dPolyline
 66
     1
 10
0.0
 20
0.0
 30
0.0
  0
VERTEX
  5
D1
330
D0
100
AcDbEntity
  8
_U+30EC_U+30A4_U+30E4_U+30FC 1
 62
   179
420
  2234388
370
     9
100
AcDbVertex
100
AcDb2dVertex
 10
68.34723547853898
 20
-138.8145982986298
 30
0.0
  0
VERTEX
  5
D2
330
D0
100
AcDbEntity
  8
_U+30EC_U+30A4_U+30E4_U+30FC 1
 62
   179
420
  2234388
370
     9
100
AcDbVertex
100
AcDb2dVertex
 10
68.34723547853898
 20
-121.814801636213
 30
0.0
  0
SEQEND
  5
D3
330
D0
100
AcDbEntity
  8
_U+30EC_U+30A4_U+30E4_U+30FC 1
 62
   179
420
  2234388
370
     9
  0
POLYLINE
  5
D4
330
41
100
AcDbEntity
  8
_U+30EC_U+30A4_U+30E4_U+30FC 1
 62
   179
420
  2234388
370
     9
100
AcDb2dPolyline
 66
     1
 10
0.0
 20
0.0
 30
0.0
  0
VERTEX
  5
D5
330
D4
100
AcDbEntity
  8
_U+30EC_U+30A4_U+30E4_U+30FC 1
 62
   179
420
  2234388
370
     9
100
AcDbVertex
100
AcDb2dVertex
 10
69.34908906409068
 20
-138.8145982986298
 30
0.0
  0
VERTEX
  5
D6
330
D4
100
AcDbEntity
  8
_U+30EC_U+30A4_U+30E4_U+30FC 1
 62
   179
420
  2234388
370
     9
100
AcDbVertex
100
AcDb2dVertex
 10
66.87481162721475
 20
-138.8145982986298
 30
0.0
  0
SEQEND
  5
D7
330
D4
100
AcDbEntity
  8
_U+30EC_U+30A4_U+30E4_U+30FC 1
 62
   179
420
  2234388
370
     9
  0
INSERT
  5
D9
330
41
100
AcDbEntity
  8
_U+30EC_U+30A4_U+30E4_U+30FC 1
100
AcDbBlockReference
  2
block 9
 10
0.0
 20
0.0
 30
0.0
  0
SPLINE
  5
E0
330
41
100
AcDbEntity
  8
_U+30EC_U+30A4_U+30E4_U+30FC 1
 62
   179
420
  2234388
370
     9
100
AcDbSpline
210
0.0
220
0.0
230
1.0
 70
    11
 71
     3
 72
    17
 73
    13
 74
     0
 42
0.0000000001
 43
0.0000000001
 12
1.0
 22
0.0
 32
0.0
 13
1.0
 23
0.0
 33
0.0
 40
0.0
 40
0.0
 40
0.0
 40
0.0
 40
1.0
 40
1.0
 40
1.0
 40
2.0
 40
2.0
 40
2.0
 40
3.0
 40
3.0
 40
3.0
 40
4.0
 40
4.0
 40
4.0
 40
4.0
 10
68.4409685317032
 20
-138.8132224652969
 30
0.0
 10
68.4409685317032
 20
-138.7581185764213
 30
0.0
 10
68.39651853283722
 20
-138.713668576433
 30
0.0
 10
68.34106186758537
 20
-138.713668576433
 30
0.0
 10
68.28592270232542
 20
-138.713668576433
 30
0.0
 10
68.24115520346753
 20
-138.7581185764213
 30
0.0
 10
68.24115520346753
 20
-138.8132224652969
 30
0.0
 10
68.24115520346753
 20
-138.8690319097273
 30
0.0
 10
68.28592270232542
 20
-138.913834687494
 30
0.0
 10
68.34106186758537
 20
-138.913834687494
 30
0.0
 10
68.39651853283722
 20
-138.913834687494
 30
0.0
 10
68.4409685317032
 20
-138.8690319097273
 30
0.0
 10
68.4409685317032
 20
-138.8132224652969
 30
0.0
  0
POLYLINE
  5
E1
330
41
100
AcDbEntity
  8
_U+30EC_U+30A4_U+30E4_U+30FC 1
 62
   179
420
  2234388
370
     9
100
AcDb2dPolyline
 66
     1
 10
0.0
 20
0.0
 30
0.0
  0
VERTEX
  5
E2
330
E1
100
AcDbEntity
  8
_U+30EC_U+30A4_U+30E4_U+30FC 1
 62
   179
420
  2234388
370
     9
100
AcDbVertex
100
AcDb2dVertex
 10
69.34908906409068
 20
-121.8146252473242
 30
0.0
  0
VERTEX
  5
E3
330
E1
100
AcDbEntity
  8
_U+30EC_U+30A4_U+30E4_U+30FC 1
 62
   179
420
  2234388
370
     9
100
AcDbVertex
100
AcDb2dVertex
 10
66.87481162721475
 20
-121.8146252473242
 30
0.0
  0
SEQEND
  5
E4
330
E1
100
AcDbEntity
  8
_U+30EC_U+30A4_U+30E4_U+30FC 1
 62
   179
420
  2234388
370
     9
  0
SPLINE
  5
E5
330
41
100
AcDbEntity
  8
_U+30EC_U+30A4_U+30E4_U+30FC 1
 62
   179
420
  2234388
370
     9
100
AcDbSpline
210
0.0
220
0.0
230
1.0
 70
    11
 71
     3
 72
    17
 73
    13
 74
     0
 42
0.0000000001
 43
0.0000000001
 12
1.0
 22
0.0
 32
0.0
 13
1.0
 23
0.0
 33
0.0
 40
0.0
 40
0.0
 40
0.0
 40
0.0
 40
1.0
 40
1.0
 40
1.0
 40
2.0
 40
2.0
 40
2.0
 40
3.0
 40
3.0
 40
3.0
 40
4.0
 40
4.0
 40
4.0
 40
4.0
 10
68.4409685317032
 20
-121.8132494139913
 30
0.0
 10
68.4409685317032
 20
-121.7581102473382
 30
0.0
 10
68.39651853283722
 20
-121.7136602473492
 30
0.0
 10
68.34106186758537
 20
-121.7136602473492
 30
0.0
 10
68.28592270232542
 20
-121.7136602473492
 30
0.0
 10
68.24115520346753
 20
-121.7581102473382
 30
0.0
 10
68.24115520346753
 20
-121.8132494139913
 30
0.0
 10
68.24115520346753
 20
-121.8690588584217
 30
0.0
 10
68.28592270232542
 20
-121.9138263584106
 30
0.0
 10
68.34106186758537
 20
-121.9138263584106
 30
0.0
 10
68.39651853283722
 20
-121.9138263584106
 30
0.0
 10
68.4409685317032
 20
-121.8690588584217
 30
0.0
 10
68.4409685317032
 20
-121.8132494139913
 30
0.0
  0
POLYLINE
  5
E6
330
41
100
AcDbEntity
  8
_U+30EC_U+30A4_U+30E4_U+30FC 1
 62
   179
420
  2234388
370
    25
100
AcDb2dPolyline
 66
     1
 10
0.0
 20
0.0
 30
0.0
  0
VERTEX
  5
E7
330
E6
100
AcDbEntity
  8
_U+30EC_U+30A4_U+30E4_U+30FC 1
 62
   179
420
  2234388
370
    25
100
AcDbVertex
100
AcDb2dVertex
 10
71.84901344475674
 20
-128.3144852456991
 30
0.0
  0
VERTEX
  5
E8
330
E6
100
AcDbEntity
  8
_U+30EC_U+30A4_U+30E4_U+30FC 1
 62
   179
420
  2234388
370
    25
100
AcDbVertex
100
AcDb2dVertex
 10
71.84901344475674
 20
-122.8145385804074
 30
0.0
  0
VERTEX
  5
E9
330
E6
100
AcDbEntity
  8
_U+30EC_U+30A4_U+30E4_U+30FC 1
 62
   179
420
  2234388
370
    25
100
AcDbVertex
100
AcDb2dVertex
 10
73.84905172706485
 20
-122.8145385804074
 30
0.0
  0
VERTEX
  5
EA
330
E6
100
AcDbEntity
  8
_U+30EC_U+30A4_U+30E4_U+30FC 1
 62
   179
420
  2234388
370
    25
100
AcDbVertex
100
AcDb2dVertex
 10
73.84905172706485
 20
-121.8146252473242
 30
0.0
  0
VERTEX
  5
EB
330
E6
100
AcDbEntity
  8
_U+30EC_U+30A4_U+30E4_U+30FC 1
 62
   179
420
  2234388
370
    25
100
AcDbVertex
100
AcDb2dVertex
 10
70.84906664895452
 20
-121.8146252473242
 30
0.0
  0
VERTEX
  5
EC
330
E6
100
AcDbEntity
  8
_U+30EC_U+30A4_U+30E4_U+30FC 1
 62
   179
420
  2234388
370
    25
100
AcDbVertex
100
AcDb2dVertex
 10
70.84906664895452
 20
-138.8145982986298
 30
0.0
  0
VERTEX
  5
ED
330
E6
100
AcDbEntity
  8
_U+30EC_U+30A4_U+30E4_U+30FC 1
 62
   179
420
  2234388
370
    25
100
AcDbVertex
100
AcDb2dVertex
 10
75.84912528714982
 20
-138.8145982986298
 30
0.0
  0
VERTEX
  5
EE
330
E6
100
AcDbEntity
  8
_U+30EC_U+30A4_U+30E4_U+30FC 1
 62
   179
420
  2234388
370
    25
100
AcDbVertex
100
AcDb2dVertex
 10
75.84912528714982
 20
-135.8146113549354
 30
0.0
  0
VERTEX
  5
EF
330
E6
100
AcDbEntity
  8
_U+30EC_U+30A4_U+30E4_U+30FC 1
 62
   179
420
  2234388
370
    25
100
AcDbVertex
100
AcDb2dVertex
 10
74.84917670154952
 20
-135.8146113549354
 30
0.0
  0
VERTEX
  5
F0
330
E6
100
AcDbEntity
  8
_U+30EC_U+30A4_U+30E4_U+30FC 1
 62
   179
420
  2234388
370
    25
100
AcDbVertex
100
AcDb2dVertex
 10
74.84917670154952
 20
-137.8145085766576
 30
0.0
  0
VERTEX
  5
F1
330
E6
100
AcDbEntity
  8
_U+30EC_U+30A4_U+30E4_U+30FC 1
 62
   179
420
  2234388
370
    25
100
AcDbVertex
100
AcDb2dVertex
 10
71.84901344475674
 20
-137.8145085766576
 30
0.0
  0
VERTEX
  5
F2
330
E6
100
AcDbEntity
  8
_U+30EC_U+30A4_U+30E4_U+30FC 1
 62
   179
420
  2234388
370
    25
100
AcDbVertex
100
AcDb2dVertex
 10
71.84901344475674
 20
-129.3143985787824
 30
0.0
  0
VERTEX
  5
F3
330
E6
100
AcDbEntity
  8
_U+30EC_U+30A4_U+30E4_U+30FC 1
 62
   179
420
  2234388
370
    25
100
AcDbVertex
100
AcDb2dVertex
 10
110.8487016164585
 20
-129.3143985787824
 30
0.0
  0
VERTEX
  5
F4
330
E6
100
AcDbEntity
  8
_U+30EC_U+30A4_U+30E4_U+30FC 1
 62
   179
420
  2234388
370
    25
100
AcDbVertex
100
AcDb2dVertex
 10
110.8487016164585
 20
-128.3144852456991
 30
0.0
  0
VERTEX
  5
F5
330
E6
100
AcDbEntity
  8
_U+30EC_U+30A4_U+30E4_U+30FC 1
 62
   179
420
  2234388
370
    25
100
AcDbVertex
100
AcDb2dVertex
 10
105.8491703551182
 20
-128.3144852456991
 30
0.0
  0
VERTEX
  5
F6
330
E6
100
AcDbEntity
  8
_U+30EC_U+30A4_U+30E4_U+30FC 1
 62
   179
420
  2234388
370
    25
100
AcDbVertex
100
AcDb2dVertex
 10
105.5487800850041
 20
-128.5144749678713
 30
0.0
  0
VERTEX
  5
F7
330
E6
100
AcDbEntity
  8
_U+30EC_U+30A4_U+30E4_U+30FC 1
 62
   179
420
  2234388
370
    25
100
AcDbVertex
100
AcDb2dVertex
 10
105.2490600926506
 20
-128.3144852456991
 30
0.0
  0
VERTEX
  5
F8
330
E6
100
AcDbEntity
  8
_U+30EC_U+30A4_U+30E4_U+30FC 1
 62
   179
420
  2234388
370
    25
100
AcDbVertex
100
AcDb2dVertex
 10
71.84901344475674
 20
-128.3144852456991
 30
0.0
  0
SEQEND
  5
FA
330
E6
100
AcDbEntity
  8
_U+30EC_U+30A4_U+30E4_U+30FC 1
 62
   179
420
  2234388
370
    25
  0
HATCH
  5
F9
330
41
100
AcDbEntity
  8
_U+30EC_U+30A4_U+30E4_U+30FC 1
 62
     9
420
 13224394
100
AcDbHatch
 10
0.0
 20
0.0
 30
0.0
210
0.0
220
0.0
230
1.0
  2
SOLID
 70
     1
 71
     0
 91
        1
 92
        1
 93
       17
 72
     1
 10
71.84901344475674
 20
-128.3144852456991
 11
71.84901344475674
 21
-122.8145385804074
 72
     1
 10
71.84901344475674
 20
-122.8145385804074
 11
73.84905172706485
 21
-122.8145385804074
 72
     1
 10
73.84905172706485
 20
-122.8145385804074
 11
73.84905172706485
 21
-121.8146252473242
 72
     1
 10
73.84905172706485
 20
-121.8146252473242
 11
70.84906664895452
 21
-121.8146252473242
 72
     1
 10
70.84906664895452
 20
-121.8146252473242
 11
70.84906664895452
 21
-138.8145982986298
 72
     1
 10
70.84906664895452
 20
-138.8145982986298
 11
75.84912528714982
 21
-138.8145982986298
 72
     1
 10
75.84912528714982
 20
-138.8145982986298
 11
75.84912528714982
 21
-135.8146113549354
 72
     1
 10
75.84912528714982
 20
-135.8146113549354
 11
74.84917670154952
 21
-135.8146113549354
 72
     1
 10
74.84917670154952
 20
-135.8146113549354
 11
74.84917670154952
 21
-137.8145085766576
 72
     1
 10
74.84917670154952
 20
-137.8145085766576
 11
71.84901344475674
 21
-137.8145085766576
 72
     1
 10
71.84901344475674
 20
-137.8145085766576
 11
71.84901344475674
 21
-129.3143985787824
 72
     1
 10
71.84901344475674
 20
-129.3143985787824
 11
110.8487016164585
 21
-129.3143985787824
 72
     1
 10
110.8487016164585
 20
-129.3143985787824
 11
110.8487016164585
 21
-128.3144852456991
 72
     1
 10
110.8487016164585
 20
-128.3144852456991
 11
105.8491703551182
 21
-128.3144852456991
 72
     1
 10
105.8491703551182
 20
-128.3144852456991
 11
105.5487800850041
 21
-128.5144749678713
 72
     1
 10
105.5487800850041
 20
-128.5144749678713
 11
105.2490600926506
 21
-128.3144852456991
 72
     1
 10
105.2490600926506
 20
-128.3144852456991
 11
71.84901344475674
 21
-128.3144852456991
 97
        0
 75
     2
 76
     1
 98
        0
  0
ENDBLK
  5
44
330
41
100
AcDbEntity
  8
0
100
AcDbBlockEnd
  0
BLOCK
  5
55
330
53
100
AcDbEntity
  8
0
100
AcDbBlockBegin
  2
block 3
 70
     0
 10
0.0
 20
0.0
 30
0.0
  3
block 3
  1

  0
SPLINE
  5
57
330
53
100
AcDbEntity
  8
_U+30EC_U+30A4_U+30E4_U+30FC 1
370
     0
100
AcDbSpline
210
0.0
220
0.0
230
1.0
 70
    11
 71
     3
 72
    53
 73
    49
 74
     0
 42
0.0000000001
 43
0.0000000001
 12
1.0
 22
0.0
 32
0.0
 13
1.0
 23
0.0
 33
0.0
 40
0.0
 40
0.0
 40
0.0
 40
0.0
 40
1.0
 40
1.0
 40
1.0
 40
2.0
 40
2.0
 40
2.0
 40
3.0
 40
3.0
 40
3.0
 40
4.0
 40
4.0
 40
4.0
 40
5.0
 40
5.0
 40
5.0
 40
6.0
 40
6.0
 40
6.0
 40
7.0
 40
7.0
 40
7.0
 40
8.0
 40
8.0
 40
8.0
 40
9.0
 40
9.0
 40
9.0
 40
10.0
 40
10.0
 40
10.0
 40
11.0
 40
11.0
 40
11.0
 40
12.0
 40
12.0
 40
12.0
 40
13.0
 40
13.0
 40
13.0
 40
14.0
 40
14.0
 40
14.0
 40
15.0
 40
15.0
 40
15.0
 40
16.0
 40
16.0
 40
16.0
 40
16.0
 10
73.25340981241581
 20
-142.2696966875229
 30
0.0
 10
73.17520614490064
 20
-142.2696966875229
 30
0.0
 10
73.07357582808578
 20
-142.2528157196451
 30
0.0
 10
72.9719455112709
 20
-142.1894259627165
 30
0.0
 10
72.79865720836284
 20
-142.0795274167371
 30
0.0
 10
72.77729761635429
 20
-141.9482692787491
 30
0.0
 10
72.75834959118542
 20
-141.8404377900607
 30
0.0
 10
72.75834959118542
 20
-141.8404377900607
 30
0.0
 10
72.98055824998403
 20
-141.8404377900607
 30
0.0
 10
72.98055824998403
 20
-141.8404377900607
 30
0.0
 10
73.0353352681995
 20
-142.0392197995596
 30
0.0
 10
73.16245929160522
 20
-142.0688476207328
 30
0.0
 10
73.25547686970697
 20
-142.0688476207328
 30
0.0
 10
73.39500323685958
 20
-142.0688476207328
 30
0.0
 10
73.54727645730763
 20
-141.9692843612091
 30
0.0
 10
73.54727645730763
 20
-141.7367404159547
 30
0.0
 10
73.54727645730763
 20
-141.4807698214007
 30
0.0
 10
73.36744247297759
 20
-141.4108343830501
 30
0.0
 10
73.24686413099384
 20
-141.4108343830501
 30
0.0
 10
73.21516925252955
 20
-141.4108343830501
 30
0.0
 10
73.07357582808578
 20
-141.4108343830501
 30
0.0
 10
72.98469236456633
 20
-141.540025463747
 30
0.0
 10
72.98469236456633
 20
-141.540025463747
 30
0.0
 10
72.80899249481858
 20
-141.5210774385781
 30
0.0
 10
72.80899249481858
 20
-141.5210774385781
 30
0.0
 10
72.80899249481858
 20
-141.5210774385781
 30
0.0
 10
72.92957083680233
 20
-140.6746174778522
 30
0.0
 10
72.92957083680233
 20
-140.6746174778522
 30
0.0
 10
72.92957083680233
 20
-140.6746174778522
 30
0.0
 10
73.7081624164688
 20
-140.6746174778522
 30
0.0
 10
73.7081624164688
 20
-140.6746174778522
 30
0.0
 10
73.7081624164688
 20
-140.6746174778522
 30
0.0
 10
73.7081624164688
 20
-140.8692653727688
 30
0.0
 10
73.7081624164688
 20
-140.8692653727688
 30
0.0
 10
73.7081624164688
 20
-140.8692653727688
 30
0.0
 10
73.09252385325465
 20
-140.8692653727688
 30
0.0
 10
73.09252385325465
 20
-140.8692653727688
 30
0.0
 10
73.09252385325465
 20
-140.8692653727688
 30
0.0
 10
73.0270670390349
 20
-141.2923230983575
 30
0.0
 10
73.0270670390349
 20
-141.2923230983575
 30
0.0
 10
73.08838973867235
 20
-141.258561162602
 30
0.0
 10
73.17072752076982
 20
-141.2182535454246
 30
0.0
 10
73.28923880546242
 20
-141.2182535454246
 30
0.0
 10
73.54314234272533
 20
-141.2182535454246
 30
0.0
 10
73.78016491211052
 20
-141.4046332111766
 30
0.0
 10
73.78016491211052
 20
-141.7177923907858
 30
0.0
 10
73.78016491211052
 20
-142.0350856849773
 30
0.0
 10
73.55588919602076
 20
-142.2696966875229
 30
0.0
 10
73.25340981241581
 20
-142.2696966875229
 30
0.0
  0
HATCH
  5
58
330
53
100
AcDbEntity
  8
_U+30EC_U+30A4_U+30E4_U+30FC 1
 62
   179
420
  2234388
100
AcDbHatch
 10
0.0
 20
0.0
 30
0.0
210
0.0
220
0.0
230
1.0
  2
SOLID
 70
     1
 71
     0
 91
        1
 92
        1
 93
        1
 72
     4
 94
        3
 73
     0
 74
     1
 95
       53
 96
       49
 40
0.0
 40
0.0
 40
0.0
 40
0.0
 40
1.0
 40
1.0
 40
1.0
 40
2.0
 40
2.0
 40
2.0
 40
3.0
 40
3.0
 40
3.0
 40
4.0
 40
4.0
 40
4.0
 40
5.0
 40
5.0
 40
5.0
 40
6.0
 40
6.0
 40
6.0
 40
7.0
 40
7.0
 40
7.0
 40
8.0
 40
8.0
 40
8.0
 40
9.0
 40
9.0
 40
9.0
 40
10.0
 40
10.0
 40
10.0
 40
11.0
 40
11.0
 40
11.0
 40
12.0
 40
12.0
 40
12.0
 40
13.0
 40
13.0
 40
13.0
 40
14.0
 40
14.0
 40
14.0
 40
15.0
 40
15.0
 40
15.0
 40
16.0
 40
16.0
 40
16.0
 40
16.0
 10
73.25340981241581
 20
-142.2696966875229
 10
73.17520614490064
 20
-142.2696966875229
 10
73.07357582808578
 20
-142.2528157196451
 10
72.9719455112709
 20
-142.1894259627165
 10
72.79865720836284
 20
-142.0795274167371
 10
72.77729761635429
 20
-141.9482692787491
 10
72.75834959118542
 20
-141.8404377900607
 10
72.75834959118542
 20
-141.8404377900607
 10
72.98055824998403
 20
-141.8404377900607
 10
72.98055824998403
 20
-141.8404377900607
 10
73.0353352681995
 20
-142.0392197995596
 10
73.16245929160522
 20
-142.0688476207328
 10
73.25547686970697
 20
-142.0688476207328
 10
73.39500323685958
 20
-142.0688476207328
 10
73.54727645730763
 20
-141.9692843612091
 10
73.54727645730763
 20
-141.7367404159547
 10
73.54727645730763
 20
-141.4807698214007
 10
73.36744247297759
 20
-141.4108343830501
 10
73.24686413099384
 20
-141.4108343830501
 10
73.21516925252955
 20
-141.4108343830501
 10
73.07357582808578
 20
-141.4108343830501
 10
72.98469236456633
 20
-141.540025463747
 10
72.98469236456633
 20
-141.540025463747
 10
72.80899249481858
 20
-141.5210774385781
 10
72.80899249481858
 20
-141.5210774385781
 10
72.80899249481858
 20
-141.5210774385781
 10
72.92957083680233
 20
-140.6746174778522
 10
72.92957083680233
 20
-140.6746174778522
 10
72.92957083680233
 20
-140.6746174778522
 10
73.7081624164688
 20
-140.6746174778522
 10
73.7081624164688
 20
-140.6746174778522
 10
73.7081624164688
 20
-140.6746174778522
 10
73.7081624164688
 20
-140.8692653727688
 10
73.7081624164688
 20
-140.8692653727688
 10
73.7081624164688
 20
-140.8692653727688
 10
73.09252385325465
 20
-140.8692653727688
 10
73.09252385325465
 20
-140.8692653727688
 10
73.09252385325465
 20
-140.8692653727688
 10
73.0270670390349
 20
-141.2923230983575
 10
73.0270670390349
 20
-141.2923230983575
 10
73.08838973867235
 20
-141.258561162602
 10
73.17072752076982
 20
-141.2182535454246
 10
73.28923880546242
 20
-141.2182535454246
 10
73.54314234272533
 20
-141.2182535454246
 10
73.78016491211052
 20
-141.4046332111766
 10
73.78016491211052
 20
-141.7177923907858
 10
73.78016491211052
 20
-142.0350856849773
 10
73.55588919602076
 20
-142.2696966875229
 10
73.25340981241581
 20
-142.2696966875229
 97
        0
 97
        0
 75
     2
 76
     1
 98
        0
  0
ENDBLK
  5
56
330
53
100
AcDbEntity
  8
0
100
AcDbBlockEnd
  0
BLOCK
  5
77
330
75
100
AcDbEntity
  8
0
100
AcDbBlockBegin
  2
block 4
 70
     0
 10
0.0
 20
0.0
 30
0.0
  3
block 4
  1

  0
SPLINE
  5
79
330
75
100
AcDbEntity
  8
_U+30EC_U+30A4_U+30E4_U+30FC 1
370
     0
100
AcDbSpline
210
0.0
220
0.0
230
1.0
 70
    11
 71
     3
 72
    32
 73
    28
 74
     0
 42
0.0000000001
 43
0.0000000001
 12
1.0
 22
0.0
 32
0.0
 13
1.0
 23
0.0
 33
0.0
 40
0.0
 40
0.0
 40
0.0
 40
0.0
 40
1.0
 40
1.0
 40
1.0
 40
2.0
 40
2.0
 40
2.0
 40
3.0
 40
3.0
 40
3.0
 40
4.0
 40
4.0
 40
4.0
 40
5.0
 40
5.0
 40
5.0
 40
6.0
 40
6.0
 40
6.0
 40
7.0
 40
7.0
 40
7.0
 40
8.0
 40
8.0
 40
8.0
 40
9.0
 40
9.0
 40
9.0
 40
9.0
 10
115.9167832826528
 20
-133.4406059779246
 30
0.0
 10
115.9167832826528
 20
-133.956681281615
 30
0.0
 10
115.3628119286246
 20
-133.9652940203281
 30
0.0
 10
115.1488714989906
 20
-133.9652940203281
 30
0.0
 10
114.9183946110274
 20
-133.9652940203281
 30
0.0
 10
114.2710611693489
 20
-133.9460014856107
 30
0.0
 10
114.2710611693489
 20
-133.4023654180383
 30
0.0
 10
114.2710611693489
 20
-133.2290771151302
 30
0.0
 10
114.3409966076995
 20
-132.9834418070319
 30
0.0
 10
114.6731038124776
 20
-132.9455457566942
 30
0.0
 10
114.6731038124776
 20
-132.9455457566942
 30
0.0
 10
114.6731038124776
 20
-133.1591416767797
 30
0.0
 10
114.6731038124776
 20
-133.1591416767797
 30
0.0
 10
114.6159152274224
 20
-133.169821472784
 30
0.0
 10
114.4677761215567
 20
-133.2015163512482
 30
0.0
 10
114.4677761215567
 20
-133.4044324753295
 30
0.0
 10
114.4677761215567
 20
-133.6965765724786
 30
0.0
 10
114.7957492117525
 20
-133.7365396801075
 30
0.0
 10
115.0007323931248
 20
-133.749286533403
 30
0.0
 10
114.9225287256097
 20
-133.6562689553012
 30
0.0
 10
114.8632730832634
 20
-133.5884005742418
 30
0.0
 10
114.8632730832634
 20
-133.4064995326206
 30
0.0
 10
114.8632730832634
 20
-133.2266655482906
 30
0.0
 10
114.9714490815002
 20
-132.9241861646856
 30
0.0
 10
115.3776258392111
 20
-132.9241861646856
 30
0.0
 10
115.6969861906938
 20
-132.9241861646856
 30
0.0
 10
115.9167832826528
 20
-133.1233126837331
 30
0.0
 10
115.9167832826528
 20
-133.4406059779246
 30
0.0
  0
SPLINE
  5
7A
330
75
100
AcDbEntity
  8
_U+30EC_U+30A4_U+30E4_U+30FC 1
370
     0
100
AcDbSpline
210
0.0
220
0.0
230
1.0
 70
    11
 71
     3
 72
    17
 73
    13
 74
     0
 42
0.0000000001
 43
0.0000000001
 12
1.0
 22
0.0
 32
0.0
 13
1.0
 23
0.0
 33
0.0
 40
0.0
 40
0.0
 40
0.0
 40
0.0
 40
1.0
 40
1.0
 40
1.0
 40
2.0
 40
2.0
 40
2.0
 40
3.0
 40
3.0
 40
3.0
 40
4.0
 40
4.0
 40
4.0
 40
4.0
 10
115.05792097818
 20
-133.4237250100469
 30
0.0
 10
115.05792097818
 20
-133.6858967764744
 30
0.0
 10
115.2694498409743
 20
-133.7237928268121
 30
0.0
 10
115.3858940683757
 20
-133.7237928268121
 30
0.0
 10
115.5615939381235
 20
-133.7237928268121
 30
0.0
 10
115.7245469545758
 20
-133.6287081914192
 30
0.0
 10
115.7245469545758
 20
-133.4447400925069
 30
0.0
 10
115.7245469545758
 20
-133.3241617505231
 30
0.0
 10
115.6652913122295
 20
-133.1484618807754
 30
0.0
 10
115.3796928965023
 20
-133.1484618807754
 30
0.0
 10
115.1554171804125
 20
-133.1484618807754
 30
0.0
 10
115.05792097818
 20
-133.287988247928
 30
0.0
 10
115.05792097818
 20
-133.4237250100469
 30
0.0
  0
HATCH
  5
7B
330
75
100
AcDbEntity
  8
_U+30EC_U+30A4_U+30E4_U+30FC 1
 62
   179
420
  2234388
100
AcDbHatch
 10
0.0
 20
0.0
 30
0.0
210
0.0
220
0.0
230
1.0
  2
SOLID
 70
     1
 71
     0
 91
        2
 92
        1
 93
        1
 72
     4
 94
        3
 73
     0
 74
     1
 95
       32
 96
       28
 40
0.0
 40
0.0
 40
0.0
 40
0.0
 40
1.0
 40
1.0
 40
1.0
 40
2.0
 40
2.0
 40
2.0
 40
3.0
 40
3.0
 40
3.0
 40
4.0
 40
4.0
 40
4.0
 40
5.0
 40
5.0
 40
5.0
 40
6.0
 40
6.0
 40
6.0
 40
7.0
 40
7.0
 40
7.0
 40
8.0
 40
8.0
 40
8.0
 40
9.0
 40
9.0
 40
9.0
 40
9.0
 10
115.9167832826528
 20
-133.4406059779246
 10
115.9167832826528
 20
-133.956681281615
 10
115.3628119286246
 20
-133.9652940203281
 10
115.1488714989906
 20
-133.9652940203281
 10
114.9183946110274
 20
-133.9652940203281
 10
114.2710611693489
 20
-133.9460014856107
 10
114.2710611693489
 20
-133.4023654180383
 10
114.2710611693489
 20
-133.2290771151302
 10
114.3409966076995
 20
-132.9834418070319
 10
114.6731038124776
 20
-132.9455457566942
 10
114.6731038124776
 20
-132.9455457566942
 10
114.6731038124776
 20
-133.1591416767797
 10
114.6731038124776
 20
-133.1591416767797
 10
114.6159152274224
 20
-133.169821472784
 10
114.4677761215567
 20
-133.2015163512482
 10
114.4677761215567
 20
-133.4044324753295
 10
114.4677761215567
 20
-133.6965765724786
 10
114.7957492117525
 20
-133.7365396801075
 10
115.0007323931248
 20
-133.749286533403
 10
114.9225287256097
 20
-133.6562689553012
 10
114.8632730832634
 20
-133.5884005742418
 10
114.8632730832634
 20
-133.4064995326206
 10
114.8632730832634
 20
-133.2266655482906
 10
114.9714490815002
 20
-132.9241861646856
 10
115.3776258392111
 20
-132.9241861646856
 10
115.6969861906938
 20
-132.9241861646856
 10
115.9167832826528
 20
-133.1233126837331
 10
115.9167832826528
 20
-133.4406059779246
 97
        0
 97
        0
 92
        1
 93
        1
 72
     4
 94
        3
 73
     0
 74
     1
 95
       17
 96
       13
 40
0.0
 40
0.0
 40
0.0
 40
0.0
 40
1.0
 40
1.0
 40
1.0
 40
2.0
 40
2.0
 40
2.0
 40
3.0
 40
3.0
 40
3.0
 40
4.0
 40
4.0
 40
4.0
 40
4.0
 10
115.05792097818
 20
-133.4237250100469
 10
115.05792097818
 20
-133.6858967764744
 10
115.2694498409743
 20
-133.7237928268121
 10
115.3858940683757
 20
-133.7237928268121
 10
115.5615939381235
 20
-133.7237928268121
 10
115.7245469545758
 20
-133.6287081914192
 10
115.7245469545758
 20
-133.4447400925069
 10
115.7245469545758
 20
-133.3241617505231
 10
115.6652913122295
 20
-133.1484618807754
 10
115.3796928965023
 20
-133.1484618807754
 10
115.1554171804125
 20
-133.1484618807754
 10
115.05792097818
 20
-133.287988247928
 10
115.05792097818
 20
-133.4237250100469
 97
        0
 97
        0
 75
     2
 76
     1
 98
        0
  0
POLYLINE
  5
7C
330
75
100
AcDbEntity
  8
_U+30EC_U+30A4_U+30E4_U+30FC 1
370
     0
100
AcDb2dPolyline
 66
     1
 10
0.0
 20
0.0
 30
0.0
  0
VERTEX
  5
7D
330
7C
100
AcDbEntity
  8
_U+30EC_U+30A4_U+30E4_U+30FC 1
370
     0
100
AcDbVertex
100
AcDb2dVertex
 10
115.8661403790196
 20
-132.7078341682119
 30
0.0
  0
VERTEX
  5
7E
330
7C
100
AcDbEntity
  8
_U+30EC_U+30A4_U+30E4_U+30FC 1
370
     0
100
AcDbVertex
100
AcDb2dVertex
 10
115.6143038990478
 20
-132.7078341682119
 30
0.0
  0
VERTEX
  5
7F
330
7C
100
AcDbEntity
  8
_U+30EC_U+30A4_U+30E4_U+30FC 1
370
     0
100
AcDbVertex
100
AcDb2dVertex
 10
115.6143038990478
 20
-132.4559976882402
 30
0.0
  0
VERTEX
  5
80
330
7C
100
AcDbEntity
  8
_U+30EC_U+30A4_U+30E4_U+30FC 1
370
     0
100
AcDbVertex
100
AcDb2dVertex
 10
115.8661403790196
 20
-132.4559976882402
 30
0.0
  0
VERTEX
  5
81
330
7C
100
AcDbEntity
  8
_U+30EC_U+30A4_U+30E4_U+30FC 1
370
     0
100
AcDbVertex
100
AcDb2dVertex
 10
115.8661403790196
 20
-132.7078341682119
 30
0.0
  0
SEQEND
  5
82
330
7C
100
AcDbEntity
  8
_U+30EC_U+30A4_U+30E4_U+30FC 1
370
     0
  0
HATCH
  5
83
330
75
100
AcDbEntity
  8
_U+30EC_U+30A4_U+30E4_U+30FC 1
 62
   179
420
  2234388
100
AcDbHatch
 10
0.0
 20
0.0
 30
0.0
210
0.0
220
0.0
230
1.0
  2
SOLID
 70
     1
 71
     0
 91
        1
 92
        1
 93
        4
 72
     1
 10
115.8661403790196
 20
-132.7078341682119
 11
115.6143038990478
 21
-132.7078341682119
 72
     1
 10
115.6143038990478
 20
-132.7078341682119
 11
115.6143038990478
 21
-132.4559976882402
 72
     1
 10
115.6143038990478
 20
-132.4559976882402
 11
115.8661403790196
 21
-132.4559976882402
 72
     1
 10
115.8661403790196
 20
-132.4559976882402
 11
115.8661403790196
 21
-132.7078341682119
 97
        0
 75
     2
 76
     1
 98
        0
  0
SPLINE
  5
84
330
75
100
AcDbEntity
  8
_U+30EC_U+30A4_U+30E4_U+30FC 1
370
     0
100
AcDbSpline
210
0.0
220
0.0
230
1.0
 70
    11
 71
     3
 72
    53
 73
    49
 74
     0
 42
0.0000000001
 43
0.0000000001
 12
1.0
 22
0.0
 32
0.0
 13
1.0
 23
0.0
 33
0.0
 40
0.0
 40
0.0
 40
0.0
 40
0.0
 40
1.0
 40
1.0
 40
1.0
 40
2.0
 40
2.0
 40
2.0
 40
3.0
 40
3.0
 40
3.0
 40
4.0
 40
4.0
 40
4.0
 40
5.0
 40
5.0
 40
5.0
 40
6.0
 40
6.0
 40
6.0
 40
7.0
 40
7.0
 40
7.0
 40
8.0
 40
8.0
 40
8.0
 40
9.0
 40
9.0
 40
9.0
 40
10.0
 40
10.0
 40
10.0
 40
11.0
 40
11.0
 40
11.0
 40
12.0
 40
12.0
 40
12.0
 40
13.0
 40
13.0
 40
13.0
 40
14.0
 40
14.0
 40
14.0
 40
15.0
 40
15.0
 40
15.0
 40
16.0
 40
16.0
 40
16.0
 40
16.0
 10
115.9167832826528
 20
-131.7387288082112
 30
0.0
 10
115.9167832826528
 20
-131.8169324757263
 30
0.0
 10
115.899902314775
 20
-131.9185627925412
 30
0.0
 10
115.8365125578464
 20
-132.0201931093561
 30
0.0
 10
115.726614011867
 20
-132.1934814122641
 30
0.0
 10
115.5953558738789
 20
-132.2148410042727
 30
0.0
 10
115.4875243851906
 20
-132.2337890294416
 30
0.0
 10
115.4875243851906
 20
-132.2337890294416
 30
0.0
 10
115.4875243851906
 20
-132.0115803706429
 30
0.0
 10
115.4875243851906
 20
-132.0115803706429
 30
0.0
 10
115.6863063946895
 20
-131.9568033524275
 30
0.0
 10
115.7159342158627
 20
-131.8296793290218
 30
0.0
 10
115.7159342158627
 20
-131.73666175092
 30
0.0
 10
115.7159342158627
 20
-131.5971353837674
 30
0.0
 10
115.616370956339
 20
-131.4448621633194
 30
0.0
 10
115.3838270110846
 20
-131.4448621633194
 30
0.0
 10
115.1278564165305
 20
-131.4448621633194
 30
0.0
 10
115.05792097818
 20
-131.6246961476494
 30
0.0
 10
115.05792097818
 20
-131.7452744896331
 30
0.0
 10
115.05792097818
 20
-131.7769693680974
 30
0.0
 10
115.05792097818
 20
-131.9185627925412
 30
0.0
 10
115.1871120588768
 20
-132.0074462560606
 30
0.0
 10
115.1871120588768
 20
-132.0074462560606
 30
0.0
 10
115.168164033708
 20
-132.1831461258084
 30
0.0
 10
115.168164033708
 20
-132.1831461258084
 30
0.0
 10
115.168164033708
 20
-132.1831461258084
 30
0.0
 10
114.3217040729821
 20
-132.0625677838246
 30
0.0
 10
114.3217040729821
 20
-132.0625677838246
 30
0.0
 10
114.3217040729821
 20
-132.0625677838246
 30
0.0
 10
114.3217040729821
 20
-131.2839762041582
 30
0.0
 10
114.3217040729821
 20
-131.2839762041582
 30
0.0
 10
114.3217040729821
 20
-131.2839762041582
 30
0.0
 10
114.5163519678987
 20
-131.2839762041582
 30
0.0
 10
114.5163519678987
 20
-131.2839762041582
 30
0.0
 10
114.5163519678987
 20
-131.2839762041582
 30
0.0
 10
114.5163519678987
 20
-131.8996147673723
 30
0.0
 10
114.5163519678987
 20
-131.8996147673723
 30
0.0
 10
114.5163519678987
 20
-131.8996147673723
 30
0.0
 10
114.9394096934874
 20
-131.9650715815921
 30
0.0
 10
114.9394096934874
 20
-131.9650715815921
 30
0.0
 10
114.9056477577319
 20
-131.9037488819546
 30
0.0
 10
114.8653401405545
 20
-131.8214110998572
 30
0.0
 10
114.8653401405545
 20
-131.7028998151646
 30
0.0
 10
114.8653401405545
 20
-131.4489962779016
 30
0.0
 10
115.0517198063065
 20
-131.2119737085165
 30
0.0
 10
115.3648789859157
 20
-131.2119737085165
 30
0.0
 10
115.6821722801072
 20
-131.2119737085165
 30
0.0
 10
115.9167832826528
 20
-131.4362494246062
 30
0.0
 10
115.9167832826528
 20
-131.7387288082112
 30
0.0
  0
HATCH
  5
85
330
75
100
AcDbEntity
  8
_U+30EC_U+30A4_U+30E4_U+30FC 1
 62
   179
420
  2234388
100
AcDbHatch
 10
0.0
 20
0.0
 30
0.0
210
0.0
220
0.0
230
1.0
  2
SOLID
 70
     1
 71
     0
 91
        1
 92
        1
 93
        1
 72
     4
 94
        3
 73
     0
 74
     1
 95
       53
 96
       49
 40
0.0
 40
0.0
 40
0.0
 40
0.0
 40
1.0
 40
1.0
 40
1.0
 40
2.0
 40
2.0
 40
2.0
 40
3.0
 40
3.0
 40
3.0
 40
4.0
 40
4.0
 40
4.0
 40
5.0
 40
5.0
 40
5.0
 40
6.0
 40
6.0
 40
6.0
 40
7.0
 40
7.0
 40
7.0
 40
8.0
 40
8.0
 40
8.0
 40
9.0
 40
9.0
 40
9.0
 40
10.0
 40
10.0
 40
10.0
 40
11.0
 40
11.0
 40
11.0
 40
12.0
 40
12.0
 40
12.0
 40
13.0
 40
13.0
 40
13.0
 40
14.0
 40
14.0
 40
14.0
 40
15.0
 40
15.0
 40
15.0
 40
16.0
 40
16.0
 40
16.0
 40
16.0
 10
115.9167832826528
 20
-131.7387288082112
 10
115.9167832826528
 20
-131.8169324757263
 10
115.899902314775
 20
-131.9185627925412
 10
115.8365125578464
 20
-132.0201931093561
 10
115.726614011867
 20
-132.1934814122641
 10
115.5953558738789
 20
-132.2148410042727
 10
115.4875243851906
 20
-132.2337890294416
 10
115.4875243851906
 20
-132.2337890294416
 10
115.4875243851906
 20
-132.0115803706429
 10
115.4875243851906
 20
-132.0115803706429
 10
115.6863063946895
 20
-131.9568033524275
 10
115.7159342158627
 20
-131.8296793290218
 10
115.7159342158627
 20
-131.73666175092
 10
115.7159342158627
 20
-131.5971353837674
 10
115.616370956339
 20
-131.4448621633194
 10
115.3838270110846
 20
-131.4448621633194
 10
115.1278564165305
 20
-131.4448621633194
 10
115.05792097818
 20
-131.6246961476494
 10
115.05792097818
 20
-131.7452744896331
 10
115.05792097818
 20
-131.7769693680974
 10
115.05792097818
 20
-131.9185627925412
 10
115.1871120588768
 20
-132.0074462560606
 10
115.1871120588768
 20
-132.0074462560606
 10
115.168164033708
 20
-132.1831461258084
 10
115.168164033708
 20
-132.1831461258084
 10
115.168164033708
 20
-132.1831461258084
 10
114.3217040729821
 20
-132.0625677838246
 10
114.3217040729821
 20
-132.0625677838246
 10
114.3217040729821
 20
-132.0625677838246
 10
114.3217040729821
 20
-131.2839762041582
 10
114.3217040729821
 20
-131.2839762041582
 10
114.3217040729821
 20
-131.2839762041582
 10
114.5163519678987
 20
-131.2839762041582
 10
114.5163519678987
 20
-131.2839762041582
 10
114.5163519678987
 20
-131.2839762041582
 10
114.5163519678987
 20
-131.8996147673723
 10
114.5163519678987
 20
-131.8996147673723
 10
114.5163519678987
 20
-131.8996147673723
 10
114.9394096934874
 20
-131.9650715815921
 10
114.9394096934874
 20
-131.9650715815921
 10
114.9056477577319
 20
-131.9037488819546
 10
114.8653401405545
 20
-131.8214110998572
 10
114.8653401405545
 20
-131.7028998151646
 10
114.8653401405545
 20
-131.4489962779016
 10
115.0517198063065
 20
-131.2119737085165
 10
115.3648789859157
 20
-131.2119737085165
 10
115.6821722801072
 20
-131.2119737085165
 10
115.9167832826528
 20
-131.4362494246062
 10
115.9167832826528
 20
-131.7387288082112
 97
        0
 97
        0
 75
     2
 76
     1
 98
        0
  0
ENDBLK
  5
78
330
75
100
AcDbEntity
  8
0
100
AcDbBlockEnd
  0
BLOCK
  5
88
330
86
100
AcDbEntity
  8
0
100
AcDbBlockBegin
  2
block 5
 70
     0
 10
0.0
 20
0.0
 30
0.0
  3
block 5
  1

  0
SPLINE
  5
8A
330
86
100
AcDbEntity
  8
_U+30EC_U+30A4_U+30E4_U+30FC 1
370
     0
100
AcDbSpline
210
0.0
220
0.0
230
1.0
 70
    11
 71
     3
 72
    62
 73
    58
 74
     0
 42
0.0000000001
 43
0.0000000001
 12
1.0
 22
0.0
 32
0.0
 13
1.0
 23
0.0
 33
0.0
 40
0.0
 40
0.0
 40
0.0
 40
0.0
 40
1.0
 40
1.0
 40
1.0
 40
2.0
 40
2.0
 40
2.0
 40
3.0
 40
3.0
 40
3.0
 40
4.0
 40
4.0
 40
4.0
 40
5.0
 40
5.0
 40
5.0
 40
6.0
 40
6.0
 40
6.0
 40
7.0
 40
7.0
 40
7.0
 40
8.0
 40
8.0
 40
8.0
 40
9.0
 40
9.0
 40
9.0
 40
10.0
 40
10.0
 40
10.0
 40
11.0
 40
11.0
 40
11.0
 40
12.0
 40
12.0
 40
12.0
 40
13.0
 40
13.0
 40
13.0
 40
14.0
 40
14.0
 40
14.0
 40
15.0
 40
15.0
 40
15.0
 40
16.0
 40
16.0
 40
16.0
 40
17.0
 40
17.0
 40
17.0
 40
18.0
 40
18.0
 40
18.0
 40
19.0
 40
19.0
 40
19.0
 40
19.0
 10
115.9167832826528
 20
-137.293600768628
 30
0.0
 10
115.9167832826528
 20
-137.3890299135694
 30
0.0
 10
115.8957682001927
 20
-137.6067599482372
 30
0.0
 10
115.7097330439892
 20
-137.7318169143518
 30
0.0
 10
115.5974229311701
 20
-137.8058864672846
 30
0.0
 10
115.4982041811949
 20
-137.810020581867
 30
0.0
 10
115.4134548322578
 20
-137.8141546964492
 30
0.0
 10
115.4134548322578
 20
-137.8141546964492
 30
0.0
 10
115.4134548322578
 20
-137.5940130949418
 30
0.0
 10
115.4134548322578
 20
-137.5940130949418
 30
0.0
 10
115.4875243851906
 20
-137.5919460376506
 30
0.0
 10
115.7221353877361
 20
-137.5816107511949
 30
0.0
 10
115.7221353877361
 20
-137.2980793927588
 30
0.0
 10
115.7221353877361
 20
-137.1606200828973
 30
0.0
 10
115.6525444589341
 20
-137.0080023529008
 30
0.0
 10
115.424134628262
 20
-137.0080023529008
 30
0.0
 10
115.3076904008606
 20
-137.0080023529008
 30
0.0
 10
115.2591145545186
 20
-137.0462429127871
 30
0.0
 10
115.2274196760543
 20
-137.0779377912513
 30
0.0
 10
115.1533501231214
 20
-137.1520073441842
 30
0.0
 10
115.140603269826
 20
-137.2684515715857
 30
0.0
 10
115.140603269826
 20
-137.3232285898011
 30
0.0
 10
115.140603269826
 20
-137.3425211245186
 30
0.0
 10
115.1426703271171
 20
-137.3783501175651
 30
0.0
 10
115.1468044416994
 20
-137.4059108814471
 30
0.0
 10
115.1468044416994
 20
-137.4059108814471
 30
0.0
 10
114.9521565467828
 20
-137.4059108814471
 30
0.0
 10
114.9521565467828
 20
-137.4059108814471
 30
0.0
 10
114.9587022282048
 20
-137.3676703215609
 30
0.0
 10
114.9607692854959
 20
-137.3256401566408
 30
0.0
 10
114.9607692854959
 20
-137.3190944752188
 30
0.0
 10
114.9607692854959
 20
-137.2536376609991
 30
0.0
 10
114.9394096934874
 20
-137.0548556515002
 30
0.0
 10
114.7027316336507
 20
-137.0548556515002
 30
0.0
 10
114.5249647066118
 20
-137.0548556515002
 30
0.0
 10
114.4698431788478
 20
-137.1857692799397
 30
0.0
 10
114.4698431788478
 20
-137.2960123354677
 30
0.0
 10
114.4698431788478
 20
-137.5602511591863
 30
0.0
 10
114.7027316336507
 20
-137.5688638978995
 30
0.0
 10
114.7743896197439
 20
-137.5729980124817
 30
0.0
 10
114.7743896197439
 20
-137.5729980124817
 30
0.0
 10
114.7743896197439
 20
-137.7762586461115
 30
0.0
 10
114.7743896197439
 20
-137.7762586461115
 30
0.0
 10
114.6496771631779
 20
-137.7676459073984
 30
0.0
 10
114.2731282266401
 20
-137.7400851435164
 30
0.0
 10
114.2731282266401
 20
-137.2832654821723
 30
0.0
 10
114.2731282266401
 20
-137.0589897660825
 30
0.0
 10
114.4002522500458
 20
-136.817833082115
 30
0.0
 10
114.6961859522287
 20
-136.817833082115
 30
0.0
 10
114.8825656179808
 20
-136.817833082115
 30
0.0
 10
114.9649034000782
 20
-136.9129177175079
 30
0.0
 10
115.0262260997157
 20
-137.0124809770316
 30
0.0
 10
115.0537868635977
 20
-136.9511582773942
 30
0.0
 10
115.134057588404
 20
-136.769257235773
 30
0.0
 10
115.4113877749666
 20
-136.769257235773
 30
0.0
 10
115.7496961516181
 20
-136.769257235773
 30
0.0
 10
115.9167832826528
 20
-137.0166150916139
 30
0.0
 10
115.9167832826528
 20
-137.293600768628
 30
0.0
  0
HATCH
  5
8B
330
86
100
AcDbEntity
  8
_U+30EC_U+30A4_U+30E4_U+30FC 1
 62
   179
420
  2234388
100
AcDbHatch
 10
0.0
 20
0.0
 30
0.0
210
0.0
220
0.0
230
1.0
  2
SOLID
 70
     1
 71
     0
 91
        1
 92
        1
 93
        1
 72
     4
 94
        3
 73
     0
 74
     1
 95
       62
 96
       58
 40
0.0
 40
0.0
 40
0.0
 40
0.0
 40
1.0
 40
1.0
 40
1.0
 40
2.0
 40
2.0
 40
2.0
 40
3.0
 40
3.0
 40
3.0
 40
4.0
 40
4.0
 40
4.0
 40
5.0
 40
5.0
 40
5.0
 40
6.0
 40
6.0
 40
6.0
 40
7.0
 40
7.0
 40
7.0
 40
8.0
 40
8.0
 40
8.0
 40
9.0
 40
9.0
 40
9.0
 40
10.0
 40
10.0
 40
10.0
 40
11.0
 40
11.0
 40
11.0
 40
12.0
 40
12.0
 40
12.0
 40
13.0
 40
13.0
 40
13.0
 40
14.0
 40
14.0
 40
14.0
 40
15.0
 40
15.0
 40
15.0
 40
16.0
 40
16.0
 40
16.0
 40
17.0
 40
17.0
 40
17.0
 40
18.0
 40
18.0
 40
18.0
 40
19.0
 40
19.0
 40
19.0
 40
19.0
 10
115.9167832826528
 20
-137.293600768628
 10
115.9167832826528
 20
-137.3890299135694
 10
115.8957682001927
 20
-137.6067599482372
 10
115.7097330439892
 20
-137.7318169143518
 10
115.5974229311701
 20
-137.8058864672846
 10
115.4982041811949
 20
-137.810020581867
 10
115.4134548322578
 20
-137.8141546964492
 10
115.4134548322578
 20
-137.8141546964492
 10
115.4134548322578
 20
-137.5940130949418
 10
115.4134548322578
 20
-137.5940130949418
 10
115.4875243851906
 20
-137.5919460376506
 10
115.7221353877361
 20
-137.5816107511949
 10
115.7221353877361
 20
-137.2980793927588
 10
115.7221353877361
 20
-137.1606200828973
 10
115.6525444589341
 20
-137.0080023529008
 10
115.424134628262
 20
-137.0080023529008
 10
115.3076904008606
 20
-137.0080023529008
 10
115.2591145545186
 20
-137.0462429127871
 10
115.2274196760543
 20
-137.0779377912513
 10
115.1533501231214
 20
-137.1520073441842
 10
115.140603269826
 20
-137.2684515715857
 10
115.140603269826
 20
-137.3232285898011
 10
115.140603269826
 20
-137.3425211245186
 10
115.1426703271171
 20
-137.3783501175651
 10
115.1468044416994
 20
-137.4059108814471
 10
115.1468044416994
 20
-137.4059108814471
 10
114.9521565467828
 20
-137.4059108814471
 10
114.9521565467828
 20
-137.4059108814471
 10
114.9587022282048
 20
-137.3676703215609
 10
114.9607692854959
 20
-137.3256401566408
 10
114.9607692854959
 20
-137.3190944752188
 10
114.9607692854959
 20
-137.2536376609991
 10
114.9394096934874
 20
-137.0548556515002
 10
114.7027316336507
 20
-137.0548556515002
 10
114.5249647066118
 20
-137.0548556515002
 10
114.4698431788478
 20
-137.1857692799397
 10
114.4698431788478
 20
-137.2960123354677
 10
114.4698431788478
 20
-137.5602511591863
 10
114.7027316336507
 20
-137.5688638978995
 10
114.7743896197439
 20
-137.5729980124817
 10
114.7743896197439
 20
-137.5729980124817
 10
114.7743896197439
 20
-137.7762586461115
 10
114.7743896197439
 20
-137.7762586461115
 10
114.6496771631779
 20
-137.7676459073984
 10
114.2731282266401
 20
-137.7400851435164
 10
114.2731282266401
 20
-137.2832654821723
 10
114.2731282266401
 20
-137.0589897660825
 10
114.4002522500458
 20
-136.817833082115
 10
114.6961859522287
 20
-136.817833082115
 10
114.8825656179808
 20
-136.817833082115
 10
114.9649034000782
 20
-136.9129177175079
 10
115.0262260997157
 20
-137.0124809770316
 10
115.0537868635977
 20
-136.9511582773942
 10
115.134057588404
 20
-136.769257235773
 10
115.4113877749666
 20
-136.769257235773
 10
115.7496961516181
 20
-136.769257235773
 10
115.9167832826528
 20
-137.0166150916139
 10
115.9167832826528
 20
-137.293600768628
 97
        0
 97
        0
 75
     2
 76
     1
 98
        0
  0
ENDBLK
  5
89
330
86
100
AcDbEntity
  8
0
100
AcDbBlockEnd
  0
BLOCK
  5
8E
330
8C
100
AcDbEntity
  8
0
100
AcDbBlockBegin
  2
block 6
 70
     0
 10
0.0
 20
0.0
 30
0.0
  3
block 6
  1

  0
SPLINE
  5
90
330
8C
100
AcDbEntity
  8
_U+30EC_U+30A4_U+30E4_U+30FC 1
370
     0
100
AcDbSpline
210
0.0
220
0.0
230
1.0
 70
    11
 71
     3
 72
    26
 73
    22
 74
     0
 42
0.0000000001
 43
0.0000000001
 12
1.0
 22
0.0
 32
0.0
 13
1.0
 23
0.0
 33
0.0
 40
0.0
 40
0.0
 40
0.0
 40
0.0
 40
1.0
 40
1.0
 40
1.0
 40
2.0
 40
2.0
 40
2.0
 40
3.0
 40
3.0
 40
3.0
 40
4.0
 40
4.0
 40
4.0
 40
5.0
 40
5.0
 40
5.0
 40
6.0
 40
6.0
 40
6.0
 40
7.0
 40
7.0
 40
7.0
 40
7.0
 10
115.8661403790196
 20
-126.2351887705245
 30
0.0
 10
115.8661403790196
 20
-126.2351887705245
 30
0.0
 10
114.761987275997
 20
-126.2351887705245
 30
0.0
 10
114.761987275997
 20
-126.2351887705245
 30
0.0
 10
114.761987275997
 20
-126.2351887705245
 30
0.0
 10
114.761987275997
 20
-126.5652289180115
 30
0.0
 10
114.761987275997
 20
-126.5652289180115
 30
0.0
 10
114.761987275997
 20
-126.5652289180115
 30
0.0
 10
114.6138481701313
 20
-126.5652289180115
 30
0.0
 10
114.6138481701313
 20
-126.5652289180115
 30
0.0
 10
114.5990342595447
 20
-126.2331217132334
 30
0.0
 10
114.4360812430924
 20
-126.1866129241825
 30
0.0
 10
114.3217040729821
 20
-126.1569851030094
 30
0.0
 10
114.3217040729821
 20
-126.1569851030094
 30
0.0
 10
114.3217040729821
 20
-126.0109130544348
 30
0.0
 10
114.3217040729821
 20
-126.0109130544348
 30
0.0
 10
114.3217040729821
 20
-126.0109130544348
 30
0.0
 10
115.8661403790196
 20
-126.0109130544348
 30
0.0
 10
115.8661403790196
 20
-126.0109130544348
 30
0.0
 10
115.8661403790196
 20
-126.0109130544348
 30
0.0
 10
115.8661403790196
 20
-126.2351887705245
 30
0.0
 10
115.8661403790196
 20
-126.2351887705245
 30
0.0
  0
HATCH
  5
91
330
8C
100
AcDbEntity
  8
_U+30EC_U+30A4_U+30E4_U+30FC 1
 62
   179
420
  2234388
100
AcDbHatch
 10
0.0
 20
0.0
 30
0.0
210
0.0
220
0.0
230
1.0
  2
SOLID
 70
     1
 71
     0
 91
        1
 92
        1
 93
        1
 72
     4
 94
        3
 73
     0
 74
     1
 95
       26
 96
       22
 40
0.0
 40
0.0
 40
0.0
 40
0.0
 40
1.0
 40
1.0
 40
1.0
 40
2.0
 40
2.0
 40
2.0
 40
3.0
 40
3.0
 40
3.0
 40
4.0
 40
4.0
 40
4.0
 40
5.0
 40
5.0
 40
5.0
 40
6.0
 40
6.0
 40
6.0
 40
7.0
 40
7.0
 40
7.0
 40
7.0
 10
115.8661403790196
 20
-126.2351887705245
 10
115.8661403790196
 20
-126.2351887705245
 10
114.761987275997
 20
-126.2351887705245
 10
114.761987275997
 20
-126.2351887705245
 10
114.761987275997
 20
-126.2351887705245
 10
114.761987275997
 20
-126.5652289180115
 10
114.761987275997
 20
-126.5652289180115
 10
114.761987275997
 20
-126.5652289180115
 10
114.6138481701313
 20
-126.5652289180115
 10
114.6138481701313
 20
-126.5652289180115
 10
114.5990342595447
 20
-126.2331217132334
 10
114.4360812430924
 20
-126.1866129241825
 10
114.3217040729821
 20
-126.1569851030094
 10
114.3217040729821
 20
-126.1569851030094
 10
114.3217040729821
 20
-126.0109130544348
 10
114.3217040729821
 20
-126.0109130544348
 10
114.3217040729821
 20
-126.0109130544348
 10
115.8661403790196
 20
-126.0109130544348
 10
115.8661403790196
 20
-126.0109130544348
 10
115.8661403790196
 20
-126.0109130544348
 10
115.8661403790196
 20
-126.2351887705245
 10
115.8661403790196
 20
-126.2351887705245
 97
        0
 97
        0
 75
     2
 76
     1
 98
        0
  0
ENDBLK
  5
8F
330
8C
100
AcDbEntity
  8
0
100
AcDbBlockEnd
  0
BLOCK
  5
9E
330
9C
100
AcDbEntity
  8
0
100
AcDbBlockBegin
  2
block 7
 70
     0
 10
0.0
 20
0.0
 30
0.0
  3
block 7
  1

  0
SPLINE
  5
A0
330
9C
100
AcDbEntity
  8
_U+30EC_U+30A4_U+30E4_U+30FC 1
370
     0
100
AcDbSpline
210
0.0
220
0.0
230
1.0
 70
    11
 71
     3
 72
    62
 73
    58
 74
     0
 42
0.0000000001
 43
0.0000000001
 12
1.0
 22
0.0
 32
0.0
 13
1.0
 23
0.0
 33
0.0
 40
0.0
 40
0.0
 40
0.0
 40
0.0
 40
1.0
 40
1.0
 40
1.0
 40
2.0
 40
2.0
 40
2.0
 40
3.0
 40
3.0
 40
3.0
 40
4.0
 40
4.0
 40
4.0
 40
5.0
 40
5.0
 40
5.0
 40
6.0
 40
6.0
 40
6.0
 40
7.0
 40
7.0
 40
7.0
 40
8.0
 40
8.0
 40
8.0
 40
9.0
 40
9.0
 40
9.0
 40
10.0
 40
10.0
 40
10.0
 40
11.0
 40
11.0
 40
11.0
 40
12.0
 40
12.0
 40
12.0
 40
13.0
 40
13.0
 40
13.0
 40
14.0
 40
14.0
 40
14.0
 40
15.0
 40
15.0
 40
15.0
 40
16.0
 40
16.0
 40
16.0
 40
17.0
 40
17.0
 40
17.0
 40
18.0
 40
18.0
 40
18.0
 40
19.0
 40
19.0
 40
19.0
 40
19.0
 10
72.30669757306916
 20
-118.5061170493665
 30
0.0
 10
72.21126842812774
 20
-118.5061170493665
 30
0.0
 10
71.99353839345996
 20
-118.4851019669065
 30
0.0
 10
71.86848142734539
 20
-118.299066810703
 30
0.0
 10
71.79441187441252
 20
-118.1867566978839
 30
0.0
 10
71.79027775983022
 20
-118.0875379479087
 30
0.0
 10
71.78614364524792
 20
-118.0027885989715
 30
0.0
 10
71.78614364524792
 20
-118.0027885989715
 30
0.0
 10
72.00628524675538
 20
-118.0027885989715
 30
0.0
 10
72.00628524675538
 20
-118.0027885989715
 30
0.0
 10
72.00835230404653
 20
-118.0768581519044
 30
0.0
 10
72.01868759050228
 20
-118.3114691544499
 30
0.0
 10
72.30221894893833
 20
-118.3114691544499
 30
0.0
 10
72.4396782587998
 20
-118.3114691544499
 30
0.0
 10
72.59229598879638
 20
-118.2418782256479
 30
0.0
 10
72.59229598879638
 20
-118.0134683949758
 30
0.0
 10
72.59229598879638
 20
-117.8970241675744
 30
0.0
 10
72.5540554289101
 20
-117.8484483212323
 30
0.0
 10
72.5223605504458
 20
-117.816753442768
 30
0.0
 10
72.44829099751293
 20
-117.7426838898352
 30
0.0
 10
72.33184677011148
 20
-117.7299370365397
 30
0.0
 10
72.27706975189601
 20
-117.7299370365397
 30
0.0
 10
72.25777721717861
 20
-117.7299370365397
 30
0.0
 10
72.22194822413202
 20
-117.7320040938309
 30
0.0
 10
72.19438746025001
 20
-117.7361382084132
 30
0.0
 10
72.19438746025001
 20
-117.7361382084132
 30
0.0
 10
72.19438746025001
 20
-117.5414903134966
 30
0.0
 10
72.19438746025001
 20
-117.5414903134966
 30
0.0
 10
72.23262802013629
 20
-117.5480359949185
 30
0.0
 10
72.27465818505634
 20
-117.5501030522097
 30
0.0
 10
72.28120386647831
 20
-117.5501030522097
 30
0.0
 10
72.34666068069806
 20
-117.5501030522097
 30
0.0
 10
72.54544269019698
 20
-117.5287434602012
 30
0.0
 10
72.54544269019698
 20
-117.2920654003645
 30
0.0
 10
72.54544269019698
 20
-117.1142984733256
 30
0.0
 10
72.41452906175748
 20
-117.0591769455616
 30
0.0
 10
72.30428600622949
 20
-117.0591769455616
 30
0.0
 10
72.04004718251082
 20
-117.0591769455616
 30
0.0
 10
72.0314344437977
 20
-117.2920654003645
 30
0.0
 10
72.02730032921541
 20
-117.3637233864577
 30
0.0
 10
72.02730032921541
 20
-117.3637233864577
 30
0.0
 10
71.82403969558565
 20
-117.3637233864577
 30
0.0
 10
71.82403969558565
 20
-117.3637233864577
 30
0.0
 10
71.83265243429878
 20
-117.2390109298916
 30
0.0
 10
71.86021319818079
 20
-116.8624619933538
 30
0.0
 10
72.31703285952491
 20
-116.8624619933538
 30
0.0
 10
72.54130857561468
 20
-116.8624619933538
 30
0.0
 10
72.78246525958217
 20
-116.9895860167596
 30
0.0
 10
72.78246525958217
 20
-117.2855197189425
 30
0.0
 10
72.78246525958217
 20
-117.4718993846945
 30
0.0
 10
72.68738062418927
 20
-117.554237166792
 30
0.0
 10
72.58781736466555
 20
-117.6155598664295
 30
0.0
 10
72.649140064303
 20
-117.6431206303114
 30
0.0
 10
72.83104110592419
 20
-117.7233913551178
 30
0.0
 10
72.83104110592419
 20
-118.0007215416804
 30
0.0
 10
72.83104110592419
 20
-118.3390299183319
 30
0.0
 10
72.58368325008325
 20
-118.5061170493665
 30
0.0
 10
72.30669757306916
 20
-118.5061170493665
 30
0.0
  0
HATCH
  5
A1
330
9C
100
AcDbEntity
  8
_U+30EC_U+30A4_U+30E4_U+30FC 1
 62
   179
420
  2234388
100
AcDbHatch
 10
0.0
 20
0.0
 30
0.0
210
0.0
220
0.0
230
1.0
  2
SOLID
 70
     1
 71
     0
 91
        1
 92
        1
 93
        1
 72
     4
 94
        3
 73
     0
 74
     1
 95
       62
 96
       58
 40
0.0
 40
0.0
 40
0.0
 40
0.0
 40
1.0
 40
1.0
 40
1.0
 40
2.0
 40
2.0
 40
2.0
 40
3.0
 40
3.0
 40
3.0
 40
4.0
 40
4.0
 40
4.0
 40
5.0
 40
5.0
 40
5.0
 40
6.0
 40
6.0
 40
6.0
 40
7.0
 40
7.0
 40
7.0
 40
8.0
 40
8.0
 40
8.0
 40
9.0
 40
9.0
 40
9.0
 40
10.0
 40
10.0
 40
10.0
 40
11.0
 40
11.0
 40
11.0
 40
12.0
 40
12.0
 40
12.0
 40
13.0
 40
13.0
 40
13.0
 40
14.0
 40
14.0
 40
14.0
 40
15.0
 40
15.0
 40
15.0
 40
16.0
 40
16.0
 40
16.0
 40
17.0
 40
17.0
 40
17.0
 40
18.0
 40
18.0
 40
18.0
 40
19.0
 40
19.0
 40
19.0
 40
19.0
 10
72.30669757306916
 20
-118.5061170493665
 10
72.21126842812774
 20
-118.5061170493665
 10
71.99353839345996
 20
-118.4851019669065
 10
71.86848142734539
 20
-118.299066810703
 10
71.79441187441252
 20
-118.1867566978839
 10
71.79027775983022
 20
-118.0875379479087
 10
71.78614364524792
 20
-118.0027885989715
 10
71.78614364524792
 20
-118.0027885989715
 10
72.00628524675538
 20
-118.0027885989715
 10
72.00628524675538
 20
-118.0027885989715
 10
72.00835230404653
 20
-118.0768581519044
 10
72.01868759050228
 20
-118.3114691544499
 10
72.30221894893833
 20
-118.3114691544499
 10
72.4396782587998
 20
-118.3114691544499
 10
72.59229598879638
 20
-118.2418782256479
 10
72.59229598879638
 20
-118.0134683949758
 10
72.59229598879638
 20
-117.8970241675744
 10
72.5540554289101
 20
-117.8484483212323
 10
72.5223605504458
 20
-117.816753442768
 10
72.44829099751293
 20
-117.7426838898352
 10
72.33184677011148
 20
-117.7299370365397
 10
72.27706975189601
 20
-117.7299370365397
 10
72.25777721717861
 20
-117.7299370365397
 10
72.22194822413202
 20
-117.7320040938309
 10
72.19438746025001
 20
-117.7361382084132
 10
72.19438746025001
 20
-117.7361382084132
 10
72.19438746025001
 20
-117.5414903134966
 10
72.19438746025001
 20
-117.5414903134966
 10
72.23262802013629
 20
-117.5480359949185
 10
72.27465818505634
 20
-117.5501030522097
 10
72.28120386647831
 20
-117.5501030522097
 10
72.34666068069806
 20
-117.5501030522097
 10
72.54544269019698
 20
-117.5287434602012
 10
72.54544269019698
 20
-117.2920654003645
 10
72.54544269019698
 20
-117.1142984733256
 10
72.41452906175748
 20
-117.0591769455616
 10
72.30428600622949
 20
-117.0591769455616
 10
72.04004718251082
 20
-117.0591769455616
 10
72.0314344437977
 20
-117.2920654003645
 10
72.02730032921541
 20
-117.3637233864577
 10
72.02730032921541
 20
-117.3637233864577
 10
71.82403969558565
 20
-117.3637233864577
 10
71.82403969558565
 20
-117.3637233864577
 10
71.83265243429878
 20
-117.2390109298916
 10
71.86021319818079
 20
-116.8624619933538
 10
72.31703285952491
 20
-116.8624619933538
 10
72.54130857561468
 20
-116.8624619933538
 10
72.78246525958217
 20
-116.9895860167596
 10
72.78246525958217
 20
-117.2855197189425
 10
72.78246525958217
 20
-117.4718993846945
 10
72.68738062418927
 20
-117.554237166792
 10
72.58781736466555
 20
-117.6155598664295
 10
72.649140064303
 20
-117.6431206303114
 10
72.83104110592419
 20
-117.7233913551178
 10
72.83104110592419
 20
-118.0007215416804
 10
72.83104110592419
 20
-118.3390299183319
 10
72.58368325008325
 20
-118.5061170493665
 10
72.30669757306916
 20
-118.5061170493665
 97
        0
 97
        0
 75
     2
 76
     1
 98
        0
  0
ENDBLK
  5
9F
330
9C
100
AcDbEntity
  8
0
100
AcDbBlockEnd
  0
BLOCK
  5
B6
330
B4
100
AcDbEntity
  8
0
100
AcDbBlockBegin
  2
block 8
 70
     0
 10
0.0
 20
0.0
 30
0.0
  3
block 8
  1

  0
POLYLINE
  5
B8
330
B4
100
AcDbEntity
  8
_U+30EC_U+30A4_U+30E4_U+30FC 1
370
     0
100
AcDb2dPolyline
 66
     1
 10
0.0
 20
0.0
 30
0.0
  0
VERTEX
  5
B9
330
B8
100
AcDbEntity
  8
_U+30EC_U+30A4_U+30E4_U+30FC 1
370
     0
100
AcDbVertex
100
AcDb2dVertex
 10
90.59257538967825
 20
-115.0892713470957
 30
0.0
  0
VERTEX
  5
BA
330
B8
100
AcDbEntity
  8
_U+30EC_U+30A4_U+30E4_U+30FC 1
370
     0
100
AcDbVertex
100
AcDb2dVertex
 10
90.59257538967825
 20
-115.4361924624604
 30
0.0
  0
VERTEX
  5
BB
330
B8
100
AcDbEntity
  8
_U+30EC_U+30A4_U+30E4_U+30FC 1
370
     0
100
AcDbVertex
100
AcDb2dVertex
 10
90.37484535501046
 20
-115.4361924624604
 30
0.0
  0
VERTEX
  5
BC
330
B8
100
AcDbEntity
  8
_U+30EC_U+30A4_U+30E4_U+30FC 1
370
     0
100
AcDbVertex
100
AcDb2dVertex
 10
90.37484535501046
 20
-115.0892713470957
 30
0.0
  0
VERTEX
  5
BD
330
B8
100
AcDbEntity
  8
_U+30EC_U+30A4_U+30E4_U+30FC 1
370
     0
100
AcDbVertex
100
AcDb2dVertex
 10
89.7188991746189
 20
-115.0892713470957
 30
0.0
  0
VERTEX
  5
BE
330
B8
100
AcDbEntity
  8
_U+30EC_U+30A4_U+30E4_U+30FC 1
370
     0
100
AcDbVertex
100
AcDb2dVertex
 10
89.7188991746189
 20
-114.864995631006
 30
0.0
  0
VERTEX
  5
BF
330
B8
100
AcDbEntity
  8
_U+30EC_U+30A4_U+30E4_U+30FC 1
370
     0
100
AcDbVertex
100
AcDb2dVertex
 10
90.39792749476163
 20
-113.8917561564229
 30
0.0
  0
VERTEX
  5
C0
330
B8
100
AcDbEntity
  8
_U+30EC_U+30A4_U+30E4_U+30FC 1
370
     0
100
AcDbVertex
100
AcDb2dVertex
 10
90.59257538967825
 20
-113.8917561564229
 30
0.0
  0
VERTEX
  5
C1
330
B8
100
AcDbEntity
  8
_U+30EC_U+30A4_U+30E4_U+30FC 1
370
     0
100
AcDbVertex
100
AcDb2dVertex
 10
90.59257538967825
 20
-114.8904893375968
 30
0.0
  0
VERTEX
  5
C2
330
B8
100
AcDbEntity
  8
_U+30EC_U+30A4_U+30E4_U+30FC 1
370
     0
100
AcDbVertex
100
AcDb2dVertex
 10
90.79997013789028
 20
-114.8904893375968
 30
0.0
  0
VERTEX
  5
C3
330
B8
100
AcDbEntity
  8
_U+30EC_U+30A4_U+30E4_U+30FC 1
370
     0
100
AcDbVertex
100
AcDb2dVertex
 10
90.79997013789028
 20
-115.0892713470957
 30
0.0
  0
VERTEX
  5
C4
330
B8
100
AcDbEntity
  8
_U+30EC_U+30A4_U+30E4_U+30FC 1
370
     0
100
AcDbVertex
100
AcDb2dVertex
 10
90.59257538967825
 20
-115.0892713470957
 30
0.0
  0
SEQEND
  5
C5
330
B8
100
AcDbEntity
  8
_U+30EC_U+30A4_U+30E4_U+30FC 1
370
     0
  0
POLYLINE
  5
C6
330
B4
100
AcDbEntity
  8
_U+30EC_U+30A4_U+30E4_U+30FC 1
370
     0
100
AcDb2dPolyline
 66
     1
 10
0.0
 20
0.0
 30
0.0
  0
VERTEX
  5
C7
330
C6
100
AcDbEntity
  8
_U+30EC_U+30A4_U+30E4_U+30FC 1
370
     0
100
AcDbVertex
100
AcDb2dVertex
 10
90.37484535501046
 20
-114.2345431572053
 30
0.0
  0
VERTEX
  5
C8
330
C6
100
AcDbEntity
  8
_U+30EC_U+30A4_U+30E4_U+30FC 1
370
     0
100
AcDbVertex
100
AcDb2dVertex
 10
89.91768118411781
 20
-114.8904893375968
 30
0.0
  0
VERTEX
  5
C9
330
C6
100
AcDbEntity
  8
_U+30EC_U+30A4_U+30E4_U+30FC 1
370
     0
100
AcDbVertex
100
AcDb2dVertex
 10
90.37484535501046
 20
-114.8904893375968
 30
0.0
  0
VERTEX
  5
CA
330
C6
100
AcDbEntity
  8
_U+30EC_U+30A4_U+30E4_U+30FC 1
370
     0
100
AcDbVertex
100
AcDb2dVertex
 10
90.37484535501046
 20
-114.2345431572053
 30
0.0
  0
SEQEND
  5
CB
330
C6
100
AcDbEntity
  8
_U+30EC_U+30A4_U+30E4_U+30FC 1
370
     0
  0
HATCH
  5
CC
330
B4
100
AcDbEntity
  8
_U+30EC_U+30A4_U+30E4_U+30FC 1
 62
   179
420
  2234388
100
AcDbHatch
 10
0.0
 20
0.0
 30
0.0
210
0.0
220
0.0
230
1.0
  2
SOLID
 70
     1
 71
     0
 91
        2
 92
        1
 93
       11
 72
     1
 10
90.59257538967825
 20
-115.0892713470957
 11
90.59257538967825
 21
-115.4361924624604
 72
     1
 10
90.59257538967825
 20
-115.4361924624604
 11
90.37484535501046
 21
-115.4361924624604
 72
     1
 10
90.37484535501046
 20
-115.4361924624604
 11
90.37484535501046
 21
-115.0892713470957
 72
     1
 10
90.37484535501046
 20
-115.0892713470957
 11
89.7188991746189
 21
-115.0892713470957
 72
     1
 10
89.7188991746189
 20
-115.0892713470957
 11
89.7188991746189
 21
-114.864995631006
 72
     1
 10
89.7188991746189
 20
-114.864995631006
 11
90.39792749476163
 21
-113.8917561564229
 72
     1
 10
90.39792749476163
 20
-113.8917561564229
 11
90.59257538967825
 21
-113.8917561564229
 72
     1
 10
90.59257538967825
 20
-113.8917561564229
 11
90.59257538967825
 21
-114.8904893375968
 72
     1
 10
90.59257538967825
 20
-114.8904893375968
 11
90.79997013789028
 21
-114.8904893375968
 72
     1
 10
90.79997013789028
 20
-114.8904893375968
 11
90.79997013789028
 21
-115.0892713470957
 72
     1
 10
90.79997013789028
 20
-115.0892713470957
 11
90.59257538967825
 21
-115.0892713470957
 97
        0
 92
        1
 93
        3
 72
     1
 10
90.37484535501046
 20
-114.2345431572053
 11
89.91768118411781
 21
-114.8904893375968
 72
     1
 10
89.91768118411781
 20
-114.8904893375968
 11
90.37484535501046
 21
-114.8904893375968
 72
     1
 10
90.37484535501046
 20
-114.8904893375968
 11
90.37484535501046
 21
-114.2345431572053
 97
        0
 75
     2
 76
     1
 98
        0
  0
SPLINE
  5
CD
330
B4
100
AcDbEntity
  8
_U+30EC_U+30A4_U+30E4_U+30FC 1
370
     0
100
AcDbSpline
210
0.0
220
0.0
230
1.0
 70
    11
 71
     3
 72
    29
 73
    25
 74
     0
 42
0.0000000001
 43
0.0000000001
 12
1.0
 22
0.0
 32
0.0
 13
1.0
 23
0.0
 33
0.0
 40
0.0
 40
0.0
 40
0.0
 40
0.0
 40
1.0
 40
1.0
 40
1.0
 40
2.0
 40
2.0
 40
2.0
 40
3.0
 40
3.0
 40
3.0
 40
4.0
 40
4.0
 40
4.0
 40
5.0
 40
5.0
 40
5.0
 40
6.0
 40
6.0
 40
6.0
 40
7.0
 40
7.0
 40
7.0
 40
8.0
 40
8.0
 40
8.0
 40
8.0
 10
91.83522133120786
 20
-115.2584255354215
 30
0.0
 10
91.72704533297102
 20
-115.4678873409247
 30
0.0
 10
91.55375703006295
 20
-115.4868353660936
 30
0.0
 10
91.43731280266151
 20
-115.4868353660936
 30
0.0
 10
91.27642684350035
 20
-115.4868353660936
 30
0.0
 10
91.13483341905658
 20
-115.4403265770427
 30
0.0
 10
91.03974878366368
 20
-115.2584255354215
 30
0.0
 10
90.93605140955766
 20
-115.0637776405049
 30
0.0
 10
90.91675887484026
 20
-114.8270995806682
 30
0.0
 10
90.91675887484026
 20
-114.6641465642159
 30
0.0
 10
90.91675887484026
 20
-114.5201415729325
 30
0.0
 10
90.9339843522665
 20
-114.2683050929607
 30
0.0
 10
91.03974878366368
 20
-114.0695230834618
 30
0.0
 10
91.147580272352
 20
-113.8666069593806
 30
0.0
 10
91.30846623151317
 20
-113.8431803100809
 30
0.0
 10
91.43731280266151
 20
-113.8431803100809
 30
0.0
 10
91.59613170453153
 20
-113.8431803100809
 30
0.0
 10
91.73979218626644
 20
-113.8876220418406
 30
0.0
 10
91.83522133120786
 20
-114.0695230834618
 30
0.0
 10
91.93444008118306
 20
-114.2621039210873
 30
0.0
 10
91.95786673048276
 20
-114.4905137517593
 30
0.0
 10
91.95786673048276
 20
-114.6641465642159
 30
0.0
 10
91.95786673048276
 20
-114.8353678098328
 30
0.0
 10
91.93650713847421
 20
-115.065844697796
 30
0.0
 10
91.83522133120786
 20
-115.2584255354215
 30
0.0
  0
SPLINE
  5
CE
330
B4
100
AcDbEntity
  8
_U+30EC_U+30A4_U+30E4_U+30FC 1
370
     0
100
AcDbSpline
210
0.0
220
0.0
230
1.0
 70
    11
 71
     3
 72
    17
 73
    13
 74
     0
 42
0.0000000001
 43
0.0000000001
 12
1.0
 22
0.0
 32
0.0
 13
1.0
 23
0.0
 33
0.0
 40
0.0
 40
0.0
 40
0.0
 40
0.0
 40
1.0
 40
1.0
 40
1.0
 40
2.0
 40
2.0
 40
2.0
 40
3.0
 40
3.0
 40
3.0
 40
4.0
 40
4.0
 40
4.0
 40
4.0
 10
91.43731280266151
 20
-114.0357611477063
 30
0.0
 10
91.1875433799809
 20
-114.0357611477063
 30
0.0
 10
91.14103459093002
 20
-114.3192925061424
 30
0.0
 10
91.14103459093002
 20
-114.6641465642159
 30
0.0
 10
91.14103459093002
 20
-114.9835069156986
 30
0.0
 10
91.17720809352515
 20
-115.292187471177
 30
0.0
 10
91.43731280266151
 20
-115.292187471177
 30
0.0
 10
91.68501516805097
 20
-115.292187471177
 30
0.0
 10
91.733591014393
 20
-115.0110676795806
 30
0.0
 10
91.733591014393
 20
-114.6641465642159
 30
0.0
 10
91.733591014393
 20
-114.3444417031847
 30
0.0
 10
91.69535045450672
 20
-114.0357611477063
 30
0.0
 10
91.43731280266151
 20
-114.0357611477063
 30
0.0
  0
HATCH
  5
CF
330
B4
100
AcDbEntity
  8
_U+30EC_U+30A4_U+30E4_U+30FC 1
 62
   179
420
  2234388
100
AcDbHatch
 10
0.0
 20
0.0
 30
0.0
210
0.0
220
0.0
230
1.0
  2
SOLID
 70
     1
 71
     0
 91
        2
 92
        1
 93
        1
 72
     4
 94
        3
 73
     0
 74
     1
 95
       29
 96
       25
 40
0.0
 40
0.0
 40
0.0
 40
0.0
 40
1.0
 40
1.0
 40
1.0
 40
2.0
 40
2.0
 40
2.0
 40
3.0
 40
3.0
 40
3.0
 40
4.0
 40
4.0
 40
4.0
 40
5.0
 40
5.0
 40
5.0
 40
6.0
 40
6.0
 40
6.0
 40
7.0
 40
7.0
 40
7.0
 40
8.0
 40
8.0
 40
8.0
 40
8.0
 10
91.83522133120786
 20
-115.2584255354215
 10
91.72704533297102
 20
-115.4678873409247
 10
91.55375703006295
 20
-115.4868353660936
 10
91.43731280266151
 20
-115.4868353660936
 10
91.27642684350035
 20
-115.4868353660936
 10
91.13483341905658
 20
-115.4403265770427
 10
91.03974878366368
 20
-115.2584255354215
 10
90.93605140955766
 20
-115.0637776405049
 10
90.91675887484026
 20
-114.8270995806682
 10
90.91675887484026
 20
-114.6641465642159
 10
90.91675887484026
 20
-114.5201415729325
 10
90.9339843522665
 20
-114.2683050929607
 10
91.03974878366368
 20
-114.0695230834618
 10
91.147580272352
 20
-113.8666069593806
 10
91.30846623151317
 20
-113.8431803100809
 10
91.43731280266151
 20
-113.8431803100809
 10
91.59613170453153
 20
-113.8431803100809
 10
91.73979218626644
 20
-113.8876220418406
 10
91.83522133120786
 20
-114.0695230834618
 10
91.93444008118306
 20
-114.2621039210873
 10
91.95786673048276
 20
-114.4905137517593
 10
91.95786673048276
 20
-114.6641465642159
 10
91.95786673048276
 20
-114.8353678098328
 10
91.93650713847421
 20
-115.065844697796
 10
91.83522133120786
 20
-115.2584255354215
 97
        0
 97
        0
 92
        1
 93
        1
 72
     4
 94
        3
 73
     0
 74
     1
 95
       17
 96
       13
 40
0.0
 40
0.0
 40
0.0
 40
0.0
 40
1.0
 40
1.0
 40
1.0
 40
2.0
 40
2.0
 40
2.0
 40
3.0
 40
3.0
 40
3.0
 40
4.0
 40
4.0
 40
4.0
 40
4.0
 10
91.43731280266151
 20
-114.0357611477063
 10
91.1875433799809
 20
-114.0357611477063
 10
91.14103459093002
 20
-114.3192925061424
 10
91.14103459093002
 20
-114.6641465642159
 10
91.14103459093002
 20
-114.9835069156986
 10
91.17720809352515
 20
-115.292187471177
 10
91.43731280266151
 20
-115.292187471177
 10
91.68501516805097
 20
-115.292187471177
 10
91.733591014393
 20
-115.0110676795806
 10
91.733591014393
 20
-114.6641465642159
 10
91.733591014393
 20
-114.3444417031847
 10
91.69535045450672
 20
-114.0357611477063
 10
91.43731280266151
 20
-114.0357611477063
 97
        0
 97
        0
 75
     2
 76
     1
 98
        0
  0
ENDBLK
  5
B7
330
B4
100
AcDbEntity
  8
0
100
AcDbBlockEnd
  0
BLOCK
  5
DA
330
D8
100
AcDbEntity
  8
0
100
AcDbBlockBegin
  2
block 9
 70
     0
 10
0.0
 20
0.0
 30
0.0
  3
block 9
  1

  0
SPLINE
  5
DC
330
D8
100
AcDbEntity
  8
_U+30EC_U+30A4_U+30E4_U+30FC 1
370
     0
100
AcDbSpline
210
0.0
220
0.0
230
1.0
 70
    11
 71
     3
 72
    26
 73
    22
 74
     0
 42
0.0000000001
 43
0.0000000001
 12
1.0
 22
0.0
 32
0.0
 13
1.0
 23
0.0
 33
0.0
 40
0.0
 40
0.0
 40
0.0
 40
0.0
 40
1.0
 40
1.0
 40
1.0
 40
2.0
 40
2.0
 40
2.0
 40
3.0
 40
3.0
 40
3.0
 40
4.0
 40
4.0
 40
4.0
 40
5.0
 40
5.0
 40
5.0
 40
6.0
 40
6.0
 40
6.0
 40
7.0
 40
7.0
 40
7.0
 40
7.0
 10
67.60448674525166
 20
-131.0838161564652
 30
0.0
 10
67.60448674525166
 20
-131.0838161564652
 30
0.0
 10
66.50016138745482
 20
-131.0838161564652
 30
0.0
 10
66.50016138745482
 20
-131.0838161564652
 30
0.0
 10
66.50016138745482
 20
-131.0838161564652
 30
0.0
 10
66.50016138745482
 20
-131.4138563039521
 30
0.0
 10
66.50016138745482
 20
-131.4138563039521
 30
0.0
 10
66.50016138745482
 20
-131.4138563039521
 30
0.0
 10
66.35219453636334
 20
-131.4138563039521
 30
0.0
 10
66.35219453636334
 20
-131.4138563039521
 30
0.0
 10
66.33738062577677
 20
-131.081749099174
 30
0.0
 10
66.17442760932445
 20
-131.0352403101231
 30
0.0
 10
66.06022269398842
 20
-131.00561248895
 30
0.0
 10
66.06022269398842
 20
-131.00561248895
 30
0.0
 10
66.06022269398842
 20
-130.8595404403754
 30
0.0
 10
66.06022269398842
 20
-130.8595404403754
 30
0.0
 10
66.06022269398842
 20
-130.8595404403754
 30
0.0
 10
67.60448674525166
 20
-130.8595404403754
 30
0.0
 10
67.60448674525166
 20
-130.8595404403754
 30
0.0
 10
67.60448674525166
 20
-130.8595404403754
 30
0.0
 10
67.60448674525166
 20
-131.0838161564652
 30
0.0
 10
67.60448674525166
 20
-131.0838161564652
 30
0.0
  0
HATCH
  5
DD
330
D8
100
AcDbEntity
  8
_U+30EC_U+30A4_U+30E4_U+30FC 1
 62
   179
420
  2234388
100
AcDbHatch
 10
0.0
 20
0.0
 30
0.0
210
0.0
220
0.0
230
1.0
  2
SOLID
 70
     1
 71
     0
 91
        1
 92
        1
 93
        1
 72
     4
 94
        3
 73
     0
 74
     1
 95
       26
 96
       22
 40
0.0
 40
0.0
 40
0.0
 40
0.0
 40
1.0
 40
1.0
 40
1.0
 40
2.0
 40
2.0
 40
2.0
 40
3.0
 40
3.0
 40
3.0
 40
4.0
 40
4.0
 40
4.0
 40
5.0
 40
5.0
 40
5.0
 40
6.0
 40
6.0
 40
6.0
 40
7.0
 40
7.0
 40
7.0
 40
7.0
 10
67.60448674525166
 20
-131.0838161564652
 10
67.60448674525166
 20
-131.0838161564652
 10
66.50016138745482
 20
-131.0838161564652
 10
66.50016138745482
 20
-131.0838161564652
 10
66.50016138745482
 20
-131.0838161564652
 10
66.50016138745482
 20
-131.4138563039521
 10
66.50016138745482
 20
-131.4138563039521
 10
66.50016138745482
 20
-131.4138563039521
 10
66.35219453636334
 20
-131.4138563039521
 10
66.35219453636334
 20
-131.4138563039521
 10
66.33738062577677
 20
-131.081749099174
 10
66.17442760932445
 20
-131.0352403101231
 10
66.06022269398842
 20
-131.00561248895
 10
66.06022269398842
 20
-131.00561248895
 10
66.06022269398842
 20
-130.8595404403754
 10
66.06022269398842
 20
-130.8595404403754
 10
66.06022269398842
 20
-130.8595404403754
 10
67.60448674525166
 20
-130.8595404403754
 10
67.60448674525166
 20
-130.8595404403754
 10
67.60448674525166
 20
-130.8595404403754
 10
67.60448674525166
 20
-131.0838161564652
 10
67.60448674525166
 20
-131.0838161564652
 97
        0
 97
        0
 75
     2
 76
     1
 98
        0
  0
SPLINE
  5
DE
330
D8
100
AcDbEntity
  8
_U+30EC_U+30A4_U+30E4_U+30FC 1
370
     0
100
AcDbSpline
210
0.0
220
0.0
230
1.0
 70
    11
 71
     3
 72
    26
 73
    22
 74
     0
 42
0.0000000001
 43
0.0000000001
 12
1.0
 22
0.0
 32
0.0
 13
1.0
 23
0.0
 33
0.0
 40
0.0
 40
0.0
 40
0.0
 40
0.0
 40
1.0
 40
1.0
 40
1.0
 40
2.0
 40
2.0
 40
2.0
 40
3.0
 40
3.0
 40
3.0
 40
4.0
 40
4.0
 40
4.0
 40
5.0
 40
5.0
 40
5.0
 40
6.0
 40
6.0
 40
6.0
 40
7.0
 40
7.0
 40
7.0
 40
7.0
 10
67.60448674525166
 20
-129.9472791558812
 30
0.0
 10
67.60448674525166
 20
-129.9472791558812
 30
0.0
 10
67.60448674525166
 20
-130.1839572157179
 30
0.0
 10
67.60448674525166
 20
-130.1839572157179
 30
0.0
 10
67.29563393499902
 20
-130.1588080186756
 30
0.0
 10
66.77731931924318
 20
-129.9662271810501
 30
0.0
 10
66.27175155678276
 20
-129.5600504233392
 30
0.0
 10
66.27175155678276
 20
-129.5600504233392
 30
0.0
 10
66.27175155678276
 20
-130.3978976453519
 30
0.0
 10
66.27175155678276
 20
-130.3978976453519
 30
0.0
 10
66.27175155678276
 20
-130.3978976453519
 30
0.0
 10
66.06022269398842
 20
-130.3978976453519
 30
0.0
 10
66.06022269398842
 20
-130.3978976453519
 30
0.0
 10
66.06022269398842
 20
-130.3978976453519
 30
0.0
 10
66.06022269398842
 20
-129.3233723635025
 30
0.0
 10
66.06022269398842
 20
-129.3233723635025
 30
0.0
 10
66.06022269398842
 20
-129.3233723635025
 30
0.0
 10
66.27175155678276
 20
-129.3233723635025
 30
0.0
 10
66.27175155678276
 20
-129.3233723635025
 30
0.0
 10
66.56148408709227
 20
-129.6468668295674
 30
0.0
 10
67.15386825578098
 20
-129.9131727105773
 30
0.0
 10
67.60448674525166
 20
-129.9472791558812
 30
0.0
  0
HATCH
  5
DF
330
D8
100
AcDbEntity
  8
_U+30EC_U+30A4_U+30E4_U+30FC 1
 62
   179
420
  2234388
100
AcDbHatch
 10
0.0
 20
0.0
 30
0.0
210
0.0
220
0.0
230
1.0
  2
SOLID
 70
     1
 71
     0
 91
        1
 92
        1
 93
        1
 72
     4
 94
        3
 73
     0
 74
     1
 95
       26
 96
       22
 40
0.0
 40
0.0
 40
0.0
 40
0.0
 40
1.0
 40
1.0
 40
1.0
 40
2.0
 40
2.0
 40
2.0
 40
3.0
 40
3.0
 40
3.0
 40
4.0
 40
4.0
 40
4.0
 40
5.0
 40
5.0
 40
5.0
 40
6.0
 40
6.0
 40
6.0
 40
7.0
 40
7.0
 40
7.0
 40
7.0
 10
67.60448674525166
 20
-129.9472791558812
 10
67.60448674525166
 20
-129.9472791558812
 10
67.60448674525166
 20
-130.1839572157179
 10
67.60448674525166
 20
-130.1839572157179
 10
67.29563393499902
 20
-130.1588080186756
 10
66.77731931924318
 20
-129.9662271810501
 10
66.27175155678276
 20
-129.5600504233392
 10
66.27175155678276
 20
-129.5600504233392
 10
66.27175155678276
 20
-130.3978976453519
 10
66.27175155678276
 20
-130.3978976453519
 10
66.27175155678276
 20
-130.3978976453519
 10
66.06022269398842
 20
-130.3978976453519
 10
66.06022269398842
 20
-130.3978976453519
 10
66.06022269398842
 20
-130.3978976453519
 10
66.06022269398842
 20
-129.3233723635025
 10
66.06022269398842
 20
-129.3233723635025
 10
66.06022269398842
 20
-129.3233723635025
 10
66.27175155678276
 20
-129.3233723635025
 10
66.27175155678276
 20
-129.3233723635025
 10
66.56148408709227
 20
-129.6468668295674
 10
67.15386825578098
 20
-129.9131727105773
 10
67.60448674525166
 20
-129.9472791558812
 97
        0
 97
        0
 75
     2
 76
     1
 98
        0
  0
ENDBLK
  5
DB
330
D8
100
AcDbEntity
  8
0
100
AcDbBlockEnd
  0
ENDSEC
  0
SECTION
  2
ENTITIES
  0
INSERT
  5
42
330
1F
100
AcDbEntity
  8
_U+30EC_U+30A4_U+30E4_U+30FC 1
100
AcDbBlockReference
  2
block 2
 10
0.0
 20
0.0
 30
0.0
  0
ENDSEC
  0
SECTION
  2
OBJECTS
  0
DICTIONARY
  5
C
330
0
100
AcDbDictionary
281
     1
  3
ACAD_GROUP
350
D
  3
ACAD_LAYOUT
350
1A
  3
ACAD_MATERIAL
350
3B
  3
ACAD_MLEADERSTYLE
350
FC
  3
ACAD_MLINESTYLE
350
17
  3
ACAD_PLOTSETTINGS
350
19
  3
ACAD_PLOTSTYLENAME
350
E
  3
ACAD_TABLESTYLE
350
FB
  3
ACAD_VISUALSTYLE
350
2A
  0
SUN
  5
3F
330
29
100
AcDbSun
 90
        1
290
     0
 63
     7
421
 16777215
 40
1.0
291
     1
 91
  2455826
 92
 54000000
292
     0
 70
     2
 71
   256
280
     1
  0
DICTIONARY
  5
D
102
{ACAD_REACTORS
330
C
102
}
330
C
100
AcDbDictionary
281
     1
  0
DICTIONARY
  5
1A
102
{ACAD_REACTORS
330
C
102
}
330
C
100
AcDbDictionary
281
     1
  3
Layout1
350
1E
  3
Layout2
350
26
  3
Model
350
22
  0
DICTIONARY
  5
3B
102
{ACAD_REACTORS
330
C
102
}
330
C
100
AcDbDictionary
281
     1
  3
ByBlock
350
3D
  3
ByLayer
350
3C
  3
Global
350
3E
  0
DICTIONARY
  5
FC
102
{ACAD_REACTORS
330
C
102
}
330
C
100
AcDbDictionary
281
     1
  0
DICTIONARY
  5
17
102
{ACAD_REACTORS
330
C
102
}
330
C
100
AcDbDictionary
281
     1
  3
Standard
350
18
  0
DICTIONARY
  5
19
102
{ACAD_REACTORS
330
C
102
}
330
C
100
AcDbDictionary
281
     1
  0
ACDBDICTIONARYWDFLT
  5
E
102
{ACAD_REACTORS
330
C
102
}
330
C
100
AcDbDictionary
281
     1
  3
Normal
350
F
100
AcDbDictionaryWithDefault
340
F
  0
DICTIONARY
  5
FB
102
{ACAD_REACTORS
330
C
102
}
330
C
100
AcDbDictionary
281
     1
  0
DICTIONARY
  5
2A
102
{ACAD_REACTORS
330
C
102
}
330
C
100
AcDbDictionary
281
     1
  3
2dWireframe
350
2F
  3
3D Hidden
350
31
  3
3dWireframe
350
30
  3
Basic
350
32
  3
Brighten
350
36
  3
ColorChange
350
3A
  3
Conceptual
350
34
  3
Dim
350
35
  3
Facepattern
350
39
  3
Flat
350
2B
  3
FlatWithEdges
350
2C
  3
Gouraud
350
2D
  3
GouraudWithEdges
350
2E
  3
Linepattern
350
38
  3
Realistic
350
33
  3
Thicken
350
37
  0
LAYOUT
  5
1E
102
{ACAD_REACTORS
330
1A
102
}
330
1A
100
AcDbPlotSettings
  1

  2
none_device
  4

  6

 40
0.0
 41
0.0
 42
0.0
 43
0.0
 44
0.0
 45
0.0
 46
0.0
 47
0.0
 48
0.0
 49
0.0
140
0.0
141
0.0
142
1.0
143
1.0
 70
   688
 72
     0
 73
     0
 74
     5
  7

 75
    16
 76
     0
 77
     2
 78
   300
147
1.0
148
0.0
149
0.0
100
AcDbLayout
  1
Layout1
 70
     1
 71
     1
 10
0.0
 20
0.0
 11
12.0
 21
9.0
 12
0.0
 22
0.0
 32
0.0
 14
1.000000000000000E+20
 24
1.000000000000000E+20
 34
1.000000000000000E+20
 15
-1.000000000000000E+20
 25
-1.000000000000000E+20
 35
-1.000000000000000E+20
146
0.0
 13
0.0
 23
0.0
 33
0.0
 16
1.0
 26
0.0
 36
0.0
 17
0.0
 27
1.0
 37
0.0
 76
     0
330
1B
  0
LAYOUT
  5
26
102
{ACAD_REACTORS
330
1A
102
}
330
1A
100
AcDbPlotSettings
  1

  2
none_device
  4

  6

 40
0.0
 41
0.0
 42
0.0
 43
0.0
 44
0.0
 45
0.0
 46
0.0
 47
0.0
 48
0.0
 49
0.0
140
0.0
141
0.0
142
1.0
143
1.0
 70
   688
 72
     0
 73
     0
 74
     5
  7

 75
    16
 76
     0
 77
     2
 78
   300
147
1.0
148
0.0
149
0.0
100
AcDbLayout
  1
Layout2
 70
     1
 71
     2
 10
0.0
 20
0.0
 11
0.0
 21
0.0
 12
0.0
 22
0.0
 32
0.0
 14
0.0
 24
0.0
 34
0.0
 15
0.0
 25
0.0
 35
0.0
146
0.0
 13
0.0
 23
0.0
 33
0.0
 16
1.0
 26
0.0
 36
0.0
 17
0.0
 27
1.0
 37
0.0
 76
     0
330
23
  0
LAYOUT
  5
22
102
{ACAD_REACTORS
330
1A
102
}
330
1A
100
AcDbPlotSettings
  1

  2
none_device
  4

  6

 40
0.0
 41
0.0
 42
0.0
 43
0.0
 44
0.0
 45
0.0
 46
0.0
 47
0.0
 48
0.0
 49
0.0
140
0.0
141
0.0
142
1.0
143
1.0
 70
  1712
 72
     0
 73
     0
 74
     0
  7

 75
     0
 76
     0
 77
     2
 78
   300
147
1.0
148
0.0
149
0.0
100
AcDbLayout
  1
Model
 70
     1
 71
     0
 10
0.0
 20
0.0
 11
12.0
 21
9.0
 12
0.0
 22
0.0
 32
0.0
 14
1.000000000000000E+20
 24
1.000000000000000E+20
 34
1.000000000000000E+20
 15
-1.000000000000000E+20
 25
-1.000000000000000E+20
 35
-1.000000000000000E+20
146
0.0
 13
0.0
 23
0.0
 33
0.0
 16
1.0
 26
0.0
 36
0.0
 17
0.0
 27
1.0
 37
0.0
 76
     0
330
1F
331
29
  0
MATERIAL
  5
3D
102
{ACAD_REACTORS
330
3B
102
}
330
3B
100
AcDbMaterial
  1
ByBlock
 72
     1
 94
      127
  0
MATERIAL
  5
3C
102
{ACAD_REACTORS
330
3B
102
}
330
3B
100
AcDbMaterial
  1
ByLayer
 72
     1
 94
      127
  0
MATERIAL
  5
3E
102
{ACAD_REACTORS
330
3B
102
}
330
3B
100
AcDbMaterial
  1
Global
 72
     1
 94
      127
  0
MLINESTYLE
  5
18
102
{ACAD_REACTORS
330
17
102
}
330
17
100
AcDbMlineStyle
  2
Standard
 70
     0
  3

 62
   256
 51
90.0
 52
90.0
 71
     2
 49
0.5
 62
   256
  6
BYLAYER
 49
-0.5
 62
   256
  6
BYLAYER
  0
ACDBPLACEHOLDER
  5
F
102
{ACAD_REACTORS
330
E
102
}
330
E
  0
VISUALSTYLE
  5
2F
102
{ACAD_REACTORS
330
2A
102
}
330
2A
100
AcDbVisualStyle
  2
2dWireframe
 70
     4
177
     2
291
     0
 71
     0
176
     1
 72
     2
176
     1
 73
     0
176
     1
 90
        0
176
     1
 40
-0.6
176
     1
 41
-30.0
176
     1
 62
     5
 63
     7
421
 16777215
176
     1
 74
     1
176
     1
 91
        4
176
     1
 64
     7
176
     1
 65
   257
176
     1
 75
     1
176
     1
175
     1
176
     1
 42
1.0
176
     1
 92
        0
176
     1
 66
   257
176
     1
 43
1.0
176
     1
 76
     1
176
     1
 77
     6
176
     1
 78
     2
176
     1
 67
     7
176
     1
 79
     5
176
     1
170
     0
176
     1
171
     0
176
     1
290
     0
176
     1
 93
        1
176
     1
 44
0.0
176
     1
173
     0
176
     1
  0
VISUALSTYLE
  5
31
102
{ACAD_REACTORS
330
2A
102
}
330
2A
100
AcDbVisualStyle
  2
3D Hidden
 70
     6
177
     2
291
     0
 71
     1
176
     1
 72
     2
176
     1
 73
     2
176
     1
 90
        0
176
     1
 40
-0.6
176
     1
 41
-30.0
176
     1
 62
     5
 63
     7
421
 16777215
176
     1
 74
     2
176
     1
 91
        2
176
     1
 64
     7
176
     1
 65
   257
176
     1
 75
     2
176
     1
175
     1
176
     1
 42
40.0
176
     1
 92
        0
176
     1
 66
   257
176
     1
 43
1.0
176
     1
 76
     1
176
     1
 77
     6
176
     1
 78
     2
176
     1
 67
     7
176
     1
 79
     3
176
     1
170
     0
176
     1
171
     0
176
     1
290
     0
176
     1
 93
        1
176
     1
 44
0.0
176
     1
173
     0
176
     1
  0
VISUALSTYLE
  5
30
102
{ACAD_REACTORS
330
2A
102
}
330
2A
100
AcDbVisualStyle
  2
3dWireframe
 70
     5
177
     2
291
     0
 71
     0
176
     1
 72
     2
176
     1
 73
     0
176
     1
 90
        0
176
     1
 40
-0.6
176
     1
 41
-30.0
176
     1
 62
     5
 63
     7
421
 16777215
176
     1
 74
     1
176
     1
 91
        4
176
     1
 64
     7
176
     1
 65
   257
176
     1
 75
     1
176
     1
175
     1
176
     1
 42
1.0
176
     1
 92
        0
176
     1
 66
   257
176
     1
 43
1.0
176
     1
 76
     1
176
     1
 77
     6
176
     1
 78
     2
176
     1
 67
     7
176
     1
 79
     5
176
     1
170
     0
176
     1
171
     0
176
     1
290
     0
176
     1
 93
        1
176
     1
 44
0.0
176
     1
173
     0
176
     1
  0
VISUALSTYLE
  5
32
102
{ACAD_REACTORS
330
2A
102
}
330
2A
100
AcDbVisualStyle
  2
Basic
 70
     7
177
     2
291
     1
 71
     1
176
     1
 72
     0
176
     1
 73
     1
176
     1
 90
        0
176
     1
 40
-0.6
176
     1
 41
-30.0
176
     1
 62
     5
 63
     7
421
 16777215
176
     1
 74
     0
176
     1
 91
        4
176
     1
 64
     7
176
     1
 65
   257
176
     1
 75
     1
176
     1
175
     1
176
     1
 42
1.0
176
     1
 92
        8
176
     1
 66
     7
176
     1
 43
1.0
176
     1
 76
     1
176
     1
 77
     6
176
     1
 78
     2
176
     1
 67
     7
176
     1
 79
     5
176
     1
170
     0
176
     1
171
     0
176
     1
290
     0
176
     1
 93
        1
176
     1
 44
0.0
176
     1
173
     0
176
     1
  0
VISUALSTYLE
  5
36
102
{ACAD_REACTORS
330
2A
102
}
330
2A
100
AcDbVisualStyle
  2
Brighten
 70
    12
177
     2
291
     1
 71
     2
176
     1
 72
     2
176
     1
 73
     0
176
     1
 90
        0
176
     1
 40
-0.6
176
     1
 41
-30.0
176
     1
 62
     5
 63
     7
421
 16777215
176
     1
 74
     1
176
     1
 91
        4
176
     1
 64
     7
176
     1
 65
   257
176
     1
 75
     1
176
     1
175
     1
176
     1
 42
1.0
176
     1
 92
        8
176
     1
 66
     7
176
     1
 43
1.0
176
     1
 76
     1
176
     1
 77
     6
176
     1
 78
     2
176
     1
 67
     7
176
     1
 79
     5
176
     1
170
     0
176
     1
171
     0
176
     1
290
     0
176
     1
 93
        1
176
     1
 44
50.0
176
     1
173
     0
176
     1
  0
VISUALSTYLE
  5
3A
102
{ACAD_REACTORS
330
2A
102
}
330
2A
100
AcDbVisualStyle
  2
ColorChange
 70
    16
177
     2
291
     1
 71
     2
176
     1
 72
     2
176
     1
 73
     3
176
     1
 90
        0
176
     1
 40
-0.6
176
     1
 41
-30.0
176
     1
 62
     5
 63
     8
421
  8421504
176
     1
 74
     1
176
     1
 91
        4
176
     1
 64
     7
176
     1
 65
   257
176
     1
 75
     1
176
     1
175
     1
176
     1
 42
1.0
176
     1
 92
        8
176
     1
 66
     8
424
  8421504
176
     1
 43
1.0
176
     1
 76
     1
176
     1
 77
     6
176
     1
 78
     2
176
     1
 67
     7
176
     1
 79
     5
176
     1
170
     0
176
     1
171
     0
176
     1
290
     0
176
     1
 93
        1
176
     1
 44
0.0
176
     1
173
     0
176
     1
  0
VISUALSTYLE
  5
34
102
{ACAD_REACTORS
330
2A
102
}
330
2A
100
AcDbVisualStyle
  2
Conceptual
 70
     9
177
     2
291
     0
 71
     3
176
     1
 72
     2
176
     1
 73
     0
176
     1
 90
        0
176
     1
 40
-0.6
176
     1
 41
-30.0
176
     1
 62
     5
 63
     7
421
 16777215
176
     1
 74
     2
176
     1
 91
        2
176
     1
 64
     7
176
     1
 65
   257
176
     1
 75
     1
176
     1
175
     1
176
     1
 42
40.0
176
     1
 92
        8
176
     1
 66
     7
176
     1
 43
1.0
176
     1
 76
     1
176
     1
 77
     6
176
     1
 78
     2
176
     1
 67
     7
176
     1
 79
     3
176
     1
170
     0
176
     1
171
     0
176
     1
290
     0
176
     1
 93
        1
176
     1
 44
0.0
176
     1
173
     0
176
     1
  0
VISUALSTYLE
  5
35
102
{ACAD_REACTORS
330
2A
102
}
330
2A
100
AcDbVisualStyle
  2
Dim
 70
    11
177
     2
291
     1
 71
     2
176
     1
 72
     2
176
     1
 73
     0
176
     1
 90
        0
176
     1
 40
-0.6
176
     1
 41
-30.0
176
     1
 62
     5
 63
     7
421
 16777215
176
     1
 74
     1
176
     1
 91
        4
176
     1
 64
     7
176
     1
 65
   257
176
     1
 75
     1
176
     1
175
     1
176
     1
 42
1.0
176
     1
 92
        8
176
     1
 66
     7
176
     1
 43
1.0
176
     1
 76
     1
176
     1
 77
     6
176
     1
 78
     2
176
     1
 67
     7
176
     1
 79
     5
176
     1
170
     0
176
     1
171
     0
176
     1
290
     0
176
     1
 93
        1
176
     1
 44
-50.0
176
     1
173
     0
176
     1
  0
VISUALSTYLE
  5
39
102
{ACAD_REACTORS
330
2A
102
}
330
2A
100
AcDbVisualStyle
  2
Facepattern
 70
    15
177
     2
291
     1
 71
     2
176
     1
 72
     2
176
     1
 73
     0
176
     1
 90
        0
176
     1
 40
-0.6
176
     1
 41
-30.0
176
     1
 62
     5
 63
     7
421
 16777215
176
     1
 74
     1
176
     1
 91
        4
176
     1
 64
     7
176
     1
 65
   257
176
     1
 75
     1
176
     1
175
     1
176
     1
 42
1.0
176
     1
 92
        8
176
     1
 66
     7
176
     1
 43
1.0
176
     1
 76
     1
176
     1
 77
     6
176
     1
 78
     2
176
     1
 67
     7
176
     1
 79
     5
176
     1
170
     0
176
     1
171
     0
176
     1
290
     0
176
     1
 93
        1
176
     1
 44
0.0
176
     1
173
     0
176
     1
  0
VISUALSTYLE
  5
2B
102
{ACAD_REACTORS
330
2A
102
}
330
2A
100
AcDbVisualStyle
  2
Flat
 70
     0
177
     2
291
     1
 71
     2
176
     1
 72
     1
176
     1
 73
     1
176
     1
 90
        2
176
     1
 40
-0.6
176
     1
 41
30.0
176
     1
 62
     5
 63
     7
421
 16777215
176
     1
 74
     0
176
     1
 91
        4
176
     1
 64
     7
176
     1
 65
   257
176
     1
 75
     1
176
     1
175
     1
176
     1
 42
1.0
176
     1
 92
        8
176
     1
 66
     7
176
     1
 43
1.0
176
     1
 76
     1
176
     1
 77
     6
176
     1
 78
     2
176
     1
 67
     7
176
     1
 79
     5
176
     1
170
     0
176
     1
171
     0
176
     1
290
     0
176
     1
 93
       13
176
     1
 44
0.0
176
     1
173
     0
176
     1
  0
VISUALSTYLE
  5
2C
102
{ACAD_REACTORS
330
2A
102
}
330
2A
100
AcDbVisualStyle
  2
FlatWithEdges
 70
     1
177
     2
291
     1
 71
     2
176
     1
 72
     1
176
     1
 73
     1
176
     1
 90
        2
176
     1
 40
-0.6
176
     1
 41
30.0
176
     1
 62
     5
 63
     7
421
 16777215
176
     1
 74
     1
176
     1
 91
        4
176
     1
 64
     7
176
     1
 65
   257
176
     1
 75
     1
176
     1
175
     1
176
     1
 42
1.0
176
     1
 92
        0
176
     1
 66
   257
176
     1
 43
1.0
176
     1
 76
     1
176
     1
 77
     6
176
     1
 78
     2
176
     1
 67
     7
176
     1
 79
     5
176
     1
170
     0
176
     1
171
     0
176
     1
290
     0
176
     1
 93
       13
176
     1
 44
0.0
176
     1
173
     0
176
     1
  0
VISUALSTYLE
  5
2D
102
{ACAD_REACTORS
330
2A
102
}
330
2A
100
AcDbVisualStyle
  2
Gouraud
 70
     2
177
     2
291
     1
 71
     2
176
     1
 72
     2
176
     1
 73
     1
176
     1
 90
        2
176
     1
 40
-0.6
176
     1
 41
30.0
176
     1
 62
     5
 63
     7
421
 16777215
176
     1
 74
     0
176
     1
 91
        4
176
     1
 64
     7
176
     1
 65
   257
176
     1
 75
     1
176
     1
175
     1
176
     1
 42
1.0
176
     1
 92
        0
176
     1
 66
     7
176
     1
 43
1.0
176
     1
 76
     1
176
     1
 77
     6
176
     1
 78
     2
176
     1
 67
     7
176
     1
 79
     5
176
     1
170
     0
176
     1
171
     0
176
     1
290
     0
176
     1
 93
       13
176
     1
 44
0.0
176
     1
173
     0
176
     1
  0
VISUALSTYLE
  5
2E
102
{ACAD_REACTORS
330
2A
102
}
330
2A
100
AcDbVisualStyle
  2
GouraudWithEdges
 70
     3
177
     2
291
     1
 71
     2
176
     1
 72
     2
176
     1
 73
     1
176
     1
 90
        2
176
     1
 40
-0.6
176
     1
 41
30.0
176
     1
 62
     5
 63
     7
421
 16777215
176
     1
 74
     1
176
     1
 91
        4
176
     1
 64
     7
176
     1
 65
   257
176
     1
 75
     1
176
     1
175
     1
176
     1
 42
1.0
176
     1
 92
        0
176
     1
 66
   257
176
     1
 43
1.0
176
     1
 76
     1
176
     1
 77
     6
176
     1
 78
     2
176
     1
 67
     7
176
     1
 79
     5
176
     1
170
     0
176
     1
171
     0
176
     1
290
     0
176
     1
 93
       13
176
     1
 44
0.0
176
     1
173
     0
176
     1
  0
VISUALSTYLE
  5
38
102
{ACAD_REACTORS
330
2A
102
}
330
2A
100
AcDbVisualStyle
  2
Linepattern
 70
    14
177
     2
291
     1
 71
     2
176
     1
 72
     2
176
     1
 73
     0
176
     1
 90
        0
176
     1
 40
-0.6
176
     1
 41
-30.0
176
     1
 62
     5
 63
     7
421
 16777215
176
     1
 74
     1
176
     1
 91
        4
176
     1
 64
     7
176
     1
 65
   257
176
     1
 75
     7
176
     1
175
     7
176
     1
 42
1.0
176
     1
 92
        8
176
     1
 66
     7
176
     1
 43
1.0
176
     1
 76
     1
176
     1
 77
     6
176
     1
 78
     2
176
     1
 67
     7
176
     1
 79
     5
176
     1
170
     0
176
     1
171
     0
176
     1
290
     0
176
     1
 93
        1
176
     1
 44
0.0
176
     1
173
     0
176
     1
  0
VISUALSTYLE
  5
33
102
{ACAD_REACTORS
330
2A
102
}
330
2A
100
AcDbVisualStyle
  2
Realistic
 70
     8
177
     2
291
     0
 71
     2
176
     1
 72
     2
176
     1
 73
     0
176
     1
 90
        0
176
     1
 40
-0.6
176
     1
 41
-30.0
176
     1
 62
     5
 63
     7
421
 16777215
176
     1
 74
     1
176
     1
 91
        0
176
     1
 64
     7
176
     1
 65
   257
176
     1
 75
     1
176
     1
175
     1
176
     1
 42
1.0
176
     1
 92
        8
176
     1
 66
     8
424
  7895160
176
     1
 43
1.0
176
     1
 76
     1
176
     1
 77
     6
176
     1
 78
     2
176
     1
 67
     7
176
     1
 79
     5
176
     1
170
     0
176
     1
171
     0
176
     1
290
     0
176
     1
 93
       13
176
     1
 44
0.0
176
     1
173
     0
176
     1
  0
VISUALSTYLE
  5
37
102
{ACAD_REACTORS
330
2A
102
}
330
2A
100
AcDbVisualStyle
  2
Thicken
 70
    13
177
     2
291
     1
 71
     2
176
     1
 72
     2
176
     1
 73
     0
176
     1
 90
        0
176
     1
 40
-0.6
176
     1
 41
-30.0
176
     1
 62
     5
 63
     7
421
 16777215
176
     1
 74
     1
176
     1
 91
        4
176
     1
 64
     7
176
     1
 65
   257
176
     1
 75
     1
176
     1
175
     1
176
     1
 42
1.0
176
     1
 92
       12
176
     1
 66
     7
176
     1
 43
1.0
176
     1
 76
     1
176
     1
 77
     6
176
     1
 78
     2
176
     1
 67
     7
176
     1
 79
     5
176
     1
170
     0
176
     1
171
     0
176
     1
290
     0
176
     1
 93
        1
176
     1
 44
0.0
176
     1
173
     0
176
     1
  0
ENDSEC
  0
EOF
