  0
SECTION
  2
HEADER
  9
$ACADVER
  1
AC1024
  9
$ACADMAINTVER
 70
     6
  9
$DWGCODEPAGE
  3
UNDEFINED
  9
$INSBASE
 10
0.0
 20
0.0
 30
0.0
  9
$EXTMIN
 10
1.000000000000000E+20
 20
1.000000000000000E+20
 30
1.000000000000000E+20
  9
$EXTMAX
 10
-1.000000000000000E+20
 20
-1.000000000000000E+20
 30
-1.000000000000000E+20
  9
$LIMMIN
 10
0.0
 20
0.0
  9
$LIMMAX
 10
12.0
 20
9.0
  9
$ORTHOMODE
 70
     0
  9
$REGENMODE
 70
     1
  9
$FILLMODE
 70
     1
  9
$QTEXTMODE
 70
     0
  9
$MIRRTEXT
 70
     1
  9
$LTSCALE
 40
1.0
  9
$ATTMODE
 70
     1
  9
$TEXTSIZE
 40
0.2
  9
$TRACEWID
 40
0.05
  9
$TEXTSTYLE
  7
Standard
  9
$CLAYER
  8
0
  9
$CELTYPE
  6
ByLayer
  9
$CECOLOR
 62
   256
  9
$CELTSCALE
 40
1.0
  9
$DISPSILH
 70
     0
  9
$DIMSCALE
 40
1.0
  9
$DIMASZ
 40
0.18
  9
$DIMEXO
 40
0.0625
  9
$DIMDLI
 40
0.38
  9
$DIMRND
 40
0.0
  9
$DIMDLE
 40
0.0
  9
$DIMEXE
 40
0.18
  9
$DIMTP
 40
0.0
  9
$DIMTM
 40
0.0
  9
$DIMTXT
 40
0.18
  9
$DIMCEN
 40
0.09
  9
$DIMTSZ
 40
0.0
  9
$DIMTOL
 70
     0
  9
$DIMLIM
 70
     0
  9
$DIMTIH
 70
     1
  9
$DIMTOH
 70
     1
  9
$DIMSE1
 70
     0
  9
$DIMSE2
 70
     0
  9
$DIMTAD
 70
     0
  9
$DIMZIN
 70
     0
  9
$DIMBLK
  1

  9
$DIMASO
 70
     1
  9
$DIMSHO
 70
     1
  9
$DIMPOST
  1

  9
$DIMAPOST
  1

  9
$DIMALT
 70
     0
  9
$DIMALTD
 70
     2
  9
$DIMALTF
 40
25.4
  9
$DIMLFAC
 40
1.0
  9
$DIMTOFL
 70
     0
  9
$DIMTVP
 40
0.0
  9
$DIMTIX
 70
     0
  9
$DIMSOXD
 70
     0
  9
$DIMSAH
 70
     0
  9
$DIMBLK1
  1

  9
$DIMBLK2
  1

  9
$DIMSTYLE
  2
Standard
  9
$DIMCLRD
 70
     0
  9
$DIMCLRE
 70
     0
  9
$DIMCLRT
 70
     0
  9
$DIMTFAC
 40
1.0
  9
$DIMGAP
 40
0.09
  9
$DIMJUST
 70
     0
  9
$DIMSD1
 70
     0
  9
$DIMSD2
 70
     0
  9
$DIMTOLJ
 70
     1
  9
$DIMTZIN
 70
     0
  9
$DIMALTZ
 70
     0
  9
$DIMALTTZ
 70
     0
  9
$DIMUPT
 70
     0
  9
$DIMDEC
 70
     4
  9
$DIMTDEC
 70
     4
  9
$DIMALTU
 70
     2
  9
$DIMALTTD
 70
     2
  9
$DIMTXSTY
  7
Standard
  9
$DIMAUNIT
 70
     0
  9
$DIMADEC
 70
     0
  9
$DIMALTRND
 40
0.0
  9
$DIMAZIN
 70
     0
  9
$DIMDSEP
 70
    46
  9
$DIMATFIT
 70
     3
  9
$DIMFRAC
 70
     0
  9
$DIMLDRBLK
  1

  9
$DIMLUNIT
 70
     2
  9
$DIMLWD
 70
    -2
  9
$DIMLWE
 70
    -2
  9
$DIMTMOVE
 70
     0
  9
$DIMFXL
 40
1.0
  9
$DIMFXLON
 70
     0
  9
$DIMJOGANG
 40
0.7853981633974483
  9
$DIMTFILL
 70
     0
  9
$DIMTFILLCLR
 70
     0
  9
$DIMARCSYM
 70
     0
  9
$DIMLTYPE
  6

  9
$DIMLTEX1
  6

  9
$DIMLTEX2
  6

  9
$DIMTXTDIRECTION
 70
     0
  9
$LUNITS
 70
     2
  9
$LUPREC
 70
     4
  9
$SKETCHINC
 40
0.1
  9
$FILLETRAD
 40
0.5
  9
$AUNITS
 70
     0
  9
$AUPREC
 70
     0
  9
$MENU
  1
.
  9
$ELEVATION
 40
0.0
  9
$PELEVATION
 40
0.0
  9
$THICKNESS
 40
0.0
  9
$LIMCHECK
 70
     0
  9
$CHAMFERA
 40
0.5
  9
$CHAMFERB
 40
0.5
  9
$CHAMFERC
 40
1.0
  9
$CHAMFERD
 40
0.0
  9
$SKPOLY
 70
     0
  9
$TDCREATE
 40
2457917.61400463
  9
$TDUCREATE
 40
2457917.23900463
  9
$TDUPDATE
 40
2457917.61400463
  9
$TDUUPDATE
 40
2457917.23900463
  9
$TDINDWG
 40
0.0000000116
  9
$TDUSRTIMER
 40
0.0000000116
  9
$USRTIMER
 70
     1
  9
$ANGBASE
 50
0.0
  9
$ANGDIR
 70
     0
  9
$PDMODE
 70
     0
  9
$PDSIZE
 40
0.0
  9
$PLINEWID
 40
0.0
  9
$SPLFRAME
 70
     0
  9
$SPLINETYPE
 70
     6
  9
$SPLINESEGS
 70
     8
  9
$HANDSEED
  5
12D
  9
$SURFTAB1
 70
     6
  9
$SURFTAB2
 70
     6
  9
$SURFTYPE
 70
     6
  9
$SURFU
 70
     6
  9
$SURFV
 70
     6
  9
$UCSBASE
  2

  9
$UCSNAME
  2

  9
$UCSORG
 10
0.0
 20
0.0
 30
0.0
  9
$UCSXDIR
 10
1.0
 20
0.0
 30
0.0
  9
$UCSYDIR
 10
0.0
 20
1.0
 30
0.0
  9
$UCSORTHOREF
  2

  9
$UCSORTHOVIEW
 70
     0
  9
$UCSORGTOP
 10
0.0
 20
0.0
 30
0.0
  9
$UCSORGBOTTOM
 10
0.0
 20
0.0
 30
0.0
  9
$UCSORGLEFT
 10
0.0
 20
0.0
 30
0.0
  9
$UCSORGRIGHT
 10
0.0
 20
0.0
 30
0.0
  9
$UCSORGFRONT
 10
0.0
 20
0.0
 30
0.0
  9
$UCSORGBACK
 10
0.0
 20
0.0
 30
0.0
  9
$PUCSBASE
  2

  9
$PUCSNAME
  2

  9
$PUCSORG
 10
0.0
 20
0.0
 30
0.0
  9
$PUCSXDIR
 10
1.0
 20
0.0
 30
0.0
  9
$PUCSYDIR
 10
0.0
 20
1.0
 30
0.0
  9
$PUCSORTHOREF
  2

  9
$PUCSORTHOVIEW
 70
     0
  9
$PUCSORGTOP
 10
0.0
 20
0.0
 30
0.0
  9
$PUCSORGBOTTOM
 10
0.0
 20
0.0
 30
0.0
  9
$PUCSORGLEFT
 10
0.0
 20
0.0
 30
0.0
  9
$PUCSORGRIGHT
 10
0.0
 20
0.0
 30
0.0
  9
$PUCSORGFRONT
 10
0.0
 20
0.0
 30
0.0
  9
$PUCSORGBACK
 10
0.0
 20
0.0
 30
0.0
  9
$USERI1
 70
     0
  9
$USERI2
 70
     0
  9
$USERI3
 70
     0
  9
$USERI4
 70
     0
  9
$USERI5
 70
     0
  9
$USERR1
 40
0.0
  9
$USERR2
 40
0.0
  9
$USERR3
 40
0.0
  9
$USERR4
 40
0.0
  9
$USERR5
 40
0.0
  9
$WORLDVIEW
 70
     1
  9
$SHADEDGE
 70
     3
  9
$SHADEDIF
 70
    70
  9
$TILEMODE
 70
     1
  9
$MAXACTVP
 70
    64
  9
$PINSBASE
 10
0.0
 20
0.0
 30
0.0
  9
$PLIMCHECK
 70
     0
  9
$PEXTMIN
 10
1.000000000000000E+20
 20
1.000000000000000E+20
 30
1.000000000000000E+20
  9
$PEXTMAX
 10
-1.000000000000000E+20
 20
-1.000000000000000E+20
 30
-1.000000000000000E+20
  9
$PLIMMIN
 10
0.0
 20
0.0
  9
$PLIMMAX
 10
12.0
 20
9.0
  9
$UNITMODE
 70
     0
  9
$VISRETAIN
 70
     1
  9
$PLINEGEN
 70
     0
  9
$PSLTSCALE
 70
     1
  9
$TREEDEPTH
 70
  3020
  9
$CMLSTYLE
  2
Standard
  9
$CMLJUST
 70
     0
  9
$CMLSCALE
 40
1.0
  9
$PROXYGRAPHICS
 70
     1
  9
$MEASUREMENT
 70
     0
  9
$CELWEIGHT
370
    -1
  9
$ENDCAPS
280
     0
  9
$JOINSTYLE
280
     0
  9
$LWDISPLAY
290
     1
  9
$INSUNITS
 70
     1
  9
$HYPERLINKBASE
  1

  9
$STYLESHEET
  1

  9
$XEDIT
290
     1
  9
$CEPSNTYPE
380
     0
  9
$PSTYLEMODE
290
     1
  9
$FINGERPRINTGUID
  2
{C6E712D2-4F8A-B3FA-68E5-2EA553CE5966}
  9
$VERSIONGUID
  2
{FAEB1C32-E019-11D5-929B-00C0DF256EC4}
  9
$EXTNAMES
290
     1
  9
$PSVPSCALE
 40
0.0
  9
$OLESTARTUP
290
     0
  9
$SORTENTS
280
   127
  9
$INDEXCTL
280
     0
  9
$HIDETEXT
280
     1
  9
$XCLIPFRAME
280
     2
  9
$HALOGAP
280
     0
  9
$OBSCOLOR
 70
   257
  9
$OBSLTYPE
280
     0
  9
$INTERSECTIONDISPLAY
280
     0
  9
$INTERSECTIONCOLOR
 70
   257
  9
$DIMASSOC
280
     2
  9
$PROJECTNAME
  1

  9
$CAMERADISPLAY
290
     0
  9
$LENSLENGTH
 40
50.0
  9
$CAMERAHEIGHT
 40
0.0
  9
$STEPSPERSEC
 40
2.0
  9
$STEPSIZE
 40
6.0
  9
$3DDWFPREC
 40
2.0
  9
$PSOLWIDTH
 40
0.25
  9
$PSOLHEIGHT
 40
4.0
  9
$LOFTANG1
 40
1.570796326794897
  9
$LOFTANG2
 40
1.570796326794897
  9
$LOFTMAG1
 40
0.0
  9
$LOFTMAG2
 40
0.0
  9
$LOFTPARAM
 70
     7
  9
$LOFTNORMALS
280
     1
  9
$LATITUDE
 40
37.795
  9
$LONGITUDE
 40
-122.394
  9
$NORTHDIRECTION
 40
0.0
  9
$TIMEZONE
 70
 -8000
  9
$LIGHTGLYPHDISPLAY
280
     1
  9
$TILEMODELIGHTSYNCH
280
     1
  9
$CMATERIAL
347
3C
  9
$SOLIDHIST
280
     1
  9
$SHOWHIST
280
     1
  9
$DWFFRAME
280
     2
  9
$DGNFRAME
280
     2
  9
$REALWORLDSCALE
290
     1
  9
$INTERFERECOLOR
 62
   256
  9
$CSHADOW
280
     0
  9
$SHADOWPLANELOCATION
 40
0.0
  0
ENDSEC
  0
SECTION
  2
CLASSES
  0
CLASS
  1
ACDBDICTIONARYWDFLT
  2
AcDbDictionaryWithDefault
  3
ObjectDBX Classes
 90
        0
 91
        4
280
     0
281
     0
  0
CLASS
  1
VISUALSTYLE
  2
AcDbVisualStyle
  3
ObjectDBX Classes
 90
     4095
 91
        4
280
     0
281
     0
  0
CLASS
  1
MATERIAL
  2
AcDbMaterial
  3
ObjectDBX Classes
 90
     1153
 91
        4
280
     0
281
     0
  0
CLASS
  1
SUN
  2
AcDbSun
  3
SCENEOE
 90
     1024
 91
        4
280
     0
281
     0
  0
ENDSEC
  0
SECTION
  2
TABLES
  0
TABLE
  2
VPORT
  5
8
330
0
100
AcDbSymbolTable
 70
     1
  0
VPORT
  5
29
330
8
100
AcDbSymbolTableRecord
100
AcDbViewportTableRecord
  2
*Active
 70
     0
 10
0.0
 20
0.0
 11
1.0
 21
1.0
 12
0.0
 22
0.0
 13
0.0
 23
0.0
 14
0.5
 24
0.5
 15
0.5
 25
0.5
 16
0.0
 26
0.0
 36
1.0
 17
91.00082462281999
 27
-128.4993055234307
 37
0.0
 40
256.9986110468615
 41
0.7081814508812795
 42
50.0
 43
0.0
 44
0.0
 50
0.0
 51
0.0
 71
     0
 72
   100
 73
     1
 74
     3
 75
     0
 76
     0
 77
     0
 78
     0
281
     0
 65
     1
110
0.0
120
0.0
130
0.0
111
1.0
121
0.0
131
0.0
112
0.0
122
1.0
132
0.0
 79
     0
146
0.0
 60
     3
 61
     5
292
     1
282
     1
141
0.0
142
0.0
 63
   250
361
3F
  0
ENDTAB
  0
TABLE
  2
LTYPE
  5
5
330
0
100
AcDbSymbolTable
 70
     1
  0
LTYPE
  5
14
330
5
100
AcDbSymbolTableRecord
100
AcDbLinetypeTableRecord
  2
ByBlock
 70
     0
  3

 72
    65
 73
     0
 40
0.0
  0
LTYPE
  5
15
330
5
100
AcDbSymbolTableRecord
100
AcDbLinetypeTableRecord
  2
ByLayer
 70
     0
  3

 72
    65
 73
     0
 40
0.0
  0
LTYPE
  5
16
330
5
100
AcDbSymbolTableRecord
100
AcDbLinetypeTableRecord
  2
Continuous
 70
     0
  3
Solid line
 72
    65
 73
     0
 40
0.0
  0
ENDTAB
  0
TABLE
  2
LAYER
  5
2
330
0
100
AcDbSymbolTable
 70
     2
  0
LAYER
  5
10
330
2
100
AcDbSymbolTableRecord
100
AcDbLayerTableRecord
  2
0
 70
     0
 62
     7
  6
Continuous
370
    -3
390
F
347
3E
  0
LAYER
  5
40
330
2
100
AcDbSymbolTableRecord
100
AcDbLayerTableRecord
  2
_U+30EC_U+30A4_U+30E4_U+30FC 1
 70
     0
 62
     7
  6
Continuous
370
    -3
390
F
347
3E
  0
ENDTAB
  0
TABLE
  2
STYLE
  5
3
330
0
100
AcDbSymbolTable
 70
     1
  0
STYLE
  5
11
330
3
100
AcDbSymbolTableRecord
100
AcDbTextStyleTableRecord
  2
Standard
 70
     0
 40
0.0
 41
1.0
 50
0.0
 71
     0
 42
0.2
  3
txt
  4

  0
ENDTAB
  0
TABLE
  2
VIEW
  5
6
330
0
100
AcDbSymbolTable
 70
     0
  0
ENDTAB
  0
TABLE
  2
UCS
  5
7
330
0
100
AcDbSymbolTable
 70
     0
  0
ENDTAB
  0
TABLE
  2
APPID
  5
9
330
0
100
AcDbSymbolTable
 70
     1
  0
APPID
  5
12
330
9
100
AcDbSymbolTableRecord
100
AcDbRegAppTableRecord
  2
ACAD
 70
     0
  0
ENDTAB
  0
TABLE
  2
DIMSTYLE
  5
A
330
0
100
AcDbSymbolTable
 70
     1
100
AcDbDimStyleTable
  0
DIMSTYLE
105
27
330
A
100
AcDbSymbolTableRecord
100
AcDbDimStyleTableRecord
  2
Standard
 70
     0
178
     0
340
11
  0
ENDTAB
  0
TABLE
  2
BLOCK_RECORD
  5
1
330
0
100
AcDbSymbolTable
 70
     9
  0
BLOCK_RECORD
  5
1F
330
1
100
AcDbSymbolTableRecord
100
AcDbBlockTableRecord
  2
*Model_Space
340
22
 70
     0
280
     1
281
     0
  0
BLOCK_RECORD
  5
1B
330
1
100
AcDbSymbolTableRecord
100
AcDbBlockTableRecord
  2
*Paper_Space
340
1E
 70
     0
280
     1
281
     0
  0
BLOCK_RECORD
  5
23
330
1
100
AcDbSymbolTableRecord
100
AcDbBlockTableRecord
  2
*Paper_Space0
340
26
 70
     0
280
     1
281
     0
  0
BLOCK_RECORD
  5
41
330
1
100
AcDbSymbolTableRecord
100
AcDbBlockTableRecord
  2
block 2
340
0
102
{BLKREFS
331
42
102
}
 70
     0
280
     1
281
     0
  0
BLOCK_RECORD
  5
98
330
1
100
AcDbSymbolTableRecord
100
AcDbBlockTableRecord
  2
block 3
340
0
102
{BLKREFS
331
99
102
}
 70
     0
280
     1
281
     0
  0
BLOCK_RECORD
  5
9E
330
1
100
AcDbSymbolTableRecord
100
AcDbBlockTableRecord
  2
block 4
340
0
102
{BLKREFS
331
9F
102
}
 70
     0
280
     1
281
     0
  0
BLOCK_RECORD
  5
CC
330
1
100
AcDbSymbolTableRecord
100
AcDbBlockTableRecord
  2
block 5
340
0
102
{BLKREFS
331
CD
102
}
 70
     0
280
     1
281
     0
  0
BLOCK_RECORD
  5
E1
330
1
100
AcDbSymbolTableRecord
100
AcDbBlockTableRecord
  2
block 6
340
0
102
{BLKREFS
331
E2
102
}
 70
     0
280
     1
281
     0
  0
BLOCK_RECORD
  5
F6
330
1
100
AcDbSymbolTableRecord
100
AcDbBlockTableRecord
  2
block 7
340
0
102
{BLKREFS
331
F7
102
}
 70
     0
280
     1
281
     0
  0
BLOCK_RECORD
  5
10E
330
1
100
AcDbSymbolTableRecord
100
AcDbBlockTableRecord
  2
block 8
340
0
102
{BLKREFS
331
10F
102
}
 70
     0
280
     1
281
     0
  0
BLOCK_RECORD
  5
122
330
1
100
AcDbSymbolTableRecord
100
AcDbBlockTableRecord
  2
block 9
340
0
102
{BLKREFS
331
123
102
}
 70
     0
280
     1
281
     0
  0
ENDTAB
  0
ENDSEC
  0
SECTION
  2
BLOCKS
  0
BLOCK
  5
20
330
1F
100
AcDbEntity
  8
0
100
AcDbBlockBegin
  2
*Model_Space
 70
     0
 10
0.0
 20
0.0
 30
0.0
  3
*Model_Space
  1

  0
ENDBLK
  5
21
330
1F
100
AcDbEntity
  8
0
100
AcDbBlockEnd
  0
BLOCK
  5
1C
330
1B
100
AcDbEntity
 67
     1
  8
0
100
AcDbBlockBegin
  2
*Paper_Space
 70
     0
 10
0.0
 20
0.0
 30
0.0
  3
*Paper_Space
  1

  0
ENDBLK
  5
1D
330
1B
100
AcDbEntity
 67
     1
  8
0
100
AcDbBlockEnd
  0
BLOCK
  5
24
330
23
100
AcDbEntity
  8
0
100
AcDbBlockBegin
  2
*Paper_Space0
 70
     0
 10
0.0
 20
0.0
 30
0.0
  3
*Paper_Space0
  1

  0
ENDBLK
  5
25
330
23
100
AcDbEntity
  8
0
100
AcDbBlockEnd
  0
BLOCK
  5
43
330
41
100
AcDbEntity
  8
0
100
AcDbBlockBegin
  2
block 2
 70
     0
 10
0.0
 20
0.0
 30
0.0
  3
block 2
  1

  0
POLYLINE
  5
45
330
41
100
AcDbEntity
  8
_U+30EC_U+30A4_U+30E4_U+30FC 1
370
     0
100
AcDb2dPolyline
 66
     1
 10
0.0
 20
0.0
 30
0.0
  0
VERTEX
  5
46
330
45
100
AcDbEntity
  8
_U+30EC_U+30A4_U+30E4_U+30FC 1
370
     0
100
AcDbVertex
100
AcDb2dVertex
 10
72.01058566285691
 20
-120.98676163642
 30
0.0
  0
VERTEX
  5
47
330
45
100
AcDbEntity
  8
_U+30EC_U+30A4_U+30E4_U+30FC 1
370
     0
100
AcDbVertex
100
AcDb2dVertex
 10
73.56845228977909
 20
-120.98676163642
 30
0.0
  0
VERTEX
  5
48
330
45
100
AcDbEntity
  8
_U+30EC_U+30A4_U+30E4_U+30FC 1
370
     0
100
AcDbVertex
100
AcDb2dVertex
 10
73.56845228977909
 20
-121.9272671917405
 30
0.0
  0
VERTEX
  5
49
330
45
100
AcDbEntity
  8
_U+30EC_U+30A4_U+30E4_U+30FC 1
370
     0
100
AcDbVertex
100
AcDb2dVertex
 10
73.06891896918991
 20
-121.9272671917405
 30
0.0
  0
VERTEX
  5
4A
330
45
100
AcDbEntity
  8
_U+30EC_U+30A4_U+30E4_U+30FC 1
370
     0
100
AcDbVertex
100
AcDb2dVertex
 10
73.06891896918991
 20
-125.502246635291
 30
0.0
  0
VERTEX
  5
4B
330
45
100
AcDbEntity
  8
_U+30EC_U+30A4_U+30E4_U+30FC 1
370
     0
100
AcDbVertex
100
AcDb2dVertex
 10
106.9646916399256
 20
-125.5315271908395
 30
0.0
  0
VERTEX
  5
4C
330
45
100
AcDbEntity
  8
_U+30EC_U+30A4_U+30E4_U+30FC 1
370
     0
100
AcDbVertex
100
AcDb2dVertex
 10
106.9646916399256
 20
-126.5016660794858
 30
0.0
  0
VERTEX
  5
4D
330
45
100
AcDbEntity
  8
_U+30EC_U+30A4_U+30E4_U+30FC 1
370
     0
100
AcDbVertex
100
AcDb2dVertex
 10
73.06891896918991
 20
-126.5309466350339
 30
0.0
  0
VERTEX
  5
4E
330
45
100
AcDbEntity
  8
_U+30EC_U+30A4_U+30E4_U+30FC 1
370
     0
100
AcDbVertex
100
AcDb2dVertex
 10
73.06891896918991
 20
-140.0658657983167
 30
0.0
  0
VERTEX
  5
4F
330
45
100
AcDbEntity
  8
_U+30EC_U+30A4_U+30E4_U+30FC 1
370
     0
100
AcDbVertex
100
AcDb2dVertex
 10
91.06076386612371
 20
-140.0658657983167
 30
0.0
  0
VERTEX
  5
50
330
45
100
AcDbEntity
  8
_U+30EC_U+30A4_U+30E4_U+30FC 1
370
     0
100
AcDbVertex
100
AcDb2dVertex
 10
91.06076386612371
 20
-139.6841602428565
 30
0.0
  0
VERTEX
  5
51
330
45
100
AcDbEntity
  8
_U+30EC_U+30A4_U+30E4_U+30FC 1
370
     0
100
AcDbVertex
100
AcDb2dVertex
 10
91.97163608811833
 20
-139.6841602428565
 30
0.0
  0
VERTEX
  5
52
330
45
100
AcDbEntity
  8
_U+30EC_U+30A4_U+30E4_U+30FC 1
370
     0
100
AcDbVertex
100
AcDb2dVertex
 10
91.97163608811833
 20
-141.1241991313855
 30
0.0
  0
VERTEX
  5
53
330
45
100
AcDbEntity
  8
_U+30EC_U+30A4_U+30E4_U+30FC 1
370
     0
100
AcDbVertex
100
AcDb2dVertex
 10
72.01058566285691
 20
-141.1241991313855
 30
0.0
  0
VERTEX
  5
54
330
45
100
AcDbEntity
  8
_U+30EC_U+30A4_U+30E4_U+30FC 1
370
     0
100
AcDbVertex
100
AcDb2dVertex
 10
72.01058566285691
 20
-120.98676163642
 30
0.0
  0
SEQEND
  5
56
330
45
100
AcDbEntity
  8
_U+30EC_U+30A4_U+30E4_U+30FC 1
370
     0
  0
HATCH
  5
55
330
41
100
AcDbEntity
  8
_U+30EC_U+30A4_U+30E4_U+30FC 1
 62
   253
420
 11711154
100
AcDbHatch
 10
0.0
 20
0.0
 30
0.0
210
0.0
220
0.0
230
1.0
  2
SOLID
 70
     1
 71
     0
 91
        1
 92
        1
 93
       14
 72
     1
 10
72.01058566285691
 20
-120.98676163642
 11
73.56845228977909
 21
-120.98676163642
 72
     1
 10
73.56845228977909
 20
-120.98676163642
 11
73.56845228977909
 21
-121.9272671917405
 72
     1
 10
73.56845228977909
 20
-121.9272671917405
 11
73.06891896918991
 21
-121.9272671917405
 72
     1
 10
73.06891896918991
 20
-121.9272671917405
 11
73.06891896918991
 21
-125.502246635291
 72
     1
 10
73.06891896918991
 20
-125.502246635291
 11
106.9646916399256
 21
-125.5315271908395
 72
     1
 10
106.9646916399256
 20
-125.5315271908395
 11
106.9646916399256
 21
-126.5016660794858
 72
     1
 10
106.9646916399256
 20
-126.5016660794858
 11
73.06891896918991
 21
-126.5309466350339
 72
     1
 10
73.06891896918991
 20
-126.5309466350339
 11
73.06891896918991
 21
-140.0658657983167
 72
     1
 10
73.06891896918991
 20
-140.0658657983167
 11
91.06076386612371
 21
-140.0658657983167
 72
     1
 10
91.06076386612371
 20
-140.0658657983167
 11
91.06076386612371
 21
-139.6841602428565
 72
     1
 10
91.06076386612371
 20
-139.6841602428565
 11
91.97163608811833
 21
-139.6841602428565
 72
     1
 10
91.97163608811833
 20
-139.6841602428565
 11
91.97163608811833
 21
-141.1241991313855
 72
     1
 10
91.97163608811833
 20
-141.1241991313855
 11
72.01058566285691
 21
-141.1241991313855
 72
     1
 10
72.01058566285691
 20
-141.1241991313855
 11
72.01058566285691
 21
-120.98676163642
 97
        0
 75
     2
 76
     1
 98
        0
  0
POLYLINE
  5
57
330
41
100
AcDbEntity
  8
_U+30EC_U+30A4_U+30E4_U+30FC 1
 62
     7
420
 16777215
370
    25
100
AcDb2dPolyline
 66
     1
 10
0.0
 20
0.0
 30
0.0
  0
VERTEX
  5
58
330
57
100
AcDbEntity
  8
_U+30EC_U+30A4_U+30E4_U+30FC 1
 62
     7
420
 16777215
370
    25
100
AcDbVertex
100
AcDb2dVertex
 10
92.05432487372074
 20
-141.1111110758333
 30
0.0
  0
VERTEX
  5
59
330
57
100
AcDbEntity
  8
_U+30EC_U+30A4_U+30E4_U+30FC 1
 62
     7
420
 16777215
370
    25
100
AcDbVertex
100
AcDb2dVertex
 10
72.05401260619344
 20
-141.1111110758333
 30
0.0
  0
SEQEND
  5
5A
330
57
100
AcDbEntity
  8
_U+30EC_U+30A4_U+30E4_U+30FC 1
 62
     7
420
 16777215
370
    25
  0
POLYLINE
  5
5B
330
41
100
AcDbEntity
  8
_U+30EC_U+30A4_U+30E4_U+30FC 1
 62
     7
420
 16777215
370
    25
100
AcDb2dPolyline
 66
     1
 10
0.0
 20
0.0
 30
0.0
  0
VERTEX
  5
5C
330
5B
100
AcDbEntity
  8
_U+30EC_U+30A4_U+30E4_U+30FC 1
 62
     7
420
 16777215
370
    25
100
AcDbVertex
100
AcDb2dVertex
 10
107.0542592132628
 20
-125.4922630241824
 30
0.0
  0
VERTEX
  5
5D
330
5B
100
AcDbEntity
  8
_U+30EC_U+30A4_U+30E4_U+30FC 1
 62
     7
420
 16777215
370
    25
100
AcDbVertex
100
AcDb2dVertex
 10
107.0542592132628
 20
-126.4923527461546
 30
0.0
  0
SEQEND
  5
5E
330
5B
100
AcDbEntity
  8
_U+30EC_U+30A4_U+30E4_U+30FC 1
 62
     7
420
 16777215
370
    25
  0
POLYLINE
  5
5F
330
41
100
AcDbEntity
  8
_U+30EC_U+30A4_U+30E4_U+30FC 1
 62
     7
420
 16777215
370
    25
100
AcDb2dPolyline
 66
     1
 10
0.0
 20
0.0
 30
0.0
  0
VERTEX
  5
60
330
5F
100
AcDbEntity
  8
_U+30EC_U+30A4_U+30E4_U+30FC 1
 62
     7
420
 16777215
370
    25
100
AcDbVertex
100
AcDb2dVertex
 10
92.05432487372074
 20
-139.6110999650971
 30
0.0
  0
VERTEX
  5
61
330
5F
100
AcDbEntity
  8
_U+30EC_U+30A4_U+30E4_U+30FC 1
 62
     7
420
 16777215
370
    25
100
AcDbVertex
100
AcDb2dVertex
 10
91.05388239924416
 20
-139.6110999650971
 30
0.0
  0
SEQEND
  5
62
330
5F
100
AcDbEntity
  8
_U+30EC_U+30A4_U+30E4_U+30FC 1
 62
     7
420
 16777215
370
    25
  0
POLYLINE
  5
63
330
41
100
AcDbEntity
  8
_U+30EC_U+30A4_U+30E4_U+30FC 1
 62
     7
420
 16777215
370
    25
100
AcDb2dPolyline
 66
     1
 10
0.0
 20
0.0
 30
0.0
  0
VERTEX
  5
64
330
63
100
AcDbEntity
  8
_U+30EC_U+30A4_U+30E4_U+30FC 1
 62
     7
420
 16777215
370
    25
100
AcDbVertex
100
AcDb2dVertex
 10
107.0542592132628
 20
-125.4922630241824
 30
0.0
  0
VERTEX
  5
65
330
63
100
AcDbEntity
  8
_U+30EC_U+30A4_U+30E4_U+30FC 1
 62
     7
420
 16777215
370
    25
100
AcDbVertex
100
AcDb2dVertex
 10
73.05374952513247
 20
-125.4922630241824
 30
0.0
  0
SEQEND
  5
66
330
63
100
AcDbEntity
  8
_U+30EC_U+30A4_U+30E4_U+30FC 1
 62
     7
420
 16777215
370
    25
  0
POLYLINE
  5
67
330
41
100
AcDbEntity
  8
_U+30EC_U+30A4_U+30E4_U+30FC 1
 62
     7
420
 16777215
370
    25
100
AcDb2dPolyline
 66
     1
 10
0.0
 20
0.0
 30
0.0
  0
VERTEX
  5
68
330
67
100
AcDbEntity
  8
_U+30EC_U+30A4_U+30E4_U+30FC 1
 62
     7
420
 16777215
370
    25
100
AcDbVertex
100
AcDb2dVertex
 10
107.0542592132628
 20
-126.4923527461546
 30
0.0
  0
VERTEX
  5
69
330
67
100
AcDbEntity
  8
_U+30EC_U+30A4_U+30E4_U+30FC 1
 62
     7
420
 16777215
370
    25
100
AcDbVertex
100
AcDb2dVertex
 10
73.05374952513247
 20
-126.4923527461546
 30
0.0
  0
SEQEND
  5
6A
330
67
100
AcDbEntity
  8
_U+30EC_U+30A4_U+30E4_U+30FC 1
 62
     7
420
 16777215
370
    25
  0
POLYLINE
  5
6B
330
41
100
AcDbEntity
  8
_U+30EC_U+30A4_U+30E4_U+30FC 1
 62
     7
420
 16777215
370
    25
100
AcDb2dPolyline
 66
     1
 10
0.0
 20
0.0
 30
0.0
  0
VERTEX
  5
6C
330
6B
100
AcDbEntity
  8
_U+30EC_U+30A4_U+30E4_U+30FC 1
 62
     7
420
 16777215
370
    25
100
AcDbVertex
100
AcDb2dVertex
 10
91.05388239924416
 20
-140.1106685760834
 30
0.0
  0
VERTEX
  5
6D
330
6B
100
AcDbEntity
  8
_U+30EC_U+30A4_U+30E4_U+30FC 1
 62
     7
420
 16777215
370
    25
100
AcDbVertex
100
AcDb2dVertex
 10
73.05374952513247
 20
-140.1106685760834
 30
0.0
  0
SEQEND
  5
6E
330
6B
100
AcDbEntity
  8
_U+30EC_U+30A4_U+30E4_U+30FC 1
 62
     7
420
 16777215
370
    25
  0
POLYLINE
  5
6F
330
41
100
AcDbEntity
  8
_U+30EC_U+30A4_U+30E4_U+30FC 1
 62
     7
420
 16777215
370
    25
100
AcDb2dPolyline
 66
     1
 10
0.0
 20
0.0
 30
0.0
  0
VERTEX
  5
70
330
6F
100
AcDbEntity
  8
_U+30EC_U+30A4_U+30E4_U+30FC 1
 62
     7
420
 16777215
370
    25
100
AcDbVertex
100
AcDb2dVertex
 10
92.05432487372074
 20
-139.6110999650971
 30
0.0
  0
VERTEX
  5
71
330
6F
100
AcDbEntity
  8
_U+30EC_U+30A4_U+30E4_U+30FC 1
 62
     7
420
 16777215
370
    25
100
AcDbVertex
100
AcDb2dVertex
 10
92.05432487372074
 20
-141.1111110758333
 30
0.0
  0
SEQEND
  5
72
330
6F
100
AcDbEntity
  8
_U+30EC_U+30A4_U+30E4_U+30FC 1
 62
     7
420
 16777215
370
    25
  0
POLYLINE
  5
73
330
41
100
AcDbEntity
  8
_U+30EC_U+30A4_U+30E4_U+30FC 1
 62
     7
420
 16777215
370
    25
100
AcDb2dPolyline
 66
     1
 10
0.0
 20
0.0
 30
0.0
  0
VERTEX
  5
74
330
73
100
AcDbEntity
  8
_U+30EC_U+30A4_U+30E4_U+30FC 1
 62
     7
420
 16777215
370
    25
100
AcDbVertex
100
AcDb2dVertex
 10
91.05388239924416
 20
-139.6110999650971
 30
0.0
  0
VERTEX
  5
75
330
73
100
AcDbEntity
  8
_U+30EC_U+30A4_U+30E4_U+30FC 1
 62
     7
420
 16777215
370
    25
100
AcDbVertex
100
AcDb2dVertex
 10
91.05388239924416
 20
-140.1106685760834
 30
0.0
  0
SEQEND
  5
76
330
73
100
AcDbEntity
  8
_U+30EC_U+30A4_U+30E4_U+30FC 1
 62
     7
420
 16777215
370
    25
  0
POLYLINE
  5
77
330
41
100
AcDbEntity
  8
_U+30EC_U+30A4_U+30E4_U+30FC 1
 62
     7
420
 16777215
370
    25
100
AcDb2dPolyline
 66
     1
 10
0.0
 20
0.0
 30
0.0
  0
VERTEX
  5
78
330
77
100
AcDbEntity
  8
_U+30EC_U+30A4_U+30E4_U+30FC 1
 62
     7
420
 16777215
370
    25
100
AcDbVertex
100
AcDb2dVertex
 10
73.05374952513247
 20
-126.6105333016806
 30
0.0
  0
VERTEX
  5
79
330
77
100
AcDbEntity
  8
_U+30EC_U+30A4_U+30E4_U+30FC 1
 62
     7
420
 16777215
370
    25
100
AcDbVertex
100
AcDb2dVertex
 10
73.05374952513247
 20
-140.1106685760834
 30
0.0
  0
SEQEND
  5
7A
330
77
100
AcDbEntity
  8
_U+30EC_U+30A4_U+30E4_U+30FC 1
 62
     7
420
 16777215
370
    25
  0
SPLINE
  5
7B
330
41
100
AcDbEntity
  8
_U+30EC_U+30A4_U+30E4_U+30FC 1
 62
     7
420
 16777215
370
     9
100
AcDbSpline
210
0.0
220
0.0
230
1.0
 70
    11
 71
     3
 72
    17
 73
    13
 74
     0
 42
0.0000000001
 43
0.0000000001
 12
1.0
 22
0.0
 32
0.0
 13
1.0
 23
0.0
 33
0.0
 40
0.0
 40
0.0
 40
0.0
 40
0.0
 40
1.0
 40
1.0
 40
1.0
 40
2.0
 40
2.0
 40
2.0
 40
3.0
 40
3.0
 40
3.0
 40
4.0
 40
4.0
 40
4.0
 40
4.0
 10
113.8369762624434
 20
-126.6108860794584
 30
0.0
 10
113.8921154277034
 20
-126.6108860794584
 30
0.0
 10
113.9368829265613
 20
-126.566083301692
 30
0.0
 10
113.9368829265613
 20
-126.5109794128167
 30
0.0
 10
113.9368829265613
 20
-126.455840246164
 30
0.0
 10
113.8921154277034
 20
-126.4110727461751
 30
0.0
 10
113.8369762624434
 20
-126.4110727461751
 30
0.0
 10
113.7818723749604
 20
-126.4110727461751
 30
0.0
 10
113.7370695983256
 20
-126.455840246164
 30
0.0
 10
113.7370695983256
 20
-126.5109794128167
 30
0.0
 10
113.7370695983256
 20
-126.566083301692
 30
0.0
 10
113.7818723749604
 20
-126.6108860794584
 30
0.0
 10
113.8369762624434
 20
-126.6108860794584
 30
0.0
  0
SPLINE
  5
7C
330
41
100
AcDbEntity
  8
_U+30EC_U+30A4_U+30E4_U+30FC 1
 62
     7
420
 16777215
370
     9
100
AcDbSpline
210
0.0
220
0.0
230
1.0
 70
    11
 71
     3
 72
    17
 73
    13
 74
     0
 42
0.0000000001
 43
0.0000000001
 12
1.0
 22
0.0
 32
0.0
 13
1.0
 23
0.0
 33
0.0
 40
0.0
 40
0.0
 40
0.0
 40
0.0
 40
1.0
 40
1.0
 40
1.0
 40
2.0
 40
2.0
 40
2.0
 40
3.0
 40
3.0
 40
3.0
 40
4.0
 40
4.0
 40
4.0
 40
4.0
 10
113.8369762624434
 20
-125.5112071908445
 30
0.0
 10
113.8921154277034
 20
-125.5112071908445
 30
0.0
 10
113.9368829265613
 20
-125.4664044130778
 30
0.0
 10
113.9368829265613
 20
-125.4113005242029
 30
0.0
 10
113.9368829265613
 20
-125.3558438575499
 30
0.0
 10
113.8921154277034
 20
-125.3110410797835
 30
0.0
 10
113.8369762624434
 20
-125.3110410797835
 30
0.0
 10
113.7818723749604
 20
-125.3110410797835
 30
0.0
 10
113.7370695983256
 20
-125.3558438575499
 30
0.0
 10
113.7370695983256
 20
-125.4113005242029
 30
0.0
 10
113.7370695983256
 20
-125.4664044130778
 30
0.0
 10
113.7818723749604
 20
-125.5112071908445
 30
0.0
 10
113.8369762624434
 20
-125.5112071908445
 30
0.0
  0
SPLINE
  5
7D
330
41
100
AcDbEntity
  8
_U+30EC_U+30A4_U+30E4_U+30FC 1
 62
     7
420
 16777215
370
     9
100
AcDbSpline
210
0.0
220
0.0
230
1.0
 70
    11
 71
     3
 72
    17
 73
    13
 74
     0
 42
0.0000000001
 43
0.0000000001
 12
1.0
 22
0.0
 32
0.0
 13
1.0
 23
0.0
 33
0.0
 40
0.0
 40
0.0
 40
0.0
 40
0.0
 40
1.0
 40
1.0
 40
1.0
 40
2.0
 40
2.0
 40
2.0
 40
3.0
 40
3.0
 40
3.0
 40
4.0
 40
4.0
 40
4.0
 40
4.0
 10
113.8369762624434
 20
-139.7103363539614
 30
0.0
 10
113.8921154277034
 20
-139.7103363539614
 30
0.0
 10
113.9368829265613
 20
-139.6655335761946
 30
0.0
 10
113.9368829265613
 20
-139.6104296873197
 30
0.0
 10
113.9368829265613
 20
-139.5552905206667
 30
0.0
 10
113.8921154277034
 20
-139.5105230206781
 30
0.0
 10
113.8369762624434
 20
-139.5105230206781
 30
0.0
 10
113.7818723749604
 20
-139.5105230206781
 30
0.0
 10
113.7370695983256
 20
-139.5552905206667
 30
0.0
 10
113.7370695983256
 20
-139.6104296873197
 30
0.0
 10
113.7370695983256
 20
-139.6655335761946
 30
0.0
 10
113.7818723749604
 20
-139.7103363539614
 30
0.0
 10
113.8369762624434
 20
-139.7103363539614
 30
0.0
  0
SPLINE
  5
7E
330
41
100
AcDbEntity
  8
_U+30EC_U+30A4_U+30E4_U+30FC 1
 62
     7
420
 16777215
370
     9
100
AcDbSpline
210
0.0
220
0.0
230
1.0
 70
    11
 71
     3
 72
    17
 73
    13
 74
     0
 42
0.0000000001
 43
0.0000000001
 12
1.0
 22
0.0
 32
0.0
 13
1.0
 23
0.0
 33
0.0
 40
0.0
 40
0.0
 40
0.0
 40
0.0
 40
1.0
 40
1.0
 40
1.0
 40
2.0
 40
2.0
 40
2.0
 40
3.0
 40
3.0
 40
3.0
 40
4.0
 40
4.0
 40
4.0
 40
4.0
 10
113.8369762624434
 20
-141.1111110758333
 30
0.0
 10
113.8921154277034
 20
-141.1111110758333
 30
0.0
 10
113.9368829265613
 20
-141.0663082980666
 30
0.0
 10
113.9368829265613
 20
-141.0104988536362
 30
0.0
 10
113.9368829265613
 20
-140.9553949647613
 30
0.0
 10
113.8921154277034
 20
-140.9105921869945
 30
0.0
 10
113.8369762624434
 20
-140.9105921869945
 30
0.0
 10
113.7818723749604
 20
-140.9105921869945
 30
0.0
 10
113.7370695983256
 20
-140.9553949647613
 30
0.0
 10
113.7370695983256
 20
-141.0104988536362
 30
0.0
 10
113.7370695983256
 20
-141.0663082980666
 30
0.0
 10
113.7818723749604
 20
-141.1111110758333
 30
0.0
 10
113.8369762624434
 20
-141.1111110758333
 30
0.0
  0
SPLINE
  5
7F
330
41
100
AcDbEntity
  8
_U+30EC_U+30A4_U+30E4_U+30FC 1
 62
     7
420
 16777215
370
     9
100
AcDbSpline
210
0.0
220
0.0
230
1.0
 70
    11
 71
     3
 72
    17
 73
    13
 74
     0
 42
0.0000000001
 43
0.0000000001
 12
1.0
 22
0.0
 32
0.0
 13
1.0
 23
0.0
 33
0.0
 40
0.0
 40
0.0
 40
0.0
 40
0.0
 40
1.0
 40
1.0
 40
1.0
 40
2.0
 40
2.0
 40
2.0
 40
3.0
 40
3.0
 40
3.0
 40
4.0
 40
4.0
 40
4.0
 40
4.0
 10
72.05401260619344
 20
-145.2107769081419
 30
0.0
 10
72.10911649367651
 20
-145.2107769081419
 30
0.0
 10
72.15391927031128
 20
-145.1659741303751
 30
0.0
 10
72.15391927031128
 20
-145.1108702415002
 30
0.0
 10
72.15391927031128
 20
-145.0557310748472
 30
0.0
 10
72.10911649367651
 20
-145.0109635748586
 30
0.0
 10
72.05401260619344
 20
-145.0109635748586
 30
0.0
 10
71.9988734409335
 20
-145.0109635748586
 30
0.0
 10
71.9541059420756
 20
-145.0557310748472
 30
0.0
 10
71.9541059420756
 20
-145.1108702415002
 30
0.0
 10
71.9541059420756
 20
-145.1659741303751
 30
0.0
 10
71.9988734409335
 20
-145.2107769081419
 30
0.0
 10
72.05401260619344
 20
-145.2107769081419
 30
0.0
  0
SPLINE
  5
80
330
41
100
AcDbEntity
  8
_U+30EC_U+30A4_U+30E4_U+30FC 1
 62
     7
420
 16777215
370
     9
100
AcDbSpline
210
0.0
220
0.0
230
1.0
 70
    11
 71
     3
 72
    17
 73
    13
 74
     0
 42
0.0000000001
 43
0.0000000001
 12
1.0
 22
0.0
 32
0.0
 13
1.0
 23
0.0
 33
0.0
 40
0.0
 40
0.0
 40
0.0
 40
0.0
 40
1.0
 40
1.0
 40
1.0
 40
2.0
 40
2.0
 40
2.0
 40
3.0
 40
3.0
 40
3.0
 40
4.0
 40
4.0
 40
4.0
 40
4.0
 10
68.05354798603157
 20
-141.211017742475
 30
0.0
 10
68.1093574290522
 20
-141.211017742475
 30
0.0
 10
68.15416020568696
 20
-141.1662502424864
 30
0.0
 10
68.15416020568696
 20
-141.1111110758333
 30
0.0
 10
68.15416020568696
 20
-141.0560071869584
 30
0.0
 10
68.1093574290522
 20
-141.0112044091917
 30
0.0
 10
68.05354798603157
 20
-141.0112044091917
 30
0.0
 10
67.9984440985485
 20
-141.0112044091917
 30
0.0
 10
67.95364132191374
 20
-141.0560071869584
 30
0.0
 10
67.95364132191374
 20
-141.1111110758333
 30
0.0
 10
67.95364132191374
 20
-141.1662502424864
 30
0.0
 10
67.9984440985485
 20
-141.211017742475
 30
0.0
 10
68.05354798603157
 20
-141.211017742475
 30
0.0
  0
SPLINE
  5
81
330
41
100
AcDbEntity
  8
_U+30EC_U+30A4_U+30E4_U+30FC 1
 62
     7
420
 16777215
370
     9
100
AcDbSpline
210
0.0
220
0.0
230
1.0
 70
    11
 71
     3
 72
    17
 73
    13
 74
     0
 42
0.0000000001
 43
0.0000000001
 12
1.0
 22
0.0
 32
0.0
 13
1.0
 23
0.0
 33
0.0
 40
0.0
 40
0.0
 40
0.0
 40
0.0
 40
1.0
 40
1.0
 40
1.0
 40
2.0
 40
2.0
 40
2.0
 40
3.0
 40
3.0
 40
3.0
 40
4.0
 40
4.0
 40
4.0
 40
4.0
 10
68.05354798603157
 20
-121.3109291363388
 30
0.0
 10
68.1093574290522
 20
-121.3109291363388
 30
0.0
 10
68.15416020568696
 20
-121.2661616363503
 30
0.0
 10
68.15416020568696
 20
-121.2110224696972
 30
0.0
 10
68.15416020568696
 20
-121.1555658030445
 30
0.0
 10
68.1093574290522
 20
-121.1107983030556
 30
0.0
 10
68.05354798603157
 20
-121.1107983030556
 30
0.0
 10
67.9984440985485
 20
-121.1107983030556
 30
0.0
 10
67.95364132191374
 20
-121.1555658030445
 30
0.0
 10
67.95364132191374
 20
-121.2110224696972
 30
0.0
 10
67.95364132191374
 20
-121.2661616363503
 30
0.0
 10
67.9984440985485
 20
-121.3109291363388
 30
0.0
 10
68.05354798603157
 20
-121.3109291363388
 30
0.0
  0
SPLINE
  5
82
330
41
100
AcDbEntity
  8
_U+30EC_U+30A4_U+30E4_U+30FC 1
 62
     7
420
 16777215
370
     9
100
AcDbSpline
210
0.0
220
0.0
230
1.0
 70
    11
 71
     3
 72
    17
 73
    13
 74
     0
 42
0.0000000001
 43
0.0000000001
 12
1.0
 22
0.0
 32
0.0
 13
1.0
 23
0.0
 33
0.0
 40
0.0
 40
0.0
 40
0.0
 40
0.0
 40
1.0
 40
1.0
 40
1.0
 40
2.0
 40
2.0
 40
2.0
 40
3.0
 40
3.0
 40
3.0
 40
4.0
 40
4.0
 40
4.0
 40
4.0
 10
73.65389506537703
 20
-119.5542721923337
 30
0.0
 10
73.70903609268396
 20
-119.5542721923337
 30
0.0
 10
73.75380172949487
 20
-119.5095046923449
 30
0.0
 10
73.75380172949487
 20
-119.4540480256922
 30
0.0
 10
73.75380172949487
 20
-119.3989088590391
 30
0.0
 10
73.70903609268396
 20
-119.3541413590502
 30
0.0
 10
73.65389506537703
 20
-119.3541413590502
 30
0.0
 10
73.59808562235641
 20
-119.3541413590502
 30
0.0
 10
73.5539884012592
 20
-119.3989088590391
 30
0.0
 10
73.5539884012592
 20
-119.4540480256922
 30
0.0
 10
73.5539884012592
 20
-119.5095046923449
 30
0.0
 10
73.59808562235641
 20
-119.5542721923337
 30
0.0
 10
73.65389506537703
 20
-119.5542721923337
 30
0.0
  0
SPLINE
  5
83
330
41
100
AcDbEntity
  8
_U+30EC_U+30A4_U+30E4_U+30FC 1
 62
     7
420
 16777215
370
     9
100
AcDbSpline
210
0.0
220
0.0
230
1.0
 70
    11
 71
     3
 72
    17
 73
    13
 74
     0
 42
0.0000000001
 43
0.0000000001
 12
1.0
 22
0.0
 32
0.0
 13
1.0
 23
0.0
 33
0.0
 40
0.0
 40
0.0
 40
0.0
 40
0.0
 40
1.0
 40
1.0
 40
1.0
 40
2.0
 40
2.0
 40
2.0
 40
3.0
 40
3.0
 40
3.0
 40
4.0
 40
4.0
 40
4.0
 40
4.0
 10
72.05401260619344
 20
-119.5542721923337
 30
0.0
 10
72.10911649367651
 20
-119.5542721923337
 30
0.0
 10
72.15391927031128
 20
-119.5095046923449
 30
0.0
 10
72.15391927031128
 20
-119.4540480256922
 30
0.0
 10
72.15391927031128
 20
-119.3989088590391
 30
0.0
 10
72.10911649367651
 20
-119.3541413590502
 30
0.0
 10
72.05401260619344
 20
-119.3541413590502
 30
0.0
 10
71.9988734409335
 20
-119.3541413590502
 30
0.0
 10
71.9541059420756
 20
-119.3989088590391
 30
0.0
 10
71.9541059420756
 20
-119.4540480256922
 30
0.0
 10
71.9541059420756
 20
-119.5095046923449
 30
0.0
 10
71.9988734409335
 20
-119.5542721923337
 30
0.0
 10
72.05401260619344
 20
-119.5542721923337
 30
0.0
  0
POLYLINE
  5
84
330
41
100
AcDbEntity
  8
_U+30EC_U+30A4_U+30E4_U+30FC 1
 62
     7
420
 16777215
370
     9
100
AcDb2dPolyline
 66
     1
 10
0.0
 20
0.0
 30
0.0
  0
VERTEX
  5
85
330
84
100
AcDbEntity
  8
_U+30EC_U+30A4_U+30E4_U+30FC 1
 62
     7
420
 16777215
370
     9
100
AcDbVertex
100
AcDb2dVertex
 10
113.8369762624434
 20
-141.0104988536362
 30
0.0
  0
VERTEX
  5
86
330
84
100
AcDbEntity
  8
_U+30EC_U+30A4_U+30E4_U+30FC 1
 62
     7
420
 16777215
370
     9
100
AcDbVertex
100
AcDb2dVertex
 10
113.8369762624434
 20
-139.5105230206781
 30
0.0
  0
SEQEND
  5
87
330
84
100
AcDbEntity
  8
_U+30EC_U+30A4_U+30E4_U+30FC 1
 62
     7
420
 16777215
370
     9
  0
POLYLINE
  5
88
330
41
100
AcDbEntity
  8
_U+30EC_U+30A4_U+30E4_U+30FC 1
 62
     7
420
 16777215
370
     9
100
AcDb2dPolyline
 66
     1
 10
0.0
 20
0.0
 30
0.0
  0
VERTEX
  5
89
330
88
100
AcDbEntity
  8
_U+30EC_U+30A4_U+30E4_U+30FC 1
 62
     7
420
 16777215
370
     9
100
AcDbVertex
100
AcDb2dVertex
 10
93.53158178047723
 20
-141.0112044091917
 30
0.0
  0
VERTEX
  5
8A
330
88
100
AcDbEntity
  8
_U+30EC_U+30A4_U+30E4_U+30FC 1
 62
     7
420
 16777215
370
     9
100
AcDbVertex
100
AcDb2dVertex
 10
114.8381242924576
 20
-141.0112044091917
 30
0.0
  0
SEQEND
  5
8B
330
88
100
AcDbEntity
  8
_U+30EC_U+30A4_U+30E4_U+30FC 1
 62
     7
420
 16777215
370
     9
  0
POLYLINE
  5
8C
330
41
100
AcDbEntity
  8
_U+30EC_U+30A4_U+30E4_U+30FC 1
 62
     7
420
 16777215
370
     9
100
AcDb2dPolyline
 66
     1
 10
0.0
 20
0.0
 30
0.0
  0
VERTEX
  5
8D
330
8C
100
AcDbEntity
  8
_U+30EC_U+30A4_U+30E4_U+30FC 1
 62
     7
420
 16777215
370
     9
100
AcDbVertex
100
AcDb2dVertex
 10
93.53158178047723
 20
-139.6110999650971
 30
0.0
  0
VERTEX
  5
8E
330
8C
100
AcDbEntity
  8
_U+30EC_U+30A4_U+30E4_U+30FC 1
 62
     7
420
 16777215
370
     9
100
AcDbVertex
100
AcDb2dVertex
 10
114.8381242924576
 20
-139.6110999650971
 30
0.0
  0
SEQEND
  5
8F
330
8C
100
AcDbEntity
  8
_U+30EC_U+30A4_U+30E4_U+30FC 1
 62
     7
420
 16777215
370
     9
  0
POLYLINE
  5
90
330
41
100
AcDbEntity
  8
_U+30EC_U+30A4_U+30E4_U+30FC 1
 62
     7
420
 16777215
370
     9
100
AcDb2dPolyline
 66
     1
 10
0.0
 20
0.0
 30
0.0
  0
VERTEX
  5
91
330
90
100
AcDbEntity
  8
_U+30EC_U+30A4_U+30E4_U+30FC 1
 62
     7
420
 16777215
370
     9
100
AcDbVertex
100
AcDb2dVertex
 10
113.8369762624434
 20
-125.5112071908445
 30
0.0
  0
VERTEX
  5
92
330
90
100
AcDbEntity
  8
_U+30EC_U+30A4_U+30E4_U+30FC 1
 62
     7
420
 16777215
370
     9
100
AcDbVertex
100
AcDb2dVertex
 10
113.8369762624434
 20
-126.5109794128167
 30
0.0
  0
SEQEND
  5
93
330
90
100
AcDbEntity
  8
_U+30EC_U+30A4_U+30E4_U+30FC 1
 62
     7
420
 16777215
370
     9
  0
POLYLINE
  5
94
330
41
100
AcDbEntity
  8
_U+30EC_U+30A4_U+30E4_U+30FC 1
 62
     7
420
 16777215
370
     9
100
AcDb2dPolyline
 66
     1
 10
0.0
 20
0.0
 30
0.0
  0
VERTEX
  5
95
330
94
100
AcDbEntity
  8
_U+30EC_U+30A4_U+30E4_U+30FC 1
 62
     7
420
 16777215
370
     9
100
AcDbVertex
100
AcDb2dVertex
 10
111.8429704799814
 20
-125.4113005242029
 30
0.0
  0
VERTEX
  5
96
330
94
100
AcDbEntity
  8
_U+30EC_U+30A4_U+30E4_U+30FC 1
 62
     7
420
 16777215
370
     9
100
AcDbVertex
100
AcDb2dVertex
 10
114.8367484591594
 20
-125.4113005242029
 30
0.0
  0
SEQEND
  5
97
330
94
100
AcDbEntity
  8
_U+30EC_U+30A4_U+30E4_U+30FC 1
 62
     7
420
 16777215
370
     9
  0
INSERT
  5
99
330
41
100
AcDbEntity
  8
_U+30EC_U+30A4_U+30E4_U+30FC 1
100
AcDbBlockReference
  2
block 3
 10
0.0
 20
0.0
 30
0.0
  0
INSERT
  5
9F
330
41
100
AcDbEntity
  8
_U+30EC_U+30A4_U+30E4_U+30FC 1
100
AcDbBlockReference
  2
block 4
 10
0.0
 20
0.0
 30
0.0
  0
POLYLINE
  5
AE
330
41
100
AcDbEntity
  8
_U+30EC_U+30A4_U+30E4_U+30FC 1
 62
     7
420
 16777215
370
     9
100
AcDb2dPolyline
 66
     1
 10
0.0
 20
0.0
 30
0.0
  0
VERTEX
  5
AF
330
AE
100
AcDbEntity
  8
_U+30EC_U+30A4_U+30E4_U+30FC 1
 62
     7
420
 16777215
370
     9
100
AcDbVertex
100
AcDb2dVertex
 10
107.1541658773806
 20
-114.6178174713454
 30
0.0
  0
VERTEX
  5
B0
330
AE
100
AcDbEntity
  8
_U+30EC_U+30A4_U+30E4_U+30FC 1
 62
     7
420
 16777215
370
     9
100
AcDbVertex
100
AcDb2dVertex
 10
107.1541658773806
 20
-112.0808513608687
 30
0.0
  0
SEQEND
  5
B1
330
AE
100
AcDbEntity
  8
_U+30EC_U+30A4_U+30E4_U+30FC 1
 62
     7
420
 16777215
370
     9
  0
POLYLINE
  5
B2
330
41
100
AcDbEntity
  8
_U+30EC_U+30A4_U+30E4_U+30FC 1
 62
     7
420
 16777215
370
    25
100
AcDb2dPolyline
 66
     1
 10
0.0
 20
0.0
 30
0.0
  0
VERTEX
  5
B3
330
B2
100
AcDbEntity
  8
_U+30EC_U+30A4_U+30E4_U+30FC 1
 62
     7
420
 16777215
370
    25
100
AcDbVertex
100
AcDb2dVertex
 10
73.5539884012592
 20
-120.9798824697549
 30
0.0
  0
VERTEX
  5
B4
330
B2
100
AcDbEntity
  8
_U+30EC_U+30A4_U+30E4_U+30FC 1
 62
     7
420
 16777215
370
    25
100
AcDbVertex
100
AcDb2dVertex
 10
72.05401260619344
 20
-120.9798824697549
 30
0.0
  0
SEQEND
  5
B5
330
B2
100
AcDbEntity
  8
_U+30EC_U+30A4_U+30E4_U+30FC 1
 62
     7
420
 16777215
370
    25
  0
POLYLINE
  5
B6
330
41
100
AcDbEntity
  8
_U+30EC_U+30A4_U+30E4_U+30FC 1
 62
     7
420
 16777215
370
    25
100
AcDb2dPolyline
 66
     1
 10
0.0
 20
0.0
 30
0.0
  0
VERTEX
  5
B7
330
B6
100
AcDbEntity
  8
_U+30EC_U+30A4_U+30E4_U+30FC 1
 62
     7
420
 16777215
370
    25
100
AcDbVertex
100
AcDb2dVertex
 10
72.05401260619344
 20
-121.0105388586362
 30
0.0
  0
VERTEX
  5
B8
330
B6
100
AcDbEntity
  8
_U+30EC_U+30A4_U+30E4_U+30FC 1
 62
     7
420
 16777215
370
    25
100
AcDbVertex
100
AcDb2dVertex
 10
72.05401260619344
 20
-141.1111110758333
 30
0.0
  0
SEQEND
  5
B9
330
B6
100
AcDbEntity
  8
_U+30EC_U+30A4_U+30E4_U+30FC 1
 62
     7
420
 16777215
370
    25
  0
POLYLINE
  5
BA
330
41
100
AcDbEntity
  8
_U+30EC_U+30A4_U+30E4_U+30FC 1
 62
     7
420
 16777215
370
    25
100
AcDb2dPolyline
 66
     1
 10
0.0
 20
0.0
 30
0.0
  0
VERTEX
  5
BB
330
BA
100
AcDbEntity
  8
_U+30EC_U+30A4_U+30E4_U+30FC 1
 62
     7
420
 16777215
370
    25
100
AcDbVertex
100
AcDb2dVertex
 10
73.05374952513247
 20
-121.9923899695018
 30
0.0
  0
VERTEX
  5
BC
330
BA
100
AcDbEntity
  8
_U+30EC_U+30A4_U+30E4_U+30FC 1
 62
     7
420
 16777215
370
    25
100
AcDbVertex
100
AcDb2dVertex
 10
73.05374952513247
 20
-125.4922630241824
 30
0.0
  0
SEQEND
  5
BD
330
BA
100
AcDbEntity
  8
_U+30EC_U+30A4_U+30E4_U+30FC 1
 62
     7
420
 16777215
370
    25
  0
POLYLINE
  5
BE
330
41
100
AcDbEntity
  8
_U+30EC_U+30A4_U+30E4_U+30FC 1
 62
     7
420
 16777215
370
    25
100
AcDb2dPolyline
 66
     1
 10
0.0
 20
0.0
 30
0.0
  0
VERTEX
  5
BF
330
BE
100
AcDbEntity
  8
_U+30EC_U+30A4_U+30E4_U+30FC 1
 62
     7
420
 16777215
370
    25
100
AcDbVertex
100
AcDb2dVertex
 10
73.5539884012592
 20
-121.9796194139496
 30
0.0
  0
VERTEX
  5
C0
330
BE
100
AcDbEntity
  8
_U+30EC_U+30A4_U+30E4_U+30FC 1
 62
     7
420
 16777215
370
    25
100
AcDbVertex
100
AcDb2dVertex
 10
73.05374952513247
 20
-121.9796194139496
 30
0.0
  0
SEQEND
  5
C1
330
BE
100
AcDbEntity
  8
_U+30EC_U+30A4_U+30E4_U+30FC 1
 62
     7
420
 16777215
370
    25
  0
POLYLINE
  5
C2
330
41
100
AcDbEntity
  8
_U+30EC_U+30A4_U+30E4_U+30FC 1
 62
     7
420
 16777215
370
    25
100
AcDb2dPolyline
 66
     1
 10
0.0
 20
0.0
 30
0.0
  0
VERTEX
  5
C3
330
C2
100
AcDbEntity
  8
_U+30EC_U+30A4_U+30E4_U+30FC 1
 62
     7
420
 16777215
370
    25
100
AcDbVertex
100
AcDb2dVertex
 10
73.5539884012592
 20
-120.9798824697549
 30
0.0
  0
VERTEX
  5
C4
330
C2
100
AcDbEntity
  8
_U+30EC_U+30A4_U+30E4_U+30FC 1
 62
     7
420
 16777215
370
    25
100
AcDbVertex
100
AcDb2dVertex
 10
73.5539884012592
 20
-121.9796194139496
 30
0.0
  0
SEQEND
  5
C5
330
C2
100
AcDbEntity
  8
_U+30EC_U+30A4_U+30E4_U+30FC 1
 62
     7
420
 16777215
370
    25
  0
SPLINE
  5
C6
330
41
100
AcDbEntity
  8
_U+30EC_U+30A4_U+30E4_U+30FC 1
 62
     7
420
 16777215
370
     9
100
AcDbSpline
210
0.0
220
0.0
230
1.0
 70
    11
 71
     3
 72
    17
 73
    13
 74
     0
 42
0.0000000001
 43
0.0000000001
 12
1.0
 22
0.0
 32
0.0
 13
1.0
 23
0.0
 33
0.0
 40
0.0
 40
0.0
 40
0.0
 40
0.0
 40
1.0
 40
1.0
 40
1.0
 40
2.0
 40
2.0
 40
2.0
 40
3.0
 40
3.0
 40
3.0
 40
4.0
 40
4.0
 40
4.0
 40
4.0
 10
72.05401260619344
 20
-113.2576827494634
 30
0.0
 10
72.10911649367651
 20
-113.2576827494634
 30
0.0
 10
72.15391927031128
 20
-113.2129152494745
 30
0.0
 10
72.15391927031128
 20
-113.1577760828217
 30
0.0
 10
72.15391927031128
 20
-113.1026721939465
 30
0.0
 10
72.10911649367651
 20
-113.0578694161801
 30
0.0
 10
72.05401260619344
 20
-113.0578694161801
 30
0.0
 10
71.9988734409335
 20
-113.0578694161801
 30
0.0
 10
71.9541059420756
 20
-113.1026721939465
 30
0.0
 10
71.9541059420756
 20
-113.1577760828217
 30
0.0
 10
71.9541059420756
 20
-113.2129152494745
 30
0.0
 10
71.9988734409335
 20
-113.2576827494634
 30
0.0
 10
72.05401260619344
 20
-113.2576827494634
 30
0.0
  0
SPLINE
  5
C7
330
41
100
AcDbEntity
  8
_U+30EC_U+30A4_U+30E4_U+30FC 1
 62
     7
420
 16777215
370
     9
100
AcDbSpline
210
0.0
220
0.0
230
1.0
 70
    11
 71
     3
 72
    17
 73
    13
 74
     0
 42
0.0000000001
 43
0.0000000001
 12
1.0
 22
0.0
 32
0.0
 13
1.0
 23
0.0
 33
0.0
 40
0.0
 40
0.0
 40
0.0
 40
0.0
 40
1.0
 40
1.0
 40
1.0
 40
2.0
 40
2.0
 40
2.0
 40
3.0
 40
3.0
 40
3.0
 40
4.0
 40
4.0
 40
4.0
 40
4.0
 10
107.1541658773806
 20
-113.2576827494634
 30
0.0
 10
107.2093050426405
 20
-113.2576827494634
 30
0.0
 10
107.2540725414984
 20
-113.2129152494745
 30
0.0
 10
107.2540725414984
 20
-113.1577760828217
 30
0.0
 10
107.2540725414984
 20
-113.1026721939465
 30
0.0
 10
107.2093050426405
 20
-113.0578694161801
 30
0.0
 10
107.1541658773806
 20
-113.0578694161801
 30
0.0
 10
107.09835643436
 20
-113.0578694161801
 30
0.0
 10
107.0542592132628
 20
-113.1026721939465
 30
0.0
 10
107.0542592132628
 20
-113.1577760828217
 30
0.0
 10
107.0542592132628
 20
-113.2129152494745
 30
0.0
 10
107.09835643436
 20
-113.2576827494634
 30
0.0
 10
107.1541658773806
 20
-113.2576827494634
 30
0.0
  0
POLYLINE
  5
C8
330
41
100
AcDbEntity
  8
_U+30EC_U+30A4_U+30E4_U+30FC 1
 62
     7
420
 16777215
370
     9
100
AcDb2dPolyline
 66
     1
 10
0.0
 20
0.0
 30
0.0
  0
VERTEX
  5
C9
330
C8
100
AcDbEntity
  8
_U+30EC_U+30A4_U+30E4_U+30FC 1
 62
     7
420
 16777215
370
     9
100
AcDbVertex
100
AcDb2dVertex
 10
107.0542592132628
 20
-113.1577760828217
 30
0.0
  0
VERTEX
  5
CA
330
C8
100
AcDbEntity
  8
_U+30EC_U+30A4_U+30E4_U+30FC 1
 62
     7
420
 16777215
370
     9
100
AcDbVertex
100
AcDb2dVertex
 10
72.05401260619344
 20
-113.1577760828217
 30
0.0
  0
SEQEND
  5
CB
330
C8
100
AcDbEntity
  8
_U+30EC_U+30A4_U+30E4_U+30FC 1
 62
     7
420
 16777215
370
     9
  0
INSERT
  5
CD
330
41
100
AcDbEntity
  8
_U+30EC_U+30A4_U+30E4_U+30FC 1
100
AcDbBlockReference
  2
block 5
 10
0.0
 20
0.0
 30
0.0
  0
POLYLINE
  5
D4
330
41
100
AcDbEntity
  8
_U+30EC_U+30A4_U+30E4_U+30FC 1
 62
     7
420
 16777215
370
     9
100
AcDb2dPolyline
 66
     1
 10
0.0
 20
0.0
 30
0.0
  0
VERTEX
  5
D5
330
D4
100
AcDbEntity
  8
_U+30EC_U+30A4_U+30E4_U+30FC 1
 62
     7
420
 16777215
370
     9
100
AcDbVertex
100
AcDb2dVertex
 10
72.05401260619344
 20
-145.1108702415002
 30
0.0
  0
VERTEX
  5
D6
330
D4
100
AcDbEntity
  8
_U+30EC_U+30A4_U+30E4_U+30FC 1
 62
     7
420
 16777215
370
     9
100
AcDbVertex
100
AcDb2dVertex
 10
92.05432487372074
 20
-145.1108702415002
 30
0.0
  0
SEQEND
  5
D7
330
D4
100
AcDbEntity
  8
_U+30EC_U+30A4_U+30E4_U+30FC 1
 62
     7
420
 16777215
370
     9
  0
POLYLINE
  5
D8
330
41
100
AcDbEntity
  8
_U+30EC_U+30A4_U+30E4_U+30FC 1
 62
     7
420
 16777215
370
     9
100
AcDb2dPolyline
 66
     1
 10
0.0
 20
0.0
 30
0.0
  0
VERTEX
  5
D9
330
D8
100
AcDbEntity
  8
_U+30EC_U+30A4_U+30E4_U+30FC 1
 62
     7
420
 16777215
370
     9
100
AcDbVertex
100
AcDb2dVertex
 10
72.05401260619344
 20
-143.6508288529759
 30
0.0
  0
VERTEX
  5
DA
330
D8
100
AcDbEntity
  8
_U+30EC_U+30A4_U+30E4_U+30FC 1
 62
     7
420
 16777215
370
     9
100
AcDbVertex
100
AcDb2dVertex
 10
72.05401260619344
 20
-146.1113127412501
 30
0.0
  0
SEQEND
  5
DB
330
D8
100
AcDbEntity
  8
_U+30EC_U+30A4_U+30E4_U+30FC 1
 62
     7
420
 16777215
370
     9
  0
SPLINE
  5
DC
330
41
100
AcDbEntity
  8
_U+30EC_U+30A4_U+30E4_U+30FC 1
 62
     7
420
 16777215
370
     9
100
AcDbSpline
210
0.0
220
0.0
230
1.0
 70
    11
 71
     3
 72
    17
 73
    13
 74
     0
 42
0.0000000001
 43
0.0000000001
 12
1.0
 22
0.0
 32
0.0
 13
1.0
 23
0.0
 33
0.0
 40
0.0
 40
0.0
 40
0.0
 40
0.0
 40
1.0
 40
1.0
 40
1.0
 40
2.0
 40
2.0
 40
2.0
 40
3.0
 40
3.0
 40
3.0
 40
4.0
 40
4.0
 40
4.0
 40
4.0
 10
92.15423153783857
 20
-145.2107769081419
 30
0.0
 10
92.20937070309853
 20
-145.2107769081419
 30
0.0
 10
92.25413820195641
 20
-145.1659741303751
 30
0.0
 10
92.25413820195641
 20
-145.1108702415002
 30
0.0
 10
92.25413820195641
 20
-145.0557310748472
 30
0.0
 10
92.20937070309853
 20
-145.0109635748586
 30
0.0
 10
92.15423153783857
 20
-145.0109635748586
 30
0.0
 10
92.0991276503555
 20
-145.0109635748586
 30
0.0
 10
92.05432487372074
 20
-145.0557310748472
 30
0.0
 10
92.05432487372074
 20
-145.1108702415002
 30
0.0
 10
92.05432487372074
 20
-145.1659741303751
 30
0.0
 10
92.0991276503555
 20
-145.2107769081419
 30
0.0
 10
92.15423153783857
 20
-145.2107769081419
 30
0.0
  0
POLYLINE
  5
DD
330
41
100
AcDbEntity
  8
_U+30EC_U+30A4_U+30E4_U+30FC 1
 62
     7
420
 16777215
370
     9
100
AcDb2dPolyline
 66
     1
 10
0.0
 20
0.0
 30
0.0
  0
VERTEX
  5
DE
330
DD
100
AcDbEntity
  8
_U+30EC_U+30A4_U+30E4_U+30FC 1
 62
     7
420
 16777215
370
     9
100
AcDbVertex
100
AcDb2dVertex
 10
92.15423153783857
 20
-143.6508288529759
 30
0.0
  0
VERTEX
  5
DF
330
DD
100
AcDbEntity
  8
_U+30EC_U+30A4_U+30E4_U+30FC 1
 62
     7
420
 16777215
370
     9
100
AcDbVertex
100
AcDb2dVertex
 10
92.15423153783857
 20
-146.1113127412501
 30
0.0
  0
SEQEND
  5
E0
330
DD
100
AcDbEntity
  8
_U+30EC_U+30A4_U+30E4_U+30FC 1
 62
     7
420
 16777215
370
     9
  0
INSERT
  5
E2
330
41
100
AcDbEntity
  8
_U+30EC_U+30A4_U+30E4_U+30FC 1
100
AcDbBlockReference
  2
block 6
 10
0.0
 20
0.0
 30
0.0
  0
POLYLINE
  5
EA
330
41
100
AcDbEntity
  8
_U+30EC_U+30A4_U+30E4_U+30FC 1
 62
     7
420
 16777215
370
     9
100
AcDb2dPolyline
 66
     1
 10
0.0
 20
0.0
 30
0.0
  0
VERTEX
  5
EB
330
EA
100
AcDbEntity
  8
_U+30EC_U+30A4_U+30E4_U+30FC 1
 62
     7
420
 16777215
370
     9
100
AcDbVertex
100
AcDb2dVertex
 10
73.5539884012592
 20
-119.4540480256922
 30
0.0
  0
VERTEX
  5
EC
330
EA
100
AcDbEntity
  8
_U+30EC_U+30A4_U+30E4_U+30FC 1
 62
     7
420
 16777215
370
     9
100
AcDbVertex
100
AcDb2dVertex
 10
72.05401260619344
 20
-119.4540480256922
 30
0.0
  0
SEQEND
  5
ED
330
EA
100
AcDbEntity
  8
_U+30EC_U+30A4_U+30E4_U+30FC 1
 62
     7
420
 16777215
370
     9
  0
POLYLINE
  5
EE
330
41
100
AcDbEntity
  8
_U+30EC_U+30A4_U+30E4_U+30FC 1
 62
     7
420
 16777215
370
     9
100
AcDb2dPolyline
 66
     1
 10
0.0
 20
0.0
 30
0.0
  0
VERTEX
  5
EF
330
EE
100
AcDbEntity
  8
_U+30EC_U+30A4_U+30E4_U+30FC 1
 62
     7
420
 16777215
370
     9
100
AcDbVertex
100
AcDb2dVertex
 10
73.65389506537703
 20
-117.9943594149459
 30
0.0
  0
VERTEX
  5
F0
330
EE
100
AcDbEntity
  8
_U+30EC_U+30A4_U+30E4_U+30FC 1
 62
     7
420
 16777215
370
     9
100
AcDbVertex
100
AcDb2dVertex
 10
73.65389506537703
 20
-120.4541377476643
 30
0.0
  0
SEQEND
  5
F1
330
EE
100
AcDbEntity
  8
_U+30EC_U+30A4_U+30E4_U+30FC 1
 62
     7
420
 16777215
370
     9
  0
POLYLINE
  5
F2
330
41
100
AcDbEntity
  8
_U+30EC_U+30A4_U+30E4_U+30FC 1
 62
     7
420
 16777215
370
     9
100
AcDb2dPolyline
 66
     1
 10
0.0
 20
0.0
 30
0.0
  0
VERTEX
  5
F3
330
F2
100
AcDbEntity
  8
_U+30EC_U+30A4_U+30E4_U+30FC 1
 62
     7
420
 16777215
370
     9
100
AcDbVertex
100
AcDb2dVertex
 10
72.05468288395411
 20
-112.1018416386413
 30
0.0
  0
VERTEX
  5
F4
330
F2
100
AcDbEntity
  8
_U+30EC_U+30A4_U+30E4_U+30FC 1
 62
     7
420
 16777215
370
     9
100
AcDbVertex
100
AcDb2dVertex
 10
72.05468288395411
 20
-120.4537849698866
 30
0.0
  0
SEQEND
  5
F5
330
F2
100
AcDbEntity
  8
_U+30EC_U+30A4_U+30E4_U+30FC 1
 62
     7
420
 16777215
370
     9
  0
INSERT
  5
F7
330
41
100
AcDbEntity
  8
_U+30EC_U+30A4_U+30E4_U+30FC 1
100
AcDbBlockReference
  2
block 7
 10
0.0
 20
0.0
 30
0.0
  0
POLYLINE
  5
106
330
41
100
AcDbEntity
  8
_U+30EC_U+30A4_U+30E4_U+30FC 1
 62
     7
420
 16777215
370
     9
100
AcDb2dPolyline
 66
     1
 10
0.0
 20
0.0
 30
0.0
  0
VERTEX
  5
107
330
106
100
AcDbEntity
  8
_U+30EC_U+30A4_U+30E4_U+30FC 1
 62
     7
420
 16777215
370
     9
100
AcDbVertex
100
AcDb2dVertex
 10
113.8369762624434
 20
-126.6108860794584
 30
0.0
  0
VERTEX
  5
108
330
106
100
AcDbEntity
  8
_U+30EC_U+30A4_U+30E4_U+30FC 1
 62
     7
420
 16777215
370
     9
100
AcDbVertex
100
AcDb2dVertex
 10
113.8369762624434
 20
-139.6110999650971
 30
0.0
  0
SEQEND
  5
109
330
106
100
AcDbEntity
  8
_U+30EC_U+30A4_U+30E4_U+30FC 1
 62
     7
420
 16777215
370
     9
  0
POLYLINE
  5
10A
330
41
100
AcDbEntity
  8
_U+30EC_U+30A4_U+30E4_U+30FC 1
 62
     7
420
 16777215
370
     9
100
AcDb2dPolyline
 66
     1
 10
0.0
 20
0.0
 30
0.0
  0
VERTEX
  5
10B
330
10A
100
AcDbEntity
  8
_U+30EC_U+30A4_U+30E4_U+30FC 1
 62
     7
420
 16777215
370
     9
100
AcDbVertex
100
AcDb2dVertex
 10
111.8429704799814
 20
-126.5109794128167
 30
0.0
  0
VERTEX
  5
10C
330
10A
100
AcDbEntity
  8
_U+30EC_U+30A4_U+30E4_U+30FC 1
 62
     7
420
 16777215
370
     9
100
AcDbVertex
100
AcDb2dVertex
 10
114.8367484591594
 20
-126.5109794128167
 30
0.0
  0
SEQEND
  5
10D
330
10A
100
AcDbEntity
  8
_U+30EC_U+30A4_U+30E4_U+30FC 1
 62
     7
420
 16777215
370
     9
  0
INSERT
  5
10F
330
41
100
AcDbEntity
  8
_U+30EC_U+30A4_U+30E4_U+30FC 1
100
AcDbBlockReference
  2
block 8
 10
0.0
 20
0.0
 30
0.0
  0
POLYLINE
  5
116
330
41
100
AcDbEntity
  8
_U+30EC_U+30A4_U+30E4_U+30FC 1
 62
     7
420
 16777215
370
     9
100
AcDb2dPolyline
 66
     1
 10
0.0
 20
0.0
 30
0.0
  0
VERTEX
  5
117
330
116
100
AcDbEntity
  8
_U+30EC_U+30A4_U+30E4_U+30FC 1
 62
     7
420
 16777215
370
     9
100
AcDbVertex
100
AcDb2dVertex
 10
68.05354798603157
 20
-121.1107983030556
 30
0.0
  0
VERTEX
  5
118
330
116
100
AcDbEntity
  8
_U+30EC_U+30A4_U+30E4_U+30FC 1
 62
     7
420
 16777215
370
     9
100
AcDbVertex
100
AcDb2dVertex
 10
68.05354798603157
 20
-141.1111110758333
 30
0.0
  0
SEQEND
  5
119
330
116
100
AcDbEntity
  8
_U+30EC_U+30A4_U+30E4_U+30FC 1
 62
     7
420
 16777215
370
     9
  0
POLYLINE
  5
11A
330
41
100
AcDbEntity
  8
_U+30EC_U+30A4_U+30E4_U+30FC 1
 62
     7
420
 16777215
370
     9
100
AcDb2dPolyline
 66
     1
 10
0.0
 20
0.0
 30
0.0
  0
VERTEX
  5
11B
330
11A
100
AcDbEntity
  8
_U+30EC_U+30A4_U+30E4_U+30FC 1
 62
     7
420
 16777215
370
     9
100
AcDbVertex
100
AcDb2dVertex
 10
69.5135893376717
 20
-121.2110224696972
 30
0.0
  0
VERTEX
  5
11C
330
11A
100
AcDbEntity
  8
_U+30EC_U+30A4_U+30E4_U+30FC 1
 62
     7
420
 16777215
370
     9
100
AcDbVertex
100
AcDb2dVertex
 10
67.05359940043127
 20
-121.2110224696972
 30
0.0
  0
SEQEND
  5
11D
330
11A
100
AcDbEntity
  8
_U+30EC_U+30A4_U+30E4_U+30FC 1
 62
     7
420
 16777215
370
     9
  0
POLYLINE
  5
11E
330
41
100
AcDbEntity
  8
_U+30EC_U+30A4_U+30E4_U+30FC 1
 62
     7
420
 16777215
370
     9
100
AcDb2dPolyline
 66
     1
 10
0.0
 20
0.0
 30
0.0
  0
VERTEX
  5
11F
330
11E
100
AcDbEntity
  8
_U+30EC_U+30A4_U+30E4_U+30FC 1
 62
     7
420
 16777215
370
     9
100
AcDbVertex
100
AcDb2dVertex
 10
69.5135893376717
 20
-141.1111110758333
 30
0.0
  0
VERTEX
  5
120
330
11E
100
AcDbEntity
  8
_U+30EC_U+30A4_U+30E4_U+30FC 1
 62
     7
420
 16777215
370
     9
100
AcDbVertex
100
AcDb2dVertex
 10
67.05359940043127
 20
-141.1111110758333
 30
0.0
  0
SEQEND
  5
121
330
11E
100
AcDbEntity
  8
_U+30EC_U+30A4_U+30E4_U+30FC 1
 62
     7
420
 16777215
370
     9
  0
INSERT
  5
123
330
41
100
AcDbEntity
  8
_U+30EC_U+30A4_U+30E4_U+30FC 1
100
AcDbBlockReference
  2
block 9
 10
0.0
 20
0.0
 30
0.0
  0
ENDBLK
  5
44
330
41
100
AcDbEntity
  8
0
100
AcDbBlockEnd
  0
BLOCK
  5
9A
330
98
100
AcDbEntity
  8
0
100
AcDbBlockBegin
  2
block 3
 70
     0
 10
0.0
 20
0.0
 30
0.0
  3
block 3
  1

  0
SPLINE
  5
9C
330
98
100
AcDbEntity
  8
_U+30EC_U+30A4_U+30E4_U+30FC 1
370
     0
100
AcDbSpline
210
0.0
220
0.0
230
1.0
 70
    11
 71
     3
 72
    26
 73
    22
 74
     0
 42
0.0000000001
 43
0.0000000001
 12
1.0
 22
0.0
 32
0.0
 13
1.0
 23
0.0
 33
0.0
 40
0.0
 40
0.0
 40
0.0
 40
0.0
 40
1.0
 40
1.0
 40
1.0
 40
2.0
 40
2.0
 40
2.0
 40
3.0
 40
3.0
 40
3.0
 40
4.0
 40
4.0
 40
4.0
 40
5.0
 40
5.0
 40
5.0
 40
6.0
 40
6.0
 40
6.0
 40
7.0
 40
7.0
 40
7.0
 40
7.0
 10
116.4145995802714
 20
-126.0632785058106
 30
0.0
 10
116.4145995802714
 20
-126.0632785058106
 30
0.0
 10
115.3104464772488
 20
-126.0632785058106
 30
0.0
 10
115.3104464772488
 20
-126.0632785058106
 30
0.0
 10
115.3104464772488
 20
-126.0632785058106
 30
0.0
 10
115.3104464772488
 20
-126.4160562835002
 30
0.0
 10
115.3104464772488
 20
-126.4160562835002
 30
0.0
 10
115.3104464772488
 20
-126.4160562835002
 30
0.0
 10
115.162307371383
 20
-126.4160562835002
 30
0.0
 10
115.162307371383
 20
-126.4160562835002
 30
0.0
 10
115.1474934607965
 20
-126.0610391937452
 30
0.0
 10
114.9845404443441
 20
-126.0112575639833
 30
0.0
 10
114.8701632742339
 20
-125.979562685519
 30
0.0
 10
114.8701632742339
 20
-125.979562685519
 30
0.0
 10
114.8701632742339
 20
-125.8236721148114
 30
0.0
 10
114.8701632742339
 20
-125.8236721148114
 30
0.0
 10
114.8701632742339
 20
-125.8236721148114
 30
0.0
 10
116.4145995802714
 20
-125.8236721148114
 30
0.0
 10
116.4145995802714
 20
-125.8236721148114
 30
0.0
 10
116.4145995802714
 20
-125.8236721148114
 30
0.0
 10
116.4145995802714
 20
-126.0632785058106
 30
0.0
 10
116.4145995802714
 20
-126.0632785058106
 30
0.0
  0
HATCH
  5
9D
330
98
100
AcDbEntity
  8
_U+30EC_U+30A4_U+30E4_U+30FC 1
 62
     7
420
 16777215
100
AcDbHatch
 10
0.0
 20
0.0
 30
0.0
210
0.0
220
0.0
230
1.0
  2
SOLID
 70
     1
 71
     0
 91
        1
 92
        1
 93
        1
 72
     4
 94
        3
 73
     0
 74
     1
 95
       26
 96
       22
 40
0.0
 40
0.0
 40
0.0
 40
0.0
 40
1.0
 40
1.0
 40
1.0
 40
2.0
 40
2.0
 40
2.0
 40
3.0
 40
3.0
 40
3.0
 40
4.0
 40
4.0
 40
4.0
 40
5.0
 40
5.0
 40
5.0
 40
6.0
 40
6.0
 40
6.0
 40
7.0
 40
7.0
 40
7.0
 40
7.0
 10
116.4145995802714
 20
-126.0632785058106
 10
116.4145995802714
 20
-126.0632785058106
 10
115.3104464772488
 20
-126.0632785058106
 10
115.3104464772488
 20
-126.0632785058106
 10
115.3104464772488
 20
-126.0632785058106
 10
115.3104464772488
 20
-126.4160562835002
 10
115.3104464772488
 20
-126.4160562835002
 10
115.3104464772488
 20
-126.4160562835002
 10
115.162307371383
 20
-126.4160562835002
 10
115.162307371383
 20
-126.4160562835002
 10
115.1474934607965
 20
-126.0610391937452
 10
114.9845404443441
 20
-126.0112575639833
 10
114.8701632742339
 20
-125.979562685519
 10
114.8701632742339
 20
-125.979562685519
 10
114.8701632742339
 20
-125.8236721148114
 10
114.8701632742339
 20
-125.8236721148114
 10
114.8701632742339
 20
-125.8236721148114
 10
116.4145995802714
 20
-125.8236721148114
 10
116.4145995802714
 20
-125.8236721148114
 10
116.4145995802714
 20
-125.8236721148114
 10
116.4145995802714
 20
-126.0632785058106
 10
116.4145995802714
 20
-126.0632785058106
 97
        0
 97
        0
 75
     2
 76
     1
 98
        0
  0
ENDBLK
  5
9B
330
98
100
AcDbEntity
  8
0
100
AcDbBlockEnd
  0
BLOCK
  5
A0
330
9E
100
AcDbEntity
  8
0
100
AcDbBlockBegin
  2
block 4
 70
     0
 10
0.0
 20
0.0
 30
0.0
  3
block 4
  1

  0
SPLINE
  5
A2
330
9E
100
AcDbEntity
  8
_U+30EC_U+30A4_U+30E4_U+30FC 1
370
     0
100
AcDbSpline
210
0.0
220
0.0
230
1.0
 70
    11
 71
     3
 72
    26
 73
    22
 74
     0
 42
0.0000000001
 43
0.0000000001
 12
1.0
 22
0.0
 32
0.0
 13
1.0
 23
0.0
 33
0.0
 40
0.0
 40
0.0
 40
0.0
 40
0.0
 40
1.0
 40
1.0
 40
1.0
 40
2.0
 40
2.0
 40
2.0
 40
3.0
 40
3.0
 40
3.0
 40
4.0
 40
4.0
 40
4.0
 40
5.0
 40
5.0
 40
5.0
 40
6.0
 40
6.0
 40
6.0
 40
7.0
 40
7.0
 40
7.0
 40
7.0
 10
116.4145995802714
 20
-143.9515923034218
 30
0.0
 10
116.4145995802714
 20
-143.9515923034218
 30
0.0
 10
115.3104464772488
 20
-143.9515923034218
 30
0.0
 10
115.3104464772488
 20
-143.9515923034218
 30
0.0
 10
115.3104464772488
 20
-143.9515923034218
 30
0.0
 10
115.3104464772488
 20
-144.3040255715629
 30
0.0
 10
115.3104464772488
 20
-144.3040255715629
 30
0.0
 10
115.3104464772488
 20
-144.3040255715629
 30
0.0
 10
115.162307371383
 20
-144.3040255715629
 30
0.0
 10
115.162307371383
 20
-144.3040255715629
 30
0.0
 10
115.1474934607965
 20
-143.9491807365822
 30
0.0
 10
114.9845404443441
 20
-143.8995713615946
 30
0.0
 10
114.8701632742339
 20
-143.8678764831303
 30
0.0
 10
114.8701632742339
 20
-143.8678764831303
 30
0.0
 10
114.8701632742339
 20
-143.7118136576484
 30
0.0
 10
114.8701632742339
 20
-143.7118136576484
 30
0.0
 10
114.8701632742339
 20
-143.7118136576484
 30
0.0
 10
116.4145995802714
 20
-143.7118136576484
 30
0.0
 10
116.4145995802714
 20
-143.7118136576484
 30
0.0
 10
116.4145995802714
 20
-143.7118136576484
 30
0.0
 10
116.4145995802714
 20
-143.9515923034218
 30
0.0
 10
116.4145995802714
 20
-143.9515923034218
 30
0.0
  0
HATCH
  5
A3
330
9E
100
AcDbEntity
  8
_U+30EC_U+30A4_U+30E4_U+30FC 1
 62
     7
420
 16777215
100
AcDbHatch
 10
0.0
 20
0.0
 30
0.0
210
0.0
220
0.0
230
1.0
  2
SOLID
 70
     1
 71
     0
 91
        1
 92
        1
 93
        1
 72
     4
 94
        3
 73
     0
 74
     1
 95
       26
 96
       22
 40
0.0
 40
0.0
 40
0.0
 40
0.0
 40
1.0
 40
1.0
 40
1.0
 40
2.0
 40
2.0
 40
2.0
 40
3.0
 40
3.0
 40
3.0
 40
4.0
 40
4.0
 40
4.0
 40
5.0
 40
5.0
 40
5.0
 40
6.0
 40
6.0
 40
6.0
 40
7.0
 40
7.0
 40
7.0
 40
7.0
 10
116.4145995802714
 20
-143.9515923034218
 10
116.4145995802714
 20
-143.9515923034218
 10
115.3104464772488
 20
-143.9515923034218
 10
115.3104464772488
 20
-143.9515923034218
 10
115.3104464772488
 20
-143.9515923034218
 10
115.3104464772488
 20
-144.3040255715629
 10
115.3104464772488
 20
-144.3040255715629
 10
115.3104464772488
 20
-144.3040255715629
 10
115.162307371383
 20
-144.3040255715629
 10
115.162307371383
 20
-144.3040255715629
 10
115.1474934607965
 20
-143.9491807365822
 10
114.9845404443441
 20
-143.8995713615946
 10
114.8701632742339
 20
-143.8678764831303
 10
114.8701632742339
 20
-143.8678764831303
 10
114.8701632742339
 20
-143.7118136576484
 10
114.8701632742339
 20
-143.7118136576484
 10
114.8701632742339
 20
-143.7118136576484
 10
116.4145995802714
 20
-143.7118136576484
 10
116.4145995802714
 20
-143.7118136576484
 10
116.4145995802714
 20
-143.7118136576484
 10
116.4145995802714
 20
-143.9515923034218
 10
116.4145995802714
 20
-143.9515923034218
 97
        0
 97
        0
 75
     2
 76
     1
 98
        0
  0
POLYLINE
  5
A4
330
9E
100
AcDbEntity
  8
_U+30EC_U+30A4_U+30E4_U+30FC 1
370
     0
100
AcDb2dPolyline
 66
     1
 10
0.0
 20
0.0
 30
0.0
  0
VERTEX
  5
A5
330
A4
100
AcDbEntity
  8
_U+30EC_U+30A4_U+30E4_U+30FC 1
370
     0
100
AcDbVertex
100
AcDb2dVertex
 10
116.4145995802714
 20
-143.1120225336664
 30
0.0
  0
VERTEX
  5
A6
330
A4
100
AcDbEntity
  8
_U+30EC_U+30A4_U+30E4_U+30FC 1
370
     0
100
AcDbVertex
100
AcDb2dVertex
 10
116.1627631002996
 20
-143.1120225336664
 30
0.0
  0
VERTEX
  5
A7
330
A4
100
AcDbEntity
  8
_U+30EC_U+30A4_U+30E4_U+30FC 1
370
     0
100
AcDbVertex
100
AcDb2dVertex
 10
116.1627631002996
 20
-142.8429605762684
 30
0.0
  0
VERTEX
  5
A8
330
A4
100
AcDbEntity
  8
_U+30EC_U+30A4_U+30E4_U+30FC 1
370
     0
100
AcDbVertex
100
AcDb2dVertex
 10
116.4145995802714
 20
-142.8429605762684
 30
0.0
  0
VERTEX
  5
A9
330
A4
100
AcDbEntity
  8
_U+30EC_U+30A4_U+30E4_U+30FC 1
370
     0
100
AcDbVertex
100
AcDb2dVertex
 10
116.4145995802714
 20
-143.1120225336664
 30
0.0
  0
SEQEND
  5
AA
330
A4
100
AcDbEntity
  8
_U+30EC_U+30A4_U+30E4_U+30FC 1
370
     0
  0
HATCH
  5
AB
330
9E
100
AcDbEntity
  8
_U+30EC_U+30A4_U+30E4_U+30FC 1
 62
     7
420
 16777215
100
AcDbHatch
 10
0.0
 20
0.0
 30
0.0
210
0.0
220
0.0
230
1.0
  2
SOLID
 70
     1
 71
     0
 91
        1
 92
        1
 93
        4
 72
     1
 10
116.4145995802714
 20
-143.1120225336664
 11
116.1627631002996
 21
-143.1120225336664
 72
     1
 10
116.1627631002996
 20
-143.1120225336664
 11
116.1627631002996
 21
-142.8429605762684
 72
     1
 10
116.1627631002996
 20
-142.8429605762684
 11
116.4145995802714
 21
-142.8429605762684
 72
     1
 10
116.4145995802714
 20
-142.8429605762684
 11
116.4145995802714
 21
-143.1120225336664
 97
        0
 75
     2
 76
     1
 98
        0
  0
SPLINE
  5
AC
330
9E
100
AcDbEntity
  8
_U+30EC_U+30A4_U+30E4_U+30FC 1
370
     0
100
AcDbSpline
210
0.0
220
0.0
230
1.0
 70
    11
 71
     3
 72
    53
 73
    49
 74
     0
 42
0.0000000001
 43
0.0000000001
 12
1.0
 22
0.0
 32
0.0
 13
1.0
 23
0.0
 33
0.0
 40
0.0
 40
0.0
 40
0.0
 40
0.0
 40
1.0
 40
1.0
 40
1.0
 40
2.0
 40
2.0
 40
2.0
 40
3.0
 40
3.0
 40
3.0
 40
4.0
 40
4.0
 40
4.0
 40
5.0
 40
5.0
 40
5.0
 40
6.0
 40
6.0
 40
6.0
 40
7.0
 40
7.0
 40
7.0
 40
8.0
 40
8.0
 40
8.0
 40
9.0
 40
9.0
 40
9.0
 40
10.0
 40
10.0
 40
10.0
 40
11.0
 40
11.0
 40
11.0
 40
12.0
 40
12.0
 40
12.0
 40
13.0
 40
13.0
 40
13.0
 40
14.0
 40
14.0
 40
14.0
 40
15.0
 40
15.0
 40
15.0
 40
16.0
 40
16.0
 40
16.0
 40
16.0
 10
116.4652424839045
 20
-142.0760823212518
 30
0.0
 10
116.4652424839045
 20
-142.1597981415434
 30
0.0
 10
116.4483615160268
 20
-142.2683186493288
 30
0.0
 10
116.3849717590982
 20
-142.3768391571141
 30
0.0
 10
116.2750732131187
 20
-142.5621852942206
 30
0.0
 10
116.1438150751307
 20
-142.5845784148747
 30
0.0
 10
116.0359835864424
 20
-142.6052489877862
 30
0.0
 10
116.0359835864424
 20
-142.6052489877862
 30
0.0
 10
116.0359835864424
 20
-142.367537399304
 30
0.0
 10
116.0359835864424
 20
-142.367537399304
 30
0.0
 10
116.2347655959413
 20
-142.3089707760547
 30
0.0
 10
116.2643934171145
 20
-142.1732340139359
 30
0.0
 10
116.2643934171145
 20
-142.0736707544121
 30
0.0
 10
116.2643934171145
 20
-141.9244981199008
 30
0.0
 10
116.1648301575907
 20
-141.761889612997
 30
0.0
 10
115.9322862123364
 20
-141.761889612997
 30
0.0
 10
115.6763156177823
 20
-141.761889612997
 30
0.0
 10
115.6063801794317
 20
-141.954125941074
 30
0.0
 10
115.6063801794317
 20
-142.0829725122223
 30
0.0
 10
115.6063801794317
 20
-142.1167344479778
 30
0.0
 10
115.6063801794317
 20
-142.2683186493288
 30
0.0
 10
115.7355712601286
 20
-142.3630587751731
 30
0.0
 10
115.7355712601286
 20
-142.3630587751731
 30
0.0
 10
115.7166232349597
 20
-142.5508164791192
 30
0.0
 10
115.7166232349597
 20
-142.5508164791192
 30
0.0
 10
115.7166232349597
 20
-142.5508164791192
 30
0.0
 10
114.8701632742339
 20
-142.4219699079709
 30
0.0
 10
114.8701632742339
 20
-142.4219699079709
 30
0.0
 10
114.8701632742339
 20
-142.4219699079709
 30
0.0
 10
114.8701632742339
 20
-141.5899793482831
 30
0.0
 10
114.8701632742339
 20
-141.5899793482831
 30
0.0
 10
114.8701632742339
 20
-141.5899793482831
 30
0.0
 10
115.0648111691505
 20
-141.5899793482831
 30
0.0
 10
115.0648111691505
 20
-141.5899793482831
 30
0.0
 10
115.0648111691505
 20
-141.5899793482831
 30
0.0
 10
115.0648111691505
 20
-142.2479925859658
 30
0.0
 10
115.0648111691505
 20
-142.2479925859658
 30
0.0
 10
115.0648111691505
 20
-142.2479925859658
 30
0.0
 10
115.4878688947392
 20
-142.3179280243164
 30
0.0
 10
115.4878688947392
 20
-142.3179280243164
 30
0.0
 10
115.4541069589837
 20
-142.2524712100966
 30
0.0
 10
115.4137993418063
 20
-142.1642767656742
 30
0.0
 10
115.4137993418063
 20
-142.037497251817
 30
0.0
 10
115.4137993418063
 20
-141.7663682371279
 30
0.0
 10
115.6001790075583
 20
-141.513153718962
 30
0.0
 10
115.9133381871675
 20
-141.513153718962
 30
0.0
 10
116.230631481359
 20
-141.513153718962
 30
0.0
 10
116.4652424839045
 20
-141.7525878551868
 30
0.0
 10
116.4652424839045
 20
-142.0760823212518
 30
0.0
  0
HATCH
  5
AD
330
9E
100
AcDbEntity
  8
_U+30EC_U+30A4_U+30E4_U+30FC 1
 62
     7
420
 16777215
100
AcDbHatch
 10
0.0
 20
0.0
 30
0.0
210
0.0
220
0.0
230
1.0
  2
SOLID
 70
     1
 71
     0
 91
        1
 92
        1
 93
        1
 72
     4
 94
        3
 73
     0
 74
     1
 95
       53
 96
       49
 40
0.0
 40
0.0
 40
0.0
 40
0.0
 40
1.0
 40
1.0
 40
1.0
 40
2.0
 40
2.0
 40
2.0
 40
3.0
 40
3.0
 40
3.0
 40
4.0
 40
4.0
 40
4.0
 40
5.0
 40
5.0
 40
5.0
 40
6.0
 40
6.0
 40
6.0
 40
7.0
 40
7.0
 40
7.0
 40
8.0
 40
8.0
 40
8.0
 40
9.0
 40
9.0
 40
9.0
 40
10.0
 40
10.0
 40
10.0
 40
11.0
 40
11.0
 40
11.0
 40
12.0
 40
12.0
 40
12.0
 40
13.0
 40
13.0
 40
13.0
 40
14.0
 40
14.0
 40
14.0
 40
15.0
 40
15.0
 40
15.0
 40
16.0
 40
16.0
 40
16.0
 40
16.0
 10
116.4652424839045
 20
-142.0760823212518
 10
116.4652424839045
 20
-142.1597981415434
 10
116.4483615160268
 20
-142.2683186493288
 10
116.3849717590982
 20
-142.3768391571141
 10
116.2750732131187
 20
-142.5621852942206
 10
116.1438150751307
 20
-142.5845784148747
 10
116.0359835864424
 20
-142.6052489877862
 10
116.0359835864424
 20
-142.6052489877862
 10
116.0359835864424
 20
-142.367537399304
 10
116.0359835864424
 20
-142.367537399304
 10
116.2347655959413
 20
-142.3089707760547
 10
116.2643934171145
 20
-142.1732340139359
 10
116.2643934171145
 20
-142.0736707544121
 10
116.2643934171145
 20
-141.9244981199008
 10
116.1648301575907
 20
-141.761889612997
 10
115.9322862123364
 20
-141.761889612997
 10
115.6763156177823
 20
-141.761889612997
 10
115.6063801794317
 20
-141.954125941074
 10
115.6063801794317
 20
-142.0829725122223
 10
115.6063801794317
 20
-142.1167344479778
 10
115.6063801794317
 20
-142.2683186493288
 10
115.7355712601286
 20
-142.3630587751731
 10
115.7355712601286
 20
-142.3630587751731
 10
115.7166232349597
 20
-142.5508164791192
 10
115.7166232349597
 20
-142.5508164791192
 10
115.7166232349597
 20
-142.5508164791192
 10
114.8701632742339
 20
-142.4219699079709
 10
114.8701632742339
 20
-142.4219699079709
 10
114.8701632742339
 20
-142.4219699079709
 10
114.8701632742339
 20
-141.5899793482831
 10
114.8701632742339
 20
-141.5899793482831
 10
114.8701632742339
 20
-141.5899793482831
 10
115.0648111691505
 20
-141.5899793482831
 10
115.0648111691505
 20
-141.5899793482831
 10
115.0648111691505
 20
-141.5899793482831
 10
115.0648111691505
 20
-142.2479925859658
 10
115.0648111691505
 20
-142.2479925859658
 10
115.0648111691505
 20
-142.2479925859658
 10
115.4878688947392
 20
-142.3179280243164
 10
115.4878688947392
 20
-142.3179280243164
 10
115.4541069589837
 20
-142.2524712100966
 10
115.4137993418063
 20
-142.1642767656742
 10
115.4137993418063
 20
-142.037497251817
 10
115.4137993418063
 20
-141.7663682371279
 10
115.6001790075583
 20
-141.513153718962
 10
115.9133381871675
 20
-141.513153718962
 10
116.230631481359
 20
-141.513153718962
 10
116.4652424839045
 20
-141.7525878551868
 10
116.4652424839045
 20
-142.0760823212518
 97
        0
 97
        0
 75
     2
 76
     1
 98
        0
  0
ENDBLK
  5
A1
330
9E
100
AcDbEntity
  8
0
100
AcDbBlockEnd
  0
BLOCK
  5
CE
330
CC
100
AcDbEntity
  8
0
100
AcDbBlockBegin
  2
block 5
 70
     0
 10
0.0
 20
0.0
 30
0.0
  3
block 5
  1

  0
SPLINE
  5
D0
330
CC
100
AcDbEntity
  8
_U+30EC_U+30A4_U+30E4_U+30FC 1
370
     0
100
AcDbSpline
210
0.0
220
0.0
230
1.0
 70
    11
 71
     3
 72
    62
 73
    58
 74
     0
 42
0.0000000001
 43
0.0000000001
 12
1.0
 22
0.0
 32
0.0
 13
1.0
 23
0.0
 33
0.0
 40
0.0
 40
0.0
 40
0.0
 40
0.0
 40
1.0
 40
1.0
 40
1.0
 40
2.0
 40
2.0
 40
2.0
 40
3.0
 40
3.0
 40
3.0
 40
4.0
 40
4.0
 40
4.0
 40
5.0
 40
5.0
 40
5.0
 40
6.0
 40
6.0
 40
6.0
 40
7.0
 40
7.0
 40
7.0
 40
8.0
 40
8.0
 40
8.0
 40
9.0
 40
9.0
 40
9.0
 40
10.0
 40
10.0
 40
10.0
 40
11.0
 40
11.0
 40
11.0
 40
12.0
 40
12.0
 40
12.0
 40
13.0
 40
13.0
 40
13.0
 40
14.0
 40
14.0
 40
14.0
 40
15.0
 40
15.0
 40
15.0
 40
16.0
 40
16.0
 40
16.0
 40
17.0
 40
17.0
 40
17.0
 40
18.0
 40
18.0
 40
18.0
 40
19.0
 40
19.0
 40
19.0
 40
19.0
 10
88.9151583979101
 20
-112.6120754384268
 30
0.0
 10
88.81352808109523
 20
-112.6120754384268
 30
0.0
 10
88.58063962629234
 20
-112.5908881011926
 30
0.0
 10
88.44731443101317
 20
-112.4046806902148
 30
0.0
 10
88.36807723485244
 20
-112.2925428321699
 30
0.0
 10
88.36359861072161
 20
-112.1931518274205
 30
0.0
 10
88.35911998659078
 20
-112.1085747332576
 30
0.0
 10
88.35911998659078
 20
-112.1085747332576
 30
0.0
 10
88.59407549868482
 20
-112.1085747332576
 30
0.0
 10
88.59407549868482
 20
-112.1085747332576
 30
0.0
 10
88.5964870655245
 20
-112.1826442861905
 30
0.0
 10
88.60785588062582
 20
-112.4174275435102
 30
0.0
 10
88.91067977377928
 20
-112.4174275435102
 30
0.0
 10
89.05778535099945
 20
-112.4174275435102
 30
0.0
 10
89.22039385790323
 20
-112.3476643599339
 30
0.0
 10
89.22039385790323
 20
-112.1190822744876
 30
0.0
 10
89.22039385790323
 20
-112.0028103018604
 30
0.0
 10
89.17974173117729
 20
-111.9540622007441
 30
0.0
 10
89.14597979542184
 20
-111.9223673222798
 30
0.0
 10
89.06674259926109
 20
-111.848297769347
 30
0.0
 10
88.94237465224357
 20
-111.8357231708258
 30
0.0
 10
88.88346351944581
 20
-111.8357231708258
 30
0.0
 10
88.86313745608282
 20
-111.8357231708258
 30
0.0
 10
88.82489689619656
 20
-111.8377902281169
 30
0.0
 10
88.79526907502341
 20
-111.8419243426992
 30
0.0
 10
88.79526907502341
 20
-111.8419243426992
 30
0.0
 10
88.79526907502341
 20
-111.6472764477826
 30
0.0
 10
88.79526907502341
 20
-111.6472764477826
 30
0.0
 10
88.83592120174936
 20
-111.6536498744303
 30
0.0
 10
88.88139646215465
 20
-111.6558891864958
 30
0.0
 10
88.88794214357662
 20
-111.6558891864958
 30
0.0
 10
88.95822209147573
 20
-111.6558891864958
 30
0.0
 10
89.17078448291564
 20
-111.6347018492615
 30
0.0
 10
89.17078448291564
 20
-111.3976792798763
 30
0.0
 10
89.17078448291564
 20
-111.2200846076117
 30
0.0
 10
89.03056909666597
 20
-111.1649630798477
 30
0.0
 10
88.91309134061895
 20
-111.1649630798477
 30
0.0
 10
88.63024900127994
 20
-111.1649630798477
 30
0.0
 10
88.6212917530183
 20
-111.3976792798763
 30
0.0
 10
88.61681312888747
 20
-111.469681775518
 30
0.0
 10
88.61681312888747
 20
-111.469681775518
 30
0.0
 10
88.39977211331673
 20
-111.469681775518
 30
0.0
 10
88.39977211331673
 20
-111.469681775518
 30
0.0
 10
88.40872936157838
 20
-111.3447970641777
 30
0.0
 10
88.438012673203
 20
-110.9682481276399
 30
0.0
 10
88.92652721301143
 20
-110.9682481276399
 30
0.0
 10
89.16630585878481
 20
-110.9682481276399
 30
0.0
 10
89.4239990010815
 20
-111.0951998962713
 30
0.0
 10
89.4239990010815
 20
-111.3913058532286
 30
0.0
 10
89.4239990010815
 20
-111.5775132642063
 30
0.0
 10
89.32202417471811
 20
-111.6600233010781
 30
0.0
 10
89.21591523377242
 20
-111.7213460007155
 30
0.0
 10
89.28137204799216
 20
-111.7489067645975
 30
0.0
 10
89.47601994290878
 20
-111.8293497441781
 30
0.0
 10
89.47601994290878
 20
-112.1065076759664
 30
0.0
 10
89.47601994290878
 20
-112.4449883073922
 30
0.0
 10
89.2114366096416
 20
-112.6120754384268
 30
0.0
 10
88.9151583979101
 20
-112.6120754384268
 30
0.0
  0
HATCH
  5
D1
330
CC
100
AcDbEntity
  8
_U+30EC_U+30A4_U+30E4_U+30FC 1
 62
     7
420
 16777215
100
AcDbHatch
 10
0.0
 20
0.0
 30
0.0
210
0.0
220
0.0
230
1.0
  2
SOLID
 70
     1
 71
     0
 91
        1
 92
        1
 93
        1
 72
     4
 94
        3
 73
     0
 74
     1
 95
       62
 96
       58
 40
0.0
 40
0.0
 40
0.0
 40
0.0
 40
1.0
 40
1.0
 40
1.0
 40
2.0
 40
2.0
 40
2.0
 40
3.0
 40
3.0
 40
3.0
 40
4.0
 40
4.0
 40
4.0
 40
5.0
 40
5.0
 40
5.0
 40
6.0
 40
6.0
 40
6.0
 40
7.0
 40
7.0
 40
7.0
 40
8.0
 40
8.0
 40
8.0
 40
9.0
 40
9.0
 40
9.0
 40
10.0
 40
10.0
 40
10.0
 40
11.0
 40
11.0
 40
11.0
 40
12.0
 40
12.0
 40
12.0
 40
13.0
 40
13.0
 40
13.0
 40
14.0
 40
14.0
 40
14.0
 40
15.0
 40
15.0
 40
15.0
 40
16.0
 40
16.0
 40
16.0
 40
17.0
 40
17.0
 40
17.0
 40
18.0
 40
18.0
 40
18.0
 40
19.0
 40
19.0
 40
19.0
 40
19.0
 10
88.9151583979101
 20
-112.6120754384268
 10
88.81352808109523
 20
-112.6120754384268
 10
88.58063962629234
 20
-112.5908881011926
 10
88.44731443101317
 20
-112.4046806902148
 10
88.36807723485244
 20
-112.2925428321699
 10
88.36359861072161
 20
-112.1931518274205
 10
88.35911998659078
 20
-112.1085747332576
 10
88.35911998659078
 20
-112.1085747332576
 10
88.59407549868482
 20
-112.1085747332576
 10
88.59407549868482
 20
-112.1085747332576
 10
88.5964870655245
 20
-112.1826442861905
 10
88.60785588062582
 20
-112.4174275435102
 10
88.91067977377928
 20
-112.4174275435102
 10
89.05778535099945
 20
-112.4174275435102
 10
89.22039385790323
 20
-112.3476643599339
 10
89.22039385790323
 20
-112.1190822744876
 10
89.22039385790323
 20
-112.0028103018604
 10
89.17974173117729
 20
-111.9540622007441
 10
89.14597979542184
 20
-111.9223673222798
 10
89.06674259926109
 20
-111.848297769347
 10
88.94237465224357
 20
-111.8357231708258
 10
88.88346351944581
 20
-111.8357231708258
 10
88.86313745608282
 20
-111.8357231708258
 10
88.82489689619656
 20
-111.8377902281169
 10
88.79526907502341
 20
-111.8419243426992
 10
88.79526907502341
 20
-111.8419243426992
 10
88.79526907502341
 20
-111.6472764477826
 10
88.79526907502341
 20
-111.6472764477826
 10
88.83592120174936
 20
-111.6536498744303
 10
88.88139646215465
 20
-111.6558891864958
 10
88.88794214357662
 20
-111.6558891864958
 10
88.95822209147573
 20
-111.6558891864958
 10
89.17078448291564
 20
-111.6347018492615
 10
89.17078448291564
 20
-111.3976792798763
 10
89.17078448291564
 20
-111.2200846076117
 10
89.03056909666597
 20
-111.1649630798477
 10
88.91309134061895
 20
-111.1649630798477
 10
88.63024900127994
 20
-111.1649630798477
 10
88.6212917530183
 20
-111.3976792798763
 10
88.61681312888747
 20
-111.469681775518
 10
88.61681312888747
 20
-111.469681775518
 10
88.39977211331673
 20
-111.469681775518
 10
88.39977211331673
 20
-111.469681775518
 10
88.40872936157838
 20
-111.3447970641777
 10
88.438012673203
 20
-110.9682481276399
 10
88.92652721301143
 20
-110.9682481276399
 10
89.16630585878481
 20
-110.9682481276399
 10
89.4239990010815
 20
-111.0951998962713
 10
89.4239990010815
 20
-111.3913058532286
 10
89.4239990010815
 20
-111.5775132642063
 10
89.32202417471811
 20
-111.6600233010781
 10
89.21591523377242
 20
-111.7213460007155
 10
89.28137204799216
 20
-111.7489067645975
 10
89.47601994290878
 20
-111.8293497441781
 10
89.47601994290878
 20
-112.1065076759664
 10
89.47601994290878
 20
-112.4449883073922
 10
89.2114366096416
 20
-112.6120754384268
 10
88.9151583979101
 20
-112.6120754384268
 97
        0
 97
        0
 75
     2
 76
     1
 98
        0
  0
SPLINE
  5
D2
330
CC
100
AcDbEntity
  8
_U+30EC_U+30A4_U+30E4_U+30FC 1
370
     0
100
AcDbSpline
210
0.0
220
0.0
230
1.0
 70
    11
 71
     3
 72
    53
 73
    49
 74
     0
 42
0.0000000001
 43
0.0000000001
 12
1.0
 22
0.0
 32
0.0
 13
1.0
 23
0.0
 33
0.0
 40
0.0
 40
0.0
 40
0.0
 40
0.0
 40
1.0
 40
1.0
 40
1.0
 40
2.0
 40
2.0
 40
2.0
 40
3.0
 40
3.0
 40
3.0
 40
4.0
 40
4.0
 40
4.0
 40
5.0
 40
5.0
 40
5.0
 40
6.0
 40
6.0
 40
6.0
 40
7.0
 40
7.0
 40
7.0
 40
8.0
 40
8.0
 40
8.0
 40
9.0
 40
9.0
 40
9.0
 40
10.0
 40
10.0
 40
10.0
 40
11.0
 40
11.0
 40
11.0
 40
12.0
 40
12.0
 40
12.0
 40
13.0
 40
13.0
 40
13.0
 40
14.0
 40
14.0
 40
14.0
 40
15.0
 40
15.0
 40
15.0
 40
16.0
 40
16.0
 40
16.0
 40
16.0
 10
90.1615939444735
 20
-112.6120754384268
 30
0.0
 10
90.07822263373045
 20
-112.6120754384268
 30
0.0
 10
89.96935761639655
 20
-112.5950222157749
 30
0.0
 10
89.8611816181597
 20
-112.5316324588463
 30
0.0
 10
89.67549097150474
 20
-112.4215616580925
 30
0.0
 10
89.65309785085061
 20
-112.2904757748788
 30
0.0
 10
89.63277178748764
 20
-112.1826442861905
 30
0.0
 10
89.63277178748764
 20
-112.1826442861905
 30
0.0
 10
89.87013886642136
 20
-112.1826442861905
 30
0.0
 10
89.87013886642136
 20
-112.1826442861905
 30
0.0
 10
89.9287054896706
 20
-112.3814262956894
 30
0.0
 10
90.06444225178944
 20
-112.4110541168625
 30
0.0
 10
90.16400551131316
 20
-112.4110541168625
 30
0.0
 10
90.3131781458245
 20
-112.4110541168625
 30
0.0
 10
90.47578665272827
 20
-112.3116631121131
 30
0.0
 10
90.47578665272827
 20
-112.0789469120844
 30
0.0
 10
90.47578665272827
 20
-111.8229763175304
 30
0.0
 10
90.28389483419987
 20
-111.7532131339541
 30
0.0
 10
90.15504826305153
 20
-111.7532131339541
 30
0.0
 10
90.12094181774755
 20
-111.7532131339541
 30
0.0
 10
89.96935761639655
 20
-111.7532131339541
 30
0.0
 10
89.87461749055218
 20
-111.8822319598767
 30
0.0
 10
89.87461749055218
 20
-111.8822319598767
 30
0.0
 10
89.68685978660606
 20
-111.8631116799335
 30
0.0
 10
89.68685978660606
 20
-111.8631116799335
 30
0.0
 10
89.68685978660606
 20
-111.8631116799335
 30
0.0
 10
89.81570635775441
 20
-111.0169962287562
 30
0.0
 10
89.81570635775441
 20
-111.0169962287562
 30
0.0
 10
89.81570635775441
 20
-111.0169962287562
 30
0.0
 10
90.64769691744225
 20
-111.0169962287562
 30
0.0
 10
90.64769691744225
 20
-111.0169962287562
 30
0.0
 10
90.64769691744225
 20
-111.0169962287562
 30
0.0
 10
90.64769691744225
 20
-111.2116441236728
 30
0.0
 10
90.64769691744225
 20
-111.2116441236728
 30
0.0
 10
90.64769691744225
 20
-111.2116441236728
 30
0.0
 10
89.99002818930805
 20
-111.2116441236728
 30
0.0
 10
89.99002818930805
 20
-111.2116441236728
 30
0.0
 10
89.99002818930805
 20
-111.2116441236728
 30
0.0
 10
89.91974824140895
 20
-111.6347018492615
 30
0.0
 10
89.91974824140895
 20
-111.6347018492615
 30
0.0
 10
89.9852050556287
 20
-111.6007676587318
 30
0.0
 10
90.0733995000511
 20
-111.5606322963286
 30
0.0
 10
90.2001790139083
 20
-111.5606322963286
 30
0.0
 10
90.47130802859745
 20
-111.5606322963286
 30
0.0
 10
90.72452254676332
 20
-111.7468397073063
 30
0.0
 10
90.72452254676332
 20
-112.0598266321413
 30
0.0
 10
90.72452254676332
 20
-112.3772921811071
 30
0.0
 10
90.48508841053845
 20
-112.6120754384268
 30
0.0
 10
90.1615939444735
 20
-112.6120754384268
 30
0.0
  0
HATCH
  5
D3
330
CC
100
AcDbEntity
  8
_U+30EC_U+30A4_U+30E4_U+30FC 1
 62
     7
420
 16777215
100
AcDbHatch
 10
0.0
 20
0.0
 30
0.0
210
0.0
220
0.0
230
1.0
  2
SOLID
 70
     1
 71
     0
 91
        1
 92
        1
 93
        1
 72
     4
 94
        3
 73
     0
 74
     1
 95
       53
 96
       49
 40
0.0
 40
0.0
 40
0.0
 40
0.0
 40
1.0
 40
1.0
 40
1.0
 40
2.0
 40
2.0
 40
2.0
 40
3.0
 40
3.0
 40
3.0
 40
4.0
 40
4.0
 40
4.0
 40
5.0
 40
5.0
 40
5.0
 40
6.0
 40
6.0
 40
6.0
 40
7.0
 40
7.0
 40
7.0
 40
8.0
 40
8.0
 40
8.0
 40
9.0
 40
9.0
 40
9.0
 40
10.0
 40
10.0
 40
10.0
 40
11.0
 40
11.0
 40
11.0
 40
12.0
 40
12.0
 40
12.0
 40
13.0
 40
13.0
 40
13.0
 40
14.0
 40
14.0
 40
14.0
 40
15.0
 40
15.0
 40
15.0
 40
16.0
 40
16.0
 40
16.0
 40
16.0
 10
90.1615939444735
 20
-112.6120754384268
 10
90.07822263373045
 20
-112.6120754384268
 10
89.96935761639655
 20
-112.5950222157749
 10
89.8611816181597
 20
-112.5316324588463
 10
89.67549097150474
 20
-112.4215616580925
 10
89.65309785085061
 20
-112.2904757748788
 10
89.63277178748764
 20
-112.1826442861905
 10
89.63277178748764
 20
-112.1826442861905
 10
89.87013886642136
 20
-112.1826442861905
 10
89.87013886642136
 20
-112.1826442861905
 10
89.9287054896706
 20
-112.3814262956894
 10
90.06444225178944
 20
-112.4110541168625
 10
90.16400551131316
 20
-112.4110541168625
 10
90.3131781458245
 20
-112.4110541168625
 10
90.47578665272827
 20
-112.3116631121131
 10
90.47578665272827
 20
-112.0789469120844
 10
90.47578665272827
 20
-111.8229763175304
 10
90.28389483419987
 20
-111.7532131339541
 10
90.15504826305153
 20
-111.7532131339541
 10
90.12094181774755
 20
-111.7532131339541
 10
89.96935761639655
 20
-111.7532131339541
 10
89.87461749055218
 20
-111.8822319598767
 10
89.87461749055218
 20
-111.8822319598767
 10
89.68685978660606
 20
-111.8631116799335
 10
89.68685978660606
 20
-111.8631116799335
 10
89.68685978660606
 20
-111.8631116799335
 10
89.81570635775441
 20
-111.0169962287562
 10
89.81570635775441
 20
-111.0169962287562
 10
89.81570635775441
 20
-111.0169962287562
 10
90.64769691744225
 20
-111.0169962287562
 10
90.64769691744225
 20
-111.0169962287562
 10
90.64769691744225
 20
-111.0169962287562
 10
90.64769691744225
 20
-111.2116441236728
 10
90.64769691744225
 20
-111.2116441236728
 10
90.64769691744225
 20
-111.2116441236728
 10
89.99002818930805
 20
-111.2116441236728
 10
89.99002818930805
 20
-111.2116441236728
 10
89.99002818930805
 20
-111.2116441236728
 10
89.91974824140895
 20
-111.6347018492615
 10
89.91974824140895
 20
-111.6347018492615
 10
89.9852050556287
 20
-111.6007676587318
 10
90.0733995000511
 20
-111.5606322963286
 10
90.2001790139083
 20
-111.5606322963286
 10
90.47130802859745
 20
-111.5606322963286
 10
90.72452254676332
 20
-111.7468397073063
 10
90.72452254676332
 20
-112.0598266321413
 10
90.72452254676332
 20
-112.3772921811071
 10
90.48508841053845
 20
-112.6120754384268
 10
90.1615939444735
 20
-112.6120754384268
 97
        0
 97
        0
 75
     2
 76
     1
 98
        0
  0
ENDBLK
  5
CF
330
CC
100
AcDbEntity
  8
0
100
AcDbBlockEnd
  0
BLOCK
  5
E3
330
E1
100
AcDbEntity
  8
0
100
AcDbBlockBegin
  2
block 6
 70
     0
 10
0.0
 20
0.0
 30
0.0
  3
block 6
  1

  0
SPLINE
  5
E5
330
E1
100
AcDbEntity
  8
_U+30EC_U+30A4_U+30E4_U+30FC 1
370
     0
100
AcDbSpline
210
0.0
220
0.0
230
1.0
 70
    11
 71
     3
 72
    44
 73
    40
 74
     0
 42
0.0000000001
 43
0.0000000001
 12
1.0
 22
0.0
 32
0.0
 13
1.0
 23
0.0
 33
0.0
 40
0.0
 40
0.0
 40
0.0
 40
0.0
 40
1.0
 40
1.0
 40
1.0
 40
2.0
 40
2.0
 40
2.0
 40
3.0
 40
3.0
 40
3.0
 40
4.0
 40
4.0
 40
4.0
 40
5.0
 40
5.0
 40
5.0
 40
6.0
 40
6.0
 40
6.0
 40
7.0
 40
7.0
 40
7.0
 40
8.0
 40
8.0
 40
8.0
 40
9.0
 40
9.0
 40
9.0
 40
10.0
 40
10.0
 40
10.0
 40
11.0
 40
11.0
 40
11.0
 40
12.0
 40
12.0
 40
12.0
 40
13.0
 40
13.0
 40
13.0
 40
13.0
 10
81.5240505438551
 20
-143.9329887878015
 30
0.0
 10
81.29116208905221
 20
-144.0918076896715
 30
0.0
 10
81.19159882952849
 20
-144.1658772426044
 30
0.0
 10
81.13957788770122
 20
-144.3095377243393
 30
0.0
 10
81.13957788770122
 20
-144.3095377243393
 30
0.0
 10
81.97191295693759
 20
-144.3095377243393
 30
0.0
 10
81.97191295693759
 20
-144.3095377243393
 30
0.0
 10
81.97191295693759
 20
-144.3095377243393
 30
0.0
 10
81.97191295693759
 20
-144.5148654152602
 30
0.0
 10
81.97191295693759
 20
-144.5148654152602
 30
0.0
 10
81.97191295693759
 20
-144.5148654152602
 30
0.0
 10
80.87292749714288
 20
-144.5148654152602
 30
0.0
 10
80.87292749714288
 20
-144.5148654152602
 30
0.0
 10
80.90703394244686
 20
-144.1572645038912
 30
0.0
 10
80.97696938079743
 20
-144.0790608363761
 30
0.0
 10
81.38831378173626
 20
-143.7807155673534
 30
0.0
 10
81.66185436326509
 20
-143.5819335578545
 30
0.0
 10
81.73213431116419
 20
-143.5140651767951
 30
0.0
 10
81.73213431116419
 20
-143.3766058669336
 30
0.0
 10
81.73213431116419
 20
-143.258094582241
 30
0.0
 10
81.65530868184312
 20
-143.1271809538015
 30
0.0
 10
81.44481334769435
 20
-143.1271809538015
 30
0.0
 10
81.16679414203469
 20
-143.1271809538015
 30
0.0
 10
81.15783689377304
 20
-143.3576578417648
 30
0.0
 10
81.15335826964223
 20
-143.4741020691662
 30
0.0
 10
81.15335826964223
 20
-143.4741020691662
 30
0.0
 10
80.91357962386883
 20
-143.4741020691662
 30
0.0
 10
80.91357962386883
 20
-143.4741020691662
 30
0.0
 10
80.92253687213048
 20
-143.3469780457605
 30
0.0
 10
80.9339056872318
 20
-143.2350124424899
 30
0.0
 10
81.02003307436306
 20
-143.1165011577973
 30
0.0
 10
81.13751083041006
 20
-142.9556151986361
 30
0.0
 10
81.33629283990899
 20
-142.9218532628807
 30
0.0
 10
81.46066078692651
 20
-142.9218532628807
 30
0.0
 10
81.75693899865799
 20
-142.9218532628807
 30
0.0
 10
81.97845863835956
 20
-143.105821361793
 30
0.0
 10
81.97845863835956
 20
-143.3786729242248
 30
0.0
 10
81.97845863835956
 20
-143.6074272644454
 30
0.0
 10
81.85409069134204
 20
-143.7066460144206
 30
0.0
 10
81.5240505438551
 20
-143.9329887878015
 30
0.0
  0
HATCH
  5
E6
330
E1
100
AcDbEntity
  8
_U+30EC_U+30A4_U+30E4_U+30FC 1
 62
     7
420
 16777215
100
AcDbHatch
 10
0.0
 20
0.0
 30
0.0
210
0.0
220
0.0
230
1.0
  2
SOLID
 70
     1
 71
     0
 91
        1
 92
        1
 93
        1
 72
     4
 94
        3
 73
     0
 74
     1
 95
       44
 96
       40
 40
0.0
 40
0.0
 40
0.0
 40
0.0
 40
1.0
 40
1.0
 40
1.0
 40
2.0
 40
2.0
 40
2.0
 40
3.0
 40
3.0
 40
3.0
 40
4.0
 40
4.0
 40
4.0
 40
5.0
 40
5.0
 40
5.0
 40
6.0
 40
6.0
 40
6.0
 40
7.0
 40
7.0
 40
7.0
 40
8.0
 40
8.0
 40
8.0
 40
9.0
 40
9.0
 40
9.0
 40
10.0
 40
10.0
 40
10.0
 40
11.0
 40
11.0
 40
11.0
 40
12.0
 40
12.0
 40
12.0
 40
13.0
 40
13.0
 40
13.0
 40
13.0
 10
81.5240505438551
 20
-143.9329887878015
 10
81.29116208905221
 20
-144.0918076896715
 10
81.19159882952849
 20
-144.1658772426044
 10
81.13957788770122
 20
-144.3095377243393
 10
81.13957788770122
 20
-144.3095377243393
 10
81.97191295693759
 20
-144.3095377243393
 10
81.97191295693759
 20
-144.3095377243393
 10
81.97191295693759
 20
-144.3095377243393
 10
81.97191295693759
 20
-144.5148654152602
 10
81.97191295693759
 20
-144.5148654152602
 10
81.97191295693759
 20
-144.5148654152602
 10
80.87292749714288
 20
-144.5148654152602
 10
80.87292749714288
 20
-144.5148654152602
 10
80.90703394244686
 20
-144.1572645038912
 10
80.97696938079743
 20
-144.0790608363761
 10
81.38831378173626
 20
-143.7807155673534
 10
81.66185436326509
 20
-143.5819335578545
 10
81.73213431116419
 20
-143.5140651767951
 10
81.73213431116419
 20
-143.3766058669336
 10
81.73213431116419
 20
-143.258094582241
 10
81.65530868184312
 20
-143.1271809538015
 10
81.44481334769435
 20
-143.1271809538015
 10
81.16679414203469
 20
-143.1271809538015
 10
81.15783689377304
 20
-143.3576578417648
 10
81.15335826964223
 20
-143.4741020691662
 10
81.15335826964223
 20
-143.4741020691662
 10
80.91357962386883
 20
-143.4741020691662
 10
80.91357962386883
 20
-143.4741020691662
 10
80.92253687213048
 20
-143.3469780457605
 10
80.9339056872318
 20
-143.2350124424899
 10
81.02003307436306
 20
-143.1165011577973
 10
81.13751083041006
 20
-142.9556151986361
 10
81.33629283990899
 20
-142.9218532628807
 10
81.46066078692651
 20
-142.9218532628807
 10
81.75693899865799
 20
-142.9218532628807
 10
81.97845863835956
 20
-143.105821361793
 10
81.97845863835956
 20
-143.3786729242248
 10
81.97845863835956
 20
-143.6074272644454
 10
81.85409069134204
 20
-143.7066460144206
 10
81.5240505438551
 20
-143.9329887878015
 97
        0
 97
        0
 75
     2
 76
     1
 98
        0
  0
SPLINE
  5
E7
330
E1
100
AcDbEntity
  8
_U+30EC_U+30A4_U+30E4_U+30FC 1
370
     0
100
AcDbSpline
210
0.0
220
0.0
230
1.0
 70
    11
 71
     3
 72
    29
 73
    25
 74
     0
 42
0.0000000001
 43
0.0000000001
 12
1.0
 22
0.0
 32
0.0
 13
1.0
 23
0.0
 33
0.0
 40
0.0
 40
0.0
 40
0.0
 40
0.0
 40
1.0
 40
1.0
 40
1.0
 40
2.0
 40
2.0
 40
2.0
 40
3.0
 40
3.0
 40
3.0
 40
4.0
 40
4.0
 40
4.0
 40
5.0
 40
5.0
 40
5.0
 40
6.0
 40
6.0
 40
6.0
 40
7.0
 40
7.0
 40
7.0
 40
8.0
 40
8.0
 40
8.0
 40
8.0
 10
83.10741642887592
 20
-144.3370984882213
 30
0.0
 10
82.99200573012006
 20
-144.5465602937245
 30
0.0
 10
82.80665959301362
 20
-144.5655083188934
 30
0.0
 10
82.6822916459961
 20
-144.5655083188934
 30
0.0
 10
82.51072589083066
 20
-144.5655083188934
 30
0.0
 10
82.35914168947966
 20
-144.5189995298425
 30
0.0
 10
82.2575113726648
 20
-144.3370984882213
 30
0.0
 10
82.14657929803975
 20
-144.1424505933047
 30
0.0
 10
82.12625323467677
 20
-143.9054280239195
 30
0.0
 10
82.12625323467677
 20
-143.7428195170157
 30
0.0
 10
82.12625323467677
 20
-143.5988145257323
 30
0.0
 10
82.14416773120007
 20
-143.3469780457605
 30
0.0
 10
82.2575113726648
 20
-143.1481960362616
 30
0.0
 10
82.37257756187213
 20
-142.9452799121804
 30
0.0
 10
82.5444878265861
 20
-142.9218532628807
 30
0.0
 10
82.6822916459961
 20
-142.9218532628807
 30
0.0
 10
82.85213485341892
 20
-142.9218532628807
 30
0.0
 10
83.00578611206106
 20
-142.9662949946404
 30
0.0
 10
83.10741642887592
 20
-143.1481960362616
 30
0.0
 10
83.21386987937015
 20
-143.340776873887
 30
0.0
 10
83.23867456686395
 20
-143.5691867045591
 30
0.0
 10
83.23867456686395
 20
-143.7428195170157
 30
0.0
 10
83.23867456686395
 20
-143.9140407626326
 30
0.0
 10
83.2159369366613
 20
-144.1445176505958
 30
0.0
 10
83.10741642887592
 20
-144.3370984882213
 30
0.0
  0
SPLINE
  5
E8
330
E1
100
AcDbEntity
  8
_U+30EC_U+30A4_U+30E4_U+30FC 1
370
     0
100
AcDbSpline
210
0.0
220
0.0
230
1.0
 70
    11
 71
     3
 72
    17
 73
    13
 74
     0
 42
0.0000000001
 43
0.0000000001
 12
1.0
 22
0.0
 32
0.0
 13
1.0
 23
0.0
 33
0.0
 40
0.0
 40
0.0
 40
0.0
 40
0.0
 40
1.0
 40
1.0
 40
1.0
 40
2.0
 40
2.0
 40
2.0
 40
3.0
 40
3.0
 40
3.0
 40
4.0
 40
4.0
 40
4.0
 40
4.0
 10
82.6822916459961
 20
-143.1144341005061
 30
0.0
 10
82.41564125543776
 20
-143.1144341005061
 30
0.0
 10
82.36603188045017
 20
-143.3979654589422
 30
0.0
 10
82.36603188045017
 20
-143.7428195170157
 30
0.0
 10
82.36603188045017
 20
-144.0621798684984
 30
0.0
 10
82.40427244033644
 20
-144.3708604239767
 30
0.0
 10
82.6822916459961
 20
-144.3708604239767
 30
0.0
 10
82.94687497926328
 20
-144.3708604239767
 30
0.0
 10
82.99889592109055
 20
-144.0897406323803
 30
0.0
 10
82.99889592109055
 20
-143.7428195170157
 30
0.0
 10
82.99889592109055
 20
-143.4231146559845
 30
0.0
 10
82.9582437943646
 20
-143.1144341005061
 30
0.0
 10
82.6822916459961
 20
-143.1144341005061
 30
0.0
  0
HATCH
  5
E9
330
E1
100
AcDbEntity
  8
_U+30EC_U+30A4_U+30E4_U+30FC 1
 62
     7
420
 16777215
100
AcDbHatch
 10
0.0
 20
0.0
 30
0.0
210
0.0
220
0.0
230
1.0
  2
SOLID
 70
     1
 71
     0
 91
        2
 92
        1
 93
        1
 72
     4
 94
        3
 73
     0
 74
     1
 95
       29
 96
       25
 40
0.0
 40
0.0
 40
0.0
 40
0.0
 40
1.0
 40
1.0
 40
1.0
 40
2.0
 40
2.0
 40
2.0
 40
3.0
 40
3.0
 40
3.0
 40
4.0
 40
4.0
 40
4.0
 40
5.0
 40
5.0
 40
5.0
 40
6.0
 40
6.0
 40
6.0
 40
7.0
 40
7.0
 40
7.0
 40
8.0
 40
8.0
 40
8.0
 40
8.0
 10
83.10741642887592
 20
-144.3370984882213
 10
82.99200573012006
 20
-144.5465602937245
 10
82.80665959301362
 20
-144.5655083188934
 10
82.6822916459961
 20
-144.5655083188934
 10
82.51072589083066
 20
-144.5655083188934
 10
82.35914168947966
 20
-144.5189995298425
 10
82.2575113726648
 20
-144.3370984882213
 10
82.14657929803975
 20
-144.1424505933047
 10
82.12625323467677
 20
-143.9054280239195
 10
82.12625323467677
 20
-143.7428195170157
 10
82.12625323467677
 20
-143.5988145257323
 10
82.14416773120007
 20
-143.3469780457605
 10
82.2575113726648
 20
-143.1481960362616
 10
82.37257756187213
 20
-142.9452799121804
 10
82.5444878265861
 20
-142.9218532628807
 10
82.6822916459961
 20
-142.9218532628807
 10
82.85213485341892
 20
-142.9218532628807
 10
83.00578611206106
 20
-142.9662949946404
 10
83.10741642887592
 20
-143.1481960362616
 10
83.21386987937015
 20
-143.340776873887
 10
83.23867456686395
 20
-143.5691867045591
 10
83.23867456686395
 20
-143.7428195170157
 10
83.23867456686395
 20
-143.9140407626326
 10
83.2159369366613
 20
-144.1445176505958
 10
83.10741642887592
 20
-144.3370984882213
 97
        0
 97
        0
 92
        1
 93
        1
 72
     4
 94
        3
 73
     0
 74
     1
 95
       17
 96
       13
 40
0.0
 40
0.0
 40
0.0
 40
0.0
 40
1.0
 40
1.0
 40
1.0
 40
2.0
 40
2.0
 40
2.0
 40
3.0
 40
3.0
 40
3.0
 40
4.0
 40
4.0
 40
4.0
 40
4.0
 10
82.6822916459961
 20
-143.1144341005061
 10
82.41564125543776
 20
-143.1144341005061
 10
82.36603188045017
 20
-143.3979654589422
 10
82.36603188045017
 20
-143.7428195170157
 10
82.36603188045017
 20
-144.0621798684984
 10
82.40427244033644
 20
-144.3708604239767
 10
82.6822916459961
 20
-144.3708604239767
 10
82.94687497926328
 20
-144.3708604239767
 10
82.99889592109055
 20
-144.0897406323803
 10
82.99889592109055
 20
-143.7428195170157
 10
82.99889592109055
 20
-143.4231146559845
 10
82.9582437943646
 20
-143.1144341005061
 10
82.6822916459961
 20
-143.1144341005061
 97
        0
 97
        0
 75
     2
 76
     1
 98
        0
  0
ENDBLK
  5
E4
330
E1
100
AcDbEntity
  8
0
100
AcDbBlockEnd
  0
BLOCK
  5
F8
330
F6
100
AcDbEntity
  8
0
100
AcDbBlockBegin
  2
block 7
 70
     0
 10
0.0
 20
0.0
 30
0.0
  3
block 7
  1

  0
SPLINE
  5
FA
330
F6
100
AcDbEntity
  8
_U+30EC_U+30A4_U+30E4_U+30FC 1
370
     0
100
AcDbSpline
210
0.0
220
0.0
230
1.0
 70
    11
 71
     3
 72
    26
 73
    22
 74
     0
 42
0.0000000001
 43
0.0000000001
 12
1.0
 22
0.0
 32
0.0
 13
1.0
 23
0.0
 33
0.0
 40
0.0
 40
0.0
 40
0.0
 40
0.0
 40
1.0
 40
1.0
 40
1.0
 40
2.0
 40
2.0
 40
2.0
 40
3.0
 40
3.0
 40
3.0
 40
4.0
 40
4.0
 40
4.0
 40
5.0
 40
5.0
 40
5.0
 40
6.0
 40
6.0
 40
6.0
 40
7.0
 40
7.0
 40
7.0
 40
7.0
 10
72.82966306773008
 20
-117.5051445561272
 30
0.0
 10
72.82966306773008
 20
-117.5051445561272
 30
0.0
 10
72.82966306773008
 20
-116.4008191983304
 30
0.0
 10
72.82966306773008
 20
-116.4008191983304
 30
0.0
 10
72.82966306773008
 20
-116.4008191983304
 30
0.0
 10
72.4768852900405
 20
-116.4008191983304
 30
0.0
 10
72.4768852900405
 20
-116.4008191983304
 30
0.0
 10
72.4768852900405
 20
-116.4008191983304
 30
0.0
 10
72.4768852900405
 20
-116.2526800924646
 30
0.0
 10
72.4768852900405
 20
-116.2526800924646
 30
0.0
 10
72.8319023797955
 20
-116.2380384366523
 30
0.0
 10
72.88168400955736
 20
-116.0750854202
 30
0.0
 10
72.91337888802165
 20
-115.960880504864
 30
0.0
 10
72.91337888802165
 20
-115.960880504864
 30
0.0
 10
73.06926945872921
 20
-115.960880504864
 30
0.0
 10
73.06926945872921
 20
-115.960880504864
 30
0.0
 10
73.06926945872921
 20
-115.960880504864
 30
0.0
 10
73.06926945872921
 20
-117.5051445561272
 30
0.0
 10
73.06926945872921
 20
-117.5051445561272
 30
0.0
 10
73.06926945872921
 20
-117.5051445561272
 30
0.0
 10
72.82966306773008
 20
-117.5051445561272
 30
0.0
 10
72.82966306773008
 20
-117.5051445561272
 30
0.0
  0
HATCH
  5
FB
330
F6
100
AcDbEntity
  8
_U+30EC_U+30A4_U+30E4_U+30FC 1
 62
     7
420
 16777215
100
AcDbHatch
 10
0.0
 20
0.0
 30
0.0
210
0.0
220
0.0
230
1.0
  2
SOLID
 70
     1
 71
     0
 91
        1
 92
        1
 93
        1
 72
     4
 94
        3
 73
     0
 74
     1
 95
       26
 96
       22
 40
0.0
 40
0.0
 40
0.0
 40
0.0
 40
1.0
 40
1.0
 40
1.0
 40
2.0
 40
2.0
 40
2.0
 40
3.0
 40
3.0
 40
3.0
 40
4.0
 40
4.0
 40
4.0
 40
5.0
 40
5.0
 40
5.0
 40
6.0
 40
6.0
 40
6.0
 40
7.0
 40
7.0
 40
7.0
 40
7.0
 10
72.82966306773008
 20
-117.5051445561272
 10
72.82966306773008
 20
-117.5051445561272
 10
72.82966306773008
 20
-116.4008191983304
 10
72.82966306773008
 20
-116.4008191983304
 10
72.82966306773008
 20
-116.4008191983304
 10
72.4768852900405
 20
-116.4008191983304
 10
72.4768852900405
 20
-116.4008191983304
 10
72.4768852900405
 20
-116.4008191983304
 10
72.4768852900405
 20
-116.2526800924646
 10
72.4768852900405
 20
-116.2526800924646
 10
72.8319023797955
 20
-116.2380384366523
 10
72.88168400955736
 20
-116.0750854202
 10
72.91337888802165
 20
-115.960880504864
 10
72.91337888802165
 20
-115.960880504864
 10
73.06926945872921
 20
-115.960880504864
 10
73.06926945872921
 20
-115.960880504864
 10
73.06926945872921
 20
-115.960880504864
 10
73.06926945872921
 20
-117.5051445561272
 10
73.06926945872921
 20
-117.5051445561272
 10
73.06926945872921
 20
-117.5051445561272
 10
72.82966306773008
 20
-117.5051445561272
 10
72.82966306773008
 20
-117.5051445561272
 97
        0
 97
        0
 75
     2
 76
     1
 98
        0
  0
POLYLINE
  5
FC
330
F6
100
AcDbEntity
  8
_U+30EC_U+30A4_U+30E4_U+30FC 1
370
     0
100
AcDb2dPolyline
 66
     1
 10
0.0
 20
0.0
 30
0.0
  0
VERTEX
  5
FD
330
FC
100
AcDbEntity
  8
_U+30EC_U+30A4_U+30E4_U+30FC 1
370
     0
100
AcDbVertex
100
AcDb2dVertex
 10
73.66923283748547
 20
-117.5051445561272
 30
0.0
  0
VERTEX
  5
FE
330
FC
100
AcDbEntity
  8
_U+30EC_U+30A4_U+30E4_U+30FC 1
370
     0
100
AcDbVertex
100
AcDb2dVertex
 10
73.66923283748547
 20
-117.2534803309297
 30
0.0
  0
VERTEX
  5
FF
330
FC
100
AcDbEntity
  8
_U+30EC_U+30A4_U+30E4_U+30FC 1
370
     0
100
AcDbVertex
100
AcDb2dVertex
 10
73.93829479488349
 20
-117.2534803309297
 30
0.0
  0
VERTEX
  5
100
330
FC
100
AcDbEntity
  8
_U+30EC_U+30A4_U+30E4_U+30FC 1
370
     0
100
AcDbVertex
100
AcDb2dVertex
 10
73.93829479488349
 20
-117.5051445561272
 30
0.0
  0
VERTEX
  5
101
330
FC
100
AcDbEntity
  8
_U+30EC_U+30A4_U+30E4_U+30FC 1
370
     0
100
AcDbVertex
100
AcDb2dVertex
 10
73.66923283748547
 20
-117.5051445561272
 30
0.0
  0
SEQEND
  5
102
330
FC
100
AcDbEntity
  8
_U+30EC_U+30A4_U+30E4_U+30FC 1
370
     0
  0
HATCH
  5
103
330
F6
100
AcDbEntity
  8
_U+30EC_U+30A4_U+30E4_U+30FC 1
 62
     7
420
 16777215
100
AcDbHatch
 10
0.0
 20
0.0
 30
0.0
210
0.0
220
0.0
230
1.0
  2
SOLID
 70
     1
 71
     0
 91
        1
 92
        1
 93
        4
 72
     1
 10
73.66923283748547
 20
-117.5051445561272
 11
73.66923283748547
 21
-117.2534803309297
 72
     1
 10
73.66923283748547
 20
-117.2534803309297
 11
73.93829479488349
 21
-117.2534803309297
 72
     1
 10
73.93829479488349
 20
-117.2534803309297
 11
73.93829479488349
 21
-117.5051445561272
 72
     1
 10
73.93829479488349
 20
-117.5051445561272
 11
73.66923283748547
 21
-117.5051445561272
 97
        0
 75
     2
 76
     1
 98
        0
  0
SPLINE
  5
104
330
F6
100
AcDbEntity
  8
_U+30EC_U+30A4_U+30E4_U+30FC 1
370
     0
100
AcDbSpline
210
0.0
220
0.0
230
1.0
 70
    11
 71
     3
 72
    53
 73
    49
 74
     0
 42
0.0000000001
 43
0.0000000001
 12
1.0
 22
0.0
 32
0.0
 13
1.0
 23
0.0
 33
0.0
 40
0.0
 40
0.0
 40
0.0
 40
0.0
 40
1.0
 40
1.0
 40
1.0
 40
2.0
 40
2.0
 40
2.0
 40
3.0
 40
3.0
 40
3.0
 40
4.0
 40
4.0
 40
4.0
 40
5.0
 40
5.0
 40
5.0
 40
6.0
 40
6.0
 40
6.0
 40
7.0
 40
7.0
 40
7.0
 40
8.0
 40
8.0
 40
8.0
 40
9.0
 40
9.0
 40
9.0
 40
10.0
 40
10.0
 40
10.0
 40
11.0
 40
11.0
 40
11.0
 40
12.0
 40
12.0
 40
12.0
 40
13.0
 40
13.0
 40
13.0
 40
14.0
 40
14.0
 40
14.0
 40
15.0
 40
15.0
 40
15.0
 40
16.0
 40
16.0
 40
16.0
 40
16.0
 10
74.70500079512584
 20
-117.5559597145346
 30
0.0
 10
74.62145722960852
 20
-117.5559597145346
 30
0.0
 10
74.51293672182315
 20
-117.5390787466569
 30
0.0
 10
74.4044162140378
 20
-117.475516734954
 30
0.0
 10
74.21889782215709
 20
-117.3654459342003
 30
0.0
 10
74.1963324467287
 20
-117.2343600509866
 30
0.0
 10
74.17600638336572
 20
-117.1265285622982
 30
0.0
 10
74.17600638336572
 20
-117.1265285622982
 30
0.0
 10
74.41337346229943
 20
-117.1265285622982
 30
0.0
 10
74.41337346229943
 20
-117.1265285622982
 30
0.0
 10
74.47211234032295
 20
-117.3253105717971
 30
0.0
 10
74.60784910244179
 20
-117.3549383929703
 30
0.0
 10
74.70724010719125
 20
-117.3549383929703
 30
0.0
 10
74.85658499647683
 20
-117.3549383929703
 30
0.0
 10
75.01936575815489
 20
-117.2555473882208
 30
0.0
 10
75.01936575815489
 20
-117.0228311881922
 30
0.0
 10
75.01936575815489
 20
-116.7668605936382
 30
0.0
 10
74.82712943007795
 20
-116.6970974100618
 30
0.0
 10
74.6982828589296
 20
-116.6970974100618
 30
0.0
 10
74.66434866839988
 20
-116.6970974100618
 30
0.0
 10
74.51293672182315
 20
-116.6970974100618
 30
0.0
 10
74.41785208643026
 20
-116.8261162359844
 30
0.0
 10
74.41785208643026
 20
-116.8261162359844
 30
0.0
 10
74.23026663725841
 20
-116.8069959560413
 30
0.0
 10
74.23026663725841
 20
-116.8069959560413
 30
0.0
 10
74.23026663725841
 20
-116.8069959560413
 30
0.0
 10
74.35911320840675
 20
-115.960880504864
 30
0.0
 10
74.35911320840675
 20
-115.960880504864
 30
0.0
 10
74.35911320840675
 20
-115.960880504864
 30
0.0
 10
75.19110376809459
 20
-115.960880504864
 30
0.0
 10
75.19110376809459
 20
-115.960880504864
 30
0.0
 10
75.19110376809459
 20
-115.960880504864
 30
0.0
 10
75.19110376809459
 20
-116.1555283997806
 30
0.0
 10
75.19110376809459
 20
-116.1555283997806
 30
0.0
 10
75.19110376809459
 20
-116.1555283997806
 30
0.0
 10
74.53326278518614
 20
-116.1555283997806
 30
0.0
 10
74.53326278518614
 20
-116.1555283997806
 30
0.0
 10
74.53326278518614
 20
-116.1555283997806
 30
0.0
 10
74.4631550920613
 20
-116.5785861253692
 30
0.0
 10
74.4631550920613
 20
-116.5785861253692
 30
0.0
 10
74.52861190628104
 20
-116.5446519348395
 30
0.0
 10
74.61680635070344
 20
-116.5045165724364
 30
0.0
 10
74.74341360978637
 20
-116.5045165724364
 30
0.0
 10
75.0147148792498
 20
-116.5045165724364
 30
0.0
 10
75.26792939741566
 20
-116.6907239834141
 30
0.0
 10
75.26792939741566
 20
-117.0037109082491
 30
0.0
 10
75.26792939741566
 20
-117.3211764572148
 30
0.0
 10
75.02832300641653
 20
-117.5559597145346
 30
0.0
 10
74.70500079512584
 20
-117.5559597145346
 30
0.0
  0
HATCH
  5
105
330
F6
100
AcDbEntity
  8
_U+30EC_U+30A4_U+30E4_U+30FC 1
 62
     7
420
 16777215
100
AcDbHatch
 10
0.0
 20
0.0
 30
0.0
210
0.0
220
0.0
230
1.0
  2
SOLID
 70
     1
 71
     0
 91
        1
 92
        1
 93
        1
 72
     4
 94
        3
 73
     0
 74
     1
 95
       53
 96
       49
 40
0.0
 40
0.0
 40
0.0
 40
0.0
 40
1.0
 40
1.0
 40
1.0
 40
2.0
 40
2.0
 40
2.0
 40
3.0
 40
3.0
 40
3.0
 40
4.0
 40
4.0
 40
4.0
 40
5.0
 40
5.0
 40
5.0
 40
6.0
 40
6.0
 40
6.0
 40
7.0
 40
7.0
 40
7.0
 40
8.0
 40
8.0
 40
8.0
 40
9.0
 40
9.0
 40
9.0
 40
10.0
 40
10.0
 40
10.0
 40
11.0
 40
11.0
 40
11.0
 40
12.0
 40
12.0
 40
12.0
 40
13.0
 40
13.0
 40
13.0
 40
14.0
 40
14.0
 40
14.0
 40
15.0
 40
15.0
 40
15.0
 40
16.0
 40
16.0
 40
16.0
 40
16.0
 10
74.70500079512584
 20
-117.5559597145346
 10
74.62145722960852
 20
-117.5559597145346
 10
74.51293672182315
 20
-117.5390787466569
 10
74.4044162140378
 20
-117.475516734954
 10
74.21889782215709
 20
-117.3654459342003
 10
74.1963324467287
 20
-117.2343600509866
 10
74.17600638336572
 20
-117.1265285622982
 10
74.17600638336572
 20
-117.1265285622982
 10
74.41337346229943
 20
-117.1265285622982
 10
74.41337346229943
 20
-117.1265285622982
 10
74.47211234032295
 20
-117.3253105717971
 10
74.60784910244179
 20
-117.3549383929703
 10
74.70724010719125
 20
-117.3549383929703
 10
74.85658499647683
 20
-117.3549383929703
 10
75.01936575815489
 20
-117.2555473882208
 10
75.01936575815489
 20
-117.0228311881922
 10
75.01936575815489
 20
-116.7668605936382
 10
74.82712943007795
 20
-116.6970974100618
 10
74.6982828589296
 20
-116.6970974100618
 10
74.66434866839988
 20
-116.6970974100618
 10
74.51293672182315
 20
-116.6970974100618
 10
74.41785208643026
 20
-116.8261162359844
 10
74.41785208643026
 20
-116.8261162359844
 10
74.23026663725841
 20
-116.8069959560413
 10
74.23026663725841
 20
-116.8069959560413
 10
74.23026663725841
 20
-116.8069959560413
 10
74.35911320840675
 20
-115.960880504864
 10
74.35911320840675
 20
-115.960880504864
 10
74.35911320840675
 20
-115.960880504864
 10
75.19110376809459
 20
-115.960880504864
 10
75.19110376809459
 20
-115.960880504864
 10
75.19110376809459
 20
-115.960880504864
 10
75.19110376809459
 20
-116.1555283997806
 10
75.19110376809459
 20
-116.1555283997806
 10
75.19110376809459
 20
-116.1555283997806
 10
74.53326278518614
 20
-116.1555283997806
 10
74.53326278518614
 20
-116.1555283997806
 10
74.53326278518614
 20
-116.1555283997806
 10
74.4631550920613
 20
-116.5785861253692
 10
74.4631550920613
 20
-116.5785861253692
 10
74.52861190628104
 20
-116.5446519348395
 10
74.61680635070344
 20
-116.5045165724364
 10
74.74341360978637
 20
-116.5045165724364
 10
75.0147148792498
 20
-116.5045165724364
 10
75.26792939741566
 20
-116.6907239834141
 10
75.26792939741566
 20
-117.0037109082491
 10
75.26792939741566
 20
-117.3211764572148
 10
75.02832300641653
 20
-117.5559597145346
 10
74.70500079512584
 20
-117.5559597145346
 97
        0
 97
        0
 75
     2
 76
     1
 98
        0
  0
ENDBLK
  5
F9
330
F6
100
AcDbEntity
  8
0
100
AcDbBlockEnd
  0
BLOCK
  5
110
330
10E
100
AcDbEntity
  8
0
100
AcDbBlockBegin
  2
block 8
 70
     0
 10
0.0
 20
0.0
 30
0.0
  3
block 8
  1

  0
SPLINE
  5
112
330
10E
100
AcDbEntity
  8
_U+30EC_U+30A4_U+30E4_U+30FC 1
370
     0
100
AcDbSpline
210
0.0
220
0.0
230
1.0
 70
    11
 71
     3
 72
    26
 73
    22
 74
     0
 42
0.0000000001
 43
0.0000000001
 12
1.0
 22
0.0
 32
0.0
 13
1.0
 23
0.0
 33
0.0
 40
0.0
 40
0.0
 40
0.0
 40
0.0
 40
1.0
 40
1.0
 40
1.0
 40
2.0
 40
2.0
 40
2.0
 40
3.0
 40
3.0
 40
3.0
 40
4.0
 40
4.0
 40
4.0
 40
5.0
 40
5.0
 40
5.0
 40
6.0
 40
6.0
 40
6.0
 40
7.0
 40
7.0
 40
7.0
 40
7.0
 10
116.4135660516258
 20
-133.7920057174201
 30
0.0
 10
116.4135660516258
 20
-133.7920057174201
 30
0.0
 10
115.3094129486032
 20
-133.7920057174201
 30
0.0
 10
115.3094129486032
 20
-133.7920057174201
 30
0.0
 10
115.3094129486032
 20
-133.7920057174201
 30
0.0
 10
115.3094129486032
 20
-134.1447834951096
 30
0.0
 10
115.3094129486032
 20
-134.1447834951096
 30
0.0
 10
115.3094129486032
 20
-134.1447834951096
 30
0.0
 10
115.1612738427375
 20
-134.1447834951096
 30
0.0
 10
115.1612738427375
 20
-134.1447834951096
 30
0.0
 10
115.1464599321509
 20
-133.7895941505804
 30
0.0
 10
114.9835069156986
 20
-133.7399847755928
 30
0.0
 10
114.8691297455883
 20
-133.7082898971285
 30
0.0
 10
114.8691297455883
 20
-133.7082898971285
 30
0.0
 10
114.8691297455883
 20
-133.5525715811952
 30
0.0
 10
114.8691297455883
 20
-133.5525715811952
 30
0.0
 10
114.8691297455883
 20
-133.5525715811952
 30
0.0
 10
116.4135660516258
 20
-133.5525715811952
 30
0.0
 10
116.4135660516258
 20
-133.5525715811952
 30
0.0
 10
116.4135660516258
 20
-133.5525715811952
 30
0.0
 10
116.4135660516258
 20
-133.7920057174201
 30
0.0
 10
116.4135660516258
 20
-133.7920057174201
 30
0.0
  0
HATCH
  5
113
330
10E
100
AcDbEntity
  8
_U+30EC_U+30A4_U+30E4_U+30FC 1
 62
     7
420
 16777215
100
AcDbHatch
 10
0.0
 20
0.0
 30
0.0
210
0.0
220
0.0
230
1.0
  2
SOLID
 70
     1
 71
     0
 91
        1
 92
        1
 93
        1
 72
     4
 94
        3
 73
     0
 74
     1
 95
       26
 96
       22
 40
0.0
 40
0.0
 40
0.0
 40
0.0
 40
1.0
 40
1.0
 40
1.0
 40
2.0
 40
2.0
 40
2.0
 40
3.0
 40
3.0
 40
3.0
 40
4.0
 40
4.0
 40
4.0
 40
5.0
 40
5.0
 40
5.0
 40
6.0
 40
6.0
 40
6.0
 40
7.0
 40
7.0
 40
7.0
 40
7.0
 10
116.4135660516258
 20
-133.7920057174201
 10
116.4135660516258
 20
-133.7920057174201
 10
115.3094129486032
 20
-133.7920057174201
 10
115.3094129486032
 20
-133.7920057174201
 10
115.3094129486032
 20
-133.7920057174201
 10
115.3094129486032
 20
-134.1447834951096
 10
115.3094129486032
 20
-134.1447834951096
 10
115.3094129486032
 20
-134.1447834951096
 10
115.1612738427375
 20
-134.1447834951096
 10
115.1612738427375
 20
-134.1447834951096
 10
115.1464599321509
 20
-133.7895941505804
 10
114.9835069156986
 20
-133.7399847755928
 10
114.8691297455883
 20
-133.7082898971285
 10
114.8691297455883
 20
-133.7082898971285
 10
114.8691297455883
 20
-133.5525715811952
 10
114.8691297455883
 20
-133.5525715811952
 10
114.8691297455883
 20
-133.5525715811952
 10
116.4135660516258
 20
-133.5525715811952
 10
116.4135660516258
 20
-133.5525715811952
 10
116.4135660516258
 20
-133.5525715811952
 10
116.4135660516258
 20
-133.7920057174201
 10
116.4135660516258
 20
-133.7920057174201
 97
        0
 97
        0
 75
     2
 76
     1
 98
        0
  0
SPLINE
  5
114
330
10E
100
AcDbEntity
  8
_U+30EC_U+30A4_U+30E4_U+30FC 1
370
     0
100
AcDbSpline
210
0.0
220
0.0
230
1.0
 70
    11
 71
     3
 72
    62
 73
    58
 74
     0
 42
0.0000000001
 43
0.0000000001
 12
1.0
 22
0.0
 32
0.0
 13
1.0
 23
0.0
 33
0.0
 40
0.0
 40
0.0
 40
0.0
 40
0.0
 40
1.0
 40
1.0
 40
1.0
 40
2.0
 40
2.0
 40
2.0
 40
3.0
 40
3.0
 40
3.0
 40
4.0
 40
4.0
 40
4.0
 40
5.0
 40
5.0
 40
5.0
 40
6.0
 40
6.0
 40
6.0
 40
7.0
 40
7.0
 40
7.0
 40
8.0
 40
8.0
 40
8.0
 40
9.0
 40
9.0
 40
9.0
 40
10.0
 40
10.0
 40
10.0
 40
11.0
 40
11.0
 40
11.0
 40
12.0
 40
12.0
 40
12.0
 40
13.0
 40
13.0
 40
13.0
 40
14.0
 40
14.0
 40
14.0
 40
15.0
 40
15.0
 40
15.0
 40
16.0
 40
16.0
 40
16.0
 40
17.0
 40
17.0
 40
17.0
 40
18.0
 40
18.0
 40
18.0
 40
19.0
 40
19.0
 40
19.0
 40
19.0
 10
116.464208955259
 20
-132.4914821717383
 30
0.0
 10
116.464208955259
 20
-132.5927679790046
 30
0.0
 10
116.4431938727989
 20
-132.8256564338075
 30
0.0
 10
116.2568142070469
 20
-132.9593261386352
 30
0.0
 10
116.1448486037763
 20
-133.0385633347959
 30
0.0
 10
116.0452853442526
 20
-133.0426974493782
 30
0.0
 10
115.960880504864
 20
-133.0475205830576
 30
0.0
 10
115.960880504864
 20
-133.0475205830576
 30
0.0
 10
115.960880504864
 20
-132.812220561415
 30
0.0
 10
115.960880504864
 20
-132.812220561415
 30
0.0
 10
116.0349500577968
 20
-132.8098089945753
 30
0.0
 10
116.2699055698909
 20
-132.7987846890225
 30
0.0
 10
116.2699055698909
 20
-132.4956162863205
 30
0.0
 10
116.2699055698909
 20
-132.3488552186489
 30
0.0
 10
116.1999701315403
 20
-132.1862467117451
 30
0.0
 10
115.9715603008682
 20
-132.1862467117451
 30
0.0
 10
115.8551160734668
 20
-132.1862467117451
 30
0.0
 10
115.8061957175762
 20
-132.2268988384711
 30
0.0
 10
115.7745008391119
 20
-132.2606607742265
 30
0.0
 10
115.7007757957276
 20
-132.3398979703873
 30
0.0
 10
115.6880289424322
 20
-132.4639214078562
 30
0.0
 10
115.6880289424322
 20
-132.522832540654
 30
0.0
 10
115.6880289424322
 20
-132.543158604017
 30
0.0
 10
115.6900959997233
 20
-132.5817436734518
 30
0.0
 10
115.6942301143056
 20
-132.6110269850764
 30
0.0
 10
115.6942301143056
 20
-132.6110269850764
 30
0.0
 10
115.499582219389
 20
-132.6110269850764
 30
0.0
 10
115.499582219389
 20
-132.6110269850764
 30
0.0
 10
115.5057833912625
 20
-132.5703748583505
 30
0.0
 10
115.5081949581021
 20
-132.5252441074937
 30
0.0
 10
115.5081949581021
 20
-132.5183539165232
 30
0.0
 10
115.5081949581021
 20
-132.4480739686241
 30
0.0
 10
115.4871798756421
 20
-132.2358560867327
 30
0.0
 10
115.2501573062569
 20
-132.2358560867327
 30
0.0
 10
115.072390379218
 20
-132.2358560867327
 30
0.0
 10
115.017268851454
 20
-132.3757269634339
 30
0.0
 10
115.017268851454
 20
-132.4935492290294
 30
0.0
 10
115.017268851454
 20
-132.7760470588199
 30
0.0
 10
115.2501573062569
 20
-132.7850043070815
 30
0.0
 10
115.3218152923501
 20
-132.7898274407609
 30
0.0
 10
115.3218152923501
 20
-132.7898274407609
 30
0.0
 10
115.3218152923501
 20
-133.0068684563316
 30
0.0
 10
115.3218152923501
 20
-133.0068684563316
 30
0.0
 10
115.1971028357841
 20
-132.99791120807
 30
0.0
 10
114.8205538992462
 20
-132.9682833868968
 30
0.0
 10
114.8205538992462
 20
-132.4797688470884
 30
0.0
 10
114.8205538992462
 20
-132.2403347108635
 30
0.0
 10
114.947677922652
 20
-131.9826415685668
 30
0.0
 10
115.2436116248349
 20
-131.9826415685668
 30
0.0
 10
115.429991290587
 20
-131.9826415685668
 30
0.0
 10
115.5123290726844
 20
-132.0842718853817
 30
0.0
 10
115.5736517723219
 20
-132.1903808263274
 30
0.0
 10
115.6012125362039
 20
-132.1249240121077
 30
0.0
 10
115.6814832610102
 20
-131.9306206267396
 30
0.0
 10
115.9588134475728
 20
-131.9306206267396
 30
0.0
 10
116.2974663337729
 20
-131.9306206267396
 30
0.0
 10
116.464208955259
 20
-132.1952039600068
 30
0.0
 10
116.464208955259
 20
-132.4914821717383
 30
0.0
  0
HATCH
  5
115
330
10E
100
AcDbEntity
  8
_U+30EC_U+30A4_U+30E4_U+30FC 1
 62
     7
420
 16777215
100
AcDbHatch
 10
0.0
 20
0.0
 30
0.0
210
0.0
220
0.0
230
1.0
  2
SOLID
 70
     1
 71
     0
 91
        1
 92
        1
 93
        1
 72
     4
 94
        3
 73
     0
 74
     1
 95
       62
 96
       58
 40
0.0
 40
0.0
 40
0.0
 40
0.0
 40
1.0
 40
1.0
 40
1.0
 40
2.0
 40
2.0
 40
2.0
 40
3.0
 40
3.0
 40
3.0
 40
4.0
 40
4.0
 40
4.0
 40
5.0
 40
5.0
 40
5.0
 40
6.0
 40
6.0
 40
6.0
 40
7.0
 40
7.0
 40
7.0
 40
8.0
 40
8.0
 40
8.0
 40
9.0
 40
9.0
 40
9.0
 40
10.0
 40
10.0
 40
10.0
 40
11.0
 40
11.0
 40
11.0
 40
12.0
 40
12.0
 40
12.0
 40
13.0
 40
13.0
 40
13.0
 40
14.0
 40
14.0
 40
14.0
 40
15.0
 40
15.0
 40
15.0
 40
16.0
 40
16.0
 40
16.0
 40
17.0
 40
17.0
 40
17.0
 40
18.0
 40
18.0
 40
18.0
 40
19.0
 40
19.0
 40
19.0
 40
19.0
 10
116.464208955259
 20
-132.4914821717383
 10
116.464208955259
 20
-132.5927679790046
 10
116.4431938727989
 20
-132.8256564338075
 10
116.2568142070469
 20
-132.9593261386352
 10
116.1448486037763
 20
-133.0385633347959
 10
116.0452853442526
 20
-133.0426974493782
 10
115.960880504864
 20
-133.0475205830576
 10
115.960880504864
 20
-133.0475205830576
 10
115.960880504864
 20
-132.812220561415
 10
115.960880504864
 20
-132.812220561415
 10
116.0349500577968
 20
-132.8098089945753
 10
116.2699055698909
 20
-132.7987846890225
 10
116.2699055698909
 20
-132.4956162863205
 10
116.2699055698909
 20
-132.3488552186489
 10
116.1999701315403
 20
-132.1862467117451
 10
115.9715603008682
 20
-132.1862467117451
 10
115.8551160734668
 20
-132.1862467117451
 10
115.8061957175762
 20
-132.2268988384711
 10
115.7745008391119
 20
-132.2606607742265
 10
115.7007757957276
 20
-132.3398979703873
 10
115.6880289424322
 20
-132.4639214078562
 10
115.6880289424322
 20
-132.522832540654
 10
115.6880289424322
 20
-132.543158604017
 10
115.6900959997233
 20
-132.5817436734518
 10
115.6942301143056
 20
-132.6110269850764
 10
115.6942301143056
 20
-132.6110269850764
 10
115.499582219389
 20
-132.6110269850764
 10
115.499582219389
 20
-132.6110269850764
 10
115.5057833912625
 20
-132.5703748583505
 10
115.5081949581021
 20
-132.5252441074937
 10
115.5081949581021
 20
-132.5183539165232
 10
115.5081949581021
 20
-132.4480739686241
 10
115.4871798756421
 20
-132.2358560867327
 10
115.2501573062569
 20
-132.2358560867327
 10
115.072390379218
 20
-132.2358560867327
 10
115.017268851454
 20
-132.3757269634339
 10
115.017268851454
 20
-132.4935492290294
 10
115.017268851454
 20
-132.7760470588199
 10
115.2501573062569
 20
-132.7850043070815
 10
115.3218152923501
 20
-132.7898274407609
 10
115.3218152923501
 20
-132.7898274407609
 10
115.3218152923501
 20
-133.0068684563316
 10
115.3218152923501
 20
-133.0068684563316
 10
115.1971028357841
 20
-132.99791120807
 10
114.8205538992462
 20
-132.9682833868968
 10
114.8205538992462
 20
-132.4797688470884
 10
114.8205538992462
 20
-132.2403347108635
 10
114.947677922652
 20
-131.9826415685668
 10
115.2436116248349
 20
-131.9826415685668
 10
115.429991290587
 20
-131.9826415685668
 10
115.5123290726844
 20
-132.0842718853817
 10
115.5736517723219
 20
-132.1903808263274
 10
115.6012125362039
 20
-132.1249240121077
 10
115.6814832610102
 20
-131.9306206267396
 10
115.9588134475728
 20
-131.9306206267396
 10
116.2974663337729
 20
-131.9306206267396
 10
116.464208955259
 20
-132.1952039600068
 10
116.464208955259
 20
-132.4914821717383
 97
        0
 97
        0
 75
     2
 76
     1
 98
        0
  0
ENDBLK
  5
111
330
10E
100
AcDbEntity
  8
0
100
AcDbBlockEnd
  0
BLOCK
  5
124
330
122
100
AcDbEntity
  8
0
100
AcDbBlockBegin
  2
block 9
 70
     0
 10
0.0
 20
0.0
 30
0.0
  3
block 9
  1

  0
SPLINE
  5
126
330
122
100
AcDbEntity
  8
_U+30EC_U+30A4_U+30E4_U+30FC 1
370
     0
100
AcDbSpline
210
0.0
220
0.0
230
1.0
 70
    11
 71
     3
 72
    44
 73
    40
 74
     0
 42
0.0000000001
 43
0.0000000001
 12
1.0
 22
0.0
 32
0.0
 13
1.0
 23
0.0
 33
0.0
 40
0.0
 40
0.0
 40
0.0
 40
0.0
 40
1.0
 40
1.0
 40
1.0
 40
2.0
 40
2.0
 40
2.0
 40
3.0
 40
3.0
 40
3.0
 40
4.0
 40
4.0
 40
4.0
 40
5.0
 40
5.0
 40
5.0
 40
6.0
 40
6.0
 40
6.0
 40
7.0
 40
7.0
 40
7.0
 40
8.0
 40
8.0
 40
8.0
 40
9.0
 40
9.0
 40
9.0
 40
10.0
 40
10.0
 40
10.0
 40
11.0
 40
11.0
 40
11.0
 40
12.0
 40
12.0
 40
12.0
 40
13.0
 40
13.0
 40
13.0
 40
13.0
 10
66.28914928898327
 20
-131.6398545677845
 30
0.0
 10
66.44796819085329
 20
-131.8727430225874
 30
0.0
 10
66.52203774378616
 20
-131.9723062821111
 30
0.0
 10
66.66569822552108
 20
-132.0243272239384
 30
0.0
 10
66.66569822552108
 20
-132.0243272239384
 30
0.0
 10
66.66569822552108
 20
-131.191992154702
 30
0.0
 10
66.66569822552108
 20
-131.191992154702
 30
0.0
 10
66.66569822552108
 20
-131.191992154702
 30
0.0
 10
66.87102591644197
 20
-131.191992154702
 30
0.0
 10
66.87102591644197
 20
-131.191992154702
 30
0.0
 10
66.87102591644197
 20
-131.191992154702
 30
0.0
 10
66.87102591644197
 20
-132.2909776144967
 30
0.0
 10
66.87102591644197
 20
-132.2909776144967
 30
0.0
 10
66.51342500507303
 20
-132.2568711691927
 30
0.0
 10
66.43522133755786
 20
-132.1869357308422
 30
0.0
 10
66.13687606853523
 20
-131.7755913299033
 30
0.0
 10
65.93809405903632
 20
-131.5020507483745
 30
0.0
 10
65.87022567797689
 20
-131.4317708004754
 30
0.0
 10
65.73276636811542
 20
-131.4317708004754
 30
0.0
 10
65.61425508342283
 20
-131.4317708004754
 30
0.0
 10
65.48334145498333
 20
-131.5085964297965
 30
0.0
 10
65.48334145498333
 20
-131.7190917639452
 30
0.0
 10
65.48334145498333
 20
-131.9971109696049
 30
0.0
 10
65.71381834294655
 20
-132.0060682178666
 30
0.0
 10
65.830262570348
 20
-132.0105468419974
 30
0.0
 10
65.830262570348
 20
-132.0105468419974
 30
0.0
 10
65.830262570348
 20
-132.2503254877708
 30
0.0
 10
65.830262570348
 20
-132.2503254877708
 30
0.0
 10
65.70313854694227
 20
-132.2413682395091
 30
0.0
 10
65.59117294367165
 20
-132.2299994244078
 30
0.0
 10
65.47266165897906
 20
-132.1438720372765
 30
0.0
 10
65.31177569981789
 20
-132.0263942812295
 30
0.0
 10
65.27801376406245
 20
-131.8276122717306
 30
0.0
 10
65.27801376406245
 20
-131.7032443247131
 30
0.0
 10
65.27801376406245
 20
-131.4069661129816
 30
0.0
 10
65.46198186297478
 20
-131.18544647328
 30
0.0
 10
65.73483342540658
 20
-131.18544647328
 30
0.0
 10
65.96358776562717
 20
-131.18544647328
 30
0.0
 10
66.06280651560236
 20
-131.3098144202976
 30
0.0
 10
66.28914928898327
 20
-131.6398545677845
 30
0.0
  0
HATCH
  5
127
330
122
100
AcDbEntity
  8
_U+30EC_U+30A4_U+30E4_U+30FC 1
 62
     7
420
 16777215
100
AcDbHatch
 10
0.0
 20
0.0
 30
0.0
210
0.0
220
0.0
230
1.0
  2
SOLID
 70
     1
 71
     0
 91
        1
 92
        1
 93
        1
 72
     4
 94
        3
 73
     0
 74
     1
 95
       44
 96
       40
 40
0.0
 40
0.0
 40
0.0
 40
0.0
 40
1.0
 40
1.0
 40
1.0
 40
2.0
 40
2.0
 40
2.0
 40
3.0
 40
3.0
 40
3.0
 40
4.0
 40
4.0
 40
4.0
 40
5.0
 40
5.0
 40
5.0
 40
6.0
 40
6.0
 40
6.0
 40
7.0
 40
7.0
 40
7.0
 40
8.0
 40
8.0
 40
8.0
 40
9.0
 40
9.0
 40
9.0
 40
10.0
 40
10.0
 40
10.0
 40
11.0
 40
11.0
 40
11.0
 40
12.0
 40
12.0
 40
12.0
 40
13.0
 40
13.0
 40
13.0
 40
13.0
 10
66.28914928898327
 20
-131.6398545677845
 10
66.44796819085329
 20
-131.8727430225874
 10
66.52203774378616
 20
-131.9723062821111
 10
66.66569822552108
 20
-132.0243272239384
 10
66.66569822552108
 20
-132.0243272239384
 10
66.66569822552108
 20
-131.191992154702
 10
66.66569822552108
 20
-131.191992154702
 10
66.66569822552108
 20
-131.191992154702
 10
66.87102591644197
 20
-131.191992154702
 10
66.87102591644197
 20
-131.191992154702
 10
66.87102591644197
 20
-131.191992154702
 10
66.87102591644197
 20
-132.2909776144967
 10
66.87102591644197
 20
-132.2909776144967
 10
66.51342500507303
 20
-132.2568711691927
 10
66.43522133755786
 20
-132.1869357308422
 10
66.13687606853523
 20
-131.7755913299033
 10
65.93809405903632
 20
-131.5020507483745
 10
65.87022567797689
 20
-131.4317708004754
 10
65.73276636811542
 20
-131.4317708004754
 10
65.61425508342283
 20
-131.4317708004754
 10
65.48334145498333
 20
-131.5085964297965
 10
65.48334145498333
 20
-131.7190917639452
 10
65.48334145498333
 20
-131.9971109696049
 10
65.71381834294655
 20
-132.0060682178666
 10
65.830262570348
 20
-132.0105468419974
 10
65.830262570348
 20
-132.0105468419974
 10
65.830262570348
 20
-132.2503254877708
 10
65.830262570348
 20
-132.2503254877708
 10
65.70313854694227
 20
-132.2413682395091
 10
65.59117294367165
 20
-132.2299994244078
 10
65.47266165897906
 20
-132.1438720372765
 10
65.31177569981789
 20
-132.0263942812295
 10
65.27801376406245
 20
-131.8276122717306
 10
65.27801376406245
 20
-131.7032443247131
 10
65.27801376406245
 20
-131.4069661129816
 10
65.46198186297478
 20
-131.18544647328
 10
65.73483342540658
 20
-131.18544647328
 10
65.96358776562717
 20
-131.18544647328
 10
66.06280651560236
 20
-131.3098144202976
 10
66.28914928898327
 20
-131.6398545677845
 97
        0
 97
        0
 75
     2
 76
     1
 98
        0
  0
SPLINE
  5
128
330
122
100
AcDbEntity
  8
_U+30EC_U+30A4_U+30E4_U+30FC 1
370
     0
100
AcDbSpline
210
0.0
220
0.0
230
1.0
 70
    11
 71
     3
 72
    29
 73
    25
 74
     0
 42
0.0000000001
 43
0.0000000001
 12
1.0
 22
0.0
 32
0.0
 13
1.0
 23
0.0
 33
0.0
 40
0.0
 40
0.0
 40
0.0
 40
0.0
 40
1.0
 40
1.0
 40
1.0
 40
2.0
 40
2.0
 40
2.0
 40
3.0
 40
3.0
 40
3.0
 40
4.0
 40
4.0
 40
4.0
 40
5.0
 40
5.0
 40
5.0
 40
6.0
 40
6.0
 40
6.0
 40
7.0
 40
7.0
 40
7.0
 40
8.0
 40
8.0
 40
8.0
 40
8.0
 10
66.69325898940308
 20
-130.0564886827637
 30
0.0
 10
66.90272079490627
 20
-130.1718993815195
 30
0.0
 10
66.92166882007514
 20
-130.357245518626
 30
0.0
 10
66.92166882007514
 20
-130.4816134656435
 30
0.0
 10
66.92166882007514
 20
-130.6531792208089
 30
0.0
 10
66.87516003102427
 20
-130.8047634221599
 30
0.0
 10
66.69325898940308
 20
-130.9063937389748
 30
0.0
 10
66.49861109448646
 20
-131.0173258135999
 30
0.0
 10
66.26158852510127
 20
-131.0376518769628
 30
0.0
 10
66.09898001819748
 20
-131.0376518769628
 30
0.0
 10
65.95497502691404
 20
-131.0376518769628
 30
0.0
 10
65.70313854694227
 20
-131.0197373804395
 30
0.0
 10
65.50435653744336
 20
-130.9063937389748
 30
0.0
 10
65.30144041336214
 20
-130.7913275497675
 30
0.0
 10
65.27801376406245
 20
-130.6194172850535
 30
0.0
 10
65.27801376406245
 20
-130.4816134656435
 30
0.0
 10
65.27801376406245
 20
-130.3117702582207
 30
0.0
 10
65.32245549582217
 20
-130.1581189995785
 30
0.0
 10
65.50435653744336
 20
-130.0564886827637
 30
0.0
 10
65.69693737506883
 20
-129.9500352322694
 30
0.0
 10
65.92534720574089
 20
-129.9252305447756
 30
0.0
 10
66.09898001819748
 20
-129.9252305447756
 30
0.0
 10
66.2702012638144
 20
-129.9252305447756
 30
0.0
 10
66.5006781517776
 20
-129.9479681749783
 30
0.0
 10
66.69325898940308
 20
-130.0564886827637
 30
0.0
  0
SPLINE
  5
129
330
122
100
AcDbEntity
  8
_U+30EC_U+30A4_U+30E4_U+30FC 1
370
     0
100
AcDbSpline
210
0.0
220
0.0
230
1.0
 70
    11
 71
     3
 72
    17
 73
    13
 74
     0
 42
0.0000000001
 43
0.0000000001
 12
1.0
 22
0.0
 32
0.0
 13
1.0
 23
0.0
 33
0.0
 40
0.0
 40
0.0
 40
0.0
 40
0.0
 40
1.0
 40
1.0
 40
1.0
 40
2.0
 40
2.0
 40
2.0
 40
3.0
 40
3.0
 40
3.0
 40
4.0
 40
4.0
 40
4.0
 40
4.0
 10
65.4705946016879
 20
-130.4816134656435
 30
0.0
 10
65.4705946016879
 20
-130.7482638562018
 30
0.0
 10
65.75412596012397
 20
-130.7978732311894
 30
0.0
 10
66.09898001819748
 20
-130.7978732311894
 30
0.0
 10
66.41834036968014
 20
-130.7978732311894
 30
0.0
 10
66.72702092515853
 20
-130.7596326713032
 30
0.0
 10
66.72702092515853
 20
-130.4816134656435
 30
0.0
 10
66.72702092515853
 20
-130.2170301323763
 30
0.0
 10
66.44590113356215
 20
-130.165009190549
 30
0.0
 10
66.09898001819748
 20
-130.165009190549
 30
0.0
 10
65.7792751571663
 20
-130.165009190549
 30
0.0
 10
65.4705946016879
 20
-130.205661317275
 30
0.0
 10
65.4705946016879
 20
-130.4816134656435
 30
0.0
  0
HATCH
  5
12A
330
122
100
AcDbEntity
  8
_U+30EC_U+30A4_U+30E4_U+30FC 1
 62
     7
420
 16777215
100
AcDbHatch
 10
0.0
 20
0.0
 30
0.0
210
0.0
220
0.0
230
1.0
  2
SOLID
 70
     1
 71
     0
 91
        2
 92
        1
 93
        1
 72
     4
 94
        3
 73
     0
 74
     1
 95
       29
 96
       25
 40
0.0
 40
0.0
 40
0.0
 40
0.0
 40
1.0
 40
1.0
 40
1.0
 40
2.0
 40
2.0
 40
2.0
 40
3.0
 40
3.0
 40
3.0
 40
4.0
 40
4.0
 40
4.0
 40
5.0
 40
5.0
 40
5.0
 40
6.0
 40
6.0
 40
6.0
 40
7.0
 40
7.0
 40
7.0
 40
8.0
 40
8.0
 40
8.0
 40
8.0
 10
66.69325898940308
 20
-130.0564886827637
 10
66.90272079490627
 20
-130.1718993815195
 10
66.92166882007514
 20
-130.357245518626
 10
66.92166882007514
 20
-130.4816134656435
 10
66.92166882007514
 20
-130.6531792208089
 10
66.87516003102427
 20
-130.8047634221599
 10
66.69325898940308
 20
-130.9063937389748
 10
66.49861109448646
 20
-131.0173258135999
 10
66.26158852510127
 20
-131.0376518769628
 10
66.09898001819748
 20
-131.0376518769628
 10
65.95497502691404
 20
-131.0376518769628
 10
65.70313854694227
 20
-131.0197373804395
 10
65.50435653744336
 20
-130.9063937389748
 10
65.30144041336214
 20
-130.7913275497675
 10
65.27801376406245
 20
-130.6194172850535
 10
65.27801376406245
 20
-130.4816134656435
 10
65.27801376406245
 20
-130.3117702582207
 10
65.32245549582217
 20
-130.1581189995785
 10
65.50435653744336
 20
-130.0564886827637
 10
65.69693737506883
 20
-129.9500352322694
 10
65.92534720574089
 20
-129.9252305447756
 10
66.09898001819748
 20
-129.9252305447756
 10
66.2702012638144
 20
-129.9252305447756
 10
66.5006781517776
 20
-129.9479681749783
 10
66.69325898940308
 20
-130.0564886827637
 97
        0
 97
        0
 92
        1
 93
        1
 72
     4
 94
        3
 73
     0
 74
     1
 95
       17
 96
       13
 40
0.0
 40
0.0
 40
0.0
 40
0.0
 40
1.0
 40
1.0
 40
1.0
 40
2.0
 40
2.0
 40
2.0
 40
3.0
 40
3.0
 40
3.0
 40
4.0
 40
4.0
 40
4.0
 40
4.0
 10
65.4705946016879
 20
-130.4816134656435
 10
65.4705946016879
 20
-130.7482638562018
 10
65.75412596012397
 20
-130.7978732311894
 10
66.09898001819748
 20
-130.7978732311894
 10
66.41834036968014
 20
-130.7978732311894
 10
66.72702092515853
 20
-130.7596326713032
 10
66.72702092515853
 20
-130.4816134656435
 10
66.72702092515853
 20
-130.2170301323763
 10
66.44590113356215
 20
-130.165009190549
 10
66.09898001819748
 20
-130.165009190549
 10
65.7792751571663
 20
-130.165009190549
 10
65.4705946016879
 20
-130.205661317275
 10
65.4705946016879
 20
-130.4816134656435
 97
        0
 97
        0
 75
     2
 76
     1
 98
        0
  0
ENDBLK
  5
125
330
122
100
AcDbEntity
  8
0
100
AcDbBlockEnd
  0
ENDSEC
  0
SECTION
  2
ENTITIES
  0
INSERT
  5
42
330
1F
100
AcDbEntity
  8
_U+30EC_U+30A4_U+30E4_U+30FC 1
100
AcDbBlockReference
  2
block 2
 10
0.0
 20
0.0
 30
0.0
  0
ENDSEC
  0
SECTION
  2
OBJECTS
  0
DICTIONARY
  5
C
330
0
100
AcDbDictionary
281
     1
  3
ACAD_GROUP
350
D
  3
ACAD_LAYOUT
350
1A
  3
ACAD_MATERIAL
350
3B
  3
ACAD_MLEADERSTYLE
350
12C
  3
ACAD_MLINESTYLE
350
17
  3
ACAD_PLOTSETTINGS
350
19
  3
ACAD_PLOTSTYLENAME
350
E
  3
ACAD_TABLESTYLE
350
12B
  3
ACAD_VISUALSTYLE
350
2A
  0
SUN
  5
3F
330
29
100
AcDbSun
 90
        1
290
     0
 63
     7
421
 16777215
 40
1.0
291
     1
 91
  2455826
 92
 54000000
292
     0
 70
     2
 71
   256
280
     1
  0
DICTIONARY
  5
D
102
{ACAD_REACTORS
330
C
102
}
330
C
100
AcDbDictionary
281
     1
  0
DICTIONARY
  5
1A
102
{ACAD_REACTORS
330
C
102
}
330
C
100
AcDbDictionary
281
     1
  3
Layout1
350
1E
  3
Layout2
350
26
  3
Model
350
22
  0
DICTIONARY
  5
3B
102
{ACAD_REACTORS
330
C
102
}
330
C
100
AcDbDictionary
281
     1
  3
ByBlock
350
3D
  3
ByLayer
350
3C
  3
Global
350
3E
  0
DICTIONARY
  5
12C
102
{ACAD_REACTORS
330
C
102
}
330
C
100
AcDbDictionary
281
     1
  0
DICTIONARY
  5
17
102
{ACAD_REACTORS
330
C
102
}
330
C
100
AcDbDictionary
281
     1
  3
Standard
350
18
  0
DICTIONARY
  5
19
102
{ACAD_REACTORS
330
C
102
}
330
C
100
AcDbDictionary
281
     1
  0
ACDBDICTIONARYWDFLT
  5
E
102
{ACAD_REACTORS
330
C
102
}
330
C
100
AcDbDictionary
281
     1
  3
Normal
350
F
100
AcDbDictionaryWithDefault
340
F
  0
DICTIONARY
  5
12B
102
{ACAD_REACTORS
330
C
102
}
330
C
100
AcDbDictionary
281
     1
  0
DICTIONARY
  5
2A
102
{ACAD_REACTORS
330
C
102
}
330
C
100
AcDbDictionary
281
     1
  3
2dWireframe
350
2F
  3
3D Hidden
350
31
  3
3dWireframe
350
30
  3
Basic
350
32
  3
Brighten
350
36
  3
ColorChange
350
3A
  3
Conceptual
350
34
  3
Dim
350
35
  3
Facepattern
350
39
  3
Flat
350
2B
  3
FlatWithEdges
350
2C
  3
Gouraud
350
2D
  3
GouraudWithEdges
350
2E
  3
Linepattern
350
38
  3
Realistic
350
33
  3
Thicken
350
37
  0
LAYOUT
  5
1E
102
{ACAD_REACTORS
330
1A
102
}
330
1A
100
AcDbPlotSettings
  1

  2
none_device
  4

  6

 40
0.0
 41
0.0
 42
0.0
 43
0.0
 44
0.0
 45
0.0
 46
0.0
 47
0.0
 48
0.0
 49
0.0
140
0.0
141
0.0
142
1.0
143
1.0
 70
   688
 72
     0
 73
     0
 74
     5
  7

 75
    16
 76
     0
 77
     2
 78
   300
147
1.0
148
0.0
149
0.0
100
AcDbLayout
  1
Layout1
 70
     1
 71
     1
 10
0.0
 20
0.0
 11
12.0
 21
9.0
 12
0.0
 22
0.0
 32
0.0
 14
1.000000000000000E+20
 24
1.000000000000000E+20
 34
1.000000000000000E+20
 15
-1.000000000000000E+20
 25
-1.000000000000000E+20
 35
-1.000000000000000E+20
146
0.0
 13
0.0
 23
0.0
 33
0.0
 16
1.0
 26
0.0
 36
0.0
 17
0.0
 27
1.0
 37
0.0
 76
     0
330
1B
  0
LAYOUT
  5
26
102
{ACAD_REACTORS
330
1A
102
}
330
1A
100
AcDbPlotSettings
  1

  2
none_device
  4

  6

 40
0.0
 41
0.0
 42
0.0
 43
0.0
 44
0.0
 45
0.0
 46
0.0
 47
0.0
 48
0.0
 49
0.0
140
0.0
141
0.0
142
1.0
143
1.0
 70
   688
 72
     0
 73
     0
 74
     5
  7

 75
    16
 76
     0
 77
     2
 78
   300
147
1.0
148
0.0
149
0.0
100
AcDbLayout
  1
Layout2
 70
     1
 71
     2
 10
0.0
 20
0.0
 11
0.0
 21
0.0
 12
0.0
 22
0.0
 32
0.0
 14
0.0
 24
0.0
 34
0.0
 15
0.0
 25
0.0
 35
0.0
146
0.0
 13
0.0
 23
0.0
 33
0.0
 16
1.0
 26
0.0
 36
0.0
 17
0.0
 27
1.0
 37
0.0
 76
     0
330
23
  0
LAYOUT
  5
22
102
{ACAD_REACTORS
330
1A
102
}
330
1A
100
AcDbPlotSettings
  1

  2
none_device
  4

  6

 40
0.0
 41
0.0
 42
0.0
 43
0.0
 44
0.0
 45
0.0
 46
0.0
 47
0.0
 48
0.0
 49
0.0
140
0.0
141
0.0
142
1.0
143
1.0
 70
  1712
 72
     0
 73
     0
 74
     0
  7

 75
     0
 76
     0
 77
     2
 78
   300
147
1.0
148
0.0
149
0.0
100
AcDbLayout
  1
Model
 70
     1
 71
     0
 10
0.0
 20
0.0
 11
12.0
 21
9.0
 12
0.0
 22
0.0
 32
0.0
 14
1.000000000000000E+20
 24
1.000000000000000E+20
 34
1.000000000000000E+20
 15
-1.000000000000000E+20
 25
-1.000000000000000E+20
 35
-1.000000000000000E+20
146
0.0
 13
0.0
 23
0.0
 33
0.0
 16
1.0
 26
0.0
 36
0.0
 17
0.0
 27
1.0
 37
0.0
 76
     0
330
1F
331
29
  0
MATERIAL
  5
3D
102
{ACAD_REACTORS
330
3B
102
}
330
3B
100
AcDbMaterial
  1
ByBlock
 72
     1
 94
      127
  0
MATERIAL
  5
3C
102
{ACAD_REACTORS
330
3B
102
}
330
3B
100
AcDbMaterial
  1
ByLayer
 72
     1
 94
      127
  0
MATERIAL
  5
3E
102
{ACAD_REACTORS
330
3B
102
}
330
3B
100
AcDbMaterial
  1
Global
 72
     1
 94
      127
  0
MLINESTYLE
  5
18
102
{ACAD_REACTORS
330
17
102
}
330
17
100
AcDbMlineStyle
  2
Standard
 70
     0
  3

 62
   256
 51
90.0
 52
90.0
 71
     2
 49
0.5
 62
   256
  6
BYLAYER
 49
-0.5
 62
   256
  6
BYLAYER
  0
ACDBPLACEHOLDER
  5
F
102
{ACAD_REACTORS
330
E
102
}
330
E
  0
VISUALSTYLE
  5
2F
102
{ACAD_REACTORS
330
2A
102
}
330
2A
100
AcDbVisualStyle
  2
2dWireframe
 70
     4
177
     2
291
     0
 71
     0
176
     1
 72
     2
176
     1
 73
     0
176
     1
 90
        0
176
     1
 40
-0.6
176
     1
 41
-30.0
176
     1
 62
     5
 63
     7
421
 16777215
176
     1
 74
     1
176
     1
 91
        4
176
     1
 64
     7
176
     1
 65
   257
176
     1
 75
     1
176
     1
175
     1
176
     1
 42
1.0
176
     1
 92
        0
176
     1
 66
   257
176
     1
 43
1.0
176
     1
 76
     1
176
     1
 77
     6
176
     1
 78
     2
176
     1
 67
     7
176
     1
 79
     5
176
     1
170
     0
176
     1
171
     0
176
     1
290
     0
176
     1
 93
        1
176
     1
 44
0.0
176
     1
173
     0
176
     1
  0
VISUALSTYLE
  5
31
102
{ACAD_REACTORS
330
2A
102
}
330
2A
100
AcDbVisualStyle
  2
3D Hidden
 70
     6
177
     2
291
     0
 71
     1
176
     1
 72
     2
176
     1
 73
     2
176
     1
 90
        0
176
     1
 40
-0.6
176
     1
 41
-30.0
176
     1
 62
     5
 63
     7
421
 16777215
176
     1
 74
     2
176
     1
 91
        2
176
     1
 64
     7
176
     1
 65
   257
176
     1
 75
     2
176
     1
175
     1
176
     1
 42
40.0
176
     1
 92
        0
176
     1
 66
   257
176
     1
 43
1.0
176
     1
 76
     1
176
     1
 77
     6
176
     1
 78
     2
176
     1
 67
     7
176
     1
 79
     3
176
     1
170
     0
176
     1
171
     0
176
     1
290
     0
176
     1
 93
        1
176
     1
 44
0.0
176
     1
173
     0
176
     1
  0
VISUALSTYLE
  5
30
102
{ACAD_REACTORS
330
2A
102
}
330
2A
100
AcDbVisualStyle
  2
3dWireframe
 70
     5
177
     2
291
     0
 71
     0
176
     1
 72
     2
176
     1
 73
     0
176
     1
 90
        0
176
     1
 40
-0.6
176
     1
 41
-30.0
176
     1
 62
     5
 63
     7
421
 16777215
176
     1
 74
     1
176
     1
 91
        4
176
     1
 64
     7
176
     1
 65
   257
176
     1
 75
     1
176
     1
175
     1
176
     1
 42
1.0
176
     1
 92
        0
176
     1
 66
   257
176
     1
 43
1.0
176
     1
 76
     1
176
     1
 77
     6
176
     1
 78
     2
176
     1
 67
     7
176
     1
 79
     5
176
     1
170
     0
176
     1
171
     0
176
     1
290
     0
176
     1
 93
        1
176
     1
 44
0.0
176
     1
173
     0
176
     1
  0
VISUALSTYLE
  5
32
102
{ACAD_REACTORS
330
2A
102
}
330
2A
100
AcDbVisualStyle
  2
Basic
 70
     7
177
     2
291
     1
 71
     1
176
     1
 72
     0
176
     1
 73
     1
176
     1
 90
        0
176
     1
 40
-0.6
176
     1
 41
-30.0
176
     1
 62
     5
 63
     7
421
 16777215
176
     1
 74
     0
176
     1
 91
        4
176
     1
 64
     7
176
     1
 65
   257
176
     1
 75
     1
176
     1
175
     1
176
     1
 42
1.0
176
     1
 92
        8
176
     1
 66
     7
176
     1
 43
1.0
176
     1
 76
     1
176
     1
 77
     6
176
     1
 78
     2
176
     1
 67
     7
176
     1
 79
     5
176
     1
170
     0
176
     1
171
     0
176
     1
290
     0
176
     1
 93
        1
176
     1
 44
0.0
176
     1
173
     0
176
     1
  0
VISUALSTYLE
  5
36
102
{ACAD_REACTORS
330
2A
102
}
330
2A
100
AcDbVisualStyle
  2
Brighten
 70
    12
177
     2
291
     1
 71
     2
176
     1
 72
     2
176
     1
 73
     0
176
     1
 90
        0
176
     1
 40
-0.6
176
     1
 41
-30.0
176
     1
 62
     5
 63
     7
421
 16777215
176
     1
 74
     1
176
     1
 91
        4
176
     1
 64
     7
176
     1
 65
   257
176
     1
 75
     1
176
     1
175
     1
176
     1
 42
1.0
176
     1
 92
        8
176
     1
 66
     7
176
     1
 43
1.0
176
     1
 76
     1
176
     1
 77
     6
176
     1
 78
     2
176
     1
 67
     7
176
     1
 79
     5
176
     1
170
     0
176
     1
171
     0
176
     1
290
     0
176
     1
 93
        1
176
     1
 44
50.0
176
     1
173
     0
176
     1
  0
VISUALSTYLE
  5
3A
102
{ACAD_REACTORS
330
2A
102
}
330
2A
100
AcDbVisualStyle
  2
ColorChange
 70
    16
177
     2
291
     1
 71
     2
176
     1
 72
     2
176
     1
 73
     3
176
     1
 90
        0
176
     1
 40
-0.6
176
     1
 41
-30.0
176
     1
 62
     5
 63
     8
421
  8421504
176
     1
 74
     1
176
     1
 91
        4
176
     1
 64
     7
176
     1
 65
   257
176
     1
 75
     1
176
     1
175
     1
176
     1
 42
1.0
176
     1
 92
        8
176
     1
 66
     8
424
  8421504
176
     1
 43
1.0
176
     1
 76
     1
176
     1
 77
     6
176
     1
 78
     2
176
     1
 67
     7
176
     1
 79
     5
176
     1
170
     0
176
     1
171
     0
176
     1
290
     0
176
     1
 93
        1
176
     1
 44
0.0
176
     1
173
     0
176
     1
  0
VISUALSTYLE
  5
34
102
{ACAD_REACTORS
330
2A
102
}
330
2A
100
AcDbVisualStyle
  2
Conceptual
 70
     9
177
     2
291
     0
 71
     3
176
     1
 72
     2
176
     1
 73
     0
176
     1
 90
        0
176
     1
 40
-0.6
176
     1
 41
-30.0
176
     1
 62
     5
 63
     7
421
 16777215
176
     1
 74
     2
176
     1
 91
        2
176
     1
 64
     7
176
     1
 65
   257
176
     1
 75
     1
176
     1
175
     1
176
     1
 42
40.0
176
     1
 92
        8
176
     1
 66
     7
176
     1
 43
1.0
176
     1
 76
     1
176
     1
 77
     6
176
     1
 78
     2
176
     1
 67
     7
176
     1
 79
     3
176
     1
170
     0
176
     1
171
     0
176
     1
290
     0
176
     1
 93
        1
176
     1
 44
0.0
176
     1
173
     0
176
     1
  0
VISUALSTYLE
  5
35
102
{ACAD_REACTORS
330
2A
102
}
330
2A
100
AcDbVisualStyle
  2
Dim
 70
    11
177
     2
291
     1
 71
     2
176
     1
 72
     2
176
     1
 73
     0
176
     1
 90
        0
176
     1
 40
-0.6
176
     1
 41
-30.0
176
     1
 62
     5
 63
     7
421
 16777215
176
     1
 74
     1
176
     1
 91
        4
176
     1
 64
     7
176
     1
 65
   257
176
     1
 75
     1
176
     1
175
     1
176
     1
 42
1.0
176
     1
 92
        8
176
     1
 66
     7
176
     1
 43
1.0
176
     1
 76
     1
176
     1
 77
     6
176
     1
 78
     2
176
     1
 67
     7
176
     1
 79
     5
176
     1
170
     0
176
     1
171
     0
176
     1
290
     0
176
     1
 93
        1
176
     1
 44
-50.0
176
     1
173
     0
176
     1
  0
VISUALSTYLE
  5
39
102
{ACAD_REACTORS
330
2A
102
}
330
2A
100
AcDbVisualStyle
  2
Facepattern
 70
    15
177
     2
291
     1
 71
     2
176
     1
 72
     2
176
     1
 73
     0
176
     1
 90
        0
176
     1
 40
-0.6
176
     1
 41
-30.0
176
     1
 62
     5
 63
     7
421
 16777215
176
     1
 74
     1
176
     1
 91
        4
176
     1
 64
     7
176
     1
 65
   257
176
     1
 75
     1
176
     1
175
     1
176
     1
 42
1.0
176
     1
 92
        8
176
     1
 66
     7
176
     1
 43
1.0
176
     1
 76
     1
176
     1
 77
     6
176
     1
 78
     2
176
     1
 67
     7
176
     1
 79
     5
176
     1
170
     0
176
     1
171
     0
176
     1
290
     0
176
     1
 93
        1
176
     1
 44
0.0
176
     1
173
     0
176
     1
  0
VISUALSTYLE
  5
2B
102
{ACAD_REACTORS
330
2A
102
}
330
2A
100
AcDbVisualStyle
  2
Flat
 70
     0
177
     2
291
     1
 71
     2
176
     1
 72
     1
176
     1
 73
     1
176
     1
 90
        2
176
     1
 40
-0.6
176
     1
 41
30.0
176
     1
 62
     5
 63
     7
421
 16777215
176
     1
 74
     0
176
     1
 91
        4
176
     1
 64
     7
176
     1
 65
   257
176
     1
 75
     1
176
     1
175
     1
176
     1
 42
1.0
176
     1
 92
        8
176
     1
 66
     7
176
     1
 43
1.0
176
     1
 76
     1
176
     1
 77
     6
176
     1
 78
     2
176
     1
 67
     7
176
     1
 79
     5
176
     1
170
     0
176
     1
171
     0
176
     1
290
     0
176
     1
 93
       13
176
     1
 44
0.0
176
     1
173
     0
176
     1
  0
VISUALSTYLE
  5
2C
102
{ACAD_REACTORS
330
2A
102
}
330
2A
100
AcDbVisualStyle
  2
FlatWithEdges
 70
     1
177
     2
291
     1
 71
     2
176
     1
 72
     1
176
     1
 73
     1
176
     1
 90
        2
176
     1
 40
-0.6
176
     1
 41
30.0
176
     1
 62
     5
 63
     7
421
 16777215
176
     1
 74
     1
176
     1
 91
        4
176
     1
 64
     7
176
     1
 65
   257
176
     1
 75
     1
176
     1
175
     1
176
     1
 42
1.0
176
     1
 92
        0
176
     1
 66
   257
176
     1
 43
1.0
176
     1
 76
     1
176
     1
 77
     6
176
     1
 78
     2
176
     1
 67
     7
176
     1
 79
     5
176
     1
170
     0
176
     1
171
     0
176
     1
290
     0
176
     1
 93
       13
176
     1
 44
0.0
176
     1
173
     0
176
     1
  0
VISUALSTYLE
  5
2D
102
{ACAD_REACTORS
330
2A
102
}
330
2A
100
AcDbVisualStyle
  2
Gouraud
 70
     2
177
     2
291
     1
 71
     2
176
     1
 72
     2
176
     1
 73
     1
176
     1
 90
        2
176
     1
 40
-0.6
176
     1
 41
30.0
176
     1
 62
     5
 63
     7
421
 16777215
176
     1
 74
     0
176
     1
 91
        4
176
     1
 64
     7
176
     1
 65
   257
176
     1
 75
     1
176
     1
175
     1
176
     1
 42
1.0
176
     1
 92
        0
176
     1
 66
     7
176
     1
 43
1.0
176
     1
 76
     1
176
     1
 77
     6
176
     1
 78
     2
176
     1
 67
     7
176
     1
 79
     5
176
     1
170
     0
176
     1
171
     0
176
     1
290
     0
176
     1
 93
       13
176
     1
 44
0.0
176
     1
173
     0
176
     1
  0
VISUALSTYLE
  5
2E
102
{ACAD_REACTORS
330
2A
102
}
330
2A
100
AcDbVisualStyle
  2
GouraudWithEdges
 70
     3
177
     2
291
     1
 71
     2
176
     1
 72
     2
176
     1
 73
     1
176
     1
 90
        2
176
     1
 40
-0.6
176
     1
 41
30.0
176
     1
 62
     5
 63
     7
421
 16777215
176
     1
 74
     1
176
     1
 91
        4
176
     1
 64
     7
176
     1
 65
   257
176
     1
 75
     1
176
     1
175
     1
176
     1
 42
1.0
176
     1
 92
        0
176
     1
 66
   257
176
     1
 43
1.0
176
     1
 76
     1
176
     1
 77
     6
176
     1
 78
     2
176
     1
 67
     7
176
     1
 79
     5
176
     1
170
     0
176
     1
171
     0
176
     1
290
     0
176
     1
 93
       13
176
     1
 44
0.0
176
     1
173
     0
176
     1
  0
VISUALSTYLE
  5
38
102
{ACAD_REACTORS
330
2A
102
}
330
2A
100
AcDbVisualStyle
  2
Linepattern
 70
    14
177
     2
291
     1
 71
     2
176
     1
 72
     2
176
     1
 73
     0
176
     1
 90
        0
176
     1
 40
-0.6
176
     1
 41
-30.0
176
     1
 62
     5
 63
     7
421
 16777215
176
     1
 74
     1
176
     1
 91
        4
176
     1
 64
     7
176
     1
 65
   257
176
     1
 75
     7
176
     1
175
     7
176
     1
 42
1.0
176
     1
 92
        8
176
     1
 66
     7
176
     1
 43
1.0
176
     1
 76
     1
176
     1
 77
     6
176
     1
 78
     2
176
     1
 67
     7
176
     1
 79
     5
176
     1
170
     0
176
     1
171
     0
176
     1
290
     0
176
     1
 93
        1
176
     1
 44
0.0
176
     1
173
     0
176
     1
  0
VISUALSTYLE
  5
33
102
{ACAD_REACTORS
330
2A
102
}
330
2A
100
AcDbVisualStyle
  2
Realistic
 70
     8
177
     2
291
     0
 71
     2
176
     1
 72
     2
176
     1
 73
     0
176
     1
 90
        0
176
     1
 40
-0.6
176
     1
 41
-30.0
176
     1
 62
     5
 63
     7
421
 16777215
176
     1
 74
     1
176
     1
 91
        0
176
     1
 64
     7
176
     1
 65
   257
176
     1
 75
     1
176
     1
175
     1
176
     1
 42
1.0
176
     1
 92
        8
176
     1
 66
     8
424
  7895160
176
     1
 43
1.0
176
     1
 76
     1
176
     1
 77
     6
176
     1
 78
     2
176
     1
 67
     7
176
     1
 79
     5
176
     1
170
     0
176
     1
171
     0
176
     1
290
     0
176
     1
 93
       13
176
     1
 44
0.0
176
     1
173
     0
176
     1
  0
VISUALSTYLE
  5
37
102
{ACAD_REACTORS
330
2A
102
}
330
2A
100
AcDbVisualStyle
  2
Thicken
 70
    13
177
     2
291
     1
 71
     2
176
     1
 72
     2
176
     1
 73
     0
176
     1
 90
        0
176
     1
 40
-0.6
176
     1
 41
-30.0
176
     1
 62
     5
 63
     7
421
 16777215
176
     1
 74
     1
176
     1
 91
        4
176
     1
 64
     7
176
     1
 65
   257
176
     1
 75
     1
176
     1
175
     1
176
     1
 42
1.0
176
     1
 92
       12
176
     1
 66
     7
176
     1
 43
1.0
176
     1
 76
     1
176
     1
 77
     6
176
     1
 78
     2
176
     1
 67
     7
176
     1
 79
     5
176
     1
170
     0
176
     1
171
     0
176
     1
290
     0
176
     1
 93
        1
176
     1
 44
0.0
176
     1
173
     0
176
     1
  0
ENDSEC
  0
EOF
