  0
SECTION
  2
HEADER
  9
$ACADVER
  1
AC1024
  9
$ACADMAINTVER
 70
     6
  9
$DWGCODEPAGE
  3
UNDEFINED
  9
$INSBASE
 10
0.0
 20
0.0
 30
0.0
  9
$EXTMIN
 10
1.000000000000000E+20
 20
1.000000000000000E+20
 30
1.000000000000000E+20
  9
$EXTMAX
 10
-1.000000000000000E+20
 20
-1.000000000000000E+20
 30
-1.000000000000000E+20
  9
$LIMMIN
 10
0.0
 20
0.0
  9
$LIMMAX
 10
12.0
 20
9.0
  9
$ORTHOMODE
 70
     0
  9
$REGENMODE
 70
     1
  9
$FILLMODE
 70
     1
  9
$QTEXTMODE
 70
     0
  9
$MIRRTEXT
 70
     1
  9
$LTSCALE
 40
1.0
  9
$ATTMODE
 70
     1
  9
$TEXTSIZE
 40
0.2
  9
$TRACEWID
 40
0.05
  9
$TEXTSTYLE
  7
Standard
  9
$CLAYER
  8
0
  9
$CELTYPE
  6
ByLayer
  9
$CECOLOR
 62
   256
  9
$CELTSCALE
 40
1.0
  9
$DISPSILH
 70
     0
  9
$DIMSCALE
 40
1.0
  9
$DIMASZ
 40
0.18
  9
$DIMEXO
 40
0.0625
  9
$DIMDLI
 40
0.38
  9
$DIMRND
 40
0.0
  9
$DIMDLE
 40
0.0
  9
$DIMEXE
 40
0.18
  9
$DIMTP
 40
0.0
  9
$DIMTM
 40
0.0
  9
$DIMTXT
 40
0.18
  9
$DIMCEN
 40
0.09
  9
$DIMTSZ
 40
0.0
  9
$DIMTOL
 70
     0
  9
$DIMLIM
 70
     0
  9
$DIMTIH
 70
     1
  9
$DIMTOH
 70
     1
  9
$DIMSE1
 70
     0
  9
$DIMSE2
 70
     0
  9
$DIMTAD
 70
     0
  9
$DIMZIN
 70
     0
  9
$DIMBLK
  1

  9
$DIMASO
 70
     1
  9
$DIMSHO
 70
     1
  9
$DIMPOST
  1

  9
$DIMAPOST
  1

  9
$DIMALT
 70
     0
  9
$DIMALTD
 70
     2
  9
$DIMALTF
 40
25.4
  9
$DIMLFAC
 40
1.0
  9
$DIMTOFL
 70
     0
  9
$DIMTVP
 40
0.0
  9
$DIMTIX
 70
     0
  9
$DIMSOXD
 70
     0
  9
$DIMSAH
 70
     0
  9
$DIMBLK1
  1

  9
$DIMBLK2
  1

  9
$DIMSTYLE
  2
Standard
  9
$DIMCLRD
 70
     0
  9
$DIMCLRE
 70
     0
  9
$DIMCLRT
 70
     0
  9
$DIMTFAC
 40
1.0
  9
$DIMGAP
 40
0.09
  9
$DIMJUST
 70
     0
  9
$DIMSD1
 70
     0
  9
$DIMSD2
 70
     0
  9
$DIMTOLJ
 70
     1
  9
$DIMTZIN
 70
     0
  9
$DIMALTZ
 70
     0
  9
$DIMALTTZ
 70
     0
  9
$DIMUPT
 70
     0
  9
$DIMDEC
 70
     4
  9
$DIMTDEC
 70
     4
  9
$DIMALTU
 70
     2
  9
$DIMALTTD
 70
     2
  9
$DIMTXSTY
  7
Standard
  9
$DIMAUNIT
 70
     0
  9
$DIMADEC
 70
     0
  9
$DIMALTRND
 40
0.0
  9
$DIMAZIN
 70
     0
  9
$DIMDSEP
 70
    46
  9
$DIMATFIT
 70
     3
  9
$DIMFRAC
 70
     0
  9
$DIMLDRBLK
  1

  9
$DIMLUNIT
 70
     2
  9
$DIMLWD
 70
    -2
  9
$DIMLWE
 70
    -2
  9
$DIMTMOVE
 70
     0
  9
$DIMFXL
 40
1.0
  9
$DIMFXLON
 70
     0
  9
$DIMJOGANG
 40
0.7853981633974483
  9
$DIMTFILL
 70
     0
  9
$DIMTFILLCLR
 70
     0
  9
$DIMARCSYM
 70
     0
  9
$DIMLTYPE
  6

  9
$DIMLTEX1
  6

  9
$DIMLTEX2
  6

  9
$DIMTXTDIRECTION
 70
     0
  9
$LUNITS
 70
     2
  9
$LUPREC
 70
     4
  9
$SKETCHINC
 40
0.1
  9
$FILLETRAD
 40
0.5
  9
$AUNITS
 70
     0
  9
$AUPREC
 70
     0
  9
$MENU
  1
.
  9
$ELEVATION
 40
0.0
  9
$PELEVATION
 40
0.0
  9
$THICKNESS
 40
0.0
  9
$LIMCHECK
 70
     0
  9
$CHAMFERA
 40
0.5
  9
$CHAMFERB
 40
0.5
  9
$CHAMFERC
 40
1.0
  9
$CHAMFERD
 40
0.0
  9
$SKPOLY
 70
     0
  9
$TDCREATE
 40
2457917.613993056
  9
$TDUCREATE
 40
2457917.238993056
  9
$TDUPDATE
 40
2457917.613993056
  9
$TDUUPDATE
 40
2457917.238993056
  9
$TDINDWG
 40
0.0000000116
  9
$TDUSRTIMER
 40
0.0000000116
  9
$USRTIMER
 70
     1
  9
$ANGBASE
 50
0.0
  9
$ANGDIR
 70
     0
  9
$PDMODE
 70
     0
  9
$PDSIZE
 40
0.0
  9
$PLINEWID
 40
0.0
  9
$SPLFRAME
 70
     0
  9
$SPLINETYPE
 70
     6
  9
$SPLINESEGS
 70
     8
  9
$HANDSEED
  5
12E
  9
$SURFTAB1
 70
     6
  9
$SURFTAB2
 70
     6
  9
$SURFTYPE
 70
     6
  9
$SURFU
 70
     6
  9
$SURFV
 70
     6
  9
$UCSBASE
  2

  9
$UCSNAME
  2

  9
$UCSORG
 10
0.0
 20
0.0
 30
0.0
  9
$UCSXDIR
 10
1.0
 20
0.0
 30
0.0
  9
$UCSYDIR
 10
0.0
 20
1.0
 30
0.0
  9
$UCSORTHOREF
  2

  9
$UCSORTHOVIEW
 70
     0
  9
$UCSORGTOP
 10
0.0
 20
0.0
 30
0.0
  9
$UCSORGBOTTOM
 10
0.0
 20
0.0
 30
0.0
  9
$UCSORGLEFT
 10
0.0
 20
0.0
 30
0.0
  9
$UCSORGRIGHT
 10
0.0
 20
0.0
 30
0.0
  9
$UCSORGFRONT
 10
0.0
 20
0.0
 30
0.0
  9
$UCSORGBACK
 10
0.0
 20
0.0
 30
0.0
  9
$PUCSBASE
  2

  9
$PUCSNAME
  2

  9
$PUCSORG
 10
0.0
 20
0.0
 30
0.0
  9
$PUCSXDIR
 10
1.0
 20
0.0
 30
0.0
  9
$PUCSYDIR
 10
0.0
 20
1.0
 30
0.0
  9
$PUCSORTHOREF
  2

  9
$PUCSORTHOVIEW
 70
     0
  9
$PUCSORGTOP
 10
0.0
 20
0.0
 30
0.0
  9
$PUCSORGBOTTOM
 10
0.0
 20
0.0
 30
0.0
  9
$PUCSORGLEFT
 10
0.0
 20
0.0
 30
0.0
  9
$PUCSORGRIGHT
 10
0.0
 20
0.0
 30
0.0
  9
$PUCSORGFRONT
 10
0.0
 20
0.0
 30
0.0
  9
$PUCSORGBACK
 10
0.0
 20
0.0
 30
0.0
  9
$USERI1
 70
     0
  9
$USERI2
 70
     0
  9
$USERI3
 70
     0
  9
$USERI4
 70
     0
  9
$USERI5
 70
     0
  9
$USERR1
 40
0.0
  9
$USERR2
 40
0.0
  9
$USERR3
 40
0.0
  9
$USERR4
 40
0.0
  9
$USERR5
 40
0.0
  9
$WORLDVIEW
 70
     1
  9
$SHADEDGE
 70
     3
  9
$SHADEDIF
 70
    70
  9
$TILEMODE
 70
     1
  9
$MAXACTVP
 70
    64
  9
$PINSBASE
 10
0.0
 20
0.0
 30
0.0
  9
$PLIMCHECK
 70
     0
  9
$PEXTMIN
 10
1.000000000000000E+20
 20
1.000000000000000E+20
 30
1.000000000000000E+20
  9
$PEXTMAX
 10
-1.000000000000000E+20
 20
-1.000000000000000E+20
 30
-1.000000000000000E+20
  9
$PLIMMIN
 10
0.0
 20
0.0
  9
$PLIMMAX
 10
12.0
 20
9.0
  9
$UNITMODE
 70
     0
  9
$VISRETAIN
 70
     1
  9
$PLINEGEN
 70
     0
  9
$PSLTSCALE
 70
     1
  9
$TREEDEPTH
 70
  3020
  9
$CMLSTYLE
  2
Standard
  9
$CMLJUST
 70
     0
  9
$CMLSCALE
 40
1.0
  9
$PROXYGRAPHICS
 70
     1
  9
$MEASUREMENT
 70
     0
  9
$CELWEIGHT
370
    -1
  9
$ENDCAPS
280
     0
  9
$JOINSTYLE
280
     0
  9
$LWDISPLAY
290
     1
  9
$INSUNITS
 70
     1
  9
$HYPERLINKBASE
  1

  9
$STYLESHEET
  1

  9
$XEDIT
290
     1
  9
$CEPSNTYPE
380
     0
  9
$PSTYLEMODE
290
     1
  9
$FINGERPRINTGUID
  2
{A83A5C96-11C3-0539-7215-29E438E056CA}
  9
$VERSIONGUID
  2
{FAEB1C32-E019-11D5-929B-00C0DF256EC4}
  9
$EXTNAMES
290
     1
  9
$PSVPSCALE
 40
0.0
  9
$OLESTARTUP
290
     0
  9
$SORTENTS
280
   127
  9
$INDEXCTL
280
     0
  9
$HIDETEXT
280
     1
  9
$XCLIPFRAME
280
     2
  9
$HALOGAP
280
     0
  9
$OBSCOLOR
 70
   257
  9
$OBSLTYPE
280
     0
  9
$INTERSECTIONDISPLAY
280
     0
  9
$INTERSECTIONCOLOR
 70
   257
  9
$DIMASSOC
280
     2
  9
$PROJECTNAME
  1

  9
$CAMERADISPLAY
290
     0
  9
$LENSLENGTH
 40
50.0
  9
$CAMERAHEIGHT
 40
0.0
  9
$STEPSPERSEC
 40
2.0
  9
$STEPSIZE
 40
6.0
  9
$3DDWFPREC
 40
2.0
  9
$PSOLWIDTH
 40
0.25
  9
$PSOLHEIGHT
 40
4.0
  9
$LOFTANG1
 40
1.570796326794897
  9
$LOFTANG2
 40
1.570796326794897
  9
$LOFTMAG1
 40
0.0
  9
$LOFTMAG2
 40
0.0
  9
$LOFTPARAM
 70
     7
  9
$LOFTNORMALS
280
     1
  9
$LATITUDE
 40
37.795
  9
$LONGITUDE
 40
-122.394
  9
$NORTHDIRECTION
 40
0.0
  9
$TIMEZONE
 70
 -8000
  9
$LIGHTGLYPHDISPLAY
280
     1
  9
$TILEMODELIGHTSYNCH
280
     1
  9
$CMATERIAL
347
3C
  9
$SOLIDHIST
280
     1
  9
$SHOWHIST
280
     1
  9
$DWFFRAME
280
     2
  9
$DGNFRAME
280
     2
  9
$REALWORLDSCALE
290
     1
  9
$INTERFERECOLOR
 62
   256
  9
$CSHADOW
280
     0
  9
$SHADOWPLANELOCATION
 40
0.0
  0
ENDSEC
  0
SECTION
  2
CLASSES
  0
CLASS
  1
ACDBDICTIONARYWDFLT
  2
AcDbDictionaryWithDefault
  3
ObjectDBX Classes
 90
        0
 91
        4
280
     0
281
     0
  0
CLASS
  1
VISUALSTYLE
  2
AcDbVisualStyle
  3
ObjectDBX Classes
 90
     4095
 91
        4
280
     0
281
     0
  0
CLASS
  1
MATERIAL
  2
AcDbMaterial
  3
ObjectDBX Classes
 90
     1153
 91
        4
280
     0
281
     0
  0
CLASS
  1
SUN
  2
AcDbSun
  3
SCENEOE
 90
     1024
 91
        4
280
     0
281
     0
  0
ENDSEC
  0
SECTION
  2
TABLES
  0
TABLE
  2
VPORT
  5
8
330
0
100
AcDbSymbolTable
 70
     1
  0
VPORT
  5
29
330
8
100
AcDbSymbolTableRecord
100
AcDbViewportTableRecord
  2
*Active
 70
     0
 10
0.0
 20
0.0
 11
1.0
 21
1.0
 12
0.0
 22
0.0
 13
0.0
 23
0.0
 14
0.5
 24
0.5
 15
0.5
 25
0.5
 16
0.0
 26
0.0
 36
1.0
 17
91.00082462281999
 27
-128.4993055234307
 37
0.0
 40
256.9986110468615
 41
0.7081814508812795
 42
50.0
 43
0.0
 44
0.0
 50
0.0
 51
0.0
 71
     0
 72
   100
 73
     1
 74
     3
 75
     0
 76
     0
 77
     0
 78
     0
281
     0
 65
     1
110
0.0
120
0.0
130
0.0
111
1.0
121
0.0
131
0.0
112
0.0
122
1.0
132
0.0
 79
     0
146
0.0
 60
     3
 61
     5
292
     1
282
     1
141
0.0
142
0.0
 63
   250
361
3F
  0
ENDTAB
  0
TABLE
  2
LTYPE
  5
5
330
0
100
AcDbSymbolTable
 70
     1
  0
LTYPE
  5
14
330
5
100
AcDbSymbolTableRecord
100
AcDbLinetypeTableRecord
  2
ByBlock
 70
     0
  3

 72
    65
 73
     0
 40
0.0
  0
LTYPE
  5
15
330
5
100
AcDbSymbolTableRecord
100
AcDbLinetypeTableRecord
  2
ByLayer
 70
     0
  3

 72
    65
 73
     0
 40
0.0
  0
LTYPE
  5
16
330
5
100
AcDbSymbolTableRecord
100
AcDbLinetypeTableRecord
  2
Continuous
 70
     0
  3
Solid line
 72
    65
 73
     0
 40
0.0
  0
ENDTAB
  0
TABLE
  2
LAYER
  5
2
330
0
100
AcDbSymbolTable
 70
     2
  0
LAYER
  5
10
330
2
100
AcDbSymbolTableRecord
100
AcDbLayerTableRecord
  2
0
 70
     0
 62
     7
  6
Continuous
370
    -3
390
F
347
3E
  0
LAYER
  5
40
330
2
100
AcDbSymbolTableRecord
100
AcDbLayerTableRecord
  2
_U+30EC_U+30A4_U+30E4_U+30FC 1
 70
     0
 62
     7
  6
Continuous
370
    -3
390
F
347
3E
  0
ENDTAB
  0
TABLE
  2
STYLE
  5
3
330
0
100
AcDbSymbolTable
 70
     1
  0
STYLE
  5
11
330
3
100
AcDbSymbolTableRecord
100
AcDbTextStyleTableRecord
  2
Standard
 70
     0
 40
0.0
 41
1.0
 50
0.0
 71
     0
 42
0.2
  3
txt
  4

  0
ENDTAB
  0
TABLE
  2
VIEW
  5
6
330
0
100
AcDbSymbolTable
 70
     0
  0
ENDTAB
  0
TABLE
  2
UCS
  5
7
330
0
100
AcDbSymbolTable
 70
     0
  0
ENDTAB
  0
TABLE
  2
APPID
  5
9
330
0
100
AcDbSymbolTable
 70
     1
  0
APPID
  5
12
330
9
100
AcDbSymbolTableRecord
100
AcDbRegAppTableRecord
  2
ACAD
 70
     0
  0
ENDTAB
  0
TABLE
  2
DIMSTYLE
  5
A
330
0
100
AcDbSymbolTable
 70
     1
100
AcDbDimStyleTable
  0
DIMSTYLE
105
27
330
A
100
AcDbSymbolTableRecord
100
AcDbDimStyleTableRecord
  2
Standard
 70
     0
178
     0
340
11
  0
ENDTAB
  0
TABLE
  2
BLOCK_RECORD
  5
1
330
0
100
AcDbSymbolTable
 70
     9
  0
BLOCK_RECORD
  5
1F
330
1
100
AcDbSymbolTableRecord
100
AcDbBlockTableRecord
  2
*Model_Space
340
22
 70
     0
280
     1
281
     0
  0
BLOCK_RECORD
  5
1B
330
1
100
AcDbSymbolTableRecord
100
AcDbBlockTableRecord
  2
*Paper_Space
340
1E
 70
     0
280
     1
281
     0
  0
BLOCK_RECORD
  5
23
330
1
100
AcDbSymbolTableRecord
100
AcDbBlockTableRecord
  2
*Paper_Space0
340
26
 70
     0
280
     1
281
     0
  0
BLOCK_RECORD
  5
41
330
1
100
AcDbSymbolTableRecord
100
AcDbBlockTableRecord
  2
block 2
340
0
102
{BLKREFS
331
42
102
}
 70
     0
280
     1
281
     0
  0
BLOCK_RECORD
  5
98
330
1
100
AcDbSymbolTableRecord
100
AcDbBlockTableRecord
  2
block 3
340
0
102
{BLKREFS
331
99
102
}
 70
     0
280
     1
281
     0
  0
BLOCK_RECORD
  5
9E
330
1
100
AcDbSymbolTableRecord
100
AcDbBlockTableRecord
  2
block 4
340
0
102
{BLKREFS
331
9F
102
}
 70
     0
280
     1
281
     0
  0
BLOCK_RECORD
  5
CC
330
1
100
AcDbSymbolTableRecord
100
AcDbBlockTableRecord
  2
block 5
340
0
102
{BLKREFS
331
CD
102
}
 70
     0
280
     1
281
     0
  0
BLOCK_RECORD
  5
E1
330
1
100
AcDbSymbolTableRecord
100
AcDbBlockTableRecord
  2
block 6
340
0
102
{BLKREFS
331
E2
102
}
 70
     0
280
     1
281
     0
  0
BLOCK_RECORD
  5
F6
330
1
100
AcDbSymbolTableRecord
100
AcDbBlockTableRecord
  2
block 7
340
0
102
{BLKREFS
331
F7
102
}
 70
     0
280
     1
281
     0
  0
BLOCK_RECORD
  5
10E
330
1
100
AcDbSymbolTableRecord
100
AcDbBlockTableRecord
  2
block 8
340
0
102
{BLKREFS
331
10F
102
}
 70
     0
280
     1
281
     0
  0
BLOCK_RECORD
  5
123
330
1
100
AcDbSymbolTableRecord
100
AcDbBlockTableRecord
  2
block 9
340
0
102
{BLKREFS
331
124
102
}
 70
     0
280
     1
281
     0
  0
ENDTAB
  0
ENDSEC
  0
SECTION
  2
BLOCKS
  0
BLOCK
  5
20
330
1F
100
AcDbEntity
  8
0
100
AcDbBlockBegin
  2
*Model_Space
 70
     0
 10
0.0
 20
0.0
 30
0.0
  3
*Model_Space
  1

  0
ENDBLK
  5
21
330
1F
100
AcDbEntity
  8
0
100
AcDbBlockEnd
  0
BLOCK
  5
1C
330
1B
100
AcDbEntity
 67
     1
  8
0
100
AcDbBlockBegin
  2
*Paper_Space
 70
     0
 10
0.0
 20
0.0
 30
0.0
  3
*Paper_Space
  1

  0
ENDBLK
  5
1D
330
1B
100
AcDbEntity
 67
     1
  8
0
100
AcDbBlockEnd
  0
BLOCK
  5
24
330
23
100
AcDbEntity
  8
0
100
AcDbBlockBegin
  2
*Paper_Space0
 70
     0
 10
0.0
 20
0.0
 30
0.0
  3
*Paper_Space0
  1

  0
ENDBLK
  5
25
330
23
100
AcDbEntity
  8
0
100
AcDbBlockEnd
  0
BLOCK
  5
43
330
41
100
AcDbEntity
  8
0
100
AcDbBlockBegin
  2
block 2
 70
     0
 10
0.0
 20
0.0
 30
0.0
  3
block 2
  1

  0
POLYLINE
  5
45
330
41
100
AcDbEntity
  8
_U+30EC_U+30A4_U+30E4_U+30FC 1
370
     0
100
AcDb2dPolyline
 66
     1
 10
0.0
 20
0.0
 30
0.0
  0
VERTEX
  5
46
330
45
100
AcDbEntity
  8
_U+30EC_U+30A4_U+30E4_U+30FC 1
370
     0
100
AcDbVertex
100
AcDb2dVertex
 10
72.03813760659844
 20
-121.2155027474739
 30
0.0
  0
VERTEX
  5
47
330
45
100
AcDbEntity
  8
_U+30EC_U+30A4_U+30E4_U+30FC 1
370
     0
100
AcDbVertex
100
AcDb2dVertex
 10
73.59603951129749
 20
-121.2155027474739
 30
0.0
  0
VERTEX
  5
48
330
45
100
AcDbEntity
  8
_U+30EC_U+30A4_U+30E4_U+30FC 1
370
     0
100
AcDbVertex
100
AcDb2dVertex
 10
73.59603951129749
 20
-122.1560083027944
 30
0.0
  0
VERTEX
  5
49
330
45
100
AcDbEntity
  8
_U+30EC_U+30A4_U+30E4_U+30FC 1
370
     0
100
AcDbVertex
100
AcDb2dVertex
 10
73.09647091293144
 20
-122.1560083027944
 30
0.0
  0
VERTEX
  5
4A
330
45
100
AcDbEntity
  8
_U+30EC_U+30A4_U+30E4_U+30FC 1
370
     0
100
AcDbVertex
100
AcDb2dVertex
 10
73.09647091293144
 20
-128.7873133011364
 30
0.0
  0
VERTEX
  5
4B
330
45
100
AcDbEntity
  8
_U+30EC_U+30A4_U+30E4_U+30FC 1
370
     0
100
AcDbVertex
100
AcDb2dVertex
 10
106.9922761592885
 20
-128.8755077455588
 30
0.0
  0
VERTEX
  5
4C
330
45
100
AcDbEntity
  8
_U+30EC_U+30A4_U+30E4_U+30FC 1
370
     0
100
AcDbVertex
100
AcDb2dVertex
 10
106.9922761592885
 20
-129.8676952453108
 30
0.0
  0
VERTEX
  5
4D
330
45
100
AcDbEntity
  8
_U+30EC_U+30A4_U+30E4_U+30FC 1
370
     0
100
AcDbVertex
100
AcDb2dVertex
 10
73.09647091293144
 20
-129.8897438564163
 30
0.0
  0
VERTEX
  5
4E
330
45
100
AcDbEntity
  8
_U+30EC_U+30A4_U+30E4_U+30FC 1
370
     0
100
AcDbVertex
100
AcDb2dVertex
 10
73.09647091293144
 20
-140.2946069093707
 30
0.0
  0
VERTEX
  5
4F
330
45
100
AcDbEntity
  8
_U+30EC_U+30A4_U+30E4_U+30FC 1
370
     0
100
AcDbVertex
100
AcDb2dVertex
 10
91.08813712059246
 20
-140.2946069093707
 30
0.0
  0
VERTEX
  5
50
330
45
100
AcDbEntity
  8
_U+30EC_U+30A4_U+30E4_U+30FC 1
370
     0
100
AcDbVertex
100
AcDb2dVertex
 10
91.08813712059246
 20
-139.9129013539104
 30
0.0
  0
VERTEX
  5
51
330
45
100
AcDbEntity
  8
_U+30EC_U+30A4_U+30E4_U+30FC 1
370
     0
100
AcDbVertex
100
AcDb2dVertex
 10
91.99922098623767
 20
-139.9129013539104
 30
0.0
  0
VERTEX
  5
52
330
45
100
AcDbEntity
  8
_U+30EC_U+30A4_U+30E4_U+30FC 1
370
     0
100
AcDbVertex
100
AcDb2dVertex
 10
91.99922098623767
 20
-141.3529402424394
 30
0.0
  0
VERTEX
  5
53
330
45
100
AcDbEntity
  8
_U+30EC_U+30A4_U+30E4_U+30FC 1
370
     0
100
AcDbVertex
100
AcDb2dVertex
 10
72.03813760659844
 20
-141.3529402424394
 30
0.0
  0
VERTEX
  5
54
330
45
100
AcDbEntity
  8
_U+30EC_U+30A4_U+30E4_U+30FC 1
370
     0
100
AcDbVertex
100
AcDb2dVertex
 10
72.03813760659844
 20
-121.2155027474739
 30
0.0
  0
SEQEND
  5
56
330
45
100
AcDbEntity
  8
_U+30EC_U+30A4_U+30E4_U+30FC 1
370
     0
  0
HATCH
  5
55
330
41
100
AcDbEntity
  8
_U+30EC_U+30A4_U+30E4_U+30FC 1
 62
   253
420
 11711154
100
AcDbHatch
 10
0.0
 20
0.0
 30
0.0
210
0.0
220
0.0
230
1.0
  2
SOLID
 70
     1
 71
     0
 91
        1
 92
        1
 93
       14
 72
     1
 10
72.03813760659844
 20
-121.2155027474739
 11
73.59603951129749
 21
-121.2155027474739
 72
     1
 10
73.59603951129749
 20
-121.2155027474739
 11
73.59603951129749
 21
-122.1560083027944
 72
     1
 10
73.59603951129749
 20
-122.1560083027944
 11
73.09647091293144
 21
-122.1560083027944
 72
     1
 10
73.09647091293144
 20
-122.1560083027944
 11
73.09647091293144
 21
-128.7873133011364
 72
     1
 10
73.09647091293144
 20
-128.7873133011364
 11
106.9922761592885
 21
-128.8755077455588
 72
     1
 10
106.9922761592885
 20
-128.8755077455588
 11
106.9922761592885
 21
-129.8676952453108
 72
     1
 10
106.9922761592885
 20
-129.8676952453108
 11
73.09647091293144
 21
-129.8897438564163
 72
     1
 10
73.09647091293144
 20
-129.8897438564163
 11
73.09647091293144
 21
-140.2946069093707
 72
     1
 10
73.09647091293144
 20
-140.2946069093707
 11
91.08813712059246
 21
-140.2946069093707
 72
     1
 10
91.08813712059246
 20
-140.2946069093707
 11
91.08813712059246
 21
-139.9129013539104
 72
     1
 10
91.08813712059246
 20
-139.9129013539104
 11
91.99922098623767
 21
-139.9129013539104
 72
     1
 10
91.99922098623767
 20
-139.9129013539104
 11
91.99922098623767
 21
-141.3529402424394
 72
     1
 10
91.99922098623767
 20
-141.3529402424394
 11
72.03813760659844
 21
-141.3529402424394
 72
     1
 10
72.03813760659844
 20
-141.3529402424394
 11
72.03813760659844
 21
-121.2155027474739
 97
        0
 75
     2
 76
     1
 98
        0
  0
POLYLINE
  5
57
330
41
100
AcDbEntity
  8
_U+30EC_U+30A4_U+30E4_U+30FC 1
 62
     7
420
 16777215
370
    25
100
AcDb2dPolyline
 66
     1
 10
0.0
 20
0.0
 30
0.0
  0
VERTEX
  5
58
330
57
100
AcDbEntity
  8
_U+30EC_U+30A4_U+30E4_U+30FC 1
 62
     7
420
 16777215
370
    25
100
AcDbVertex
100
AcDb2dVertex
 10
92.08187681746227
 20
-141.3398521868873
 30
0.0
  0
VERTEX
  5
59
330
57
100
AcDbEntity
  8
_U+30EC_U+30A4_U+30E4_U+30FC 1
 62
     7
420
 16777215
370
    25
100
AcDbVertex
100
AcDb2dVertex
 10
72.08191732770375
 20
-141.3398521868873
 30
0.0
  0
SEQEND
  5
5A
330
57
100
AcDbEntity
  8
_U+30EC_U+30A4_U+30E4_U+30FC 1
 62
     7
420
 16777215
370
    25
  0
POLYLINE
  5
5B
330
41
100
AcDbEntity
  8
_U+30EC_U+30A4_U+30E4_U+30FC 1
 62
     7
420
 16777215
370
    25
100
AcDb2dPolyline
 66
     1
 10
0.0
 20
0.0
 30
0.0
  0
VERTEX
  5
5C
330
5B
100
AcDbEntity
  8
_U+30EC_U+30A4_U+30E4_U+30FC 1
 62
     7
420
 16777215
370
    25
100
AcDbVertex
100
AcDb2dVertex
 10
107.0818464347812
 20
-128.8389952455682
 30
0.0
  0
VERTEX
  5
5D
330
5B
100
AcDbEntity
  8
_U+30EC_U+30A4_U+30E4_U+30FC 1
 62
     7
420
 16777215
370
    25
100
AcDbVertex
100
AcDb2dVertex
 10
107.0818464347812
 20
-129.8394377453181
 30
0.0
  0
SEQEND
  5
5E
330
5B
100
AcDbEntity
  8
_U+30EC_U+30A4_U+30E4_U+30FC 1
 62
     7
420
 16777215
370
    25
  0
POLYLINE
  5
5F
330
41
100
AcDbEntity
  8
_U+30EC_U+30A4_U+30E4_U+30FC 1
 62
     7
420
 16777215
370
    25
100
AcDb2dPolyline
 66
     1
 10
0.0
 20
0.0
 30
0.0
  0
VERTEX
  5
60
330
5F
100
AcDbEntity
  8
_U+30EC_U+30A4_U+30E4_U+30FC 1
 62
     7
420
 16777215
370
    25
100
AcDbVertex
100
AcDb2dVertex
 10
92.08187681746227
 20
-139.8398763539292
 30
0.0
  0
VERTEX
  5
61
330
5F
100
AcDbEntity
  8
_U+30EC_U+30A4_U+30E4_U+30FC 1
 62
     7
420
 16777215
370
    25
100
AcDbVertex
100
AcDb2dVertex
 10
91.08161073187007
 20
-139.8398763539292
 30
0.0
  0
SEQEND
  5
62
330
5F
100
AcDbEntity
  8
_U+30EC_U+30A4_U+30E4_U+30FC 1
 62
     7
420
 16777215
370
    25
  0
POLYLINE
  5
63
330
41
100
AcDbEntity
  8
_U+30EC_U+30A4_U+30E4_U+30FC 1
 62
     7
420
 16777215
370
    25
100
AcDb2dPolyline
 66
     1
 10
0.0
 20
0.0
 30
0.0
  0
VERTEX
  5
64
330
63
100
AcDbEntity
  8
_U+30EC_U+30A4_U+30E4_U+30FC 1
 62
     7
420
 16777215
370
    25
100
AcDbVertex
100
AcDb2dVertex
 10
107.0818464347812
 20
-128.8389952455682
 30
0.0
  0
VERTEX
  5
65
330
63
100
AcDbEntity
  8
_U+30EC_U+30A4_U+30E4_U+30FC 1
 62
     7
420
 16777215
370
    25
100
AcDbVertex
100
AcDb2dVertex
 10
73.08165424664278
 20
-128.8389952455682
 30
0.0
  0
SEQEND
  5
66
330
63
100
AcDbEntity
  8
_U+30EC_U+30A4_U+30E4_U+30FC 1
 62
     7
420
 16777215
370
    25
  0
POLYLINE
  5
67
330
41
100
AcDbEntity
  8
_U+30EC_U+30A4_U+30E4_U+30FC 1
 62
     7
420
 16777215
370
    25
100
AcDb2dPolyline
 66
     1
 10
0.0
 20
0.0
 30
0.0
  0
VERTEX
  5
68
330
67
100
AcDbEntity
  8
_U+30EC_U+30A4_U+30E4_U+30FC 1
 62
     7
420
 16777215
370
    25
100
AcDbVertex
100
AcDb2dVertex
 10
107.0818464347812
 20
-129.8394377453181
 30
0.0
  0
VERTEX
  5
69
330
67
100
AcDbEntity
  8
_U+30EC_U+30A4_U+30E4_U+30FC 1
 62
     7
420
 16777215
370
    25
100
AcDbVertex
100
AcDb2dVertex
 10
73.08165424664278
 20
-129.8394377453181
 30
0.0
  0
SEQEND
  5
6A
330
67
100
AcDbEntity
  8
_U+30EC_U+30A4_U+30E4_U+30FC 1
 62
     7
420
 16777215
370
    25
  0
POLYLINE
  5
6B
330
41
100
AcDbEntity
  8
_U+30EC_U+30A4_U+30E4_U+30FC 1
 62
     7
420
 16777215
370
    25
100
AcDb2dPolyline
 66
     1
 10
0.0
 20
0.0
 30
0.0
  0
VERTEX
  5
6C
330
6B
100
AcDbEntity
  8
_U+30EC_U+30A4_U+30E4_U+30FC 1
 62
     7
420
 16777215
370
    25
100
AcDbVertex
100
AcDb2dVertex
 10
91.08161073187007
 20
-140.3394096871374
 30
0.0
  0
VERTEX
  5
6D
330
6B
100
AcDbEntity
  8
_U+30EC_U+30A4_U+30E4_U+30FC 1
 62
     7
420
 16777215
370
    25
100
AcDbVertex
100
AcDb2dVertex
 10
73.08165424664278
 20
-140.3394096871374
 30
0.0
  0
SEQEND
  5
6E
330
6B
100
AcDbEntity
  8
_U+30EC_U+30A4_U+30E4_U+30FC 1
 62
     7
420
 16777215
370
    25
  0
POLYLINE
  5
6F
330
41
100
AcDbEntity
  8
_U+30EC_U+30A4_U+30E4_U+30FC 1
 62
     7
420
 16777215
370
    25
100
AcDb2dPolyline
 66
     1
 10
0.0
 20
0.0
 30
0.0
  0
VERTEX
  5
70
330
6F
100
AcDbEntity
  8
_U+30EC_U+30A4_U+30E4_U+30FC 1
 62
     7
420
 16777215
370
    25
100
AcDbVertex
100
AcDb2dVertex
 10
92.08187681746227
 20
-139.8398763539292
 30
0.0
  0
VERTEX
  5
71
330
6F
100
AcDbEntity
  8
_U+30EC_U+30A4_U+30E4_U+30FC 1
 62
     7
420
 16777215
370
    25
100
AcDbVertex
100
AcDb2dVertex
 10
92.08187681746227
 20
-141.3398521868873
 30
0.0
  0
SEQEND
  5
72
330
6F
100
AcDbEntity
  8
_U+30EC_U+30A4_U+30E4_U+30FC 1
 62
     7
420
 16777215
370
    25
  0
POLYLINE
  5
73
330
41
100
AcDbEntity
  8
_U+30EC_U+30A4_U+30E4_U+30FC 1
 62
     7
420
 16777215
370
    25
100
AcDb2dPolyline
 66
     1
 10
0.0
 20
0.0
 30
0.0
  0
VERTEX
  5
74
330
73
100
AcDbEntity
  8
_U+30EC_U+30A4_U+30E4_U+30FC 1
 62
     7
420
 16777215
370
    25
100
AcDbVertex
100
AcDb2dVertex
 10
91.08161073187007
 20
-139.8398763539292
 30
0.0
  0
VERTEX
  5
75
330
73
100
AcDbEntity
  8
_U+30EC_U+30A4_U+30E4_U+30FC 1
 62
     7
420
 16777215
370
    25
100
AcDbVertex
100
AcDb2dVertex
 10
91.08161073187007
 20
-140.3394096871374
 30
0.0
  0
SEQEND
  5
76
330
73
100
AcDbEntity
  8
_U+30EC_U+30A4_U+30E4_U+30FC 1
 62
     7
420
 16777215
370
    25
  0
POLYLINE
  5
77
330
41
100
AcDbEntity
  8
_U+30EC_U+30A4_U+30E4_U+30FC 1
 62
     7
420
 16777215
370
    25
100
AcDb2dPolyline
 66
     1
 10
0.0
 20
0.0
 30
0.0
  0
VERTEX
  5
78
330
77
100
AcDbEntity
  8
_U+30EC_U+30A4_U+30E4_U+30FC 1
 62
     7
420
 16777215
370
    25
100
AcDbVertex
100
AcDb2dVertex
 10
73.08165424664278
 20
-129.8394377453181
 30
0.0
  0
VERTEX
  5
79
330
77
100
AcDbEntity
  8
_U+30EC_U+30A4_U+30E4_U+30FC 1
 62
     7
420
 16777215
370
    25
100
AcDbVertex
100
AcDb2dVertex
 10
73.08165424664278
 20
-140.3394096871374
 30
0.0
  0
SEQEND
  5
7A
330
77
100
AcDbEntity
  8
_U+30EC_U+30A4_U+30E4_U+30FC 1
 62
     7
420
 16777215
370
    25
  0
SPLINE
  5
7B
330
41
100
AcDbEntity
  8
_U+30EC_U+30A4_U+30E4_U+30FC 1
 62
     7
420
 16777215
370
     9
100
AcDbSpline
210
0.0
220
0.0
230
1.0
 70
    11
 71
     3
 72
    17
 73
    13
 74
     0
 42
0.0000000001
 43
0.0000000001
 12
1.0
 22
0.0
 32
0.0
 13
1.0
 23
0.0
 33
0.0
 40
0.0
 40
0.0
 40
0.0
 40
0.0
 40
1.0
 40
1.0
 40
1.0
 40
2.0
 40
2.0
 40
2.0
 40
3.0
 40
3.0
 40
3.0
 40
4.0
 40
4.0
 40
4.0
 40
4.0
 10
113.864528206185
 20
-129.8394377453181
 30
0.0
 10
113.9196673714449
 20
-129.8394377453181
 30
0.0
 10
113.9644348703028
 20
-129.7946702453289
 30
0.0
 10
113.9644348703028
 20
-129.7395310786765
 30
0.0
 10
113.9644348703028
 20
-129.6844271898009
 30
0.0
 10
113.9196673714449
 20
-129.6396244120348
 30
0.0
 10
113.864528206185
 20
-129.6396244120348
 30
0.0
 10
113.8094243187019
 20
-129.6396244120348
 30
0.0
 10
113.7646215420671
 20
-129.6844271898009
 30
0.0
 10
113.7646215420671
 20
-129.7395310786765
 30
0.0
 10
113.7646215420671
 20
-129.7946702453289
 30
0.0
 10
113.8094243187019
 20
-129.8394377453181
 30
0.0
 10
113.864528206185
 20
-129.8394377453181
 30
0.0
  0
SPLINE
  5
7C
330
41
100
AcDbEntity
  8
_U+30EC_U+30A4_U+30E4_U+30FC 1
 62
     7
420
 16777215
370
     9
100
AcDbSpline
210
0.0
220
0.0
230
1.0
 70
    11
 71
     3
 72
    17
 73
    13
 74
     0
 42
0.0000000001
 43
0.0000000001
 12
1.0
 22
0.0
 32
0.0
 13
1.0
 23
0.0
 33
0.0
 40
0.0
 40
0.0
 40
0.0
 40
0.0
 40
1.0
 40
1.0
 40
1.0
 40
2.0
 40
2.0
 40
2.0
 40
3.0
 40
3.0
 40
3.0
 40
4.0
 40
4.0
 40
4.0
 40
4.0
 10
113.864528206185
 20
-128.7399352455928
 30
0.0
 10
113.9196673714449
 20
-128.7399352455928
 30
0.0
 10
113.9644348703028
 20
-128.6951677456039
 30
0.0
 10
113.9644348703028
 20
-128.6400285789512
 30
0.0
 10
113.9644348703028
 20
-128.5845719122985
 30
0.0
 10
113.9196673714449
 20
-128.5397691345318
 30
0.0
 10
113.864528206185
 20
-128.5397691345318
 30
0.0
 10
113.8094243187019
 20
-128.5397691345318
 30
0.0
 10
113.7646215420671
 20
-128.5845719122985
 30
0.0
 10
113.7646215420671
 20
-128.6400285789512
 30
0.0
 10
113.7646215420671
 20
-128.6951677456039
 30
0.0
 10
113.8094243187019
 20
-128.7399352455928
 30
0.0
 10
113.864528206185
 20
-128.7399352455928
 30
0.0
  0
SPLINE
  5
7D
330
41
100
AcDbEntity
  8
_U+30EC_U+30A4_U+30E4_U+30FC 1
 62
     7
420
 16777215
370
     9
100
AcDbSpline
210
0.0
220
0.0
230
1.0
 70
    11
 71
     3
 72
    17
 73
    13
 74
     0
 42
0.0000000001
 43
0.0000000001
 12
1.0
 22
0.0
 32
0.0
 13
1.0
 23
0.0
 33
0.0
 40
0.0
 40
0.0
 40
0.0
 40
0.0
 40
1.0
 40
1.0
 40
1.0
 40
2.0
 40
2.0
 40
2.0
 40
3.0
 40
3.0
 40
3.0
 40
4.0
 40
4.0
 40
4.0
 40
4.0
 10
113.864528206185
 20
-139.9390774650153
 30
0.0
 10
113.9196673714449
 20
-139.9390774650153
 30
0.0
 10
113.9644348703028
 20
-139.8943099650267
 30
0.0
 10
113.9644348703028
 20
-139.8391707983737
 30
0.0
 10
113.9644348703028
 20
-139.7840669094988
 30
0.0
 10
113.9196673714449
 20
-139.739264131732
 30
0.0
 10
113.864528206185
 20
-139.739264131732
 30
0.0
 10
113.8094243187019
 20
-139.739264131732
 30
0.0
 10
113.7646215420671
 20
-139.7840669094988
 30
0.0
 10
113.7646215420671
 20
-139.8391707983737
 30
0.0
 10
113.7646215420671
 20
-139.8943099650267
 30
0.0
 10
113.8094243187019
 20
-139.9390774650153
 30
0.0
 10
113.864528206185
 20
-139.9390774650153
 30
0.0
  0
SPLINE
  5
7E
330
41
100
AcDbEntity
  8
_U+30EC_U+30A4_U+30E4_U+30FC 1
 62
     7
420
 16777215
370
     9
100
AcDbSpline
210
0.0
220
0.0
230
1.0
 70
    11
 71
     3
 72
    17
 73
    13
 74
     0
 42
0.0000000001
 43
0.0000000001
 12
1.0
 22
0.0
 32
0.0
 13
1.0
 23
0.0
 33
0.0
 40
0.0
 40
0.0
 40
0.0
 40
0.0
 40
1.0
 40
1.0
 40
1.0
 40
2.0
 40
2.0
 40
2.0
 40
3.0
 40
3.0
 40
3.0
 40
4.0
 40
4.0
 40
4.0
 40
4.0
 10
113.864528206185
 20
-141.3398521868873
 30
0.0
 10
113.9196673714449
 20
-141.3398521868873
 30
0.0
 10
113.9644348703028
 20
-141.2950846868987
 30
0.0
 10
113.9644348703028
 20
-141.2392752424683
 30
0.0
 10
113.9644348703028
 20
-141.1841360758152
 30
0.0
 10
113.9196673714449
 20
-141.139368575826
 30
0.0
 10
113.864528206185
 20
-141.139368575826
 30
0.0
 10
113.8094243187019
 20
-141.139368575826
 30
0.0
 10
113.7646215420671
 20
-141.1841360758152
 30
0.0
 10
113.7646215420671
 20
-141.2392752424683
 30
0.0
 10
113.7646215420671
 20
-141.2950846868987
 30
0.0
 10
113.8094243187019
 20
-141.3398521868873
 30
0.0
 10
113.864528206185
 20
-141.3398521868873
 30
0.0
  0
SPLINE
  5
7F
330
41
100
AcDbEntity
  8
_U+30EC_U+30A4_U+30E4_U+30FC 1
 62
     7
420
 16777215
370
     9
100
AcDbSpline
210
0.0
220
0.0
230
1.0
 70
    11
 71
     3
 72
    17
 73
    13
 74
     0
 42
0.0000000001
 43
0.0000000001
 12
1.0
 22
0.0
 32
0.0
 13
1.0
 23
0.0
 33
0.0
 40
0.0
 40
0.0
 40
0.0
 40
0.0
 40
1.0
 40
1.0
 40
1.0
 40
2.0
 40
2.0
 40
2.0
 40
3.0
 40
3.0
 40
3.0
 40
4.0
 40
4.0
 40
4.0
 40
4.0
 10
72.08191732770375
 20
-145.4395180191958
 30
0.0
 10
72.13702121518682
 20
-145.4395180191958
 30
0.0
 10
72.18182399182159
 20
-145.3947505192066
 30
0.0
 10
72.18182399182159
 20
-145.3396113525542
 30
0.0
 10
72.18182399182159
 20
-145.2845074636786
 30
0.0
 10
72.13702121518682
 20
-145.2397046859125
 30
0.0
 10
72.08191732770375
 20
-145.2397046859125
 30
0.0
 10
72.0267781624438
 20
-145.2397046859125
 30
0.0
 10
71.98201066358591
 20
-145.2845074636786
 30
0.0
 10
71.98201066358591
 20
-145.3396113525542
 30
0.0
 10
71.98201066358591
 20
-145.3947505192066
 30
0.0
 10
72.0267781624438
 20
-145.4395180191958
 30
0.0
 10
72.08191732770375
 20
-145.4395180191958
 30
0.0
  0
SPLINE
  5
80
330
41
100
AcDbEntity
  8
_U+30EC_U+30A4_U+30E4_U+30FC 1
 62
     7
420
 16777215
370
     9
100
AcDbSpline
210
0.0
220
0.0
230
1.0
 70
    11
 71
     3
 72
    17
 73
    13
 74
     0
 42
0.0000000001
 43
0.0000000001
 12
1.0
 22
0.0
 32
0.0
 13
1.0
 23
0.0
 33
0.0
 40
0.0
 40
0.0
 40
0.0
 40
0.0
 40
1.0
 40
1.0
 40
1.0
 40
2.0
 40
2.0
 40
2.0
 40
3.0
 40
3.0
 40
3.0
 40
4.0
 40
4.0
 40
4.0
 40
4.0
 10
68.08145270754189
 20
-141.4397588535289
 30
0.0
 10
68.13726387185473
 20
-141.4397588535289
 30
0.0
 10
68.18206664962113
 20
-141.3949913535403
 30
0.0
 10
68.18206664962113
 20
-141.3398521868873
 30
0.0
 10
68.18206664962113
 20
-141.2847482980124
 30
0.0
 10
68.13726387185473
 20
-141.2399455202456
 30
0.0
 10
68.08145270754189
 20
-141.2399455202456
 30
0.0
 10
68.02634882005881
 20
-141.2399455202456
 30
0.0
 10
67.98154604342405
 20
-141.2847482980124
 30
0.0
 10
67.98154604342405
 20
-141.3398521868873
 30
0.0
 10
67.98154604342405
 20
-141.3949913535403
 30
0.0
 10
68.02634882005881
 20
-141.4397588535289
 30
0.0
 10
68.08145270754189
 20
-141.4397588535289
 30
0.0
  0
SPLINE
  5
81
330
41
100
AcDbEntity
  8
_U+30EC_U+30A4_U+30E4_U+30FC 1
 62
     7
420
 16777215
370
     9
100
AcDbSpline
210
0.0
220
0.0
230
1.0
 70
    11
 71
     3
 72
    17
 73
    13
 74
     0
 42
0.0000000001
 43
0.0000000001
 12
1.0
 22
0.0
 32
0.0
 13
1.0
 23
0.0
 33
0.0
 40
0.0
 40
0.0
 40
0.0
 40
0.0
 40
1.0
 40
1.0
 40
1.0
 40
2.0
 40
2.0
 40
2.0
 40
3.0
 40
3.0
 40
3.0
 40
4.0
 40
4.0
 40
4.0
 40
4.0
 10
68.08145270754189
 20
-121.5397055251706
 30
0.0
 10
68.13726387185473
 20
-121.5397055251706
 30
0.0
 10
68.18206664962113
 20
-121.4949027474042
 30
0.0
 10
68.18206664962113
 20
-121.439798858529
 30
0.0
 10
68.18206664962113
 20
-121.3843069140985
 30
0.0
 10
68.13726387185473
 20
-121.3395394141096
 30
0.0
 10
68.08145270754189
 20
-121.3395394141096
 30
0.0
 10
68.02634882005881
 20
-121.3395394141096
 30
0.0
 10
67.98154604342405
 20
-121.3843069140985
 30
0.0
 10
67.98154604342405
 20
-121.439798858529
 30
0.0
 10
67.98154604342405
 20
-121.4949027474042
 30
0.0
 10
68.02634882005881
 20
-121.5397055251706
 30
0.0
 10
68.08145270754189
 20
-121.5397055251706
 30
0.0
  0
SPLINE
  5
82
330
41
100
AcDbEntity
  8
_U+30EC_U+30A4_U+30E4_U+30FC 1
 62
     7
420
 16777215
370
     9
100
AcDbSpline
210
0.0
220
0.0
230
1.0
 70
    11
 71
     3
 72
    17
 73
    13
 74
     0
 42
0.0000000001
 43
0.0000000001
 12
1.0
 22
0.0
 32
0.0
 13
1.0
 23
0.0
 33
0.0
 40
0.0
 40
0.0
 40
0.0
 40
0.0
 40
1.0
 40
1.0
 40
1.0
 40
2.0
 40
2.0
 40
2.0
 40
3.0
 40
3.0
 40
3.0
 40
4.0
 40
4.0
 40
4.0
 40
4.0
 10
73.68179978688735
 20
-119.7830485811652
 30
0.0
 10
73.7369389521473
 20
-119.7830485811652
 30
0.0
 10
73.78170831488806
 20
-119.7382458033988
 30
0.0
 10
73.78170831488806
 20
-119.6827891367461
 30
0.0
 10
73.78170831488806
 20
-119.6276852478709
 30
0.0
 10
73.7369389521473
 20
-119.5828824701042
 30
0.0
 10
73.68179978688735
 20
-119.5828824701042
 30
0.0
 10
73.62599034386672
 20
-119.5828824701042
 30
0.0
 10
73.58189312276951
 20
-119.6276852478709
 30
0.0
 10
73.58189312276951
 20
-119.6827891367461
 30
0.0
 10
73.58189312276951
 20
-119.7382458033988
 30
0.0
 10
73.62599034386672
 20
-119.7830485811652
 30
0.0
 10
73.68179978688735
 20
-119.7830485811652
 30
0.0
  0
SPLINE
  5
83
330
41
100
AcDbEntity
  8
_U+30EC_U+30A4_U+30E4_U+30FC 1
 62
     7
420
 16777215
370
     9
100
AcDbSpline
210
0.0
220
0.0
230
1.0
 70
    11
 71
     3
 72
    17
 73
    13
 74
     0
 42
0.0000000001
 43
0.0000000001
 12
1.0
 22
0.0
 32
0.0
 13
1.0
 23
0.0
 33
0.0
 40
0.0
 40
0.0
 40
0.0
 40
0.0
 40
1.0
 40
1.0
 40
1.0
 40
2.0
 40
2.0
 40
2.0
 40
3.0
 40
3.0
 40
3.0
 40
4.0
 40
4.0
 40
4.0
 40
4.0
 10
72.08191732770375
 20
-119.7830485811652
 30
0.0
 10
72.13702121518682
 20
-119.7830485811652
 30
0.0
 10
72.18182399182159
 20
-119.7382458033988
 30
0.0
 10
72.18182399182159
 20
-119.6827891367461
 30
0.0
 10
72.18182399182159
 20
-119.6276852478709
 30
0.0
 10
72.13702121518682
 20
-119.5828824701042
 30
0.0
 10
72.08191732770375
 20
-119.5828824701042
 30
0.0
 10
72.0267781624438
 20
-119.5828824701042
 30
0.0
 10
71.98201066358591
 20
-119.6276852478709
 30
0.0
 10
71.98201066358591
 20
-119.6827891367461
 30
0.0
 10
71.98201066358591
 20
-119.7382458033988
 30
0.0
 10
72.0267781624438
 20
-119.7830485811652
 30
0.0
 10
72.08191732770375
 20
-119.7830485811652
 30
0.0
  0
POLYLINE
  5
84
330
41
100
AcDbEntity
  8
_U+30EC_U+30A4_U+30E4_U+30FC 1
 62
     7
420
 16777215
370
     9
100
AcDb2dPolyline
 66
     1
 10
0.0
 20
0.0
 30
0.0
  0
VERTEX
  5
85
330
84
100
AcDbEntity
  8
_U+30EC_U+30A4_U+30E4_U+30FC 1
 62
     7
420
 16777215
370
     9
100
AcDbVertex
100
AcDb2dVertex
 10
113.864528206185
 20
-141.2392752424683
 30
0.0
  0
VERTEX
  5
86
330
84
100
AcDbEntity
  8
_U+30EC_U+30A4_U+30E4_U+30FC 1
 62
     7
420
 16777215
370
     9
100
AcDbVertex
100
AcDb2dVertex
 10
113.864528206185
 20
-139.739264131732
 30
0.0
  0
SEQEND
  5
87
330
84
100
AcDbEntity
  8
_U+30EC_U+30A4_U+30E4_U+30FC 1
 62
     7
420
 16777215
370
     9
  0
POLYLINE
  5
88
330
41
100
AcDbEntity
  8
_U+30EC_U+30A4_U+30E4_U+30FC 1
 62
     7
420
 16777215
370
     9
100
AcDb2dPolyline
 66
     1
 10
0.0
 20
0.0
 30
0.0
  0
VERTEX
  5
89
330
88
100
AcDbEntity
  8
_U+30EC_U+30A4_U+30E4_U+30FC 1
 62
     7
420
 16777215
370
     9
100
AcDbVertex
100
AcDb2dVertex
 10
93.55913608772146
 20
-141.2399455202456
 30
0.0
  0
VERTEX
  5
8A
330
88
100
AcDbEntity
  8
_U+30EC_U+30A4_U+30E4_U+30FC 1
 62
     7
420
 16777215
370
     9
100
AcDbVertex
100
AcDb2dVertex
 10
114.8656762361991
 20
-141.2399455202456
 30
0.0
  0
SEQEND
  5
8B
330
88
100
AcDbEntity
  8
_U+30EC_U+30A4_U+30E4_U+30FC 1
 62
     7
420
 16777215
370
     9
  0
POLYLINE
  5
8C
330
41
100
AcDbEntity
  8
_U+30EC_U+30A4_U+30E4_U+30FC 1
 62
     7
420
 16777215
370
     9
100
AcDb2dPolyline
 66
     1
 10
0.0
 20
0.0
 30
0.0
  0
VERTEX
  5
8D
330
8C
100
AcDbEntity
  8
_U+30EC_U+30A4_U+30E4_U+30FC 1
 62
     7
420
 16777215
370
     9
100
AcDbVertex
100
AcDb2dVertex
 10
93.55913608772146
 20
-139.8398763539292
 30
0.0
  0
VERTEX
  5
8E
330
8C
100
AcDbEntity
  8
_U+30EC_U+30A4_U+30E4_U+30FC 1
 62
     7
420
 16777215
370
     9
100
AcDbVertex
100
AcDb2dVertex
 10
114.8656762361991
 20
-139.8398763539292
 30
0.0
  0
SEQEND
  5
8F
330
8C
100
AcDbEntity
  8
_U+30EC_U+30A4_U+30E4_U+30FC 1
 62
     7
420
 16777215
370
     9
  0
POLYLINE
  5
90
330
41
100
AcDbEntity
  8
_U+30EC_U+30A4_U+30E4_U+30FC 1
 62
     7
420
 16777215
370
     9
100
AcDb2dPolyline
 66
     1
 10
0.0
 20
0.0
 30
0.0
  0
VERTEX
  5
91
330
90
100
AcDbEntity
  8
_U+30EC_U+30A4_U+30E4_U+30FC 1
 62
     7
420
 16777215
370
     9
100
AcDbVertex
100
AcDb2dVertex
 10
113.864528206185
 20
-128.7399352455928
 30
0.0
  0
VERTEX
  5
92
330
90
100
AcDbEntity
  8
_U+30EC_U+30A4_U+30E4_U+30FC 1
 62
     7
420
 16777215
370
     9
100
AcDbVertex
100
AcDb2dVertex
 10
113.864528206185
 20
-129.7395310786765
 30
0.0
  0
SEQEND
  5
93
330
90
100
AcDbEntity
  8
_U+30EC_U+30A4_U+30E4_U+30FC 1
 62
     7
420
 16777215
370
     9
  0
POLYLINE
  5
94
330
41
100
AcDbEntity
  8
_U+30EC_U+30A4_U+30E4_U+30FC 1
 62
     7
420
 16777215
370
     9
100
AcDb2dPolyline
 66
     1
 10
0.0
 20
0.0
 30
0.0
  0
VERTEX
  5
95
330
94
100
AcDbEntity
  8
_U+30EC_U+30A4_U+30E4_U+30FC 1
 62
     7
420
 16777215
370
     9
100
AcDbVertex
100
AcDb2dVertex
 10
111.870522423723
 20
-128.6400285789512
 30
0.0
  0
VERTEX
  5
96
330
94
100
AcDbEntity
  8
_U+30EC_U+30A4_U+30E4_U+30FC 1
 62
     7
420
 16777215
370
     9
100
AcDbVertex
100
AcDb2dVertex
 10
114.8643004029009
 20
-128.6400285789512
 30
0.0
  0
SEQEND
  5
97
330
94
100
AcDbEntity
  8
_U+30EC_U+30A4_U+30E4_U+30FC 1
 62
     7
420
 16777215
370
     9
  0
INSERT
  5
99
330
41
100
AcDbEntity
  8
_U+30EC_U+30A4_U+30E4_U+30FC 1
100
AcDbBlockReference
  2
block 3
 10
0.0
 20
0.0
 30
0.0
  0
INSERT
  5
9F
330
41
100
AcDbEntity
  8
_U+30EC_U+30A4_U+30E4_U+30FC 1
100
AcDbBlockReference
  2
block 4
 10
0.0
 20
0.0
 30
0.0
  0
POLYLINE
  5
AE
330
41
100
AcDbEntity
  8
_U+30EC_U+30A4_U+30E4_U+30FC 1
 62
     7
420
 16777215
370
     9
100
AcDb2dPolyline
 66
     1
 10
0.0
 20
0.0
 30
0.0
  0
VERTEX
  5
AF
330
AE
100
AcDbEntity
  8
_U+30EC_U+30A4_U+30E4_U+30FC 1
 62
     7
420
 16777215
370
     9
100
AcDbVertex
100
AcDb2dVertex
 10
107.181753098899
 20
-114.8465585823994
 30
0.0
  0
VERTEX
  5
B0
330
AE
100
AcDbEntity
  8
_U+30EC_U+30A4_U+30E4_U+30FC 1
 62
     7
420
 16777215
370
     9
100
AcDbVertex
100
AcDb2dVertex
 10
107.181753098899
 20
-112.3095924719226
 30
0.0
  0
SEQEND
  5
B1
330
AE
100
AcDbEntity
  8
_U+30EC_U+30A4_U+30E4_U+30FC 1
 62
     7
420
 16777215
370
     9
  0
POLYLINE
  5
B2
330
41
100
AcDbEntity
  8
_U+30EC_U+30A4_U+30E4_U+30FC 1
 62
     7
420
 16777215
370
    25
100
AcDb2dPolyline
 66
     1
 10
0.0
 20
0.0
 30
0.0
  0
VERTEX
  5
B3
330
B2
100
AcDbEntity
  8
_U+30EC_U+30A4_U+30E4_U+30FC 1
 62
     7
420
 16777215
370
    25
100
AcDbVertex
100
AcDb2dVertex
 10
73.58189312276951
 20
-121.2086235808089
 30
0.0
  0
VERTEX
  5
B4
330
B2
100
AcDbEntity
  8
_U+30EC_U+30A4_U+30E4_U+30FC 1
 62
     7
420
 16777215
370
    25
100
AcDbVertex
100
AcDb2dVertex
 10
72.08191732770375
 20
-121.2086235808089
 30
0.0
  0
SEQEND
  5
B5
330
B2
100
AcDbEntity
  8
_U+30EC_U+30A4_U+30E4_U+30FC 1
 62
     7
420
 16777215
370
    25
  0
POLYLINE
  5
B6
330
41
100
AcDbEntity
  8
_U+30EC_U+30A4_U+30E4_U+30FC 1
 62
     7
420
 16777215
370
    25
100
AcDb2dPolyline
 66
     1
 10
0.0
 20
0.0
 30
0.0
  0
VERTEX
  5
B7
330
B6
100
AcDbEntity
  8
_U+30EC_U+30A4_U+30E4_U+30FC 1
 62
     7
420
 16777215
370
    25
100
AcDbVertex
100
AcDb2dVertex
 10
72.08191732770375
 20
-121.2392799696902
 30
0.0
  0
VERTEX
  5
B8
330
B6
100
AcDbEntity
  8
_U+30EC_U+30A4_U+30E4_U+30FC 1
 62
     7
420
 16777215
370
    25
100
AcDbVertex
100
AcDb2dVertex
 10
72.08191732770375
 20
-141.3398521868873
 30
0.0
  0
SEQEND
  5
B9
330
B6
100
AcDbEntity
  8
_U+30EC_U+30A4_U+30E4_U+30FC 1
 62
     7
420
 16777215
370
    25
  0
POLYLINE
  5
BA
330
41
100
AcDbEntity
  8
_U+30EC_U+30A4_U+30E4_U+30FC 1
 62
     7
420
 16777215
370
    25
100
AcDb2dPolyline
 66
     1
 10
0.0
 20
0.0
 30
0.0
  0
VERTEX
  5
BB
330
BA
100
AcDbEntity
  8
_U+30EC_U+30A4_U+30E4_U+30FC 1
 62
     7
420
 16777215
370
    25
100
AcDbVertex
100
AcDb2dVertex
 10
73.08165424664278
 20
-122.2211310805558
 30
0.0
  0
VERTEX
  5
BC
330
BA
100
AcDbEntity
  8
_U+30EC_U+30A4_U+30E4_U+30FC 1
 62
     7
420
 16777215
370
    25
100
AcDbVertex
100
AcDb2dVertex
 10
73.08165424664278
 20
-128.7209910789307
 30
0.0
  0
SEQEND
  5
BD
330
BA
100
AcDbEntity
  8
_U+30EC_U+30A4_U+30E4_U+30FC 1
 62
     7
420
 16777215
370
    25
  0
POLYLINE
  5
BE
330
41
100
AcDbEntity
  8
_U+30EC_U+30A4_U+30E4_U+30FC 1
 62
     7
420
 16777215
370
    25
100
AcDb2dPolyline
 66
     1
 10
0.0
 20
0.0
 30
0.0
  0
VERTEX
  5
BF
330
BE
100
AcDbEntity
  8
_U+30EC_U+30A4_U+30E4_U+30FC 1
 62
     7
420
 16777215
370
    25
100
AcDbVertex
100
AcDb2dVertex
 10
73.58154034500073
 20
-122.2083958027811
 30
0.0
  0
VERTEX
  5
C0
330
BE
100
AcDbEntity
  8
_U+30EC_U+30A4_U+30E4_U+30FC 1
 62
     7
420
 16777215
370
    25
100
AcDbVertex
100
AcDb2dVertex
 10
73.08165424664278
 20
-122.2083958027811
 30
0.0
  0
SEQEND
  5
C1
330
BE
100
AcDbEntity
  8
_U+30EC_U+30A4_U+30E4_U+30FC 1
 62
     7
420
 16777215
370
    25
  0
POLYLINE
  5
C2
330
41
100
AcDbEntity
  8
_U+30EC_U+30A4_U+30E4_U+30FC 1
 62
     7
420
 16777215
370
    25
100
AcDb2dPolyline
 66
     1
 10
0.0
 20
0.0
 30
0.0
  0
VERTEX
  5
C3
330
C2
100
AcDbEntity
  8
_U+30EC_U+30A4_U+30E4_U+30FC 1
 62
     7
420
 16777215
370
    25
100
AcDbVertex
100
AcDb2dVertex
 10
73.58189312276951
 20
-121.2086235808089
 30
0.0
  0
VERTEX
  5
C4
330
C2
100
AcDbEntity
  8
_U+30EC_U+30A4_U+30E4_U+30FC 1
 62
     7
420
 16777215
370
    25
100
AcDbVertex
100
AcDb2dVertex
 10
73.58189312276951
 20
-122.2083958027811
 30
0.0
  0
SEQEND
  5
C5
330
C2
100
AcDbEntity
  8
_U+30EC_U+30A4_U+30E4_U+30FC 1
 62
     7
420
 16777215
370
    25
  0
SPLINE
  5
C6
330
41
100
AcDbEntity
  8
_U+30EC_U+30A4_U+30E4_U+30FC 1
 62
     7
420
 16777215
370
     9
100
AcDbSpline
210
0.0
220
0.0
230
1.0
 70
    11
 71
     3
 72
    17
 73
    13
 74
     0
 42
0.0000000001
 43
0.0000000001
 12
1.0
 22
0.0
 32
0.0
 13
1.0
 23
0.0
 33
0.0
 40
0.0
 40
0.0
 40
0.0
 40
0.0
 40
1.0
 40
1.0
 40
1.0
 40
2.0
 40
2.0
 40
2.0
 40
3.0
 40
3.0
 40
3.0
 40
4.0
 40
4.0
 40
4.0
 40
4.0
 10
72.08191732770375
 20
-113.4864238605173
 30
0.0
 10
72.13702121518682
 20
-113.4864238605173
 30
0.0
 10
72.18182399182159
 20
-113.4416563605284
 30
0.0
 10
72.18182399182159
 20
-113.3865171938756
 30
0.0
 10
72.18182399182159
 20
-113.3314133050004
 30
0.0
 10
72.13702121518682
 20
-113.286610527234
 30
0.0
 10
72.08191732770375
 20
-113.286610527234
 30
0.0
 10
72.0267781624438
 20
-113.286610527234
 30
0.0
 10
71.98201066358591
 20
-113.3314133050004
 30
0.0
 10
71.98201066358591
 20
-113.3865171938756
 30
0.0
 10
71.98201066358591
 20
-113.4416563605284
 30
0.0
 10
72.0267781624438
 20
-113.4864238605173
 30
0.0
 10
72.08191732770375
 20
-113.4864238605173
 30
0.0
  0
SPLINE
  5
C7
330
41
100
AcDbEntity
  8
_U+30EC_U+30A4_U+30E4_U+30FC 1
 62
     7
420
 16777215
370
     9
100
AcDbSpline
210
0.0
220
0.0
230
1.0
 70
    11
 71
     3
 72
    17
 73
    13
 74
     0
 42
0.0000000001
 43
0.0000000001
 12
1.0
 22
0.0
 32
0.0
 13
1.0
 23
0.0
 33
0.0
 40
0.0
 40
0.0
 40
0.0
 40
0.0
 40
1.0
 40
1.0
 40
1.0
 40
2.0
 40
2.0
 40
2.0
 40
3.0
 40
3.0
 40
3.0
 40
4.0
 40
4.0
 40
4.0
 40
4.0
 10
107.181753098899
 20
-113.4864238605173
 30
0.0
 10
107.2368569863821
 20
-113.4864238605173
 30
0.0
 10
107.2816597630168
 20
-113.4416563605284
 30
0.0
 10
107.2816597630168
 20
-113.3865171938756
 30
0.0
 10
107.2816597630168
 20
-113.3314133050004
 30
0.0
 10
107.2368569863821
 20
-113.286610527234
 30
0.0
 10
107.181753098899
 20
-113.286610527234
 30
0.0
 10
107.1259436558784
 20
-113.286610527234
 30
0.0
 10
107.0818464347812
 20
-113.3314133050004
 30
0.0
 10
107.0818464347812
 20
-113.3865171938756
 30
0.0
 10
107.0818464347812
 20
-113.4416563605284
 30
0.0
 10
107.1259436558784
 20
-113.4864238605173
 30
0.0
 10
107.181753098899
 20
-113.4864238605173
 30
0.0
  0
POLYLINE
  5
C8
330
41
100
AcDbEntity
  8
_U+30EC_U+30A4_U+30E4_U+30FC 1
 62
     7
420
 16777215
370
     9
100
AcDb2dPolyline
 66
     1
 10
0.0
 20
0.0
 30
0.0
  0
VERTEX
  5
C9
330
C8
100
AcDbEntity
  8
_U+30EC_U+30A4_U+30E4_U+30FC 1
 62
     7
420
 16777215
370
     9
100
AcDbVertex
100
AcDb2dVertex
 10
107.0818464347812
 20
-113.3865171938756
 30
0.0
  0
VERTEX
  5
CA
330
C8
100
AcDbEntity
  8
_U+30EC_U+30A4_U+30E4_U+30FC 1
 62
     7
420
 16777215
370
     9
100
AcDbVertex
100
AcDb2dVertex
 10
72.08191732770375
 20
-113.3865171938756
 30
0.0
  0
SEQEND
  5
CB
330
C8
100
AcDbEntity
  8
_U+30EC_U+30A4_U+30E4_U+30FC 1
 62
     7
420
 16777215
370
     9
  0
INSERT
  5
CD
330
41
100
AcDbEntity
  8
_U+30EC_U+30A4_U+30E4_U+30FC 1
100
AcDbBlockReference
  2
block 5
 10
0.0
 20
0.0
 30
0.0
  0
POLYLINE
  5
D4
330
41
100
AcDbEntity
  8
_U+30EC_U+30A4_U+30E4_U+30FC 1
 62
     7
420
 16777215
370
     9
100
AcDb2dPolyline
 66
     1
 10
0.0
 20
0.0
 30
0.0
  0
VERTEX
  5
D5
330
D4
100
AcDbEntity
  8
_U+30EC_U+30A4_U+30E4_U+30FC 1
 62
     7
420
 16777215
370
     9
100
AcDbVertex
100
AcDb2dVertex
 10
72.08191732770375
 20
-145.3396113525542
 30
0.0
  0
VERTEX
  5
D6
330
D4
100
AcDbEntity
  8
_U+30EC_U+30A4_U+30E4_U+30FC 1
 62
     7
420
 16777215
370
     9
100
AcDbVertex
100
AcDb2dVertex
 10
92.08187681746227
 20
-145.3396113525542
 30
0.0
  0
SEQEND
  5
D7
330
D4
100
AcDbEntity
  8
_U+30EC_U+30A4_U+30E4_U+30FC 1
 62
     7
420
 16777215
370
     9
  0
POLYLINE
  5
D8
330
41
100
AcDbEntity
  8
_U+30EC_U+30A4_U+30E4_U+30FC 1
 62
     7
420
 16777215
370
     9
100
AcDb2dPolyline
 66
     1
 10
0.0
 20
0.0
 30
0.0
  0
VERTEX
  5
D9
330
D8
100
AcDbEntity
  8
_U+30EC_U+30A4_U+30E4_U+30FC 1
 62
     7
420
 16777215
370
     9
100
AcDbVertex
100
AcDb2dVertex
 10
72.08191732770375
 20
-143.879605241808
 30
0.0
  0
VERTEX
  5
DA
330
D8
100
AcDbEntity
  8
_U+30EC_U+30A4_U+30E4_U+30FC 1
 62
     7
420
 16777215
370
     9
100
AcDbVertex
100
AcDb2dVertex
 10
72.08191732770375
 20
-146.3400891300816
 30
0.0
  0
SEQEND
  5
DB
330
D8
100
AcDbEntity
  8
_U+30EC_U+30A4_U+30E4_U+30FC 1
 62
     7
420
 16777215
370
     9
  0
SPLINE
  5
DC
330
41
100
AcDbEntity
  8
_U+30EC_U+30A4_U+30E4_U+30FC 1
 62
     7
420
 16777215
370
     9
100
AcDbSpline
210
0.0
220
0.0
230
1.0
 70
    11
 71
     3
 72
    17
 73
    13
 74
     0
 42
0.0000000001
 43
0.0000000001
 12
1.0
 22
0.0
 32
0.0
 13
1.0
 23
0.0
 33
0.0
 40
0.0
 40
0.0
 40
0.0
 40
0.0
 40
1.0
 40
1.0
 40
1.0
 40
2.0
 40
2.0
 40
2.0
 40
3.0
 40
3.0
 40
3.0
 40
4.0
 40
4.0
 40
4.0
 40
4.0
 10
92.18178348158011
 20
-145.4395180191958
 30
0.0
 10
92.23692497694104
 20
-145.4395180191958
 30
0.0
 10
92.28169014569795
 20
-145.3947505192066
 30
0.0
 10
92.28169014569795
 20
-145.3396113525542
 30
0.0
 10
92.28169014569795
 20
-145.2845074636786
 30
0.0
 10
92.23692497694104
 20
-145.2397046859125
 30
0.0
 10
92.18178348158011
 20
-145.2397046859125
 30
0.0
 10
92.12667959409704
 20
-145.2397046859125
 30
0.0
 10
92.08187681746227
 20
-145.2845074636786
 30
0.0
 10
92.08187681746227
 20
-145.3396113525542
 30
0.0
 10
92.08187681746227
 20
-145.3947505192066
 30
0.0
 10
92.12667959409704
 20
-145.4395180191958
 30
0.0
 10
92.18178348158011
 20
-145.4395180191958
 30
0.0
  0
POLYLINE
  5
DD
330
41
100
AcDbEntity
  8
_U+30EC_U+30A4_U+30E4_U+30FC 1
 62
     7
420
 16777215
370
     9
100
AcDb2dPolyline
 66
     1
 10
0.0
 20
0.0
 30
0.0
  0
VERTEX
  5
DE
330
DD
100
AcDbEntity
  8
_U+30EC_U+30A4_U+30E4_U+30FC 1
 62
     7
420
 16777215
370
     9
100
AcDbVertex
100
AcDb2dVertex
 10
92.18178348158011
 20
-143.879605241808
 30
0.0
  0
VERTEX
  5
DF
330
DD
100
AcDbEntity
  8
_U+30EC_U+30A4_U+30E4_U+30FC 1
 62
     7
420
 16777215
370
     9
100
AcDbVertex
100
AcDb2dVertex
 10
92.18178348158011
 20
-146.3400891300816
 30
0.0
  0
SEQEND
  5
E0
330
DD
100
AcDbEntity
  8
_U+30EC_U+30A4_U+30E4_U+30FC 1
 62
     7
420
 16777215
370
     9
  0
INSERT
  5
E2
330
41
100
AcDbEntity
  8
_U+30EC_U+30A4_U+30E4_U+30FC 1
100
AcDbBlockReference
  2
block 6
 10
0.0
 20
0.0
 30
0.0
  0
POLYLINE
  5
EA
330
41
100
AcDbEntity
  8
_U+30EC_U+30A4_U+30E4_U+30FC 1
 62
     7
420
 16777215
370
     9
100
AcDb2dPolyline
 66
     1
 10
0.0
 20
0.0
 30
0.0
  0
VERTEX
  5
EB
330
EA
100
AcDbEntity
  8
_U+30EC_U+30A4_U+30E4_U+30FC 1
 62
     7
420
 16777215
370
     9
100
AcDbVertex
100
AcDb2dVertex
 10
73.58189312276951
 20
-119.6827891367461
 30
0.0
  0
VERTEX
  5
EC
330
EA
100
AcDbEntity
  8
_U+30EC_U+30A4_U+30E4_U+30FC 1
 62
     7
420
 16777215
370
     9
100
AcDbVertex
100
AcDb2dVertex
 10
72.08191732770375
 20
-119.6827891367461
 30
0.0
  0
SEQEND
  5
ED
330
EA
100
AcDbEntity
  8
_U+30EC_U+30A4_U+30E4_U+30FC 1
 62
     7
420
 16777215
370
     9
  0
POLYLINE
  5
EE
330
41
100
AcDbEntity
  8
_U+30EC_U+30A4_U+30E4_U+30FC 1
 62
     7
420
 16777215
370
     9
100
AcDb2dPolyline
 66
     1
 10
0.0
 20
0.0
 30
0.0
  0
VERTEX
  5
EF
330
EE
100
AcDbEntity
  8
_U+30EC_U+30A4_U+30E4_U+30FC 1
 62
     7
420
 16777215
370
     9
100
AcDbVertex
100
AcDb2dVertex
 10
73.68179978688735
 20
-118.2231005259999
 30
0.0
  0
VERTEX
  5
F0
330
EE
100
AcDbEntity
  8
_U+30EC_U+30A4_U+30E4_U+30FC 1
 62
     7
420
 16777215
370
     9
100
AcDbVertex
100
AcDb2dVertex
 10
73.68179978688735
 20
-120.6829141364961
 30
0.0
  0
SEQEND
  5
F1
330
EE
100
AcDbEntity
  8
_U+30EC_U+30A4_U+30E4_U+30FC 1
 62
     7
420
 16777215
370
     9
  0
POLYLINE
  5
F2
330
41
100
AcDbEntity
  8
_U+30EC_U+30A4_U+30E4_U+30FC 1
 62
     7
420
 16777215
370
     9
100
AcDb2dPolyline
 66
     1
 10
0.0
 20
0.0
 30
0.0
  0
VERTEX
  5
F3
330
F2
100
AcDbEntity
  8
_U+30EC_U+30A4_U+30E4_U+30FC 1
 62
     7
420
 16777215
370
     9
100
AcDbVertex
100
AcDb2dVertex
 10
72.08223482769564
 20
-112.3306180274728
 30
0.0
  0
VERTEX
  5
F4
330
F2
100
AcDbEntity
  8
_U+30EC_U+30A4_U+30E4_U+30FC 1
 62
     7
420
 16777215
370
     9
100
AcDbVertex
100
AcDb2dVertex
 10
72.08223482769564
 20
-120.6825613587183
 30
0.0
  0
SEQEND
  5
F5
330
F2
100
AcDbEntity
  8
_U+30EC_U+30A4_U+30E4_U+30FC 1
 62
     7
420
 16777215
370
     9
  0
INSERT
  5
F7
330
41
100
AcDbEntity
  8
_U+30EC_U+30A4_U+30E4_U+30FC 1
100
AcDbBlockReference
  2
block 7
 10
0.0
 20
0.0
 30
0.0
  0
POLYLINE
  5
106
330
41
100
AcDbEntity
  8
_U+30EC_U+30A4_U+30E4_U+30FC 1
 62
     7
420
 16777215
370
     9
100
AcDb2dPolyline
 66
     1
 10
0.0
 20
0.0
 30
0.0
  0
VERTEX
  5
107
330
106
100
AcDbEntity
  8
_U+30EC_U+30A4_U+30E4_U+30FC 1
 62
     7
420
 16777215
370
     9
100
AcDbVertex
100
AcDb2dVertex
 10
113.864528206185
 20
-129.8394377453181
 30
0.0
  0
VERTEX
  5
108
330
106
100
AcDbEntity
  8
_U+30EC_U+30A4_U+30E4_U+30FC 1
 62
     7
420
 16777215
370
     9
100
AcDbVertex
100
AcDb2dVertex
 10
113.864528206185
 20
-139.8398763539292
 30
0.0
  0
SEQEND
  5
109
330
106
100
AcDbEntity
  8
_U+30EC_U+30A4_U+30E4_U+30FC 1
 62
     7
420
 16777215
370
     9
  0
POLYLINE
  5
10A
330
41
100
AcDbEntity
  8
_U+30EC_U+30A4_U+30E4_U+30FC 1
 62
     7
420
 16777215
370
     9
100
AcDb2dPolyline
 66
     1
 10
0.0
 20
0.0
 30
0.0
  0
VERTEX
  5
10B
330
10A
100
AcDbEntity
  8
_U+30EC_U+30A4_U+30E4_U+30FC 1
 62
     7
420
 16777215
370
     9
100
AcDbVertex
100
AcDb2dVertex
 10
111.870522423723
 20
-129.7395310786765
 30
0.0
  0
VERTEX
  5
10C
330
10A
100
AcDbEntity
  8
_U+30EC_U+30A4_U+30E4_U+30FC 1
 62
     7
420
 16777215
370
     9
100
AcDbVertex
100
AcDb2dVertex
 10
114.8643004029009
 20
-129.7395310786765
 30
0.0
  0
SEQEND
  5
10D
330
10A
100
AcDbEntity
  8
_U+30EC_U+30A4_U+30E4_U+30FC 1
 62
     7
420
 16777215
370
     9
  0
INSERT
  5
10F
330
41
100
AcDbEntity
  8
_U+30EC_U+30A4_U+30E4_U+30FC 1
100
AcDbBlockReference
  2
block 8
 10
0.0
 20
0.0
 30
0.0
  0
POLYLINE
  5
117
330
41
100
AcDbEntity
  8
_U+30EC_U+30A4_U+30E4_U+30FC 1
 62
     7
420
 16777215
370
     9
100
AcDb2dPolyline
 66
     1
 10
0.0
 20
0.0
 30
0.0
  0
VERTEX
  5
118
330
117
100
AcDbEntity
  8
_U+30EC_U+30A4_U+30E4_U+30FC 1
 62
     7
420
 16777215
370
     9
100
AcDbVertex
100
AcDb2dVertex
 10
68.08145270754189
 20
-121.3395394141096
 30
0.0
  0
VERTEX
  5
119
330
117
100
AcDbEntity
  8
_U+30EC_U+30A4_U+30E4_U+30FC 1
 62
     7
420
 16777215
370
     9
100
AcDbVertex
100
AcDb2dVertex
 10
68.08145270754189
 20
-141.3398521868873
 30
0.0
  0
SEQEND
  5
11A
330
117
100
AcDbEntity
  8
_U+30EC_U+30A4_U+30E4_U+30FC 1
 62
     7
420
 16777215
370
     9
  0
POLYLINE
  5
11B
330
41
100
AcDbEntity
  8
_U+30EC_U+30A4_U+30E4_U+30FC 1
 62
     7
420
 16777215
370
     9
100
AcDb2dPolyline
 66
     1
 10
0.0
 20
0.0
 30
0.0
  0
VERTEX
  5
11C
330
11B
100
AcDbEntity
  8
_U+30EC_U+30A4_U+30E4_U+30FC 1
 62
     7
420
 16777215
370
     9
100
AcDbVertex
100
AcDb2dVertex
 10
69.54149405918201
 20
-121.439798858529
 30
0.0
  0
VERTEX
  5
11D
330
11B
100
AcDbEntity
  8
_U+30EC_U+30A4_U+30E4_U+30FC 1
 62
     7
420
 16777215
370
     9
100
AcDbVertex
100
AcDb2dVertex
 10
67.08168051082598
 20
-121.439798858529
 30
0.0
  0
SEQEND
  5
11E
330
11B
100
AcDbEntity
  8
_U+30EC_U+30A4_U+30E4_U+30FC 1
 62
     7
420
 16777215
370
     9
  0
POLYLINE
  5
11F
330
41
100
AcDbEntity
  8
_U+30EC_U+30A4_U+30E4_U+30FC 1
 62
     7
420
 16777215
370
     9
100
AcDb2dPolyline
 66
     1
 10
0.0
 20
0.0
 30
0.0
  0
VERTEX
  5
120
330
11F
100
AcDbEntity
  8
_U+30EC_U+30A4_U+30E4_U+30FC 1
 62
     7
420
 16777215
370
     9
100
AcDbVertex
100
AcDb2dVertex
 10
69.54149405918201
 20
-141.3398521868873
 30
0.0
  0
VERTEX
  5
121
330
11F
100
AcDbEntity
  8
_U+30EC_U+30A4_U+30E4_U+30FC 1
 62
     7
420
 16777215
370
     9
100
AcDbVertex
100
AcDb2dVertex
 10
67.08168051082598
 20
-141.3398521868873
 30
0.0
  0
SEQEND
  5
122
330
11F
100
AcDbEntity
  8
_U+30EC_U+30A4_U+30E4_U+30FC 1
 62
     7
420
 16777215
370
     9
  0
INSERT
  5
124
330
41
100
AcDbEntity
  8
_U+30EC_U+30A4_U+30E4_U+30FC 1
100
AcDbBlockReference
  2
block 9
 10
0.0
 20
0.0
 30
0.0
  0
ENDBLK
  5
44
330
41
100
AcDbEntity
  8
0
100
AcDbBlockEnd
  0
BLOCK
  5
9A
330
98
100
AcDbEntity
  8
0
100
AcDbBlockBegin
  2
block 3
 70
     0
 10
0.0
 20
0.0
 30
0.0
  3
block 3
  1

  0
SPLINE
  5
9C
330
98
100
AcDbEntity
  8
_U+30EC_U+30A4_U+30E4_U+30FC 1
370
     0
100
AcDbSpline
210
0.0
220
0.0
230
1.0
 70
    11
 71
     3
 72
    26
 73
    22
 74
     0
 42
0.0000000001
 43
0.0000000001
 12
1.0
 22
0.0
 32
0.0
 13
1.0
 23
0.0
 33
0.0
 40
0.0
 40
0.0
 40
0.0
 40
0.0
 40
1.0
 40
1.0
 40
1.0
 40
2.0
 40
2.0
 40
2.0
 40
3.0
 40
3.0
 40
3.0
 40
4.0
 40
4.0
 40
4.0
 40
5.0
 40
5.0
 40
5.0
 40
6.0
 40
6.0
 40
6.0
 40
7.0
 40
7.0
 40
7.0
 40
7.0
 10
116.4421603441534
 20
-129.2927110136838
 30
0.0
 10
116.4421603441534
 20
-129.2927110136838
 30
0.0
 10
115.3380072411308
 20
-129.2927110136838
 30
0.0
 10
115.3380072411308
 20
-129.2927110136838
 30
0.0
 10
115.3380072411308
 20
-129.2927110136838
 30
0.0
 10
115.3380072411308
 20
-129.6451442818248
 30
0.0
 10
115.3380072411308
 20
-129.6451442818248
 30
0.0
 10
115.3380072411308
 20
-129.6451442818248
 30
0.0
 10
115.189868135265
 20
-129.6451442818248
 30
0.0
 10
115.189868135265
 20
-129.6451442818248
 30
0.0
 10
115.1750542246785
 20
-129.2902994468441
 30
0.0
 10
115.0121012082261
 20
-129.2406900718565
 30
0.0
 10
114.8977240381159
 20
-129.2089951933922
 30
0.0
 10
114.8977240381159
 20
-129.2089951933922
 30
0.0
 10
114.8977240381159
 20
-129.0529323679104
 30
0.0
 10
114.8977240381159
 20
-129.0529323679104
 30
0.0
 10
114.8977240381159
 20
-129.0529323679104
 30
0.0
 10
116.4421603441534
 20
-129.0529323679104
 30
0.0
 10
116.4421603441534
 20
-129.0529323679104
 30
0.0
 10
116.4421603441534
 20
-129.0529323679104
 30
0.0
 10
116.4421603441534
 20
-129.2927110136838
 30
0.0
 10
116.4421603441534
 20
-129.2927110136838
 30
0.0
  0
HATCH
  5
9D
330
98
100
AcDbEntity
  8
_U+30EC_U+30A4_U+30E4_U+30FC 1
 62
     7
420
 16777215
100
AcDbHatch
 10
0.0
 20
0.0
 30
0.0
210
0.0
220
0.0
230
1.0
  2
SOLID
 70
     1
 71
     0
 91
        1
 92
        1
 93
        1
 72
     4
 94
        3
 73
     0
 74
     1
 95
       26
 96
       22
 40
0.0
 40
0.0
 40
0.0
 40
0.0
 40
1.0
 40
1.0
 40
1.0
 40
2.0
 40
2.0
 40
2.0
 40
3.0
 40
3.0
 40
3.0
 40
4.0
 40
4.0
 40
4.0
 40
5.0
 40
5.0
 40
5.0
 40
6.0
 40
6.0
 40
6.0
 40
7.0
 40
7.0
 40
7.0
 40
7.0
 10
116.4421603441534
 20
-129.2927110136838
 10
116.4421603441534
 20
-129.2927110136838
 10
115.3380072411308
 20
-129.2927110136838
 10
115.3380072411308
 20
-129.2927110136838
 10
115.3380072411308
 20
-129.2927110136838
 10
115.3380072411308
 20
-129.6451442818248
 10
115.3380072411308
 20
-129.6451442818248
 10
115.3380072411308
 20
-129.6451442818248
 10
115.189868135265
 20
-129.6451442818248
 10
115.189868135265
 20
-129.6451442818248
 10
115.1750542246785
 20
-129.2902994468441
 10
115.0121012082261
 20
-129.2406900718565
 10
114.8977240381159
 20
-129.2089951933922
 10
114.8977240381159
 20
-129.2089951933922
 10
114.8977240381159
 20
-129.0529323679104
 10
114.8977240381159
 20
-129.0529323679104
 10
114.8977240381159
 20
-129.0529323679104
 10
116.4421603441534
 20
-129.0529323679104
 10
116.4421603441534
 20
-129.0529323679104
 10
116.4421603441534
 20
-129.0529323679104
 10
116.4421603441534
 20
-129.2927110136838
 10
116.4421603441534
 20
-129.2927110136838
 97
        0
 97
        0
 75
     2
 76
     1
 98
        0
  0
ENDBLK
  5
9B
330
98
100
AcDbEntity
  8
0
100
AcDbBlockEnd
  0
BLOCK
  5
A0
330
9E
100
AcDbEntity
  8
0
100
AcDbBlockBegin
  2
block 4
 70
     0
 10
0.0
 20
0.0
 30
0.0
  3
block 4
  1

  0
SPLINE
  5
A2
330
9E
100
AcDbEntity
  8
_U+30EC_U+30A4_U+30E4_U+30FC 1
370
     0
100
AcDbSpline
210
0.0
220
0.0
230
1.0
 70
    11
 71
     3
 72
    26
 73
    22
 74
     0
 42
0.0000000001
 43
0.0000000001
 12
1.0
 22
0.0
 32
0.0
 13
1.0
 23
0.0
 33
0.0
 40
0.0
 40
0.0
 40
0.0
 40
0.0
 40
1.0
 40
1.0
 40
1.0
 40
2.0
 40
2.0
 40
2.0
 40
3.0
 40
3.0
 40
3.0
 40
4.0
 40
4.0
 40
4.0
 40
5.0
 40
5.0
 40
5.0
 40
6.0
 40
6.0
 40
6.0
 40
7.0
 40
7.0
 40
7.0
 40
7.0
 10
116.4421603441534
 20
-144.1803466436424
 30
0.0
 10
116.4421603441534
 20
-144.1803466436424
 30
0.0
 10
115.3380072411308
 20
-144.1803466436424
 30
0.0
 10
115.3380072411308
 20
-144.1803466436424
 30
0.0
 10
115.3380072411308
 20
-144.1803466436424
 30
0.0
 10
115.3380072411308
 20
-144.5327799117835
 30
0.0
 10
115.3380072411308
 20
-144.5327799117835
 30
0.0
 10
115.3380072411308
 20
-144.5327799117835
 30
0.0
 10
115.189868135265
 20
-144.5327799117835
 30
0.0
 10
115.189868135265
 20
-144.5327799117835
 30
0.0
 10
115.1750542246785
 20
-144.1779350768028
 30
0.0
 10
115.0121012082261
 20
-144.1283257018152
 30
0.0
 10
114.8977240381159
 20
-144.0966308233508
 30
0.0
 10
114.8977240381159
 20
-144.0966308233508
 30
0.0
 10
114.8977240381159
 20
-143.940567997869
 30
0.0
 10
114.8977240381159
 20
-143.940567997869
 30
0.0
 10
114.8977240381159
 20
-143.940567997869
 30
0.0
 10
116.4421603441534
 20
-143.940567997869
 30
0.0
 10
116.4421603441534
 20
-143.940567997869
 30
0.0
 10
116.4421603441534
 20
-143.940567997869
 30
0.0
 10
116.4421603441534
 20
-144.1803466436424
 30
0.0
 10
116.4421603441534
 20
-144.1803466436424
 30
0.0
  0
HATCH
  5
A3
330
9E
100
AcDbEntity
  8
_U+30EC_U+30A4_U+30E4_U+30FC 1
 62
     7
420
 16777215
100
AcDbHatch
 10
0.0
 20
0.0
 30
0.0
210
0.0
220
0.0
230
1.0
  2
SOLID
 70
     1
 71
     0
 91
        1
 92
        1
 93
        1
 72
     4
 94
        3
 73
     0
 74
     1
 95
       26
 96
       22
 40
0.0
 40
0.0
 40
0.0
 40
0.0
 40
1.0
 40
1.0
 40
1.0
 40
2.0
 40
2.0
 40
2.0
 40
3.0
 40
3.0
 40
3.0
 40
4.0
 40
4.0
 40
4.0
 40
5.0
 40
5.0
 40
5.0
 40
6.0
 40
6.0
 40
6.0
 40
7.0
 40
7.0
 40
7.0
 40
7.0
 10
116.4421603441534
 20
-144.1803466436424
 10
116.4421603441534
 20
-144.1803466436424
 10
115.3380072411308
 20
-144.1803466436424
 10
115.3380072411308
 20
-144.1803466436424
 10
115.3380072411308
 20
-144.1803466436424
 10
115.3380072411308
 20
-144.5327799117835
 10
115.3380072411308
 20
-144.5327799117835
 10
115.3380072411308
 20
-144.5327799117835
 10
115.189868135265
 20
-144.5327799117835
 10
115.189868135265
 20
-144.5327799117835
 10
115.1750542246785
 20
-144.1779350768028
 10
115.0121012082261
 20
-144.1283257018152
 10
114.8977240381159
 20
-144.0966308233508
 10
114.8977240381159
 20
-144.0966308233508
 10
114.8977240381159
 20
-143.940567997869
 10
114.8977240381159
 20
-143.940567997869
 10
114.8977240381159
 20
-143.940567997869
 10
116.4421603441534
 20
-143.940567997869
 10
116.4421603441534
 20
-143.940567997869
 10
116.4421603441534
 20
-143.940567997869
 10
116.4421603441534
 20
-144.1803466436424
 10
116.4421603441534
 20
-144.1803466436424
 97
        0
 97
        0
 75
     2
 76
     1
 98
        0
  0
POLYLINE
  5
A4
330
9E
100
AcDbEntity
  8
_U+30EC_U+30A4_U+30E4_U+30FC 1
370
     0
100
AcDb2dPolyline
 66
     1
 10
0.0
 20
0.0
 30
0.0
  0
VERTEX
  5
A5
330
A4
100
AcDbEntity
  8
_U+30EC_U+30A4_U+30E4_U+30FC 1
370
     0
100
AcDbVertex
100
AcDb2dVertex
 10
116.4421603441534
 20
-143.340776873887
 30
0.0
  0
VERTEX
  5
A6
330
A4
100
AcDbEntity
  8
_U+30EC_U+30A4_U+30E4_U+30FC 1
370
     0
100
AcDbVertex
100
AcDb2dVertex
 10
116.1903238641816
 20
-143.340776873887
 30
0.0
  0
VERTEX
  5
A7
330
A4
100
AcDbEntity
  8
_U+30EC_U+30A4_U+30E4_U+30FC 1
370
     0
100
AcDbVertex
100
AcDb2dVertex
 10
116.1903238641816
 20
-143.071714916489
 30
0.0
  0
VERTEX
  5
A8
330
A4
100
AcDbEntity
  8
_U+30EC_U+30A4_U+30E4_U+30FC 1
370
     0
100
AcDbVertex
100
AcDb2dVertex
 10
116.4421603441534
 20
-143.071714916489
 30
0.0
  0
VERTEX
  5
A9
330
A4
100
AcDbEntity
  8
_U+30EC_U+30A4_U+30E4_U+30FC 1
370
     0
100
AcDbVertex
100
AcDb2dVertex
 10
116.4421603441534
 20
-143.340776873887
 30
0.0
  0
SEQEND
  5
AA
330
A4
100
AcDbEntity
  8
_U+30EC_U+30A4_U+30E4_U+30FC 1
370
     0
  0
HATCH
  5
AB
330
9E
100
AcDbEntity
  8
_U+30EC_U+30A4_U+30E4_U+30FC 1
 62
     7
420
 16777215
100
AcDbHatch
 10
0.0
 20
0.0
 30
0.0
210
0.0
220
0.0
230
1.0
  2
SOLID
 70
     1
 71
     0
 91
        1
 92
        1
 93
        4
 72
     1
 10
116.4421603441534
 20
-143.340776873887
 11
116.1903238641816
 21
-143.340776873887
 72
     1
 10
116.1903238641816
 20
-143.340776873887
 11
116.1903238641816
 21
-143.071714916489
 72
     1
 10
116.1903238641816
 20
-143.071714916489
 11
116.4421603441534
 21
-143.071714916489
 72
     1
 10
116.4421603441534
 20
-143.071714916489
 11
116.4421603441534
 21
-143.340776873887
 97
        0
 75
     2
 76
     1
 98
        0
  0
SPLINE
  5
AC
330
9E
100
AcDbEntity
  8
_U+30EC_U+30A4_U+30E4_U+30FC 1
370
     0
100
AcDbSpline
210
0.0
220
0.0
230
1.0
 70
    11
 71
     3
 72
    53
 73
    49
 74
     0
 42
0.0000000001
 43
0.0000000001
 12
1.0
 22
0.0
 32
0.0
 13
1.0
 23
0.0
 33
0.0
 40
0.0
 40
0.0
 40
0.0
 40
0.0
 40
1.0
 40
1.0
 40
1.0
 40
2.0
 40
2.0
 40
2.0
 40
3.0
 40
3.0
 40
3.0
 40
4.0
 40
4.0
 40
4.0
 40
5.0
 40
5.0
 40
5.0
 40
6.0
 40
6.0
 40
6.0
 40
7.0
 40
7.0
 40
7.0
 40
8.0
 40
8.0
 40
8.0
 40
9.0
 40
9.0
 40
9.0
 40
10.0
 40
10.0
 40
10.0
 40
11.0
 40
11.0
 40
11.0
 40
12.0
 40
12.0
 40
12.0
 40
13.0
 40
13.0
 40
13.0
 40
14.0
 40
14.0
 40
14.0
 40
15.0
 40
15.0
 40
15.0
 40
16.0
 40
16.0
 40
16.0
 40
16.0
 10
116.4928032477865
 20
-142.3048366614724
 30
0.0
 10
116.4928032477865
 20
-142.388552481764
 30
0.0
 10
116.4759222799088
 20
-142.4970729895493
 30
0.0
 10
116.4125325229802
 20
-142.6055934973347
 30
0.0
 10
116.3026339770007
 20
-142.7909396344412
 30
0.0
 10
116.1713758390127
 20
-142.8133327550953
 30
0.0
 10
116.0635443503244
 20
-142.8340033280068
 30
0.0
 10
116.0635443503244
 20
-142.8340033280068
 30
0.0
 10
116.0635443503244
 20
-142.5962917395245
 30
0.0
 10
116.0635443503244
 20
-142.5962917395245
 30
0.0
 10
116.2623263598233
 20
-142.5377251162753
 30
0.0
 10
116.2919541809965
 20
-142.4019883541565
 30
0.0
 10
116.2919541809965
 20
-142.3024250946327
 30
0.0
 10
116.2919541809965
 20
-142.1532524601214
 30
0.0
 10
116.1923909214727
 20
-141.9906439532176
 30
0.0
 10
115.9598469762184
 20
-141.9906439532176
 30
0.0
 10
115.7038763816643
 20
-141.9906439532176
 30
0.0
 10
115.6339409433137
 20
-142.1828802812946
 30
0.0
 10
115.6339409433137
 20
-142.3117268524429
 30
0.0
 10
115.6339409433137
 20
-142.3454887881984
 30
0.0
 10
115.6339409433137
 20
-142.4970729895493
 30
0.0
 10
115.7631320240106
 20
-142.5918131153937
 30
0.0
 10
115.7631320240106
 20
-142.5918131153937
 30
0.0
 10
115.7441839988417
 20
-142.7795708193398
 30
0.0
 10
115.7441839988417
 20
-142.7795708193398
 30
0.0
 10
115.7441839988417
 20
-142.7795708193398
 30
0.0
 10
114.8977240381159
 20
-142.6507242481915
 30
0.0
 10
114.8977240381159
 20
-142.6507242481915
 30
0.0
 10
114.8977240381159
 20
-142.6507242481915
 30
0.0
 10
114.8977240381159
 20
-141.8187336885037
 30
0.0
 10
114.8977240381159
 20
-141.8187336885037
 30
0.0
 10
114.8977240381159
 20
-141.8187336885037
 30
0.0
 10
115.0923719330325
 20
-141.8187336885037
 30
0.0
 10
115.0923719330325
 20
-141.8187336885037
 30
0.0
 10
115.0923719330325
 20
-141.8187336885037
 30
0.0
 10
115.0923719330325
 20
-142.4767469261864
 30
0.0
 10
115.0923719330325
 20
-142.4767469261864
 30
0.0
 10
115.0923719330325
 20
-142.4767469261864
 30
0.0
 10
115.5154296586211
 20
-142.5466823645369
 30
0.0
 10
115.5154296586211
 20
-142.5466823645369
 30
0.0
 10
115.4816677228657
 20
-142.4812255503172
 30
0.0
 10
115.4413601056883
 20
-142.3930311058948
 30
0.0
 10
115.4413601056883
 20
-142.2662515920376
 30
0.0
 10
115.4413601056883
 20
-141.9951225773484
 30
0.0
 10
115.6277397714403
 20
-141.7419080591826
 30
0.0
 10
115.9408989510495
 20
-141.7419080591826
 30
0.0
 10
116.258192245241
 20
-141.7419080591826
 30
0.0
 10
116.4928032477865
 20
-141.9813421954074
 30
0.0
 10
116.4928032477865
 20
-142.3048366614724
 30
0.0
  0
HATCH
  5
AD
330
9E
100
AcDbEntity
  8
_U+30EC_U+30A4_U+30E4_U+30FC 1
 62
     7
420
 16777215
100
AcDbHatch
 10
0.0
 20
0.0
 30
0.0
210
0.0
220
0.0
230
1.0
  2
SOLID
 70
     1
 71
     0
 91
        1
 92
        1
 93
        1
 72
     4
 94
        3
 73
     0
 74
     1
 95
       53
 96
       49
 40
0.0
 40
0.0
 40
0.0
 40
0.0
 40
1.0
 40
1.0
 40
1.0
 40
2.0
 40
2.0
 40
2.0
 40
3.0
 40
3.0
 40
3.0
 40
4.0
 40
4.0
 40
4.0
 40
5.0
 40
5.0
 40
5.0
 40
6.0
 40
6.0
 40
6.0
 40
7.0
 40
7.0
 40
7.0
 40
8.0
 40
8.0
 40
8.0
 40
9.0
 40
9.0
 40
9.0
 40
10.0
 40
10.0
 40
10.0
 40
11.0
 40
11.0
 40
11.0
 40
12.0
 40
12.0
 40
12.0
 40
13.0
 40
13.0
 40
13.0
 40
14.0
 40
14.0
 40
14.0
 40
15.0
 40
15.0
 40
15.0
 40
16.0
 40
16.0
 40
16.0
 40
16.0
 10
116.4928032477865
 20
-142.3048366614724
 10
116.4928032477865
 20
-142.388552481764
 10
116.4759222799088
 20
-142.4970729895493
 10
116.4125325229802
 20
-142.6055934973347
 10
116.3026339770007
 20
-142.7909396344412
 10
116.1713758390127
 20
-142.8133327550953
 10
116.0635443503244
 20
-142.8340033280068
 10
116.0635443503244
 20
-142.8340033280068
 10
116.0635443503244
 20
-142.5962917395245
 10
116.0635443503244
 20
-142.5962917395245
 10
116.2623263598233
 20
-142.5377251162753
 10
116.2919541809965
 20
-142.4019883541565
 10
116.2919541809965
 20
-142.3024250946327
 10
116.2919541809965
 20
-142.1532524601214
 10
116.1923909214727
 20
-141.9906439532176
 10
115.9598469762184
 20
-141.9906439532176
 10
115.7038763816643
 20
-141.9906439532176
 10
115.6339409433137
 20
-142.1828802812946
 10
115.6339409433137
 20
-142.3117268524429
 10
115.6339409433137
 20
-142.3454887881984
 10
115.6339409433137
 20
-142.4970729895493
 10
115.7631320240106
 20
-142.5918131153937
 10
115.7631320240106
 20
-142.5918131153937
 10
115.7441839988417
 20
-142.7795708193398
 10
115.7441839988417
 20
-142.7795708193398
 10
115.7441839988417
 20
-142.7795708193398
 10
114.8977240381159
 20
-142.6507242481915
 10
114.8977240381159
 20
-142.6507242481915
 10
114.8977240381159
 20
-142.6507242481915
 10
114.8977240381159
 20
-141.8187336885037
 10
114.8977240381159
 20
-141.8187336885037
 10
114.8977240381159
 20
-141.8187336885037
 10
115.0923719330325
 20
-141.8187336885037
 10
115.0923719330325
 20
-141.8187336885037
 10
115.0923719330325
 20
-141.8187336885037
 10
115.0923719330325
 20
-142.4767469261864
 10
115.0923719330325
 20
-142.4767469261864
 10
115.0923719330325
 20
-142.4767469261864
 10
115.5154296586211
 20
-142.5466823645369
 10
115.5154296586211
 20
-142.5466823645369
 10
115.4816677228657
 20
-142.4812255503172
 10
115.4413601056883
 20
-142.3930311058948
 10
115.4413601056883
 20
-142.2662515920376
 10
115.4413601056883
 20
-141.9951225773484
 10
115.6277397714403
 20
-141.7419080591826
 10
115.9408989510495
 20
-141.7419080591826
 10
116.258192245241
 20
-141.7419080591826
 10
116.4928032477865
 20
-141.9813421954074
 10
116.4928032477865
 20
-142.3048366614724
 97
        0
 97
        0
 75
     2
 76
     1
 98
        0
  0
ENDBLK
  5
A1
330
9E
100
AcDbEntity
  8
0
100
AcDbBlockEnd
  0
BLOCK
  5
CE
330
CC
100
AcDbEntity
  8
0
100
AcDbBlockBegin
  2
block 5
 70
     0
 10
0.0
 20
0.0
 30
0.0
  3
block 5
  1

  0
SPLINE
  5
D0
330
CC
100
AcDbEntity
  8
_U+30EC_U+30A4_U+30E4_U+30FC 1
370
     0
100
AcDbSpline
210
0.0
220
0.0
230
1.0
 70
    11
 71
     3
 72
    62
 73
    58
 74
     0
 42
0.0000000001
 43
0.0000000001
 12
1.0
 22
0.0
 32
0.0
 13
1.0
 23
0.0
 33
0.0
 40
0.0
 40
0.0
 40
0.0
 40
0.0
 40
1.0
 40
1.0
 40
1.0
 40
2.0
 40
2.0
 40
2.0
 40
3.0
 40
3.0
 40
3.0
 40
4.0
 40
4.0
 40
4.0
 40
5.0
 40
5.0
 40
5.0
 40
6.0
 40
6.0
 40
6.0
 40
7.0
 40
7.0
 40
7.0
 40
8.0
 40
8.0
 40
8.0
 40
9.0
 40
9.0
 40
9.0
 40
10.0
 40
10.0
 40
10.0
 40
11.0
 40
11.0
 40
11.0
 40
12.0
 40
12.0
 40
12.0
 40
13.0
 40
13.0
 40
13.0
 40
14.0
 40
14.0
 40
14.0
 40
15.0
 40
15.0
 40
15.0
 40
16.0
 40
16.0
 40
16.0
 40
17.0
 40
17.0
 40
17.0
 40
18.0
 40
18.0
 40
18.0
 40
19.0
 40
19.0
 40
19.0
 40
19.0
 10
88.94340818088915
 20
-112.8408297786474
 30
0.0
 10
88.84177786407429
 20
-112.8408297786474
 30
0.0
 10
88.6088894092714
 20
-112.8196424414132
 30
0.0
 10
88.47556421399223
 20
-112.6334350304354
 30
0.0
 10
88.39632701783148
 20
-112.5212971723905
 30
0.0
 10
88.39184839370066
 20
-112.4219061676411
 30
0.0
 10
88.38736976956983
 20
-112.3373290734782
 30
0.0
 10
88.38736976956983
 20
-112.3373290734782
 30
0.0
 10
88.62232528166386
 20
-112.3373290734782
 30
0.0
 10
88.62232528166386
 20
-112.3373290734782
 30
0.0
 10
88.62473684850355
 20
-112.411398626411
 30
0.0
 10
88.63610566360487
 20
-112.6461818837308
 30
0.0
 10
88.93892955675832
 20
-112.6461818837308
 30
0.0
 10
89.0860351339785
 20
-112.6461818837308
 30
0.0
 10
89.24864364088229
 20
-112.5764187001545
 30
0.0
 10
89.24864364088229
 20
-112.3478366147082
 30
0.0
 10
89.24864364088229
 20
-112.231564642081
 30
0.0
 10
89.20799151415633
 20
-112.1828165409647
 30
0.0
 10
89.1742295784009
 20
-112.1511216625004
 30
0.0
 10
89.09499238224015
 20
-112.0770521095675
 30
0.0
 10
88.97062443522263
 20
-112.0644775110464
 30
0.0
 10
88.91171330242486
 20
-112.0644775110464
 30
0.0
 10
88.89138723906188
 20
-112.0644775110464
 30
0.0
 10
88.85314667917561
 20
-112.0665445683375
 30
0.0
 10
88.82351885800246
 20
-112.0706786829198
 30
0.0
 10
88.82351885800246
 20
-112.0706786829198
 30
0.0
 10
88.82351885800246
 20
-111.8760307880032
 30
0.0
 10
88.82351885800246
 20
-111.8760307880032
 30
0.0
 10
88.8641709847284
 20
-111.8824042146509
 30
0.0
 10
88.9096462451337
 20
-111.8846435267163
 30
0.0
 10
88.91619192655568
 20
-111.8846435267163
 30
0.0
 10
88.98647187445478
 20
-111.8846435267163
 30
0.0
 10
89.1990342658947
 20
-111.8634561894821
 30
0.0
 10
89.1990342658947
 20
-111.6264336200969
 30
0.0
 10
89.1990342658947
 20
-111.4488389478322
 30
0.0
 10
89.05881887964502
 20
-111.3937174200682
 30
0.0
 10
88.94134112359801
 20
-111.3937174200682
 30
0.0
 10
88.658498784259
 20
-111.3937174200682
 30
0.0
 10
88.64954153599734
 20
-111.6264336200969
 30
0.0
 10
88.64506291186652
 20
-111.6984361157386
 30
0.0
 10
88.64506291186652
 20
-111.6984361157386
 30
0.0
 10
88.42802189629577
 20
-111.6984361157386
 30
0.0
 10
88.42802189629577
 20
-111.6984361157386
 30
0.0
 10
88.43697914455743
 20
-111.5735514043983
 30
0.0
 10
88.46626245618205
 20
-111.1970024678605
 30
0.0
 10
88.95477699599047
 20
-111.1970024678605
 30
0.0
 10
89.19455564176387
 20
-111.1970024678605
 30
0.0
 10
89.45224878406056
 20
-111.3239542364919
 30
0.0
 10
89.45224878406056
 20
-111.6200601934492
 30
0.0
 10
89.45224878406056
 20
-111.8062676044269
 30
0.0
 10
89.35027395769715
 20
-111.8887776412986
 30
0.0
 10
89.24416501675147
 20
-111.9501003409361
 30
0.0
 10
89.30962183097121
 20
-111.9776611048181
 30
0.0
 10
89.50426972588782
 20
-112.0581040843987
 30
0.0
 10
89.50426972588782
 20
-112.335262016187
 30
0.0
 10
89.50426972588782
 20
-112.6737426476128
 30
0.0
 10
89.23968639262064
 20
-112.8408297786474
 30
0.0
 10
88.94340818088915
 20
-112.8408297786474
 30
0.0
  0
HATCH
  5
D1
330
CC
100
AcDbEntity
  8
_U+30EC_U+30A4_U+30E4_U+30FC 1
 62
     7
420
 16777215
100
AcDbHatch
 10
0.0
 20
0.0
 30
0.0
210
0.0
220
0.0
230
1.0
  2
SOLID
 70
     1
 71
     0
 91
        1
 92
        1
 93
        1
 72
     4
 94
        3
 73
     0
 74
     1
 95
       62
 96
       58
 40
0.0
 40
0.0
 40
0.0
 40
0.0
 40
1.0
 40
1.0
 40
1.0
 40
2.0
 40
2.0
 40
2.0
 40
3.0
 40
3.0
 40
3.0
 40
4.0
 40
4.0
 40
4.0
 40
5.0
 40
5.0
 40
5.0
 40
6.0
 40
6.0
 40
6.0
 40
7.0
 40
7.0
 40
7.0
 40
8.0
 40
8.0
 40
8.0
 40
9.0
 40
9.0
 40
9.0
 40
10.0
 40
10.0
 40
10.0
 40
11.0
 40
11.0
 40
11.0
 40
12.0
 40
12.0
 40
12.0
 40
13.0
 40
13.0
 40
13.0
 40
14.0
 40
14.0
 40
14.0
 40
15.0
 40
15.0
 40
15.0
 40
16.0
 40
16.0
 40
16.0
 40
17.0
 40
17.0
 40
17.0
 40
18.0
 40
18.0
 40
18.0
 40
19.0
 40
19.0
 40
19.0
 40
19.0
 10
88.94340818088915
 20
-112.8408297786474
 10
88.84177786407429
 20
-112.8408297786474
 10
88.6088894092714
 20
-112.8196424414132
 10
88.47556421399223
 20
-112.6334350304354
 10
88.39632701783148
 20
-112.5212971723905
 10
88.39184839370066
 20
-112.4219061676411
 10
88.38736976956983
 20
-112.3373290734782
 10
88.38736976956983
 20
-112.3373290734782
 10
88.62232528166386
 20
-112.3373290734782
 10
88.62232528166386
 20
-112.3373290734782
 10
88.62473684850355
 20
-112.411398626411
 10
88.63610566360487
 20
-112.6461818837308
 10
88.93892955675832
 20
-112.6461818837308
 10
89.0860351339785
 20
-112.6461818837308
 10
89.24864364088229
 20
-112.5764187001545
 10
89.24864364088229
 20
-112.3478366147082
 10
89.24864364088229
 20
-112.231564642081
 10
89.20799151415633
 20
-112.1828165409647
 10
89.1742295784009
 20
-112.1511216625004
 10
89.09499238224015
 20
-112.0770521095675
 10
88.97062443522263
 20
-112.0644775110464
 10
88.91171330242486
 20
-112.0644775110464
 10
88.89138723906188
 20
-112.0644775110464
 10
88.85314667917561
 20
-112.0665445683375
 10
88.82351885800246
 20
-112.0706786829198
 10
88.82351885800246
 20
-112.0706786829198
 10
88.82351885800246
 20
-111.8760307880032
 10
88.82351885800246
 20
-111.8760307880032
 10
88.8641709847284
 20
-111.8824042146509
 10
88.9096462451337
 20
-111.8846435267163
 10
88.91619192655568
 20
-111.8846435267163
 10
88.98647187445478
 20
-111.8846435267163
 10
89.1990342658947
 20
-111.8634561894821
 10
89.1990342658947
 20
-111.6264336200969
 10
89.1990342658947
 20
-111.4488389478322
 10
89.05881887964502
 20
-111.3937174200682
 10
88.94134112359801
 20
-111.3937174200682
 10
88.658498784259
 20
-111.3937174200682
 10
88.64954153599734
 20
-111.6264336200969
 10
88.64506291186652
 20
-111.6984361157386
 10
88.64506291186652
 20
-111.6984361157386
 10
88.42802189629577
 20
-111.6984361157386
 10
88.42802189629577
 20
-111.6984361157386
 10
88.43697914455743
 20
-111.5735514043983
 10
88.46626245618205
 20
-111.1970024678605
 10
88.95477699599047
 20
-111.1970024678605
 10
89.19455564176387
 20
-111.1970024678605
 10
89.45224878406056
 20
-111.3239542364919
 10
89.45224878406056
 20
-111.6200601934492
 10
89.45224878406056
 20
-111.8062676044269
 10
89.35027395769715
 20
-111.8887776412986
 10
89.24416501675147
 20
-111.9501003409361
 10
89.30962183097121
 20
-111.9776611048181
 10
89.50426972588782
 20
-112.0581040843987
 10
89.50426972588782
 20
-112.335262016187
 10
89.50426972588782
 20
-112.6737426476128
 10
89.23968639262064
 20
-112.8408297786474
 10
88.94340818088915
 20
-112.8408297786474
 97
        0
 97
        0
 75
     2
 76
     1
 98
        0
  0
SPLINE
  5
D2
330
CC
100
AcDbEntity
  8
_U+30EC_U+30A4_U+30E4_U+30FC 1
370
     0
100
AcDbSpline
210
0.0
220
0.0
230
1.0
 70
    11
 71
     3
 72
    53
 73
    49
 74
     0
 42
0.0000000001
 43
0.0000000001
 12
1.0
 22
0.0
 32
0.0
 13
1.0
 23
0.0
 33
0.0
 40
0.0
 40
0.0
 40
0.0
 40
0.0
 40
1.0
 40
1.0
 40
1.0
 40
2.0
 40
2.0
 40
2.0
 40
3.0
 40
3.0
 40
3.0
 40
4.0
 40
4.0
 40
4.0
 40
5.0
 40
5.0
 40
5.0
 40
6.0
 40
6.0
 40
6.0
 40
7.0
 40
7.0
 40
7.0
 40
8.0
 40
8.0
 40
8.0
 40
9.0
 40
9.0
 40
9.0
 40
10.0
 40
10.0
 40
10.0
 40
11.0
 40
11.0
 40
11.0
 40
12.0
 40
12.0
 40
12.0
 40
13.0
 40
13.0
 40
13.0
 40
14.0
 40
14.0
 40
14.0
 40
15.0
 40
15.0
 40
15.0
 40
16.0
 40
16.0
 40
16.0
 40
16.0
 10
90.18984372745254
 20
-112.8408297786474
 30
0.0
 10
90.1064724167095
 20
-112.8408297786474
 30
0.0
 10
89.9976073993756
 20
-112.8237765559955
 30
0.0
 10
89.88943140113875
 20
-112.7603867990669
 30
0.0
 10
89.70374075448379
 20
-112.6503159983131
 30
0.0
 10
89.68134763382967
 20
-112.5192301150994
 30
0.0
 10
89.66102157046669
 20
-112.411398626411
 30
0.0
 10
89.66102157046669
 20
-112.411398626411
 30
0.0
 10
89.8983886494004
 20
-112.411398626411
 30
0.0
 10
89.8983886494004
 20
-112.411398626411
 30
0.0
 10
89.95695527264965
 20
-112.61018063591
 30
0.0
 10
90.0926920347685
 20
-112.6398084570831
 30
0.0
 10
90.19225529429222
 20
-112.6398084570831
 30
0.0
 10
90.34142792880354
 20
-112.6398084570831
 30
0.0
 10
90.50403643570733
 20
-112.5404174523337
 30
0.0
 10
90.50403643570733
 20
-112.307701252305
 30
0.0
 10
90.50403643570733
 20
-112.051730657751
 30
0.0
 10
90.31214461717892
 20
-111.9819674741747
 30
0.0
 10
90.18329804603057
 20
-111.9819674741747
 30
0.0
 10
90.1491916007266
 20
-111.9819674741747
 30
0.0
 10
89.9976073993756
 20
-111.9819674741747
 30
0.0
 10
89.90286727353123
 20
-112.1109863000973
 30
0.0
 10
89.90286727353123
 20
-112.1109863000973
 30
0.0
 10
89.71510956958511
 20
-112.0918660201541
 30
0.0
 10
89.71510956958511
 20
-112.0918660201541
 30
0.0
 10
89.71510956958511
 20
-112.0918660201541
 30
0.0
 10
89.84395614073345
 20
-111.2457505689768
 30
0.0
 10
89.84395614073345
 20
-111.2457505689768
 30
0.0
 10
89.84395614073345
 20
-111.2457505689768
 30
0.0
 10
90.67594670042129
 20
-111.2457505689768
 30
0.0
 10
90.67594670042129
 20
-111.2457505689768
 30
0.0
 10
90.67594670042129
 20
-111.2457505689768
 30
0.0
 10
90.67594670042129
 20
-111.4403984638934
 30
0.0
 10
90.67594670042129
 20
-111.4403984638934
 30
0.0
 10
90.67594670042129
 20
-111.4403984638934
 30
0.0
 10
90.0182779722871
 20
-111.4403984638934
 30
0.0
 10
90.0182779722871
 20
-111.4403984638934
 30
0.0
 10
90.0182779722871
 20
-111.4403984638934
 30
0.0
 10
89.947998024388
 20
-111.8634561894821
 30
0.0
 10
89.947998024388
 20
-111.8634561894821
 30
0.0
 10
90.01345483860776
 20
-111.8295219989523
 30
0.0
 10
90.10164928303014
 20
-111.7893866365492
 30
0.0
 10
90.22842879688734
 20
-111.7893866365492
 30
0.0
 10
90.49955781157651
 20
-111.7893866365492
 30
0.0
 10
90.75277232974237
 20
-111.9755940475269
 30
0.0
 10
90.75277232974237
 20
-112.2885809723619
 30
0.0
 10
90.75277232974237
 20
-112.6060465213277
 30
0.0
 10
90.5133381935175
 20
-112.8408297786474
 30
0.0
 10
90.18984372745254
 20
-112.8408297786474
 30
0.0
  0
HATCH
  5
D3
330
CC
100
AcDbEntity
  8
_U+30EC_U+30A4_U+30E4_U+30FC 1
 62
     7
420
 16777215
100
AcDbHatch
 10
0.0
 20
0.0
 30
0.0
210
0.0
220
0.0
230
1.0
  2
SOLID
 70
     1
 71
     0
 91
        1
 92
        1
 93
        1
 72
     4
 94
        3
 73
     0
 74
     1
 95
       53
 96
       49
 40
0.0
 40
0.0
 40
0.0
 40
0.0
 40
1.0
 40
1.0
 40
1.0
 40
2.0
 40
2.0
 40
2.0
 40
3.0
 40
3.0
 40
3.0
 40
4.0
 40
4.0
 40
4.0
 40
5.0
 40
5.0
 40
5.0
 40
6.0
 40
6.0
 40
6.0
 40
7.0
 40
7.0
 40
7.0
 40
8.0
 40
8.0
 40
8.0
 40
9.0
 40
9.0
 40
9.0
 40
10.0
 40
10.0
 40
10.0
 40
11.0
 40
11.0
 40
11.0
 40
12.0
 40
12.0
 40
12.0
 40
13.0
 40
13.0
 40
13.0
 40
14.0
 40
14.0
 40
14.0
 40
15.0
 40
15.0
 40
15.0
 40
16.0
 40
16.0
 40
16.0
 40
16.0
 10
90.18984372745254
 20
-112.8408297786474
 10
90.1064724167095
 20
-112.8408297786474
 10
89.9976073993756
 20
-112.8237765559955
 10
89.88943140113875
 20
-112.7603867990669
 10
89.70374075448379
 20
-112.6503159983131
 10
89.68134763382967
 20
-112.5192301150994
 10
89.66102157046669
 20
-112.411398626411
 10
89.66102157046669
 20
-112.411398626411
 10
89.8983886494004
 20
-112.411398626411
 10
89.8983886494004
 20
-112.411398626411
 10
89.95695527264965
 20
-112.61018063591
 10
90.0926920347685
 20
-112.6398084570831
 10
90.19225529429222
 20
-112.6398084570831
 10
90.34142792880354
 20
-112.6398084570831
 10
90.50403643570733
 20
-112.5404174523337
 10
90.50403643570733
 20
-112.307701252305
 10
90.50403643570733
 20
-112.051730657751
 10
90.31214461717892
 20
-111.9819674741747
 10
90.18329804603057
 20
-111.9819674741747
 10
90.1491916007266
 20
-111.9819674741747
 10
89.9976073993756
 20
-111.9819674741747
 10
89.90286727353123
 20
-112.1109863000973
 10
89.90286727353123
 20
-112.1109863000973
 10
89.71510956958511
 20
-112.0918660201541
 10
89.71510956958511
 20
-112.0918660201541
 10
89.71510956958511
 20
-112.0918660201541
 10
89.84395614073345
 20
-111.2457505689768
 10
89.84395614073345
 20
-111.2457505689768
 10
89.84395614073345
 20
-111.2457505689768
 10
90.67594670042129
 20
-111.2457505689768
 10
90.67594670042129
 20
-111.2457505689768
 10
90.67594670042129
 20
-111.2457505689768
 10
90.67594670042129
 20
-111.4403984638934
 10
90.67594670042129
 20
-111.4403984638934
 10
90.67594670042129
 20
-111.4403984638934
 10
90.0182779722871
 20
-111.4403984638934
 10
90.0182779722871
 20
-111.4403984638934
 10
90.0182779722871
 20
-111.4403984638934
 10
89.947998024388
 20
-111.8634561894821
 10
89.947998024388
 20
-111.8634561894821
 10
90.01345483860776
 20
-111.8295219989523
 10
90.10164928303014
 20
-111.7893866365492
 10
90.22842879688734
 20
-111.7893866365492
 10
90.49955781157651
 20
-111.7893866365492
 10
90.75277232974237
 20
-111.9755940475269
 10
90.75277232974237
 20
-112.2885809723619
 10
90.75277232974237
 20
-112.6060465213277
 10
90.5133381935175
 20
-112.8408297786474
 10
90.18984372745254
 20
-112.8408297786474
 97
        0
 97
        0
 75
     2
 76
     1
 98
        0
  0
ENDBLK
  5
CF
330
CC
100
AcDbEntity
  8
0
100
AcDbBlockEnd
  0
BLOCK
  5
E3
330
E1
100
AcDbEntity
  8
0
100
AcDbBlockBegin
  2
block 6
 70
     0
 10
0.0
 20
0.0
 30
0.0
  3
block 6
  1

  0
SPLINE
  5
E5
330
E1
100
AcDbEntity
  8
_U+30EC_U+30A4_U+30E4_U+30FC 1
370
     0
100
AcDbSpline
210
0.0
220
0.0
230
1.0
 70
    11
 71
     3
 72
    44
 73
    40
 74
     0
 42
0.0000000001
 43
0.0000000001
 12
1.0
 22
0.0
 32
0.0
 13
1.0
 23
0.0
 33
0.0
 40
0.0
 40
0.0
 40
0.0
 40
0.0
 40
1.0
 40
1.0
 40
1.0
 40
2.0
 40
2.0
 40
2.0
 40
3.0
 40
3.0
 40
3.0
 40
4.0
 40
4.0
 40
4.0
 40
5.0
 40
5.0
 40
5.0
 40
6.0
 40
6.0
 40
6.0
 40
7.0
 40
7.0
 40
7.0
 40
8.0
 40
8.0
 40
8.0
 40
9.0
 40
9.0
 40
9.0
 40
10.0
 40
10.0
 40
10.0
 40
11.0
 40
11.0
 40
11.0
 40
12.0
 40
12.0
 40
12.0
 40
13.0
 40
13.0
 40
13.0
 40
13.0
 10
81.55195581728563
 20
-144.1617431280221
 30
0.0
 10
81.31906736248274
 20
-144.3205620298921
 30
0.0
 10
81.21950410295902
 20
-144.394631582825
 30
0.0
 10
81.16748316113174
 20
-144.5382920645599
 30
0.0
 10
81.16748316113174
 20
-144.5382920645599
 30
0.0
 10
81.9998182303681
 20
-144.5382920645599
 30
0.0
 10
81.9998182303681
 20
-144.5382920645599
 30
0.0
 10
81.9998182303681
 20
-144.5382920645599
 30
0.0
 10
81.9998182303681
 20
-144.7436197554808
 30
0.0
 10
81.9998182303681
 20
-144.7436197554808
 30
0.0
 10
81.9998182303681
 20
-144.7436197554808
 30
0.0
 10
80.9008327705734
 20
-144.7436197554808
 30
0.0
 10
80.9008327705734
 20
-144.7436197554808
 30
0.0
 10
80.93493921587738
 20
-144.3860188441118
 30
0.0
 10
81.00487465422795
 20
-144.3078151765967
 30
0.0
 10
81.41621905516678
 20
-144.009469907574
 30
0.0
 10
81.68975963669563
 20
-143.8106878980751
 30
0.0
 10
81.76003958459472
 20
-143.7428195170157
 30
0.0
 10
81.76003958459472
 20
-143.6053602071542
 30
0.0
 10
81.76003958459472
 20
-143.4868489224616
 30
0.0
 10
81.68321395527364
 20
-143.3559352940221
 30
0.0
 10
81.47271862112488
 20
-143.3559352940221
 30
0.0
 10
81.19469941546522
 20
-143.3559352940221
 30
0.0
 10
81.18574216720357
 20
-143.5864121819853
 30
0.0
 10
81.18126354307275
 20
-143.7028564093868
 30
0.0
 10
81.18126354307275
 20
-143.7028564093868
 30
0.0
 10
80.94148489729936
 20
-143.7028564093868
 30
0.0
 10
80.94148489729936
 20
-143.7028564093868
 30
0.0
 10
80.950442145561
 20
-143.5757323859811
 30
0.0
 10
80.96181096066233
 20
-143.4637667827105
 30
0.0
 10
81.04793834779358
 20
-143.3452554980178
 30
0.0
 10
81.1654161038406
 20
-143.1843695388567
 30
0.0
 10
81.36419811333951
 20
-143.1506076031012
 30
0.0
 10
81.48856606035703
 20
-143.1506076031012
 30
0.0
 10
81.78484427208852
 20
-143.1506076031012
 30
0.0
 10
82.00636391179007
 20
-143.3345757020136
 30
0.0
 10
82.00636391179007
 20
-143.6074272644454
 30
0.0
 10
82.00636391179007
 20
-143.836181604666
 30
0.0
 10
81.88199596477256
 20
-143.9354003546412
 30
0.0
 10
81.55195581728563
 20
-144.1617431280221
 30
0.0
  0
HATCH
  5
E6
330
E1
100
AcDbEntity
  8
_U+30EC_U+30A4_U+30E4_U+30FC 1
 62
     7
420
 16777215
100
AcDbHatch
 10
0.0
 20
0.0
 30
0.0
210
0.0
220
0.0
230
1.0
  2
SOLID
 70
     1
 71
     0
 91
        1
 92
        1
 93
        1
 72
     4
 94
        3
 73
     0
 74
     1
 95
       44
 96
       40
 40
0.0
 40
0.0
 40
0.0
 40
0.0
 40
1.0
 40
1.0
 40
1.0
 40
2.0
 40
2.0
 40
2.0
 40
3.0
 40
3.0
 40
3.0
 40
4.0
 40
4.0
 40
4.0
 40
5.0
 40
5.0
 40
5.0
 40
6.0
 40
6.0
 40
6.0
 40
7.0
 40
7.0
 40
7.0
 40
8.0
 40
8.0
 40
8.0
 40
9.0
 40
9.0
 40
9.0
 40
10.0
 40
10.0
 40
10.0
 40
11.0
 40
11.0
 40
11.0
 40
12.0
 40
12.0
 40
12.0
 40
13.0
 40
13.0
 40
13.0
 40
13.0
 10
81.55195581728563
 20
-144.1617431280221
 10
81.31906736248274
 20
-144.3205620298921
 10
81.21950410295902
 20
-144.394631582825
 10
81.16748316113174
 20
-144.5382920645599
 10
81.16748316113174
 20
-144.5382920645599
 10
81.9998182303681
 20
-144.5382920645599
 10
81.9998182303681
 20
-144.5382920645599
 10
81.9998182303681
 20
-144.5382920645599
 10
81.9998182303681
 20
-144.7436197554808
 10
81.9998182303681
 20
-144.7436197554808
 10
81.9998182303681
 20
-144.7436197554808
 10
80.9008327705734
 20
-144.7436197554808
 10
80.9008327705734
 20
-144.7436197554808
 10
80.93493921587738
 20
-144.3860188441118
 10
81.00487465422795
 20
-144.3078151765967
 10
81.41621905516678
 20
-144.009469907574
 10
81.68975963669563
 20
-143.8106878980751
 10
81.76003958459472
 20
-143.7428195170157
 10
81.76003958459472
 20
-143.6053602071542
 10
81.76003958459472
 20
-143.4868489224616
 10
81.68321395527364
 20
-143.3559352940221
 10
81.47271862112488
 20
-143.3559352940221
 10
81.19469941546522
 20
-143.3559352940221
 10
81.18574216720357
 20
-143.5864121819853
 10
81.18126354307275
 20
-143.7028564093868
 10
81.18126354307275
 20
-143.7028564093868
 10
80.94148489729936
 20
-143.7028564093868
 10
80.94148489729936
 20
-143.7028564093868
 10
80.950442145561
 20
-143.5757323859811
 10
80.96181096066233
 20
-143.4637667827105
 10
81.04793834779358
 20
-143.3452554980178
 10
81.1654161038406
 20
-143.1843695388567
 10
81.36419811333951
 20
-143.1506076031012
 10
81.48856606035703
 20
-143.1506076031012
 10
81.78484427208852
 20
-143.1506076031012
 10
82.00636391179007
 20
-143.3345757020136
 10
82.00636391179007
 20
-143.6074272644454
 10
82.00636391179007
 20
-143.836181604666
 10
81.88199596477256
 20
-143.9354003546412
 10
81.55195581728563
 20
-144.1617431280221
 97
        0
 97
        0
 75
     2
 76
     1
 98
        0
  0
SPLINE
  5
E7
330
E1
100
AcDbEntity
  8
_U+30EC_U+30A4_U+30E4_U+30FC 1
370
     0
100
AcDbSpline
210
0.0
220
0.0
230
1.0
 70
    11
 71
     3
 72
    29
 73
    25
 74
     0
 42
0.0000000001
 43
0.0000000001
 12
1.0
 22
0.0
 32
0.0
 13
1.0
 23
0.0
 33
0.0
 40
0.0
 40
0.0
 40
0.0
 40
0.0
 40
1.0
 40
1.0
 40
1.0
 40
2.0
 40
2.0
 40
2.0
 40
3.0
 40
3.0
 40
3.0
 40
4.0
 40
4.0
 40
4.0
 40
5.0
 40
5.0
 40
5.0
 40
6.0
 40
6.0
 40
6.0
 40
7.0
 40
7.0
 40
7.0
 40
8.0
 40
8.0
 40
8.0
 40
8.0
 10
83.13532170230646
 20
-144.5658528284419
 30
0.0
 10
83.01991100355058
 20
-144.7753146339451
 30
0.0
 10
82.83456486644414
 20
-144.7942626591139
 30
0.0
 10
82.71019691942662
 20
-144.7942626591139
 30
0.0
 10
82.53863116426118
 20
-144.7942626591139
 30
0.0
 10
82.38704696291019
 20
-144.7477538700631
 30
0.0
 10
82.28541664609531
 20
-144.5658528284419
 30
0.0
 10
82.17448457147027
 20
-144.3712049335253
 30
0.0
 10
82.1541585081073
 20
-144.1341823641401
 30
0.0
 10
82.1541585081073
 20
-143.9715738572363
 30
0.0
 10
82.1541585081073
 20
-143.8275688659528
 30
0.0
 10
82.17207300463059
 20
-143.5757323859811
 30
0.0
 10
82.28541664609531
 20
-143.3769503764822
 30
0.0
 10
82.40048283530265
 20
-143.1740342524009
 30
0.0
 10
82.57239310001663
 20
-143.1506076031012
 30
0.0
 10
82.71019691942662
 20
-143.1506076031012
 30
0.0
 10
82.88004012684944
 20
-143.1506076031012
 30
0.0
 10
83.03369138549158
 20
-143.195049334861
 30
0.0
 10
83.13532170230646
 20
-143.3769503764822
 30
0.0
 10
83.24177515280067
 20
-143.5695312141076
 30
0.0
 10
83.26657984029447
 20
-143.7979410447797
 30
0.0
 10
83.26657984029447
 20
-143.9715738572363
 30
0.0
 10
83.26657984029447
 20
-144.1427951028532
 30
0.0
 10
83.24384221009183
 20
-144.3732719908164
 30
0.0
 10
83.13532170230646
 20
-144.5658528284419
 30
0.0
  0
SPLINE
  5
E8
330
E1
100
AcDbEntity
  8
_U+30EC_U+30A4_U+30E4_U+30FC 1
370
     0
100
AcDbSpline
210
0.0
220
0.0
230
1.0
 70
    11
 71
     3
 72
    17
 73
    13
 74
     0
 42
0.0000000001
 43
0.0000000001
 12
1.0
 22
0.0
 32
0.0
 13
1.0
 23
0.0
 33
0.0
 40
0.0
 40
0.0
 40
0.0
 40
0.0
 40
1.0
 40
1.0
 40
1.0
 40
2.0
 40
2.0
 40
2.0
 40
3.0
 40
3.0
 40
3.0
 40
4.0
 40
4.0
 40
4.0
 40
4.0
 10
82.71019691942662
 20
-143.3431884407267
 30
0.0
 10
82.44354652886828
 20
-143.3431884407267
 30
0.0
 10
82.39393715388069
 20
-143.6267197991628
 30
0.0
 10
82.39393715388069
 20
-143.9715738572363
 30
0.0
 10
82.39393715388069
 20
-144.2909342087189
 30
0.0
 10
82.43217771376696
 20
-144.5996147641973
 30
0.0
 10
82.71019691942662
 20
-144.5996147641973
 30
0.0
 10
82.9747802526938
 20
-144.5996147641973
 30
0.0
 10
83.02680119452108
 20
-144.3184949726009
 30
0.0
 10
83.02680119452108
 20
-143.9715738572363
 30
0.0
 10
83.02680119452108
 20
-143.6518689962051
 30
0.0
 10
82.98614906779514
 20
-143.3431884407267
 30
0.0
 10
82.71019691942662
 20
-143.3431884407267
 30
0.0
  0
HATCH
  5
E9
330
E1
100
AcDbEntity
  8
_U+30EC_U+30A4_U+30E4_U+30FC 1
 62
     7
420
 16777215
100
AcDbHatch
 10
0.0
 20
0.0
 30
0.0
210
0.0
220
0.0
230
1.0
  2
SOLID
 70
     1
 71
     0
 91
        2
 92
        1
 93
        1
 72
     4
 94
        3
 73
     0
 74
     1
 95
       29
 96
       25
 40
0.0
 40
0.0
 40
0.0
 40
0.0
 40
1.0
 40
1.0
 40
1.0
 40
2.0
 40
2.0
 40
2.0
 40
3.0
 40
3.0
 40
3.0
 40
4.0
 40
4.0
 40
4.0
 40
5.0
 40
5.0
 40
5.0
 40
6.0
 40
6.0
 40
6.0
 40
7.0
 40
7.0
 40
7.0
 40
8.0
 40
8.0
 40
8.0
 40
8.0
 10
83.13532170230646
 20
-144.5658528284419
 10
83.01991100355058
 20
-144.7753146339451
 10
82.83456486644414
 20
-144.7942626591139
 10
82.71019691942662
 20
-144.7942626591139
 10
82.53863116426118
 20
-144.7942626591139
 10
82.38704696291019
 20
-144.7477538700631
 10
82.28541664609531
 20
-144.5658528284419
 10
82.17448457147027
 20
-144.3712049335253
 10
82.1541585081073
 20
-144.1341823641401
 10
82.1541585081073
 20
-143.9715738572363
 10
82.1541585081073
 20
-143.8275688659528
 10
82.17207300463059
 20
-143.5757323859811
 10
82.28541664609531
 20
-143.3769503764822
 10
82.40048283530265
 20
-143.1740342524009
 10
82.57239310001663
 20
-143.1506076031012
 10
82.71019691942662
 20
-143.1506076031012
 10
82.88004012684944
 20
-143.1506076031012
 10
83.03369138549158
 20
-143.195049334861
 10
83.13532170230646
 20
-143.3769503764822
 10
83.24177515280067
 20
-143.5695312141076
 10
83.26657984029447
 20
-143.7979410447797
 10
83.26657984029447
 20
-143.9715738572363
 10
83.26657984029447
 20
-144.1427951028532
 10
83.24384221009183
 20
-144.3732719908164
 10
83.13532170230646
 20
-144.5658528284419
 97
        0
 97
        0
 92
        1
 93
        1
 72
     4
 94
        3
 73
     0
 74
     1
 95
       17
 96
       13
 40
0.0
 40
0.0
 40
0.0
 40
0.0
 40
1.0
 40
1.0
 40
1.0
 40
2.0
 40
2.0
 40
2.0
 40
3.0
 40
3.0
 40
3.0
 40
4.0
 40
4.0
 40
4.0
 40
4.0
 10
82.71019691942662
 20
-143.3431884407267
 10
82.44354652886828
 20
-143.3431884407267
 10
82.39393715388069
 20
-143.6267197991628
 10
82.39393715388069
 20
-143.9715738572363
 10
82.39393715388069
 20
-144.2909342087189
 10
82.43217771376696
 20
-144.5996147641973
 10
82.71019691942662
 20
-144.5996147641973
 10
82.9747802526938
 20
-144.5996147641973
 10
83.02680119452108
 20
-144.3184949726009
 10
83.02680119452108
 20
-143.9715738572363
 10
83.02680119452108
 20
-143.6518689962051
 10
82.98614906779514
 20
-143.3431884407267
 10
82.71019691942662
 20
-143.3431884407267
 97
        0
 97
        0
 75
     2
 76
     1
 98
        0
  0
ENDBLK
  5
E4
330
E1
100
AcDbEntity
  8
0
100
AcDbBlockEnd
  0
BLOCK
  5
F8
330
F6
100
AcDbEntity
  8
0
100
AcDbBlockBegin
  2
block 7
 70
     0
 10
0.0
 20
0.0
 30
0.0
  3
block 7
  1

  0
SPLINE
  5
FA
330
F6
100
AcDbEntity
  8
_U+30EC_U+30A4_U+30E4_U+30FC 1
370
     0
100
AcDbSpline
210
0.0
220
0.0
230
1.0
 70
    11
 71
     3
 72
    26
 73
    22
 74
     0
 42
0.0000000001
 43
0.0000000001
 12
1.0
 22
0.0
 32
0.0
 13
1.0
 23
0.0
 33
0.0
 40
0.0
 40
0.0
 40
0.0
 40
0.0
 40
1.0
 40
1.0
 40
1.0
 40
2.0
 40
2.0
 40
2.0
 40
3.0
 40
3.0
 40
3.0
 40
4.0
 40
4.0
 40
4.0
 40
5.0
 40
5.0
 40
5.0
 40
6.0
 40
6.0
 40
6.0
 40
7.0
 40
7.0
 40
7.0
 40
7.0
 10
72.85722383161209
 20
-117.7338988963478
 30
0.0
 10
72.85722383161209
 20
-117.7338988963478
 30
0.0
 10
72.85722383161209
 20
-116.6295735385509
 30
0.0
 10
72.85722383161209
 20
-116.6295735385509
 30
0.0
 10
72.85722383161209
 20
-116.6295735385509
 30
0.0
 10
72.5044460539225
 20
-116.6295735385509
 30
0.0
 10
72.5044460539225
 20
-116.6295735385509
 30
0.0
 10
72.5044460539225
 20
-116.6295735385509
 30
0.0
 10
72.5044460539225
 20
-116.4814344326852
 30
0.0
 10
72.5044460539225
 20
-116.4814344326852
 30
0.0
 10
72.8594631436775
 20
-116.4667927768729
 30
0.0
 10
72.90924477343935
 20
-116.3038397604206
 30
0.0
 10
72.94093965190366
 20
-116.1896348450845
 30
0.0
 10
72.94093965190366
 20
-116.1896348450845
 30
0.0
 10
73.09683022261122
 20
-116.1896348450845
 30
0.0
 10
73.09683022261122
 20
-116.1896348450845
 30
0.0
 10
73.09683022261122
 20
-116.1896348450845
 30
0.0
 10
73.09683022261122
 20
-117.7338988963478
 30
0.0
 10
73.09683022261122
 20
-117.7338988963478
 30
0.0
 10
73.09683022261122
 20
-117.7338988963478
 30
0.0
 10
72.85722383161209
 20
-117.7338988963478
 30
0.0
 10
72.85722383161209
 20
-117.7338988963478
 30
0.0
  0
HATCH
  5
FB
330
F6
100
AcDbEntity
  8
_U+30EC_U+30A4_U+30E4_U+30FC 1
 62
     7
420
 16777215
100
AcDbHatch
 10
0.0
 20
0.0
 30
0.0
210
0.0
220
0.0
230
1.0
  2
SOLID
 70
     1
 71
     0
 91
        1
 92
        1
 93
        1
 72
     4
 94
        3
 73
     0
 74
     1
 95
       26
 96
       22
 40
0.0
 40
0.0
 40
0.0
 40
0.0
 40
1.0
 40
1.0
 40
1.0
 40
2.0
 40
2.0
 40
2.0
 40
3.0
 40
3.0
 40
3.0
 40
4.0
 40
4.0
 40
4.0
 40
5.0
 40
5.0
 40
5.0
 40
6.0
 40
6.0
 40
6.0
 40
7.0
 40
7.0
 40
7.0
 40
7.0
 10
72.85722383161209
 20
-117.7338988963478
 10
72.85722383161209
 20
-117.7338988963478
 10
72.85722383161209
 20
-116.6295735385509
 10
72.85722383161209
 20
-116.6295735385509
 10
72.85722383161209
 20
-116.6295735385509
 10
72.5044460539225
 20
-116.6295735385509
 10
72.5044460539225
 20
-116.6295735385509
 10
72.5044460539225
 20
-116.6295735385509
 10
72.5044460539225
 20
-116.4814344326852
 10
72.5044460539225
 20
-116.4814344326852
 10
72.8594631436775
 20
-116.4667927768729
 10
72.90924477343935
 20
-116.3038397604206
 10
72.94093965190366
 20
-116.1896348450845
 10
72.94093965190366
 20
-116.1896348450845
 10
73.09683022261122
 20
-116.1896348450845
 10
73.09683022261122
 20
-116.1896348450845
 10
73.09683022261122
 20
-116.1896348450845
 10
73.09683022261122
 20
-117.7338988963478
 10
73.09683022261122
 20
-117.7338988963478
 10
73.09683022261122
 20
-117.7338988963478
 10
72.85722383161209
 20
-117.7338988963478
 10
72.85722383161209
 20
-117.7338988963478
 97
        0
 97
        0
 75
     2
 76
     1
 98
        0
  0
POLYLINE
  5
FC
330
F6
100
AcDbEntity
  8
_U+30EC_U+30A4_U+30E4_U+30FC 1
370
     0
100
AcDb2dPolyline
 66
     1
 10
0.0
 20
0.0
 30
0.0
  0
VERTEX
  5
FD
330
FC
100
AcDbEntity
  8
_U+30EC_U+30A4_U+30E4_U+30FC 1
370
     0
100
AcDbVertex
100
AcDb2dVertex
 10
73.69679360136747
 20
-117.7338988963478
 30
0.0
  0
VERTEX
  5
FE
330
FC
100
AcDbEntity
  8
_U+30EC_U+30A4_U+30E4_U+30FC 1
370
     0
100
AcDbVertex
100
AcDb2dVertex
 10
73.69679360136747
 20
-117.4822346711503
 30
0.0
  0
VERTEX
  5
FF
330
FC
100
AcDbEntity
  8
_U+30EC_U+30A4_U+30E4_U+30FC 1
370
     0
100
AcDbVertex
100
AcDb2dVertex
 10
73.96585555876548
 20
-117.4822346711503
 30
0.0
  0
VERTEX
  5
100
330
FC
100
AcDbEntity
  8
_U+30EC_U+30A4_U+30E4_U+30FC 1
370
     0
100
AcDbVertex
100
AcDb2dVertex
 10
73.96585555876548
 20
-117.7338988963478
 30
0.0
  0
VERTEX
  5
101
330
FC
100
AcDbEntity
  8
_U+30EC_U+30A4_U+30E4_U+30FC 1
370
     0
100
AcDbVertex
100
AcDb2dVertex
 10
73.69679360136747
 20
-117.7338988963478
 30
0.0
  0
SEQEND
  5
102
330
FC
100
AcDbEntity
  8
_U+30EC_U+30A4_U+30E4_U+30FC 1
370
     0
  0
HATCH
  5
103
330
F6
100
AcDbEntity
  8
_U+30EC_U+30A4_U+30E4_U+30FC 1
 62
     7
420
 16777215
100
AcDbHatch
 10
0.0
 20
0.0
 30
0.0
210
0.0
220
0.0
230
1.0
  2
SOLID
 70
     1
 71
     0
 91
        1
 92
        1
 93
        4
 72
     1
 10
73.69679360136747
 20
-117.7338988963478
 11
73.69679360136747
 21
-117.4822346711503
 72
     1
 10
73.69679360136747
 20
-117.4822346711503
 11
73.96585555876548
 21
-117.4822346711503
 72
     1
 10
73.96585555876548
 20
-117.4822346711503
 11
73.96585555876548
 21
-117.7338988963478
 72
     1
 10
73.96585555876548
 20
-117.7338988963478
 11
73.69679360136747
 21
-117.7338988963478
 97
        0
 75
     2
 76
     1
 98
        0
  0
SPLINE
  5
104
330
F6
100
AcDbEntity
  8
_U+30EC_U+30A4_U+30E4_U+30FC 1
370
     0
100
AcDbSpline
210
0.0
220
0.0
230
1.0
 70
    11
 71
     3
 72
    53
 73
    49
 74
     0
 42
0.0000000001
 43
0.0000000001
 12
1.0
 22
0.0
 32
0.0
 13
1.0
 23
0.0
 33
0.0
 40
0.0
 40
0.0
 40
0.0
 40
0.0
 40
1.0
 40
1.0
 40
1.0
 40
2.0
 40
2.0
 40
2.0
 40
3.0
 40
3.0
 40
3.0
 40
4.0
 40
4.0
 40
4.0
 40
5.0
 40
5.0
 40
5.0
 40
6.0
 40
6.0
 40
6.0
 40
7.0
 40
7.0
 40
7.0
 40
8.0
 40
8.0
 40
8.0
 40
9.0
 40
9.0
 40
9.0
 40
10.0
 40
10.0
 40
10.0
 40
11.0
 40
11.0
 40
11.0
 40
12.0
 40
12.0
 40
12.0
 40
13.0
 40
13.0
 40
13.0
 40
14.0
 40
14.0
 40
14.0
 40
15.0
 40
15.0
 40
15.0
 40
16.0
 40
16.0
 40
16.0
 40
16.0
 10
74.73256155900783
 20
-117.7847140547552
 30
0.0
 10
74.64901799349053
 20
-117.7847140547552
 30
0.0
 10
74.54049748570516
 20
-117.7678330868775
 30
0.0
 10
74.43197697791979
 20
-117.7042710751746
 30
0.0
 10
74.24645858603908
 20
-117.5942002744209
 30
0.0
 10
74.2238932106107
 20
-117.4631143912071
 30
0.0
 10
74.20356714724772
 20
-117.3552829025188
 30
0.0
 10
74.20356714724772
 20
-117.3552829025188
 30
0.0
 10
74.44093422618144
 20
-117.3552829025188
 30
0.0
 10
74.44093422618144
 20
-117.3552829025188
 30
0.0
 10
74.49967310420494
 20
-117.5540649120177
 30
0.0
 10
74.63540986632378
 20
-117.5836927331909
 30
0.0
 10
74.73480087107325
 20
-117.5836927331909
 30
0.0
 10
74.88414576035883
 20
-117.5836927331909
 30
0.0
 10
75.04692652203688
 20
-117.4843017284414
 30
0.0
 10
75.04692652203688
 20
-117.2515855284128
 30
0.0
 10
75.04692652203688
 20
-116.9956149338587
 30
0.0
 10
74.85469019395994
 20
-116.9258517502824
 30
0.0
 10
74.7258436228116
 20
-116.9258517502824
 30
0.0
 10
74.69190943228189
 20
-116.9258517502824
 30
0.0
 10
74.54049748570516
 20
-116.9258517502824
 30
0.0
 10
74.44541285031227
 20
-117.054870576205
 30
0.0
 10
74.44541285031227
 20
-117.054870576205
 30
0.0
 10
74.2578274011404
 20
-117.0357502962619
 30
0.0
 10
74.2578274011404
 20
-117.0357502962619
 30
0.0
 10
74.2578274011404
 20
-117.0357502962619
 30
0.0
 10
74.38667397228875
 20
-116.1896348450845
 30
0.0
 10
74.38667397228875
 20
-116.1896348450845
 30
0.0
 10
74.38667397228875
 20
-116.1896348450845
 30
0.0
 10
75.21866453197659
 20
-116.1896348450845
 30
0.0
 10
75.21866453197659
 20
-116.1896348450845
 30
0.0
 10
75.21866453197659
 20
-116.1896348450845
 30
0.0
 10
75.21866453197659
 20
-116.3842827400012
 30
0.0
 10
75.21866453197659
 20
-116.3842827400012
 30
0.0
 10
75.21866453197659
 20
-116.3842827400012
 30
0.0
 10
74.56082354906813
 20
-116.3842827400012
 30
0.0
 10
74.56082354906813
 20
-116.3842827400012
 30
0.0
 10
74.56082354906813
 20
-116.3842827400012
 30
0.0
 10
74.4907158559433
 20
-116.8073404655898
 30
0.0
 10
74.4907158559433
 20
-116.8073404655898
 30
0.0
 10
74.55617267016305
 20
-116.7734062750601
 30
0.0
 10
74.64436711458544
 20
-116.733270912657
 30
0.0
 10
74.77097437366837
 20
-116.733270912657
 30
0.0
 10
75.0422756431318
 20
-116.733270912657
 30
0.0
 10
75.29549016129766
 20
-116.9194783236347
 30
0.0
 10
75.29549016129766
 20
-117.2324652484697
 30
0.0
 10
75.29549016129766
 20
-117.5499307974354
 30
0.0
 10
75.05588377029854
 20
-117.7847140547552
 30
0.0
 10
74.73256155900783
 20
-117.7847140547552
 30
0.0
  0
HATCH
  5
105
330
F6
100
AcDbEntity
  8
_U+30EC_U+30A4_U+30E4_U+30FC 1
 62
     7
420
 16777215
100
AcDbHatch
 10
0.0
 20
0.0
 30
0.0
210
0.0
220
0.0
230
1.0
  2
SOLID
 70
     1
 71
     0
 91
        1
 92
        1
 93
        1
 72
     4
 94
        3
 73
     0
 74
     1
 95
       53
 96
       49
 40
0.0
 40
0.0
 40
0.0
 40
0.0
 40
1.0
 40
1.0
 40
1.0
 40
2.0
 40
2.0
 40
2.0
 40
3.0
 40
3.0
 40
3.0
 40
4.0
 40
4.0
 40
4.0
 40
5.0
 40
5.0
 40
5.0
 40
6.0
 40
6.0
 40
6.0
 40
7.0
 40
7.0
 40
7.0
 40
8.0
 40
8.0
 40
8.0
 40
9.0
 40
9.0
 40
9.0
 40
10.0
 40
10.0
 40
10.0
 40
11.0
 40
11.0
 40
11.0
 40
12.0
 40
12.0
 40
12.0
 40
13.0
 40
13.0
 40
13.0
 40
14.0
 40
14.0
 40
14.0
 40
15.0
 40
15.0
 40
15.0
 40
16.0
 40
16.0
 40
16.0
 40
16.0
 10
74.73256155900783
 20
-117.7847140547552
 10
74.64901799349053
 20
-117.7847140547552
 10
74.54049748570516
 20
-117.7678330868775
 10
74.43197697791979
 20
-117.7042710751746
 10
74.24645858603908
 20
-117.5942002744209
 10
74.2238932106107
 20
-117.4631143912071
 10
74.20356714724772
 20
-117.3552829025188
 10
74.20356714724772
 20
-117.3552829025188
 10
74.44093422618144
 20
-117.3552829025188
 10
74.44093422618144
 20
-117.3552829025188
 10
74.49967310420494
 20
-117.5540649120177
 10
74.63540986632378
 20
-117.5836927331909
 10
74.73480087107325
 20
-117.5836927331909
 10
74.88414576035883
 20
-117.5836927331909
 10
75.04692652203688
 20
-117.4843017284414
 10
75.04692652203688
 20
-117.2515855284128
 10
75.04692652203688
 20
-116.9956149338587
 10
74.85469019395994
 20
-116.9258517502824
 10
74.7258436228116
 20
-116.9258517502824
 10
74.69190943228189
 20
-116.9258517502824
 10
74.54049748570516
 20
-116.9258517502824
 10
74.44541285031227
 20
-117.054870576205
 10
74.44541285031227
 20
-117.054870576205
 10
74.2578274011404
 20
-117.0357502962619
 10
74.2578274011404
 20
-117.0357502962619
 10
74.2578274011404
 20
-117.0357502962619
 10
74.38667397228875
 20
-116.1896348450845
 10
74.38667397228875
 20
-116.1896348450845
 10
74.38667397228875
 20
-116.1896348450845
 10
75.21866453197659
 20
-116.1896348450845
 10
75.21866453197659
 20
-116.1896348450845
 10
75.21866453197659
 20
-116.1896348450845
 10
75.21866453197659
 20
-116.3842827400012
 10
75.21866453197659
 20
-116.3842827400012
 10
75.21866453197659
 20
-116.3842827400012
 10
74.56082354906813
 20
-116.3842827400012
 10
74.56082354906813
 20
-116.3842827400012
 10
74.56082354906813
 20
-116.3842827400012
 10
74.4907158559433
 20
-116.8073404655898
 10
74.4907158559433
 20
-116.8073404655898
 10
74.55617267016305
 20
-116.7734062750601
 10
74.64436711458544
 20
-116.733270912657
 10
74.77097437366837
 20
-116.733270912657
 10
75.0422756431318
 20
-116.733270912657
 10
75.29549016129766
 20
-116.9194783236347
 10
75.29549016129766
 20
-117.2324652484697
 10
75.29549016129766
 20
-117.5499307974354
 10
75.05588377029854
 20
-117.7847140547552
 10
74.73256155900783
 20
-117.7847140547552
 97
        0
 97
        0
 75
     2
 76
     1
 98
        0
  0
ENDBLK
  5
F9
330
F6
100
AcDbEntity
  8
0
100
AcDbBlockEnd
  0
BLOCK
  5
110
330
10E
100
AcDbEntity
  8
0
100
AcDbBlockBegin
  2
block 8
 70
     0
 10
0.0
 20
0.0
 30
0.0
  3
block 8
  1

  0
SPLINE
  5
112
330
10E
100
AcDbEntity
  8
_U+30EC_U+30A4_U+30E4_U+30FC 1
370
     0
100
AcDbSpline
210
0.0
220
0.0
230
1.0
 70
    11
 71
     3
 72
    26
 73
    22
 74
     0
 42
0.0000000001
 43
0.0000000001
 12
1.0
 22
0.0
 32
0.0
 13
1.0
 23
0.0
 33
0.0
 40
0.0
 40
0.0
 40
0.0
 40
0.0
 40
1.0
 40
1.0
 40
1.0
 40
2.0
 40
2.0
 40
2.0
 40
3.0
 40
3.0
 40
3.0
 40
4.0
 40
4.0
 40
4.0
 40
5.0
 40
5.0
 40
5.0
 40
6.0
 40
6.0
 40
6.0
 40
7.0
 40
7.0
 40
7.0
 40
7.0
 10
116.4414713250563
 20
-135.5200656128214
 30
0.0
 10
116.4414713250563
 20
-135.5200656128214
 30
0.0
 10
115.3369737124852
 20
-135.5200656128214
 30
0.0
 10
115.3369737124852
 20
-135.5200656128214
 30
0.0
 10
115.3369737124852
 20
-135.5200656128214
 30
0.0
 10
115.3369737124852
 20
-135.872843390511
 30
0.0
 10
115.3369737124852
 20
-135.872843390511
 30
0.0
 10
115.3369737124852
 20
-135.872843390511
 30
0.0
 10
115.1888346066195
 20
-135.872843390511
 30
0.0
 10
115.1888346066195
 20
-135.872843390511
 30
0.0
 10
115.1743652055814
 20
-135.5176540459817
 30
0.0
 10
115.0114121891291
 20
-135.4680446709941
 30
0.0
 10
114.8973795285673
 20
-135.4363497925298
 30
0.0
 10
114.8973795285673
 20
-135.4363497925298
 30
0.0
 10
114.8973795285673
 20
-135.2806314765965
 30
0.0
 10
114.8973795285673
 20
-135.2806314765965
 30
0.0
 10
114.8973795285673
 20
-135.2806314765965
 30
0.0
 10
116.4414713250563
 20
-135.2806314765965
 30
0.0
 10
116.4414713250563
 20
-135.2806314765965
 30
0.0
 10
116.4414713250563
 20
-135.2806314765965
 30
0.0
 10
116.4414713250563
 20
-135.5200656128214
 30
0.0
 10
116.4414713250563
 20
-135.5200656128214
 30
0.0
  0
HATCH
  5
113
330
10E
100
AcDbEntity
  8
_U+30EC_U+30A4_U+30E4_U+30FC 1
 62
     7
420
 16777215
100
AcDbHatch
 10
0.0
 20
0.0
 30
0.0
210
0.0
220
0.0
230
1.0
  2
SOLID
 70
     1
 71
     0
 91
        1
 92
        1
 93
        1
 72
     4
 94
        3
 73
     0
 74
     1
 95
       26
 96
       22
 40
0.0
 40
0.0
 40
0.0
 40
0.0
 40
1.0
 40
1.0
 40
1.0
 40
2.0
 40
2.0
 40
2.0
 40
3.0
 40
3.0
 40
3.0
 40
4.0
 40
4.0
 40
4.0
 40
5.0
 40
5.0
 40
5.0
 40
6.0
 40
6.0
 40
6.0
 40
7.0
 40
7.0
 40
7.0
 40
7.0
 10
116.4414713250563
 20
-135.5200656128214
 10
116.4414713250563
 20
-135.5200656128214
 10
115.3369737124852
 20
-135.5200656128214
 10
115.3369737124852
 20
-135.5200656128214
 10
115.3369737124852
 20
-135.5200656128214
 10
115.3369737124852
 20
-135.872843390511
 10
115.3369737124852
 20
-135.872843390511
 10
115.3369737124852
 20
-135.872843390511
 10
115.1888346066195
 20
-135.872843390511
 10
115.1888346066195
 20
-135.872843390511
 10
115.1743652055814
 20
-135.5176540459817
 10
115.0114121891291
 20
-135.4680446709941
 10
114.8973795285673
 20
-135.4363497925298
 10
114.8973795285673
 20
-135.4363497925298
 10
114.8973795285673
 20
-135.2806314765965
 10
114.8973795285673
 20
-135.2806314765965
 10
114.8973795285673
 20
-135.2806314765965
 10
116.4414713250563
 20
-135.2806314765965
 10
116.4414713250563
 20
-135.2806314765965
 10
116.4414713250563
 20
-135.2806314765965
 10
116.4414713250563
 20
-135.5200656128214
 10
116.4414713250563
 20
-135.5200656128214
 97
        0
 97
        0
 75
     2
 76
     1
 98
        0
  0
SPLINE
  5
114
330
10E
100
AcDbEntity
  8
_U+30EC_U+30A4_U+30E4_U+30FC 1
370
     0
100
AcDbSpline
210
0.0
220
0.0
230
1.0
 70
    11
 71
     3
 72
    29
 73
    25
 74
     0
 42
0.0000000001
 43
0.0000000001
 12
1.0
 22
0.0
 32
0.0
 13
1.0
 23
0.0
 33
0.0
 40
0.0
 40
0.0
 40
0.0
 40
0.0
 40
1.0
 40
1.0
 40
1.0
 40
2.0
 40
2.0
 40
2.0
 40
3.0
 40
3.0
 40
3.0
 40
4.0
 40
4.0
 40
4.0
 40
5.0
 40
5.0
 40
5.0
 40
6.0
 40
6.0
 40
6.0
 40
7.0
 40
7.0
 40
7.0
 40
8.0
 40
8.0
 40
8.0
 40
8.0
 10
116.2637043980174
 20
-133.7854600359981
 30
0.0
 10
116.4731662035206
 20
-133.9005262252054
 30
0.0
 10
116.492458738238
 20
-134.0858723623119
 30
0.0
 10
116.492458738238
 20
-134.2102403093294
 30
0.0
 10
116.492458738238
 20
-134.3821505740434
 30
0.0
 10
116.4456054396386
 20
-134.5337347753944
 30
0.0
 10
116.2637043980174
 20
-134.6353650922092
 30
0.0
 10
116.0694010126493
 20
-134.7459526572857
 30
0.0
 10
115.8323784432641
 20
-134.7666232301972
 30
0.0
 10
115.6690809172633
 20
-134.7666232301972
 30
0.0
 10
115.5254204355284
 20
-134.7666232301972
 30
0.0
 10
115.2735839555566
 20
-134.7483642241254
 30
0.0
 10
115.0748019460577
 20
-134.6353650922092
 30
0.0
 10
114.8718858219765
 20
-134.5199543934534
 30
0.0
 10
114.8484591726768
 20
-134.3483886382879
 30
0.0
 10
114.8484591726768
 20
-134.2102403093294
 30
0.0
 10
114.8484591726768
 20
-134.0407416114551
 30
0.0
 10
114.8929009044365
 20
-133.8867458432644
 30
0.0
 10
115.0748019460577
 20
-133.7854600359981
 30
0.0
 10
115.2673827836832
 20
-133.6790065855039
 30
0.0
 10
115.4957926143552
 20
-133.6542018980101
 30
0.0
 10
115.6690809172633
 20
-133.6542018980101
 30
0.0
 10
115.8406466724287
 20
-133.6542018980101
 30
0.0
 10
116.0714680699405
 20
-133.6765950186642
 30
0.0
 10
116.2637043980174
 20
-133.7854600359981
 30
0.0
  0
SPLINE
  5
115
330
10E
100
AcDbEntity
  8
_U+30EC_U+30A4_U+30E4_U+30FC 1
370
     0
100
AcDbSpline
210
0.0
220
0.0
230
1.0
 70
    11
 71
     3
 72
    17
 73
    13
 74
     0
 42
0.0000000001
 43
0.0000000001
 12
1.0
 22
0.0
 32
0.0
 13
1.0
 23
0.0
 33
0.0
 40
0.0
 40
0.0
 40
0.0
 40
0.0
 40
1.0
 40
1.0
 40
1.0
 40
2.0
 40
2.0
 40
2.0
 40
3.0
 40
3.0
 40
3.0
 40
4.0
 40
4.0
 40
4.0
 40
4.0
 10
115.0410400103022
 20
-134.2102403093294
 30
0.0
 10
115.0410400103022
 20
-134.4772352094363
 30
0.0
 10
115.3245713687383
 20
-134.5268445844239
 30
0.0
 10
115.6690809172633
 20
-134.5268445844239
 30
0.0
 10
115.9887857782945
 20
-134.5268445844239
 30
0.0
 10
116.2974663337729
 20
-134.488259514989
 30
0.0
 10
116.2974663337729
 20
-134.2102403093294
 30
0.0
 10
116.2974663337729
 20
-133.9460014856107
 30
0.0
 10
116.0163465421765
 20
-133.8936360342349
 30
0.0
 10
115.6690809172633
 20
-133.8936360342349
 30
0.0
 10
115.3500650753292
 20
-133.8936360342349
 30
0.0
 10
115.0410400103022
 20
-133.9342881609609
 30
0.0
 10
115.0410400103022
 20
-134.2102403093294
 30
0.0
  0
HATCH
  5
116
330
10E
100
AcDbEntity
  8
_U+30EC_U+30A4_U+30E4_U+30FC 1
 62
     7
420
 16777215
100
AcDbHatch
 10
0.0
 20
0.0
 30
0.0
210
0.0
220
0.0
230
1.0
  2
SOLID
 70
     1
 71
     0
 91
        2
 92
        1
 93
        1
 72
     4
 94
        3
 73
     0
 74
     1
 95
       29
 96
       25
 40
0.0
 40
0.0
 40
0.0
 40
0.0
 40
1.0
 40
1.0
 40
1.0
 40
2.0
 40
2.0
 40
2.0
 40
3.0
 40
3.0
 40
3.0
 40
4.0
 40
4.0
 40
4.0
 40
5.0
 40
5.0
 40
5.0
 40
6.0
 40
6.0
 40
6.0
 40
7.0
 40
7.0
 40
7.0
 40
8.0
 40
8.0
 40
8.0
 40
8.0
 10
116.2637043980174
 20
-133.7854600359981
 10
116.4731662035206
 20
-133.9005262252054
 10
116.492458738238
 20
-134.0858723623119
 10
116.492458738238
 20
-134.2102403093294
 10
116.492458738238
 20
-134.3821505740434
 10
116.4456054396386
 20
-134.5337347753944
 10
116.2637043980174
 20
-134.6353650922092
 10
116.0694010126493
 20
-134.7459526572857
 10
115.8323784432641
 20
-134.7666232301972
 10
115.6690809172633
 20
-134.7666232301972
 10
115.5254204355284
 20
-134.7666232301972
 10
115.2735839555566
 20
-134.7483642241254
 10
115.0748019460577
 20
-134.6353650922092
 10
114.8718858219765
 20
-134.5199543934534
 10
114.8484591726768
 20
-134.3483886382879
 10
114.8484591726768
 20
-134.2102403093294
 10
114.8484591726768
 20
-134.0407416114551
 10
114.8929009044365
 20
-133.8867458432644
 10
115.0748019460577
 20
-133.7854600359981
 10
115.2673827836832
 20
-133.6790065855039
 10
115.4957926143552
 20
-133.6542018980101
 10
115.6690809172633
 20
-133.6542018980101
 10
115.8406466724287
 20
-133.6542018980101
 10
116.0714680699405
 20
-133.6765950186642
 10
116.2637043980174
 20
-133.7854600359981
 97
        0
 97
        0
 92
        1
 93
        1
 72
     4
 94
        3
 73
     0
 74
     1
 95
       17
 96
       13
 40
0.0
 40
0.0
 40
0.0
 40
0.0
 40
1.0
 40
1.0
 40
1.0
 40
2.0
 40
2.0
 40
2.0
 40
3.0
 40
3.0
 40
3.0
 40
4.0
 40
4.0
 40
4.0
 40
4.0
 10
115.0410400103022
 20
-134.2102403093294
 10
115.0410400103022
 20
-134.4772352094363
 10
115.3245713687383
 20
-134.5268445844239
 10
115.6690809172633
 20
-134.5268445844239
 10
115.9887857782945
 20
-134.5268445844239
 10
116.2974663337729
 20
-134.488259514989
 10
116.2974663337729
 20
-134.2102403093294
 10
116.2974663337729
 20
-133.9460014856107
 10
116.0163465421765
 20
-133.8936360342349
 10
115.6690809172633
 20
-133.8936360342349
 10
115.3500650753292
 20
-133.8936360342349
 10
115.0410400103022
 20
-133.9342881609609
 10
115.0410400103022
 20
-134.2102403093294
 97
        0
 97
        0
 75
     2
 76
     1
 98
        0
  0
ENDBLK
  5
111
330
10E
100
AcDbEntity
  8
0
100
AcDbBlockEnd
  0
BLOCK
  5
125
330
123
100
AcDbEntity
  8
0
100
AcDbBlockBegin
  2
block 9
 70
     0
 10
0.0
 20
0.0
 30
0.0
  3
block 9
  1

  0
SPLINE
  5
127
330
123
100
AcDbEntity
  8
_U+30EC_U+30A4_U+30E4_U+30FC 1
370
     0
100
AcDbSpline
210
0.0
220
0.0
230
1.0
 70
    11
 71
     3
 72
    44
 73
    40
 74
     0
 42
0.0000000001
 43
0.0000000001
 12
1.0
 22
0.0
 32
0.0
 13
1.0
 23
0.0
 33
0.0
 40
0.0
 40
0.0
 40
0.0
 40
0.0
 40
1.0
 40
1.0
 40
1.0
 40
2.0
 40
2.0
 40
2.0
 40
3.0
 40
3.0
 40
3.0
 40
4.0
 40
4.0
 40
4.0
 40
5.0
 40
5.0
 40
5.0
 40
6.0
 40
6.0
 40
6.0
 40
7.0
 40
7.0
 40
7.0
 40
8.0
 40
8.0
 40
8.0
 40
9.0
 40
9.0
 40
9.0
 40
10.0
 40
10.0
 40
10.0
 40
11.0
 40
11.0
 40
11.0
 40
12.0
 40
12.0
 40
12.0
 40
13.0
 40
13.0
 40
13.0
 40
13.0
 10
66.3170545624138
 20
-131.8686089080051
 30
0.0
 10
66.47587346428381
 20
-132.101497362808
 30
0.0
 10
66.54994301721669
 20
-132.2010606223317
 30
0.0
 10
66.6936034989516
 20
-132.2530815641589
 30
0.0
 10
66.6936034989516
 20
-132.2530815641589
 30
0.0
 10
66.6936034989516
 20
-131.4207464949226
 30
0.0
 10
66.6936034989516
 20
-131.4207464949226
 30
0.0
 10
66.6936034989516
 20
-131.4207464949226
 30
0.0
 10
66.8989311898725
 20
-131.4207464949226
 30
0.0
 10
66.8989311898725
 20
-131.4207464949226
 30
0.0
 10
66.8989311898725
 20
-131.4207464949226
 30
0.0
 10
66.8989311898725
 20
-132.5197319547173
 30
0.0
 10
66.8989311898725
 20
-132.5197319547173
 30
0.0
 10
66.54133027850357
 20
-132.4856255094133
 30
0.0
 10
66.46312661098838
 20
-132.4156900710628
 30
0.0
 10
66.16478134196575
 20
-132.0043456701239
 30
0.0
 10
65.96599933246684
 20
-131.7308050885951
 30
0.0
 10
65.89813095140741
 20
-131.660525140696
 30
0.0
 10
65.76067164154594
 20
-131.660525140696
 30
0.0
 10
65.64216035685335
 20
-131.660525140696
 30
0.0
 10
65.51124672841385
 20
-131.7373507700171
 30
0.0
 10
65.51124672841385
 20
-131.9478461041658
 30
0.0
 10
65.51124672841385
 20
-132.2258653098255
 30
0.0
 10
65.74172361637707
 20
-132.2348225580871
 30
0.0
 10
65.85816784377852
 20
-132.239301182218
 30
0.0
 10
65.85816784377852
 20
-132.239301182218
 30
0.0
 10
65.85816784377852
 20
-132.4790798279913
 30
0.0
 10
65.85816784377852
 20
-132.4790798279913
 30
0.0
 10
65.7310438203728
 20
-132.4701225797297
 30
0.0
 10
65.61907821710217
 20
-132.4587537646284
 30
0.0
 10
65.50056693240958
 20
-132.3726263774971
 30
0.0
 10
65.33968097324842
 20
-132.2551486214501
 30
0.0
 10
65.30591903749297
 20
-132.0563666119512
 30
0.0
 10
65.30591903749297
 20
-131.9319986649337
 30
0.0
 10
65.30591903749297
 20
-131.6357204532022
 30
0.0
 10
65.48988713640532
 20
-131.4142008135006
 30
0.0
 10
65.7627386988371
 20
-131.4142008135006
 30
0.0
 10
65.99149303905769
 20
-131.4142008135006
 30
0.0
 10
66.09071178903288
 20
-131.5385687605181
 30
0.0
 10
66.3170545624138
 20
-131.8686089080051
 30
0.0
  0
HATCH
  5
128
330
123
100
AcDbEntity
  8
_U+30EC_U+30A4_U+30E4_U+30FC 1
 62
     7
420
 16777215
100
AcDbHatch
 10
0.0
 20
0.0
 30
0.0
210
0.0
220
0.0
230
1.0
  2
SOLID
 70
     1
 71
     0
 91
        1
 92
        1
 93
        1
 72
     4
 94
        3
 73
     0
 74
     1
 95
       44
 96
       40
 40
0.0
 40
0.0
 40
0.0
 40
0.0
 40
1.0
 40
1.0
 40
1.0
 40
2.0
 40
2.0
 40
2.0
 40
3.0
 40
3.0
 40
3.0
 40
4.0
 40
4.0
 40
4.0
 40
5.0
 40
5.0
 40
5.0
 40
6.0
 40
6.0
 40
6.0
 40
7.0
 40
7.0
 40
7.0
 40
8.0
 40
8.0
 40
8.0
 40
9.0
 40
9.0
 40
9.0
 40
10.0
 40
10.0
 40
10.0
 40
11.0
 40
11.0
 40
11.0
 40
12.0
 40
12.0
 40
12.0
 40
13.0
 40
13.0
 40
13.0
 40
13.0
 10
66.3170545624138
 20
-131.8686089080051
 10
66.47587346428381
 20
-132.101497362808
 10
66.54994301721669
 20
-132.2010606223317
 10
66.6936034989516
 20
-132.2530815641589
 10
66.6936034989516
 20
-132.2530815641589
 10
66.6936034989516
 20
-131.4207464949226
 10
66.6936034989516
 20
-131.4207464949226
 10
66.6936034989516
 20
-131.4207464949226
 10
66.8989311898725
 20
-131.4207464949226
 10
66.8989311898725
 20
-131.4207464949226
 10
66.8989311898725
 20
-131.4207464949226
 10
66.8989311898725
 20
-132.5197319547173
 10
66.8989311898725
 20
-132.5197319547173
 10
66.54133027850357
 20
-132.4856255094133
 10
66.46312661098838
 20
-132.4156900710628
 10
66.16478134196575
 20
-132.0043456701239
 10
65.96599933246684
 20
-131.7308050885951
 10
65.89813095140741
 20
-131.660525140696
 10
65.76067164154594
 20
-131.660525140696
 10
65.64216035685335
 20
-131.660525140696
 10
65.51124672841385
 20
-131.7373507700171
 10
65.51124672841385
 20
-131.9478461041658
 10
65.51124672841385
 20
-132.2258653098255
 10
65.74172361637707
 20
-132.2348225580871
 10
65.85816784377852
 20
-132.239301182218
 10
65.85816784377852
 20
-132.239301182218
 10
65.85816784377852
 20
-132.4790798279913
 10
65.85816784377852
 20
-132.4790798279913
 10
65.7310438203728
 20
-132.4701225797297
 10
65.61907821710217
 20
-132.4587537646284
 10
65.50056693240958
 20
-132.3726263774971
 10
65.33968097324842
 20
-132.2551486214501
 10
65.30591903749297
 20
-132.0563666119512
 10
65.30591903749297
 20
-131.9319986649337
 10
65.30591903749297
 20
-131.6357204532022
 10
65.48988713640532
 20
-131.4142008135006
 10
65.7627386988371
 20
-131.4142008135006
 10
65.99149303905769
 20
-131.4142008135006
 10
66.09071178903288
 20
-131.5385687605181
 10
66.3170545624138
 20
-131.8686089080051
 97
        0
 97
        0
 75
     2
 76
     1
 98
        0
  0
SPLINE
  5
129
330
123
100
AcDbEntity
  8
_U+30EC_U+30A4_U+30E4_U+30FC 1
370
     0
100
AcDbSpline
210
0.0
220
0.0
230
1.0
 70
    11
 71
     3
 72
    29
 73
    25
 74
     0
 42
0.0000000001
 43
0.0000000001
 12
1.0
 22
0.0
 32
0.0
 13
1.0
 23
0.0
 33
0.0
 40
0.0
 40
0.0
 40
0.0
 40
0.0
 40
1.0
 40
1.0
 40
1.0
 40
2.0
 40
2.0
 40
2.0
 40
3.0
 40
3.0
 40
3.0
 40
4.0
 40
4.0
 40
4.0
 40
5.0
 40
5.0
 40
5.0
 40
6.0
 40
6.0
 40
6.0
 40
7.0
 40
7.0
 40
7.0
 40
8.0
 40
8.0
 40
8.0
 40
8.0
 10
66.7211642628336
 20
-130.2852430229842
 30
0.0
 10
66.93062606833679
 20
-130.4006537217401
 30
0.0
 10
66.94957409350566
 20
-130.5859998588465
 30
0.0
 10
66.94957409350566
 20
-130.7103678058641
 30
0.0
 10
66.94957409350566
 20
-130.8819335610295
 30
0.0
 10
66.9030653044548
 20
-131.0335177623805
 30
0.0
 10
66.7211642628336
 20
-131.1351480791954
 30
0.0
 10
66.52651636791698
 20
-131.2460801538204
 30
0.0
 10
66.2894937985318
 20
-131.2664062171834
 30
0.0
 10
66.126885291628
 20
-131.2664062171834
 30
0.0
 10
65.98288030034456
 20
-131.2664062171834
 30
0.0
 10
65.7310438203728
 20
-131.2484917206601
 30
0.0
 10
65.53226181087388
 20
-131.1351480791954
 30
0.0
 10
65.32934568679266
 20
-131.020081889988
 30
0.0
 10
65.30591903749297
 20
-130.8481716252741
 30
0.0
 10
65.30591903749297
 20
-130.7103678058641
 30
0.0
 10
65.30591903749297
 20
-130.5405245984413
 30
0.0
 10
65.35036076925269
 20
-130.3868733397991
 30
0.0
 10
65.53226181087388
 20
-130.2852430229842
 30
0.0
 10
65.72484264849935
 20
-130.17878957249
 30
0.0
 10
65.95325247917141
 20
-130.1539848849962
 30
0.0
 10
66.126885291628
 20
-130.1539848849962
 30
0.0
 10
66.29810653724492
 20
-130.1539848849962
 30
0.0
 10
66.52858342520814
 20
-130.1767225151989
 30
0.0
 10
66.7211642628336
 20
-130.2852430229842
 30
0.0
  0
SPLINE
  5
12A
330
123
100
AcDbEntity
  8
_U+30EC_U+30A4_U+30E4_U+30FC 1
370
     0
100
AcDbSpline
210
0.0
220
0.0
230
1.0
 70
    11
 71
     3
 72
    17
 73
    13
 74
     0
 42
0.0000000001
 43
0.0000000001
 12
1.0
 22
0.0
 32
0.0
 13
1.0
 23
0.0
 33
0.0
 40
0.0
 40
0.0
 40
0.0
 40
0.0
 40
1.0
 40
1.0
 40
1.0
 40
2.0
 40
2.0
 40
2.0
 40
3.0
 40
3.0
 40
3.0
 40
4.0
 40
4.0
 40
4.0
 40
4.0
 10
65.49849987511844
 20
-130.7103678058641
 30
0.0
 10
65.49849987511844
 20
-130.9770181964224
 30
0.0
 10
65.78203123355449
 20
-131.02662757141
 30
0.0
 10
66.126885291628
 20
-131.02662757141
 30
0.0
 10
66.44624564311066
 20
-131.02662757141
 30
0.0
 10
66.75492619858905
 20
-130.9883870115237
 30
0.0
 10
66.75492619858905
 20
-130.7103678058641
 30
0.0
 10
66.75492619858905
 20
-130.4457844725969
 30
0.0
 10
66.47380640699267
 20
-130.3937635307696
 30
0.0
 10
66.126885291628
 20
-130.3937635307696
 30
0.0
 10
65.80718043059682
 20
-130.3937635307696
 30
0.0
 10
65.49849987511844
 20
-130.4344156574956
 30
0.0
 10
65.49849987511844
 20
-130.7103678058641
 30
0.0
  0
HATCH
  5
12B
330
123
100
AcDbEntity
  8
_U+30EC_U+30A4_U+30E4_U+30FC 1
 62
     7
420
 16777215
100
AcDbHatch
 10
0.0
 20
0.0
 30
0.0
210
0.0
220
0.0
230
1.0
  2
SOLID
 70
     1
 71
     0
 91
        2
 92
        1
 93
        1
 72
     4
 94
        3
 73
     0
 74
     1
 95
       29
 96
       25
 40
0.0
 40
0.0
 40
0.0
 40
0.0
 40
1.0
 40
1.0
 40
1.0
 40
2.0
 40
2.0
 40
2.0
 40
3.0
 40
3.0
 40
3.0
 40
4.0
 40
4.0
 40
4.0
 40
5.0
 40
5.0
 40
5.0
 40
6.0
 40
6.0
 40
6.0
 40
7.0
 40
7.0
 40
7.0
 40
8.0
 40
8.0
 40
8.0
 40
8.0
 10
66.7211642628336
 20
-130.2852430229842
 10
66.93062606833679
 20
-130.4006537217401
 10
66.94957409350566
 20
-130.5859998588465
 10
66.94957409350566
 20
-130.7103678058641
 10
66.94957409350566
 20
-130.8819335610295
 10
66.9030653044548
 20
-131.0335177623805
 10
66.7211642628336
 20
-131.1351480791954
 10
66.52651636791698
 20
-131.2460801538204
 10
66.2894937985318
 20
-131.2664062171834
 10
66.126885291628
 20
-131.2664062171834
 10
65.98288030034456
 20
-131.2664062171834
 10
65.7310438203728
 20
-131.2484917206601
 10
65.53226181087388
 20
-131.1351480791954
 10
65.32934568679266
 20
-131.020081889988
 10
65.30591903749297
 20
-130.8481716252741
 10
65.30591903749297
 20
-130.7103678058641
 10
65.30591903749297
 20
-130.5405245984413
 10
65.35036076925269
 20
-130.3868733397991
 10
65.53226181087388
 20
-130.2852430229842
 10
65.72484264849935
 20
-130.17878957249
 10
65.95325247917141
 20
-130.1539848849962
 10
66.126885291628
 20
-130.1539848849962
 10
66.29810653724492
 20
-130.1539848849962
 10
66.52858342520814
 20
-130.1767225151989
 10
66.7211642628336
 20
-130.2852430229842
 97
        0
 97
        0
 92
        1
 93
        1
 72
     4
 94
        3
 73
     0
 74
     1
 95
       17
 96
       13
 40
0.0
 40
0.0
 40
0.0
 40
0.0
 40
1.0
 40
1.0
 40
1.0
 40
2.0
 40
2.0
 40
2.0
 40
3.0
 40
3.0
 40
3.0
 40
4.0
 40
4.0
 40
4.0
 40
4.0
 10
65.49849987511844
 20
-130.7103678058641
 10
65.49849987511844
 20
-130.9770181964224
 10
65.78203123355449
 20
-131.02662757141
 10
66.126885291628
 20
-131.02662757141
 10
66.44624564311066
 20
-131.02662757141
 10
66.75492619858905
 20
-130.9883870115237
 10
66.75492619858905
 20
-130.7103678058641
 10
66.75492619858905
 20
-130.4457844725969
 10
66.47380640699267
 20
-130.3937635307696
 10
66.126885291628
 20
-130.3937635307696
 10
65.80718043059682
 20
-130.3937635307696
 10
65.49849987511844
 20
-130.4344156574956
 10
65.49849987511844
 20
-130.7103678058641
 97
        0
 97
        0
 75
     2
 76
     1
 98
        0
  0
ENDBLK
  5
126
330
123
100
AcDbEntity
  8
0
100
AcDbBlockEnd
  0
ENDSEC
  0
SECTION
  2
ENTITIES
  0
INSERT
  5
42
330
1F
100
AcDbEntity
  8
_U+30EC_U+30A4_U+30E4_U+30FC 1
100
AcDbBlockReference
  2
block 2
 10
0.0
 20
0.0
 30
0.0
  0
ENDSEC
  0
SECTION
  2
OBJECTS
  0
DICTIONARY
  5
C
330
0
100
AcDbDictionary
281
     1
  3
ACAD_GROUP
350
D
  3
ACAD_LAYOUT
350
1A
  3
ACAD_MATERIAL
350
3B
  3
ACAD_MLEADERSTYLE
350
12D
  3
ACAD_MLINESTYLE
350
17
  3
ACAD_PLOTSETTINGS
350
19
  3
ACAD_PLOTSTYLENAME
350
E
  3
ACAD_TABLESTYLE
350
12C
  3
ACAD_VISUALSTYLE
350
2A
  0
SUN
  5
3F
330
29
100
AcDbSun
 90
        1
290
     0
 63
     7
421
 16777215
 40
1.0
291
     1
 91
  2455826
 92
 54000000
292
     0
 70
     2
 71
   256
280
     1
  0
DICTIONARY
  5
D
102
{ACAD_REACTORS
330
C
102
}
330
C
100
AcDbDictionary
281
     1
  0
DICTIONARY
  5
1A
102
{ACAD_REACTORS
330
C
102
}
330
C
100
AcDbDictionary
281
     1
  3
Layout1
350
1E
  3
Layout2
350
26
  3
Model
350
22
  0
DICTIONARY
  5
3B
102
{ACAD_REACTORS
330
C
102
}
330
C
100
AcDbDictionary
281
     1
  3
ByBlock
350
3D
  3
ByLayer
350
3C
  3
Global
350
3E
  0
DICTIONARY
  5
12D
102
{ACAD_REACTORS
330
C
102
}
330
C
100
AcDbDictionary
281
     1
  0
DICTIONARY
  5
17
102
{ACAD_REACTORS
330
C
102
}
330
C
100
AcDbDictionary
281
     1
  3
Standard
350
18
  0
DICTIONARY
  5
19
102
{ACAD_REACTORS
330
C
102
}
330
C
100
AcDbDictionary
281
     1
  0
ACDBDICTIONARYWDFLT
  5
E
102
{ACAD_REACTORS
330
C
102
}
330
C
100
AcDbDictionary
281
     1
  3
Normal
350
F
100
AcDbDictionaryWithDefault
340
F
  0
DICTIONARY
  5
12C
102
{ACAD_REACTORS
330
C
102
}
330
C
100
AcDbDictionary
281
     1
  0
DICTIONARY
  5
2A
102
{ACAD_REACTORS
330
C
102
}
330
C
100
AcDbDictionary
281
     1
  3
2dWireframe
350
2F
  3
3D Hidden
350
31
  3
3dWireframe
350
30
  3
Basic
350
32
  3
Brighten
350
36
  3
ColorChange
350
3A
  3
Conceptual
350
34
  3
Dim
350
35
  3
Facepattern
350
39
  3
Flat
350
2B
  3
FlatWithEdges
350
2C
  3
Gouraud
350
2D
  3
GouraudWithEdges
350
2E
  3
Linepattern
350
38
  3
Realistic
350
33
  3
Thicken
350
37
  0
LAYOUT
  5
1E
102
{ACAD_REACTORS
330
1A
102
}
330
1A
100
AcDbPlotSettings
  1

  2
none_device
  4

  6

 40
0.0
 41
0.0
 42
0.0
 43
0.0
 44
0.0
 45
0.0
 46
0.0
 47
0.0
 48
0.0
 49
0.0
140
0.0
141
0.0
142
1.0
143
1.0
 70
   688
 72
     0
 73
     0
 74
     5
  7

 75
    16
 76
     0
 77
     2
 78
   300
147
1.0
148
0.0
149
0.0
100
AcDbLayout
  1
Layout1
 70
     1
 71
     1
 10
0.0
 20
0.0
 11
12.0
 21
9.0
 12
0.0
 22
0.0
 32
0.0
 14
1.000000000000000E+20
 24
1.000000000000000E+20
 34
1.000000000000000E+20
 15
-1.000000000000000E+20
 25
-1.000000000000000E+20
 35
-1.000000000000000E+20
146
0.0
 13
0.0
 23
0.0
 33
0.0
 16
1.0
 26
0.0
 36
0.0
 17
0.0
 27
1.0
 37
0.0
 76
     0
330
1B
  0
LAYOUT
  5
26
102
{ACAD_REACTORS
330
1A
102
}
330
1A
100
AcDbPlotSettings
  1

  2
none_device
  4

  6

 40
0.0
 41
0.0
 42
0.0
 43
0.0
 44
0.0
 45
0.0
 46
0.0
 47
0.0
 48
0.0
 49
0.0
140
0.0
141
0.0
142
1.0
143
1.0
 70
   688
 72
     0
 73
     0
 74
     5
  7

 75
    16
 76
     0
 77
     2
 78
   300
147
1.0
148
0.0
149
0.0
100
AcDbLayout
  1
Layout2
 70
     1
 71
     2
 10
0.0
 20
0.0
 11
0.0
 21
0.0
 12
0.0
 22
0.0
 32
0.0
 14
0.0
 24
0.0
 34
0.0
 15
0.0
 25
0.0
 35
0.0
146
0.0
 13
0.0
 23
0.0
 33
0.0
 16
1.0
 26
0.0
 36
0.0
 17
0.0
 27
1.0
 37
0.0
 76
     0
330
23
  0
LAYOUT
  5
22
102
{ACAD_REACTORS
330
1A
102
}
330
1A
100
AcDbPlotSettings
  1

  2
none_device
  4

  6

 40
0.0
 41
0.0
 42
0.0
 43
0.0
 44
0.0
 45
0.0
 46
0.0
 47
0.0
 48
0.0
 49
0.0
140
0.0
141
0.0
142
1.0
143
1.0
 70
  1712
 72
     0
 73
     0
 74
     0
  7

 75
     0
 76
     0
 77
     2
 78
   300
147
1.0
148
0.0
149
0.0
100
AcDbLayout
  1
Model
 70
     1
 71
     0
 10
0.0
 20
0.0
 11
12.0
 21
9.0
 12
0.0
 22
0.0
 32
0.0
 14
1.000000000000000E+20
 24
1.000000000000000E+20
 34
1.000000000000000E+20
 15
-1.000000000000000E+20
 25
-1.000000000000000E+20
 35
-1.000000000000000E+20
146
0.0
 13
0.0
 23
0.0
 33
0.0
 16
1.0
 26
0.0
 36
0.0
 17
0.0
 27
1.0
 37
0.0
 76
     0
330
1F
331
29
  0
MATERIAL
  5
3D
102
{ACAD_REACTORS
330
3B
102
}
330
3B
100
AcDbMaterial
  1
ByBlock
 72
     1
 94
      127
  0
MATERIAL
  5
3C
102
{ACAD_REACTORS
330
3B
102
}
330
3B
100
AcDbMaterial
  1
ByLayer
 72
     1
 94
      127
  0
MATERIAL
  5
3E
102
{ACAD_REACTORS
330
3B
102
}
330
3B
100
AcDbMaterial
  1
Global
 72
     1
 94
      127
  0
MLINESTYLE
  5
18
102
{ACAD_REACTORS
330
17
102
}
330
17
100
AcDbMlineStyle
  2
Standard
 70
     0
  3

 62
   256
 51
90.0
 52
90.0
 71
     2
 49
0.5
 62
   256
  6
BYLAYER
 49
-0.5
 62
   256
  6
BYLAYER
  0
ACDBPLACEHOLDER
  5
F
102
{ACAD_REACTORS
330
E
102
}
330
E
  0
VISUALSTYLE
  5
2F
102
{ACAD_REACTORS
330
2A
102
}
330
2A
100
AcDbVisualStyle
  2
2dWireframe
 70
     4
177
     2
291
     0
 71
     0
176
     1
 72
     2
176
     1
 73
     0
176
     1
 90
        0
176
     1
 40
-0.6
176
     1
 41
-30.0
176
     1
 62
     5
 63
     7
421
 16777215
176
     1
 74
     1
176
     1
 91
        4
176
     1
 64
     7
176
     1
 65
   257
176
     1
 75
     1
176
     1
175
     1
176
     1
 42
1.0
176
     1
 92
        0
176
     1
 66
   257
176
     1
 43
1.0
176
     1
 76
     1
176
     1
 77
     6
176
     1
 78
     2
176
     1
 67
     7
176
     1
 79
     5
176
     1
170
     0
176
     1
171
     0
176
     1
290
     0
176
     1
 93
        1
176
     1
 44
0.0
176
     1
173
     0
176
     1
  0
VISUALSTYLE
  5
31
102
{ACAD_REACTORS
330
2A
102
}
330
2A
100
AcDbVisualStyle
  2
3D Hidden
 70
     6
177
     2
291
     0
 71
     1
176
     1
 72
     2
176
     1
 73
     2
176
     1
 90
        0
176
     1
 40
-0.6
176
     1
 41
-30.0
176
     1
 62
     5
 63
     7
421
 16777215
176
     1
 74
     2
176
     1
 91
        2
176
     1
 64
     7
176
     1
 65
   257
176
     1
 75
     2
176
     1
175
     1
176
     1
 42
40.0
176
     1
 92
        0
176
     1
 66
   257
176
     1
 43
1.0
176
     1
 76
     1
176
     1
 77
     6
176
     1
 78
     2
176
     1
 67
     7
176
     1
 79
     3
176
     1
170
     0
176
     1
171
     0
176
     1
290
     0
176
     1
 93
        1
176
     1
 44
0.0
176
     1
173
     0
176
     1
  0
VISUALSTYLE
  5
30
102
{ACAD_REACTORS
330
2A
102
}
330
2A
100
AcDbVisualStyle
  2
3dWireframe
 70
     5
177
     2
291
     0
 71
     0
176
     1
 72
     2
176
     1
 73
     0
176
     1
 90
        0
176
     1
 40
-0.6
176
     1
 41
-30.0
176
     1
 62
     5
 63
     7
421
 16777215
176
     1
 74
     1
176
     1
 91
        4
176
     1
 64
     7
176
     1
 65
   257
176
     1
 75
     1
176
     1
175
     1
176
     1
 42
1.0
176
     1
 92
        0
176
     1
 66
   257
176
     1
 43
1.0
176
     1
 76
     1
176
     1
 77
     6
176
     1
 78
     2
176
     1
 67
     7
176
     1
 79
     5
176
     1
170
     0
176
     1
171
     0
176
     1
290
     0
176
     1
 93
        1
176
     1
 44
0.0
176
     1
173
     0
176
     1
  0
VISUALSTYLE
  5
32
102
{ACAD_REACTORS
330
2A
102
}
330
2A
100
AcDbVisualStyle
  2
Basic
 70
     7
177
     2
291
     1
 71
     1
176
     1
 72
     0
176
     1
 73
     1
176
     1
 90
        0
176
     1
 40
-0.6
176
     1
 41
-30.0
176
     1
 62
     5
 63
     7
421
 16777215
176
     1
 74
     0
176
     1
 91
        4
176
     1
 64
     7
176
     1
 65
   257
176
     1
 75
     1
176
     1
175
     1
176
     1
 42
1.0
176
     1
 92
        8
176
     1
 66
     7
176
     1
 43
1.0
176
     1
 76
     1
176
     1
 77
     6
176
     1
 78
     2
176
     1
 67
     7
176
     1
 79
     5
176
     1
170
     0
176
     1
171
     0
176
     1
290
     0
176
     1
 93
        1
176
     1
 44
0.0
176
     1
173
     0
176
     1
  0
VISUALSTYLE
  5
36
102
{ACAD_REACTORS
330
2A
102
}
330
2A
100
AcDbVisualStyle
  2
Brighten
 70
    12
177
     2
291
     1
 71
     2
176
     1
 72
     2
176
     1
 73
     0
176
     1
 90
        0
176
     1
 40
-0.6
176
     1
 41
-30.0
176
     1
 62
     5
 63
     7
421
 16777215
176
     1
 74
     1
176
     1
 91
        4
176
     1
 64
     7
176
     1
 65
   257
176
     1
 75
     1
176
     1
175
     1
176
     1
 42
1.0
176
     1
 92
        8
176
     1
 66
     7
176
     1
 43
1.0
176
     1
 76
     1
176
     1
 77
     6
176
     1
 78
     2
176
     1
 67
     7
176
     1
 79
     5
176
     1
170
     0
176
     1
171
     0
176
     1
290
     0
176
     1
 93
        1
176
     1
 44
50.0
176
     1
173
     0
176
     1
  0
VISUALSTYLE
  5
3A
102
{ACAD_REACTORS
330
2A
102
}
330
2A
100
AcDbVisualStyle
  2
ColorChange
 70
    16
177
     2
291
     1
 71
     2
176
     1
 72
     2
176
     1
 73
     3
176
     1
 90
        0
176
     1
 40
-0.6
176
     1
 41
-30.0
176
     1
 62
     5
 63
     8
421
  8421504
176
     1
 74
     1
176
     1
 91
        4
176
     1
 64
     7
176
     1
 65
   257
176
     1
 75
     1
176
     1
175
     1
176
     1
 42
1.0
176
     1
 92
        8
176
     1
 66
     8
424
  8421504
176
     1
 43
1.0
176
     1
 76
     1
176
     1
 77
     6
176
     1
 78
     2
176
     1
 67
     7
176
     1
 79
     5
176
     1
170
     0
176
     1
171
     0
176
     1
290
     0
176
     1
 93
        1
176
     1
 44
0.0
176
     1
173
     0
176
     1
  0
VISUALSTYLE
  5
34
102
{ACAD_REACTORS
330
2A
102
}
330
2A
100
AcDbVisualStyle
  2
Conceptual
 70
     9
177
     2
291
     0
 71
     3
176
     1
 72
     2
176
     1
 73
     0
176
     1
 90
        0
176
     1
 40
-0.6
176
     1
 41
-30.0
176
     1
 62
     5
 63
     7
421
 16777215
176
     1
 74
     2
176
     1
 91
        2
176
     1
 64
     7
176
     1
 65
   257
176
     1
 75
     1
176
     1
175
     1
176
     1
 42
40.0
176
     1
 92
        8
176
     1
 66
     7
176
     1
 43
1.0
176
     1
 76
     1
176
     1
 77
     6
176
     1
 78
     2
176
     1
 67
     7
176
     1
 79
     3
176
     1
170
     0
176
     1
171
     0
176
     1
290
     0
176
     1
 93
        1
176
     1
 44
0.0
176
     1
173
     0
176
     1
  0
VISUALSTYLE
  5
35
102
{ACAD_REACTORS
330
2A
102
}
330
2A
100
AcDbVisualStyle
  2
Dim
 70
    11
177
     2
291
     1
 71
     2
176
     1
 72
     2
176
     1
 73
     0
176
     1
 90
        0
176
     1
 40
-0.6
176
     1
 41
-30.0
176
     1
 62
     5
 63
     7
421
 16777215
176
     1
 74
     1
176
     1
 91
        4
176
     1
 64
     7
176
     1
 65
   257
176
     1
 75
     1
176
     1
175
     1
176
     1
 42
1.0
176
     1
 92
        8
176
     1
 66
     7
176
     1
 43
1.0
176
     1
 76
     1
176
     1
 77
     6
176
     1
 78
     2
176
     1
 67
     7
176
     1
 79
     5
176
     1
170
     0
176
     1
171
     0
176
     1
290
     0
176
     1
 93
        1
176
     1
 44
-50.0
176
     1
173
     0
176
     1
  0
VISUALSTYLE
  5
39
102
{ACAD_REACTORS
330
2A
102
}
330
2A
100
AcDbVisualStyle
  2
Facepattern
 70
    15
177
     2
291
     1
 71
     2
176
     1
 72
     2
176
     1
 73
     0
176
     1
 90
        0
176
     1
 40
-0.6
176
     1
 41
-30.0
176
     1
 62
     5
 63
     7
421
 16777215
176
     1
 74
     1
176
     1
 91
        4
176
     1
 64
     7
176
     1
 65
   257
176
     1
 75
     1
176
     1
175
     1
176
     1
 42
1.0
176
     1
 92
        8
176
     1
 66
     7
176
     1
 43
1.0
176
     1
 76
     1
176
     1
 77
     6
176
     1
 78
     2
176
     1
 67
     7
176
     1
 79
     5
176
     1
170
     0
176
     1
171
     0
176
     1
290
     0
176
     1
 93
        1
176
     1
 44
0.0
176
     1
173
     0
176
     1
  0
VISUALSTYLE
  5
2B
102
{ACAD_REACTORS
330
2A
102
}
330
2A
100
AcDbVisualStyle
  2
Flat
 70
     0
177
     2
291
     1
 71
     2
176
     1
 72
     1
176
     1
 73
     1
176
     1
 90
        2
176
     1
 40
-0.6
176
     1
 41
30.0
176
     1
 62
     5
 63
     7
421
 16777215
176
     1
 74
     0
176
     1
 91
        4
176
     1
 64
     7
176
     1
 65
   257
176
     1
 75
     1
176
     1
175
     1
176
     1
 42
1.0
176
     1
 92
        8
176
     1
 66
     7
176
     1
 43
1.0
176
     1
 76
     1
176
     1
 77
     6
176
     1
 78
     2
176
     1
 67
     7
176
     1
 79
     5
176
     1
170
     0
176
     1
171
     0
176
     1
290
     0
176
     1
 93
       13
176
     1
 44
0.0
176
     1
173
     0
176
     1
  0
VISUALSTYLE
  5
2C
102
{ACAD_REACTORS
330
2A
102
}
330
2A
100
AcDbVisualStyle
  2
FlatWithEdges
 70
     1
177
     2
291
     1
 71
     2
176
     1
 72
     1
176
     1
 73
     1
176
     1
 90
        2
176
     1
 40
-0.6
176
     1
 41
30.0
176
     1
 62
     5
 63
     7
421
 16777215
176
     1
 74
     1
176
     1
 91
        4
176
     1
 64
     7
176
     1
 65
   257
176
     1
 75
     1
176
     1
175
     1
176
     1
 42
1.0
176
     1
 92
        0
176
     1
 66
   257
176
     1
 43
1.0
176
     1
 76
     1
176
     1
 77
     6
176
     1
 78
     2
176
     1
 67
     7
176
     1
 79
     5
176
     1
170
     0
176
     1
171
     0
176
     1
290
     0
176
     1
 93
       13
176
     1
 44
0.0
176
     1
173
     0
176
     1
  0
VISUALSTYLE
  5
2D
102
{ACAD_REACTORS
330
2A
102
}
330
2A
100
AcDbVisualStyle
  2
Gouraud
 70
     2
177
     2
291
     1
 71
     2
176
     1
 72
     2
176
     1
 73
     1
176
     1
 90
        2
176
     1
 40
-0.6
176
     1
 41
30.0
176
     1
 62
     5
 63
     7
421
 16777215
176
     1
 74
     0
176
     1
 91
        4
176
     1
 64
     7
176
     1
 65
   257
176
     1
 75
     1
176
     1
175
     1
176
     1
 42
1.0
176
     1
 92
        0
176
     1
 66
     7
176
     1
 43
1.0
176
     1
 76
     1
176
     1
 77
     6
176
     1
 78
     2
176
     1
 67
     7
176
     1
 79
     5
176
     1
170
     0
176
     1
171
     0
176
     1
290
     0
176
     1
 93
       13
176
     1
 44
0.0
176
     1
173
     0
176
     1
  0
VISUALSTYLE
  5
2E
102
{ACAD_REACTORS
330
2A
102
}
330
2A
100
AcDbVisualStyle
  2
GouraudWithEdges
 70
     3
177
     2
291
     1
 71
     2
176
     1
 72
     2
176
     1
 73
     1
176
     1
 90
        2
176
     1
 40
-0.6
176
     1
 41
30.0
176
     1
 62
     5
 63
     7
421
 16777215
176
     1
 74
     1
176
     1
 91
        4
176
     1
 64
     7
176
     1
 65
   257
176
     1
 75
     1
176
     1
175
     1
176
     1
 42
1.0
176
     1
 92
        0
176
     1
 66
   257
176
     1
 43
1.0
176
     1
 76
     1
176
     1
 77
     6
176
     1
 78
     2
176
     1
 67
     7
176
     1
 79
     5
176
     1
170
     0
176
     1
171
     0
176
     1
290
     0
176
     1
 93
       13
176
     1
 44
0.0
176
     1
173
     0
176
     1
  0
VISUALSTYLE
  5
38
102
{ACAD_REACTORS
330
2A
102
}
330
2A
100
AcDbVisualStyle
  2
Linepattern
 70
    14
177
     2
291
     1
 71
     2
176
     1
 72
     2
176
     1
 73
     0
176
     1
 90
        0
176
     1
 40
-0.6
176
     1
 41
-30.0
176
     1
 62
     5
 63
     7
421
 16777215
176
     1
 74
     1
176
     1
 91
        4
176
     1
 64
     7
176
     1
 65
   257
176
     1
 75
     7
176
     1
175
     7
176
     1
 42
1.0
176
     1
 92
        8
176
     1
 66
     7
176
     1
 43
1.0
176
     1
 76
     1
176
     1
 77
     6
176
     1
 78
     2
176
     1
 67
     7
176
     1
 79
     5
176
     1
170
     0
176
     1
171
     0
176
     1
290
     0
176
     1
 93
        1
176
     1
 44
0.0
176
     1
173
     0
176
     1
  0
VISUALSTYLE
  5
33
102
{ACAD_REACTORS
330
2A
102
}
330
2A
100
AcDbVisualStyle
  2
Realistic
 70
     8
177
     2
291
     0
 71
     2
176
     1
 72
     2
176
     1
 73
     0
176
     1
 90
        0
176
     1
 40
-0.6
176
     1
 41
-30.0
176
     1
 62
     5
 63
     7
421
 16777215
176
     1
 74
     1
176
     1
 91
        0
176
     1
 64
     7
176
     1
 65
   257
176
     1
 75
     1
176
     1
175
     1
176
     1
 42
1.0
176
     1
 92
        8
176
     1
 66
     8
424
  7895160
176
     1
 43
1.0
176
     1
 76
     1
176
     1
 77
     6
176
     1
 78
     2
176
     1
 67
     7
176
     1
 79
     5
176
     1
170
     0
176
     1
171
     0
176
     1
290
     0
176
     1
 93
       13
176
     1
 44
0.0
176
     1
173
     0
176
     1
  0
VISUALSTYLE
  5
37
102
{ACAD_REACTORS
330
2A
102
}
330
2A
100
AcDbVisualStyle
  2
Thicken
 70
    13
177
     2
291
     1
 71
     2
176
     1
 72
     2
176
     1
 73
     0
176
     1
 90
        0
176
     1
 40
-0.6
176
     1
 41
-30.0
176
     1
 62
     5
 63
     7
421
 16777215
176
     1
 74
     1
176
     1
 91
        4
176
     1
 64
     7
176
     1
 65
   257
176
     1
 75
     1
176
     1
175
     1
176
     1
 42
1.0
176
     1
 92
       12
176
     1
 66
     7
176
     1
 43
1.0
176
     1
 76
     1
176
     1
 77
     6
176
     1
 78
     2
176
     1
 67
     7
176
     1
 79
     5
176
     1
170
     0
176
     1
171
     0
176
     1
290
     0
176
     1
 93
        1
176
     1
 44
0.0
176
     1
173
     0
176
     1
  0
ENDSEC
  0
EOF
