  0
SECTION
  2
HEADER
  9
$ACADVER
  1
AC1024
  9
$ACADMAINTVER
 70
     6
  9
$DWGCODEPAGE
  3
UNDEFINED
  9
$INSBASE
 10
0.0
 20
0.0
 30
0.0
  9
$EXTMIN
 10
1.000000000000000E+20
 20
1.000000000000000E+20
 30
1.000000000000000E+20
  9
$EXTMAX
 10
-1.000000000000000E+20
 20
-1.000000000000000E+20
 30
-1.000000000000000E+20
  9
$LIMMIN
 10
0.0
 20
0.0
  9
$LIMMAX
 10
12.0
 20
9.0
  9
$ORTHOMODE
 70
     0
  9
$REGENMODE
 70
     1
  9
$FILLMODE
 70
     1
  9
$QTEXTMODE
 70
     0
  9
$MIRRTEXT
 70
     1
  9
$LTSCALE
 40
1.0
  9
$ATTMODE
 70
     1
  9
$TEXTSIZE
 40
0.2
  9
$TRACEWID
 40
0.05
  9
$TEXTSTYLE
  7
Standard
  9
$CLAYER
  8
0
  9
$CELTYPE
  6
ByLayer
  9
$CECOLOR
 62
   256
  9
$CELTSCALE
 40
1.0
  9
$DISPSILH
 70
     0
  9
$DIMSCALE
 40
1.0
  9
$DIMASZ
 40
0.18
  9
$DIMEXO
 40
0.0625
  9
$DIMDLI
 40
0.38
  9
$DIMRND
 40
0.0
  9
$DIMDLE
 40
0.0
  9
$DIMEXE
 40
0.18
  9
$DIMTP
 40
0.0
  9
$DIMTM
 40
0.0
  9
$DIMTXT
 40
0.18
  9
$DIMCEN
 40
0.09
  9
$DIMTSZ
 40
0.0
  9
$DIMTOL
 70
     0
  9
$DIMLIM
 70
     0
  9
$DIMTIH
 70
     1
  9
$DIMTOH
 70
     1
  9
$DIMSE1
 70
     0
  9
$DIMSE2
 70
     0
  9
$DIMTAD
 70
     0
  9
$DIMZIN
 70
     0
  9
$DIMBLK
  1

  9
$DIMASO
 70
     1
  9
$DIMSHO
 70
     1
  9
$DIMPOST
  1

  9
$DIMAPOST
  1

  9
$DIMALT
 70
     0
  9
$DIMALTD
 70
     2
  9
$DIMALTF
 40
25.4
  9
$DIMLFAC
 40
1.0
  9
$DIMTOFL
 70
     0
  9
$DIMTVP
 40
0.0
  9
$DIMTIX
 70
     0
  9
$DIMSOXD
 70
     0
  9
$DIMSAH
 70
     0
  9
$DIMBLK1
  1

  9
$DIMBLK2
  1

  9
$DIMSTYLE
  2
Standard
  9
$DIMCLRD
 70
     0
  9
$DIMCLRE
 70
     0
  9
$DIMCLRT
 70
     0
  9
$DIMTFAC
 40
1.0
  9
$DIMGAP
 40
0.09
  9
$DIMJUST
 70
     0
  9
$DIMSD1
 70
     0
  9
$DIMSD2
 70
     0
  9
$DIMTOLJ
 70
     1
  9
$DIMTZIN
 70
     0
  9
$DIMALTZ
 70
     0
  9
$DIMALTTZ
 70
     0
  9
$DIMUPT
 70
     0
  9
$DIMDEC
 70
     4
  9
$DIMTDEC
 70
     4
  9
$DIMALTU
 70
     2
  9
$DIMALTTD
 70
     2
  9
$DIMTXSTY
  7
Standard
  9
$DIMAUNIT
 70
     0
  9
$DIMADEC
 70
     0
  9
$DIMALTRND
 40
0.0
  9
$DIMAZIN
 70
     0
  9
$DIMDSEP
 70
    46
  9
$DIMATFIT
 70
     3
  9
$DIMFRAC
 70
     0
  9
$DIMLDRBLK
  1

  9
$DIMLUNIT
 70
     2
  9
$DIMLWD
 70
    -2
  9
$DIMLWE
 70
    -2
  9
$DIMTMOVE
 70
     0
  9
$DIMFXL
 40
1.0
  9
$DIMFXLON
 70
     0
  9
$DIMJOGANG
 40
0.7853981633974483
  9
$DIMTFILL
 70
     0
  9
$DIMTFILLCLR
 70
     0
  9
$DIMARCSYM
 70
     0
  9
$DIMLTYPE
  6

  9
$DIMLTEX1
  6

  9
$DIMLTEX2
  6

  9
$DIMTXTDIRECTION
 70
     0
  9
$LUNITS
 70
     2
  9
$LUPREC
 70
     4
  9
$SKETCHINC
 40
0.1
  9
$FILLETRAD
 40
0.5
  9
$AUNITS
 70
     0
  9
$AUPREC
 70
     0
  9
$MENU
  1
.
  9
$ELEVATION
 40
0.0
  9
$PELEVATION
 40
0.0
  9
$THICKNESS
 40
0.0
  9
$LIMCHECK
 70
     0
  9
$CHAMFERA
 40
0.5
  9
$CHAMFERB
 40
0.5
  9
$CHAMFERC
 40
1.0
  9
$CHAMFERD
 40
0.0
  9
$SKPOLY
 70
     0
  9
$TDCREATE
 40
2457917.613946748
  9
$TDUCREATE
 40
2457917.238946759
  9
$TDUPDATE
 40
2457917.613946748
  9
$TDUUPDATE
 40
2457917.238946759
  9
$TDINDWG
 40
0.0000000116
  9
$TDUSRTIMER
 40
0.0000000116
  9
$USRTIMER
 70
     1
  9
$ANGBASE
 50
0.0
  9
$ANGDIR
 70
     0
  9
$PDMODE
 70
     0
  9
$PDSIZE
 40
0.0
  9
$PLINEWID
 40
0.0
  9
$SPLFRAME
 70
     0
  9
$SPLINETYPE
 70
     6
  9
$SPLINESEGS
 70
     8
  9
$HANDSEED
  5
139
  9
$SURFTAB1
 70
     6
  9
$SURFTAB2
 70
     6
  9
$SURFTYPE
 70
     6
  9
$SURFU
 70
     6
  9
$SURFV
 70
     6
  9
$UCSBASE
  2

  9
$UCSNAME
  2

  9
$UCSORG
 10
0.0
 20
0.0
 30
0.0
  9
$UCSXDIR
 10
1.0
 20
0.0
 30
0.0
  9
$UCSYDIR
 10
0.0
 20
1.0
 30
0.0
  9
$UCSORTHOREF
  2

  9
$UCSORTHOVIEW
 70
     0
  9
$UCSORGTOP
 10
0.0
 20
0.0
 30
0.0
  9
$UCSORGBOTTOM
 10
0.0
 20
0.0
 30
0.0
  9
$UCSORGLEFT
 10
0.0
 20
0.0
 30
0.0
  9
$UCSORGRIGHT
 10
0.0
 20
0.0
 30
0.0
  9
$UCSORGFRONT
 10
0.0
 20
0.0
 30
0.0
  9
$UCSORGBACK
 10
0.0
 20
0.0
 30
0.0
  9
$PUCSBASE
  2

  9
$PUCSNAME
  2

  9
$PUCSORG
 10
0.0
 20
0.0
 30
0.0
  9
$PUCSXDIR
 10
1.0
 20
0.0
 30
0.0
  9
$PUCSYDIR
 10
0.0
 20
1.0
 30
0.0
  9
$PUCSORTHOREF
  2

  9
$PUCSORTHOVIEW
 70
     0
  9
$PUCSORGTOP
 10
0.0
 20
0.0
 30
0.0
  9
$PUCSORGBOTTOM
 10
0.0
 20
0.0
 30
0.0
  9
$PUCSORGLEFT
 10
0.0
 20
0.0
 30
0.0
  9
$PUCSORGRIGHT
 10
0.0
 20
0.0
 30
0.0
  9
$PUCSORGFRONT
 10
0.0
 20
0.0
 30
0.0
  9
$PUCSORGBACK
 10
0.0
 20
0.0
 30
0.0
  9
$USERI1
 70
     0
  9
$USERI2
 70
     0
  9
$USERI3
 70
     0
  9
$USERI4
 70
     0
  9
$USERI5
 70
     0
  9
$USERR1
 40
0.0
  9
$USERR2
 40
0.0
  9
$USERR3
 40
0.0
  9
$USERR4
 40
0.0
  9
$USERR5
 40
0.0
  9
$WORLDVIEW
 70
     1
  9
$SHADEDGE
 70
     3
  9
$SHADEDIF
 70
    70
  9
$TILEMODE
 70
     1
  9
$MAXACTVP
 70
    64
  9
$PINSBASE
 10
0.0
 20
0.0
 30
0.0
  9
$PLIMCHECK
 70
     0
  9
$PEXTMIN
 10
1.000000000000000E+20
 20
1.000000000000000E+20
 30
1.000000000000000E+20
  9
$PEXTMAX
 10
-1.000000000000000E+20
 20
-1.000000000000000E+20
 30
-1.000000000000000E+20
  9
$PLIMMIN
 10
0.0
 20
0.0
  9
$PLIMMAX
 10
12.0
 20
9.0
  9
$UNITMODE
 70
     0
  9
$VISRETAIN
 70
     1
  9
$PLINEGEN
 70
     0
  9
$PSLTSCALE
 70
     1
  9
$TREEDEPTH
 70
  3020
  9
$CMLSTYLE
  2
Standard
  9
$CMLJUST
 70
     0
  9
$CMLSCALE
 40
1.0
  9
$PROXYGRAPHICS
 70
     1
  9
$MEASUREMENT
 70
     0
  9
$CELWEIGHT
370
    -1
  9
$ENDCAPS
280
     0
  9
$JOINSTYLE
280
     0
  9
$LWDISPLAY
290
     1
  9
$INSUNITS
 70
     1
  9
$HYPERLINKBASE
  1

  9
$STYLESHEET
  1

  9
$XEDIT
290
     1
  9
$CEPSNTYPE
380
     0
  9
$PSTYLEMODE
290
     1
  9
$FINGERPRINTGUID
  2
{26B0AD88-A647-8DC1-DC78-4E2E6392AEAA}
  9
$VERSIONGUID
  2
{FAEB1C32-E019-11D5-929B-00C0DF256EC4}
  9
$EXTNAMES
290
     1
  9
$PSVPSCALE
 40
0.0
  9
$OLESTARTUP
290
     0
  9
$SORTENTS
280
   127
  9
$INDEXCTL
280
     0
  9
$HIDETEXT
280
     1
  9
$XCLIPFRAME
280
     2
  9
$HALOGAP
280
     0
  9
$OBSCOLOR
 70
   257
  9
$OBSLTYPE
280
     0
  9
$INTERSECTIONDISPLAY
280
     0
  9
$INTERSECTIONCOLOR
 70
   257
  9
$DIMASSOC
280
     2
  9
$PROJECTNAME
  1

  9
$CAMERADISPLAY
290
     0
  9
$LENSLENGTH
 40
50.0
  9
$CAMERAHEIGHT
 40
0.0
  9
$STEPSPERSEC
 40
2.0
  9
$STEPSIZE
 40
6.0
  9
$3DDWFPREC
 40
2.0
  9
$PSOLWIDTH
 40
0.25
  9
$PSOLHEIGHT
 40
4.0
  9
$LOFTANG1
 40
1.570796326794897
  9
$LOFTANG2
 40
1.570796326794897
  9
$LOFTMAG1
 40
0.0
  9
$LOFTMAG2
 40
0.0
  9
$LOFTPARAM
 70
     7
  9
$LOFTNORMALS
280
     1
  9
$LATITUDE
 40
37.795
  9
$LONGITUDE
 40
-122.394
  9
$NORTHDIRECTION
 40
0.0
  9
$TIMEZONE
 70
 -8000
  9
$LIGHTGLYPHDISPLAY
280
     1
  9
$TILEMODELIGHTSYNCH
280
     1
  9
$CMATERIAL
347
3C
  9
$SOLIDHIST
280
     1
  9
$SHOWHIST
280
     1
  9
$DWFFRAME
280
     2
  9
$DGNFRAME
280
     2
  9
$REALWORLDSCALE
290
     1
  9
$INTERFERECOLOR
 62
   256
  9
$CSHADOW
280
     0
  9
$SHADOWPLANELOCATION
 40
0.0
  0
ENDSEC
  0
SECTION
  2
CLASSES
  0
CLASS
  1
ACDBDICTIONARYWDFLT
  2
AcDbDictionaryWithDefault
  3
ObjectDBX Classes
 90
        0
 91
        4
280
     0
281
     0
  0
CLASS
  1
VISUALSTYLE
  2
AcDbVisualStyle
  3
ObjectDBX Classes
 90
     4095
 91
        4
280
     0
281
     0
  0
CLASS
  1
MATERIAL
  2
AcDbMaterial
  3
ObjectDBX Classes
 90
     1153
 91
        4
280
     0
281
     0
  0
CLASS
  1
SUN
  2
AcDbSun
  3
SCENEOE
 90
     1024
 91
        4
280
     0
281
     0
  0
ENDSEC
  0
SECTION
  2
TABLES
  0
TABLE
  2
VPORT
  5
8
330
0
100
AcDbSymbolTable
 70
     1
  0
VPORT
  5
29
330
8
100
AcDbSymbolTableRecord
100
AcDbViewportTableRecord
  2
*Active
 70
     0
 10
0.0
 20
0.0
 11
1.0
 21
1.0
 12
0.0
 22
0.0
 13
0.0
 23
0.0
 14
0.5
 24
0.5
 15
0.5
 25
0.5
 16
0.0
 26
0.0
 36
1.0
 17
91.00082462281999
 27
-128.4993055234307
 37
0.0
 40
256.9986110468615
 41
0.7081814508812795
 42
50.0
 43
0.0
 44
0.0
 50
0.0
 51
0.0
 71
     0
 72
   100
 73
     1
 74
     3
 75
     0
 76
     0
 77
     0
 78
     0
281
     0
 65
     1
110
0.0
120
0.0
130
0.0
111
1.0
121
0.0
131
0.0
112
0.0
122
1.0
132
0.0
 79
     0
146
0.0
 60
     3
 61
     5
292
     1
282
     1
141
0.0
142
0.0
 63
   250
361
3F
  0
ENDTAB
  0
TABLE
  2
LTYPE
  5
5
330
0
100
AcDbSymbolTable
 70
     1
  0
LTYPE
  5
14
330
5
100
AcDbSymbolTableRecord
100
AcDbLinetypeTableRecord
  2
ByBlock
 70
     0
  3

 72
    65
 73
     0
 40
0.0
  0
LTYPE
  5
15
330
5
100
AcDbSymbolTableRecord
100
AcDbLinetypeTableRecord
  2
ByLayer
 70
     0
  3

 72
    65
 73
     0
 40
0.0
  0
LTYPE
  5
16
330
5
100
AcDbSymbolTableRecord
100
AcDbLinetypeTableRecord
  2
Continuous
 70
     0
  3
Solid line
 72
    65
 73
     0
 40
0.0
  0
ENDTAB
  0
TABLE
  2
LAYER
  5
2
330
0
100
AcDbSymbolTable
 70
     2
  0
LAYER
  5
10
330
2
100
AcDbSymbolTableRecord
100
AcDbLayerTableRecord
  2
0
 70
     0
 62
     7
  6
Continuous
370
    -3
390
F
347
3E
  0
LAYER
  5
40
330
2
100
AcDbSymbolTableRecord
100
AcDbLayerTableRecord
  2
_U+30EC_U+30A4_U+30E4_U+30FC 1
 70
     0
 62
     7
  6
Continuous
370
    -3
390
F
347
3E
  0
ENDTAB
  0
TABLE
  2
STYLE
  5
3
330
0
100
AcDbSymbolTable
 70
     1
  0
STYLE
  5
11
330
3
100
AcDbSymbolTableRecord
100
AcDbTextStyleTableRecord
  2
Standard
 70
     0
 40
0.0
 41
1.0
 50
0.0
 71
     0
 42
0.2
  3
txt
  4

  0
ENDTAB
  0
TABLE
  2
VIEW
  5
6
330
0
100
AcDbSymbolTable
 70
     0
  0
ENDTAB
  0
TABLE
  2
UCS
  5
7
330
0
100
AcDbSymbolTable
 70
     0
  0
ENDTAB
  0
TABLE
  2
APPID
  5
9
330
0
100
AcDbSymbolTable
 70
     1
  0
APPID
  5
12
330
9
100
AcDbSymbolTableRecord
100
AcDbRegAppTableRecord
  2
ACAD
 70
     0
  0
ENDTAB
  0
TABLE
  2
DIMSTYLE
  5
A
330
0
100
AcDbSymbolTable
 70
     1
100
AcDbDimStyleTable
  0
DIMSTYLE
105
27
330
A
100
AcDbSymbolTableRecord
100
AcDbDimStyleTableRecord
  2
Standard
 70
     0
178
     0
340
11
  0
ENDTAB
  0
TABLE
  2
BLOCK_RECORD
  5
1
330
0
100
AcDbSymbolTable
 70
     9
  0
BLOCK_RECORD
  5
1F
330
1
100
AcDbSymbolTableRecord
100
AcDbBlockTableRecord
  2
*Model_Space
340
22
 70
     0
280
     1
281
     0
  0
BLOCK_RECORD
  5
1B
330
1
100
AcDbSymbolTableRecord
100
AcDbBlockTableRecord
  2
*Paper_Space
340
1E
 70
     0
280
     1
281
     0
  0
BLOCK_RECORD
  5
23
330
1
100
AcDbSymbolTableRecord
100
AcDbBlockTableRecord
  2
*Paper_Space0
340
26
 70
     0
280
     1
281
     0
  0
BLOCK_RECORD
  5
41
330
1
100
AcDbSymbolTableRecord
100
AcDbBlockTableRecord
  2
block 2
340
0
102
{BLKREFS
331
42
102
}
 70
     0
280
     1
281
     0
  0
BLOCK_RECORD
  5
9C
330
1
100
AcDbSymbolTableRecord
100
AcDbBlockTableRecord
  2
block 3
340
0
102
{BLKREFS
331
9D
102
}
 70
     0
280
     1
281
     0
  0
BLOCK_RECORD
  5
AE
330
1
100
AcDbSymbolTableRecord
100
AcDbBlockTableRecord
  2
block 4
340
0
102
{BLKREFS
331
AF
102
}
 70
     0
280
     1
281
     0
  0
BLOCK_RECORD
  5
C0
330
1
100
AcDbSymbolTableRecord
100
AcDbBlockTableRecord
  2
block 5
340
0
102
{BLKREFS
331
C1
102
}
 70
     0
280
     1
281
     0
  0
BLOCK_RECORD
  5
E8
330
1
100
AcDbSymbolTableRecord
100
AcDbBlockTableRecord
  2
block 6
340
0
102
{BLKREFS
331
E9
102
}
 70
     0
280
     1
281
     0
  0
BLOCK_RECORD
  5
FD
330
1
100
AcDbSymbolTableRecord
100
AcDbBlockTableRecord
  2
block 7
340
0
102
{BLKREFS
331
FE
102
}
 70
     0
280
     1
281
     0
  0
BLOCK_RECORD
  5
120
330
1
100
AcDbSymbolTableRecord
100
AcDbBlockTableRecord
  2
block 8
340
0
102
{BLKREFS
331
121
102
}
 70
     0
280
     1
281
     0
  0
BLOCK_RECORD
  5
131
330
1
100
AcDbSymbolTableRecord
100
AcDbBlockTableRecord
  2
block 9
340
0
102
{BLKREFS
331
132
102
}
 70
     0
280
     1
281
     0
  0
ENDTAB
  0
ENDSEC
  0
SECTION
  2
BLOCKS
  0
BLOCK
  5
20
330
1F
100
AcDbEntity
  8
0
100
AcDbBlockBegin
  2
*Model_Space
 70
     0
 10
0.0
 20
0.0
 30
0.0
  3
*Model_Space
  1

  0
ENDBLK
  5
21
330
1F
100
AcDbEntity
  8
0
100
AcDbBlockEnd
  0
BLOCK
  5
1C
330
1B
100
AcDbEntity
 67
     1
  8
0
100
AcDbBlockBegin
  2
*Paper_Space
 70
     0
 10
0.0
 20
0.0
 30
0.0
  3
*Paper_Space
  1

  0
ENDBLK
  5
1D
330
1B
100
AcDbEntity
 67
     1
  8
0
100
AcDbBlockEnd
  0
BLOCK
  5
24
330
23
100
AcDbEntity
  8
0
100
AcDbBlockBegin
  2
*Paper_Space0
 70
     0
 10
0.0
 20
0.0
 30
0.0
  3
*Paper_Space0
  1

  0
ENDBLK
  5
25
330
23
100
AcDbEntity
  8
0
100
AcDbBlockEnd
  0
BLOCK
  5
43
330
41
100
AcDbEntity
  8
0
100
AcDbBlockBegin
  2
block 2
 70
     0
 10
0.0
 20
0.0
 30
0.0
  3
block 2
  1

  0
POLYLINE
  5
45
330
41
100
AcDbEntity
  8
_U+30EC_U+30A4_U+30E4_U+30FC 1
 62
   179
420
  2234388
370
    25
100
AcDb2dPolyline
 66
     1
 10
0.0
 20
0.0
 30
0.0
  0
VERTEX
  5
46
330
45
100
AcDbEntity
  8
_U+30EC_U+30A4_U+30E4_U+30FC 1
 62
   179
420
  2234388
370
    25
100
AcDbVertex
100
AcDb2dVertex
 10
72.72079786696011
 20
-127.3148894126158
 30
0.0
  0
VERTEX
  5
47
330
45
100
AcDbEntity
  8
_U+30EC_U+30A4_U+30E4_U+30FC 1
 62
   179
420
  2234388
370
    25
100
AcDbVertex
100
AcDb2dVertex
 10
111.8202163138953
 20
-127.3148894126158
 30
0.0
  0
SEQEND
  5
48
330
45
100
AcDbEntity
  8
_U+30EC_U+30A4_U+30E4_U+30FC 1
 62
   179
420
  2234388
370
    25
  0
POLYLINE
  5
49
330
41
100
AcDbEntity
  8
_U+30EC_U+30A4_U+30E4_U+30FC 1
 62
   179
420
  2234388
370
    25
100
AcDb2dPolyline
 66
     1
 10
0.0
 20
0.0
 30
0.0
  0
VERTEX
  5
4A
330
49
100
AcDbEntity
  8
_U+30EC_U+30A4_U+30E4_U+30FC 1
 62
   179
420
  2234388
370
    25
100
AcDbVertex
100
AcDb2dVertex
 10
78.82067826689475
 20
-140.3149621871438
 30
0.0
  0
VERTEX
  5
4B
330
49
100
AcDbEntity
  8
_U+30EC_U+30A4_U+30E4_U+30FC 1
 62
   179
420
  2234388
370
    25
100
AcDbVertex
100
AcDb2dVertex
 10
81.82066513480315
 20
-140.3149621871438
 30
0.0
  0
SEQEND
  5
4C
330
49
100
AcDbEntity
  8
_U+30EC_U+30A4_U+30E4_U+30FC 1
 62
   179
420
  2234388
370
    25
  0
POLYLINE
  5
4D
330
41
100
AcDbEntity
  8
_U+30EC_U+30A4_U+30E4_U+30FC 1
 62
   179
420
  2234388
370
    25
100
AcDb2dPolyline
 66
     1
 10
0.0
 20
0.0
 30
0.0
  0
VERTEX
  5
4E
330
4D
100
AcDbEntity
  8
_U+30EC_U+30A4_U+30E4_U+30FC 1
 62
   179
420
  2234388
370
    25
100
AcDbVertex
100
AcDb2dVertex
 10
71.82093233436203
 20
-143.3149491308381
 30
0.0
  0
VERTEX
  5
4F
330
4D
100
AcDbEntity
  8
_U+30EC_U+30A4_U+30E4_U+30FC 1
 62
   179
420
  2234388
370
    25
100
AcDbVertex
100
AcDb2dVertex
 10
81.82066513480315
 20
-143.3149491308381
 30
0.0
  0
SEQEND
  5
50
330
4D
100
AcDbEntity
  8
_U+30EC_U+30A4_U+30E4_U+30FC 1
 62
   179
420
  2234388
370
    25
  0
POLYLINE
  5
51
330
41
100
AcDbEntity
  8
_U+30EC_U+30A4_U+30E4_U+30FC 1
 62
   179
420
  2234388
370
    25
100
AcDb2dPolyline
 66
     1
 10
0.0
 20
0.0
 30
0.0
  0
VERTEX
  5
52
330
51
100
AcDbEntity
  8
_U+30EC_U+30A4_U+30E4_U+30FC 1
 62
   179
420
  2234388
370
    25
100
AcDbVertex
100
AcDb2dVertex
 10
71.82093233436203
 20
-119.3146655257268
 30
0.0
  0
VERTEX
  5
53
330
51
100
AcDbEntity
  8
_U+30EC_U+30A4_U+30E4_U+30FC 1
 62
   179
420
  2234388
370
    25
100
AcDbVertex
100
AcDb2dVertex
 10
71.82093233436203
 20
-143.3149491308381
 30
0.0
  0
SEQEND
  5
54
330
51
100
AcDbEntity
  8
_U+30EC_U+30A4_U+30E4_U+30FC 1
 62
   179
420
  2234388
370
    25
  0
POLYLINE
  5
55
330
41
100
AcDbEntity
  8
_U+30EC_U+30A4_U+30E4_U+30FC 1
 62
   179
420
  2234388
370
    25
100
AcDb2dPolyline
 66
     1
 10
0.0
 20
0.0
 30
0.0
  0
VERTEX
  5
56
330
55
100
AcDbEntity
  8
_U+30EC_U+30A4_U+30E4_U+30FC 1
 62
   179
420
  2234388
370
    25
100
AcDbVertex
100
AcDb2dVertex
 10
111.8202163138953
 20
-126.4150238572852
 30
0.0
  0
VERTEX
  5
57
330
55
100
AcDbEntity
  8
_U+30EC_U+30A4_U+30E4_U+30FC 1
 62
   179
420
  2234388
370
    25
100
AcDbVertex
100
AcDb2dVertex
 10
111.8202163138953
 20
-127.3148894126158
 30
0.0
  0
SEQEND
  5
58
330
55
100
AcDbEntity
  8
_U+30EC_U+30A4_U+30E4_U+30FC 1
 62
   179
420
  2234388
370
    25
  0
POLYLINE
  5
59
330
41
100
AcDbEntity
  8
_U+30EC_U+30A4_U+30E4_U+30FC 1
 62
   179
420
  2234388
370
    25
100
AcDb2dPolyline
 66
     1
 10
0.0
 20
0.0
 30
0.0
  0
VERTEX
  5
5A
330
59
100
AcDbEntity
  8
_U+30EC_U+30A4_U+30E4_U+30FC 1
 62
   179
420
  2234388
370
    25
100
AcDbVertex
100
AcDb2dVertex
 10
71.82093233436203
 20
-119.3146655257268
 30
0.0
  0
VERTEX
  5
5B
330
59
100
AcDbEntity
  8
_U+30EC_U+30A4_U+30E4_U+30FC 1
 62
   179
420
  2234388
370
    25
100
AcDbVertex
100
AcDb2dVertex
 10
74.82091920227043
 20
-119.3146655257268
 30
0.0
  0
SEQEND
  5
5C
330
59
100
AcDbEntity
  8
_U+30EC_U+30A4_U+30E4_U+30FC 1
 62
   179
420
  2234388
370
    25
  0
POLYLINE
  5
5D
330
41
100
AcDbEntity
  8
_U+30EC_U+30A4_U+30E4_U+30FC 1
 62
   179
420
  2234388
370
    25
100
AcDb2dPolyline
 66
     1
 10
0.0
 20
0.0
 30
0.0
  0
VERTEX
  5
5E
330
5D
100
AcDbEntity
  8
_U+30EC_U+30A4_U+30E4_U+30FC 1
 62
   179
420
  2234388
370
    25
100
AcDbVertex
100
AcDb2dVertex
 10
74.82091920227043
 20
-119.3146655257268
 30
0.0
  0
VERTEX
  5
5F
330
5D
100
AcDbEntity
  8
_U+30EC_U+30A4_U+30E4_U+30FC 1
 62
   179
420
  2234388
370
    25
100
AcDbVertex
100
AcDb2dVertex
 10
74.82091920227043
 20
-120.3147905254768
 30
0.0
  0
SEQEND
  5
60
330
5D
100
AcDbEntity
  8
_U+30EC_U+30A4_U+30E4_U+30FC 1
 62
   179
420
  2234388
370
    25
  0
POLYLINE
  5
61
330
41
100
AcDbEntity
  8
_U+30EC_U+30A4_U+30E4_U+30FC 1
 62
   179
420
  2234388
370
    25
100
AcDb2dPolyline
 66
     1
 10
0.0
 20
0.0
 30
0.0
  0
VERTEX
  5
62
330
61
100
AcDbEntity
  8
_U+30EC_U+30A4_U+30E4_U+30FC 1
 62
   179
420
  2234388
370
    25
100
AcDbVertex
100
AcDb2dVertex
 10
72.72079786696011
 20
-120.3147905254768
 30
0.0
  0
VERTEX
  5
63
330
61
100
AcDbEntity
  8
_U+30EC_U+30A4_U+30E4_U+30FC 1
 62
   179
420
  2234388
370
    25
100
AcDbVertex
100
AcDb2dVertex
 10
74.82091920227043
 20
-120.3147905254768
 30
0.0
  0
SEQEND
  5
64
330
61
100
AcDbEntity
  8
_U+30EC_U+30A4_U+30E4_U+30FC 1
 62
   179
420
  2234388
370
    25
  0
POLYLINE
  5
65
330
41
100
AcDbEntity
  8
_U+30EC_U+30A4_U+30E4_U+30FC 1
 62
   179
420
  2234388
370
    25
100
AcDb2dPolyline
 66
     1
 10
0.0
 20
0.0
 30
0.0
  0
VERTEX
  5
66
330
65
100
AcDbEntity
  8
_U+30EC_U+30A4_U+30E4_U+30FC 1
 62
   179
420
  2234388
370
    25
100
AcDbVertex
100
AcDb2dVertex
 10
81.82066513480315
 20
-140.3149621871438
 30
0.0
  0
VERTEX
  5
67
330
65
100
AcDbEntity
  8
_U+30EC_U+30A4_U+30E4_U+30FC 1
 62
   179
420
  2234388
370
    25
100
AcDbVertex
100
AcDb2dVertex
 10
81.82066513480315
 20
-143.3149491308381
 30
0.0
  0
SEQEND
  5
68
330
65
100
AcDbEntity
  8
_U+30EC_U+30A4_U+30E4_U+30FC 1
 62
   179
420
  2234388
370
    25
  0
POLYLINE
  5
69
330
41
100
AcDbEntity
  8
_U+30EC_U+30A4_U+30E4_U+30FC 1
 62
   179
420
  2234388
370
    25
100
AcDb2dPolyline
 66
     1
 10
0.0
 20
0.0
 30
0.0
  0
VERTEX
  5
6A
330
69
100
AcDbEntity
  8
_U+30EC_U+30A4_U+30E4_U+30FC 1
 62
   179
420
  2234388
370
    25
100
AcDbVertex
100
AcDb2dVertex
 10
78.82067826689475
 20
-140.3149621871438
 30
0.0
  0
VERTEX
  5
6B
330
69
100
AcDbEntity
  8
_U+30EC_U+30A4_U+30E4_U+30FC 1
 62
   179
420
  2234388
370
    25
100
AcDbVertex
100
AcDb2dVertex
 10
78.82067826689475
 20
-141.3146991313382
 30
0.0
  0
SEQEND
  5
6C
330
69
100
AcDbEntity
  8
_U+30EC_U+30A4_U+30E4_U+30FC 1
 62
   179
420
  2234388
370
    25
  0
POLYLINE
  5
6D
330
41
100
AcDbEntity
  8
_U+30EC_U+30A4_U+30E4_U+30FC 1
 62
   179
420
  2234388
370
    25
100
AcDb2dPolyline
 66
     1
 10
0.0
 20
0.0
 30
0.0
  0
VERTEX
  5
6E
330
6D
100
AcDbEntity
  8
_U+30EC_U+30A4_U+30E4_U+30FC 1
 62
   179
420
  2234388
370
    25
100
AcDbVertex
100
AcDb2dVertex
 10
78.82067826689475
 20
-141.3146991313382
 30
0.0
  0
VERTEX
  5
6F
330
6D
100
AcDbEntity
  8
_U+30EC_U+30A4_U+30E4_U+30FC 1
 62
   179
420
  2234388
370
    25
100
AcDbVertex
100
AcDb2dVertex
 10
80.82089293808724
 20
-141.3146991313382
 30
0.0
  0
SEQEND
  5
70
330
6D
100
AcDbEntity
  8
_U+30EC_U+30A4_U+30E4_U+30FC 1
 62
   179
420
  2234388
370
    25
  0
POLYLINE
  5
71
330
41
100
AcDbEntity
  8
_U+30EC_U+30A4_U+30E4_U+30FC 1
 62
   179
420
  2234388
370
    25
100
AcDb2dPolyline
 66
     1
 10
0.0
 20
0.0
 30
0.0
  0
VERTEX
  5
72
330
71
100
AcDbEntity
  8
_U+30EC_U+30A4_U+30E4_U+30FC 1
 62
   179
420
  2234388
370
    25
100
AcDbVertex
100
AcDb2dVertex
 10
72.72079786696011
 20
-142.3148241310878
 30
0.0
  0
VERTEX
  5
73
330
71
100
AcDbEntity
  8
_U+30EC_U+30A4_U+30E4_U+30FC 1
 62
   179
420
  2234388
370
    25
100
AcDbVertex
100
AcDb2dVertex
 10
80.82089293808724
 20
-142.3148241310878
 30
0.0
  0
SEQEND
  5
74
330
71
100
AcDbEntity
  8
_U+30EC_U+30A4_U+30E4_U+30FC 1
 62
   179
420
  2234388
370
    25
  0
POLYLINE
  5
75
330
41
100
AcDbEntity
  8
_U+30EC_U+30A4_U+30E4_U+30FC 1
 62
   179
420
  2234388
370
    25
100
AcDb2dPolyline
 66
     1
 10
0.0
 20
0.0
 30
0.0
  0
VERTEX
  5
76
330
75
100
AcDbEntity
  8
_U+30EC_U+30A4_U+30E4_U+30FC 1
 62
   179
420
  2234388
370
    25
100
AcDbVertex
100
AcDb2dVertex
 10
80.82089293808724
 20
-141.3146991313382
 30
0.0
  0
VERTEX
  5
77
330
75
100
AcDbEntity
  8
_U+30EC_U+30A4_U+30E4_U+30FC 1
 62
   179
420
  2234388
370
    25
100
AcDbVertex
100
AcDb2dVertex
 10
80.82089293808724
 20
-142.3148241310878
 30
0.0
  0
SEQEND
  5
78
330
75
100
AcDbEntity
  8
_U+30EC_U+30A4_U+30E4_U+30FC 1
 62
   179
420
  2234388
370
    25
  0
POLYLINE
  5
79
330
41
100
AcDbEntity
  8
_U+30EC_U+30A4_U+30E4_U+30FC 1
 62
   179
420
  2234388
370
    25
100
AcDb2dPolyline
 66
     1
 10
0.0
 20
0.0
 30
0.0
  0
VERTEX
  5
7A
330
79
100
AcDbEntity
  8
_U+30EC_U+30A4_U+30E4_U+30FC 1
 62
   179
420
  2234388
370
    25
100
AcDbVertex
100
AcDb2dVertex
 10
72.72079786696011
 20
-120.3147905254768
 30
0.0
  0
VERTEX
  5
7B
330
79
100
AcDbEntity
  8
_U+30EC_U+30A4_U+30E4_U+30FC 1
 62
   179
420
  2234388
370
    25
100
AcDbVertex
100
AcDb2dVertex
 10
72.72079786696011
 20
-126.4150238572852
 30
0.0
  0
SEQEND
  5
7C
330
79
100
AcDbEntity
  8
_U+30EC_U+30A4_U+30E4_U+30FC 1
 62
   179
420
  2234388
370
    25
  0
POLYLINE
  5
7D
330
41
100
AcDbEntity
  8
_U+30EC_U+30A4_U+30E4_U+30FC 1
 62
   179
420
  2234388
370
    25
100
AcDb2dPolyline
 66
     1
 10
0.0
 20
0.0
 30
0.0
  0
VERTEX
  5
7E
330
7D
100
AcDbEntity
  8
_U+30EC_U+30A4_U+30E4_U+30FC 1
 62
   179
420
  2234388
370
    25
100
AcDbVertex
100
AcDb2dVertex
 10
72.72079786696011
 20
-126.4150238572852
 30
0.0
  0
VERTEX
  5
7F
330
7D
100
AcDbEntity
  8
_U+30EC_U+30A4_U+30E4_U+30FC 1
 62
   179
420
  2234388
370
    25
100
AcDbVertex
100
AcDb2dVertex
 10
111.8202163138953
 20
-126.4150238572852
 30
0.0
  0
SEQEND
  5
80
330
7D
100
AcDbEntity
  8
_U+30EC_U+30A4_U+30E4_U+30FC 1
 62
   179
420
  2234388
370
    25
  0
POLYLINE
  5
81
330
41
100
AcDbEntity
  8
_U+30EC_U+30A4_U+30E4_U+30FC 1
 62
   179
420
  2234388
370
    25
100
AcDb2dPolyline
 66
     1
 10
0.0
 20
0.0
 30
0.0
  0
VERTEX
  5
82
330
81
100
AcDbEntity
  8
_U+30EC_U+30A4_U+30E4_U+30FC 1
 62
   179
420
  2234388
370
    25
100
AcDbVertex
100
AcDb2dVertex
 10
72.72079786696011
 20
-127.3148894126158
 30
0.0
  0
VERTEX
  5
83
330
81
100
AcDbEntity
  8
_U+30EC_U+30A4_U+30E4_U+30FC 1
 62
   179
420
  2234388
370
    25
100
AcDbVertex
100
AcDb2dVertex
 10
72.72079786696011
 20
-142.3148241310878
 30
0.0
  0
SEQEND
  5
84
330
81
100
AcDbEntity
  8
_U+30EC_U+30A4_U+30E4_U+30FC 1
 62
   179
420
  2234388
370
    25
  0
SPLINE
  5
85
330
41
100
AcDbEntity
  8
_U+30EC_U+30A4_U+30E4_U+30FC 1
 62
   179
420
  2234388
370
     9
100
AcDbSpline
210
0.0
220
0.0
230
1.0
 70
    11
 71
     3
 72
    17
 73
    13
 74
     0
 42
0.0000000001
 43
0.0000000001
 12
1.0
 22
0.0
 32
0.0
 13
1.0
 23
0.0
 33
0.0
 40
0.0
 40
0.0
 40
0.0
 40
0.0
 40
1.0
 40
1.0
 40
1.0
 40
2.0
 40
2.0
 40
2.0
 40
3.0
 40
3.0
 40
3.0
 40
4.0
 40
4.0
 40
4.0
 40
4.0
 10
71.92083899847987
 20
-111.3148296943934
 30
0.0
 10
71.92083899847987
 20
-111.2596905277407
 30
0.0
 10
71.87607149962199
 20
-111.2149230277518
 30
0.0
 10
71.82093233436203
 20
-111.2149230277518
 30
0.0
 10
71.7651228913414
 20
-111.2149230277518
 30
0.0
 10
71.7210256702442
 20
-111.2596905277407
 30
0.0
 10
71.7210256702442
 20
-111.3148296943934
 30
0.0
 10
71.7210256702442
 20
-111.3699335832687
 30
0.0
 10
71.7651228913414
 20
-111.4147363610351
 30
0.0
 10
71.82093233436203
 20
-111.4147363610351
 30
0.0
 10
71.87607149962199
 20
-111.4147363610351
 30
0.0
 10
71.92083899847987
 20
-111.3699335832687
 30
0.0
 10
71.92083899847987
 20
-111.3148296943934
 30
0.0
  0
SPLINE
  5
86
330
41
100
AcDbEntity
  8
_U+30EC_U+30A4_U+30E4_U+30FC 1
 62
   179
420
  2234388
370
     9
100
AcDbSpline
210
0.0
220
0.0
230
1.0
 70
    11
 71
     3
 72
    17
 73
    13
 74
     0
 42
0.0000000001
 43
0.0000000001
 12
1.0
 22
0.0
 32
0.0
 13
1.0
 23
0.0
 33
0.0
 40
0.0
 40
0.0
 40
0.0
 40
0.0
 40
1.0
 40
1.0
 40
1.0
 40
2.0
 40
2.0
 40
2.0
 40
3.0
 40
3.0
 40
3.0
 40
4.0
 40
4.0
 40
4.0
 40
4.0
 10
71.92083899847987
 20
-115.3145888600603
 30
0.0
 10
71.92083899847987
 20
-115.2594496934072
 30
0.0
 10
71.87607149962199
 20
-115.2146821934187
 30
0.0
 10
71.82093233436203
 20
-115.2146821934187
 30
0.0
 10
71.7651228913414
 20
-115.2146821934187
 30
0.0
 10
71.7210256702442
 20
-115.2594496934072
 30
0.0
 10
71.7210256702442
 20
-115.3145888600603
 30
0.0
 10
71.7210256702442
 20
-115.370045526713
 30
0.0
 10
71.7651228913414
 20
-115.4148483044797
 30
0.0
 10
71.82093233436203
 20
-115.4148483044797
 30
0.0
 10
71.87607149962199
 20
-115.4148483044797
 30
0.0
 10
71.92083899847987
 20
-115.370045526713
 30
0.0
 10
71.92083899847987
 20
-115.3145888600603
 30
0.0
  0
SPLINE
  5
87
330
41
100
AcDbEntity
  8
_U+30EC_U+30A4_U+30E4_U+30FC 1
 62
   179
420
  2234388
370
     9
100
AcDbSpline
210
0.0
220
0.0
230
1.0
 70
    11
 71
     3
 72
    17
 73
    13
 74
     0
 42
0.0000000001
 43
0.0000000001
 12
1.0
 22
0.0
 32
0.0
 13
1.0
 23
0.0
 33
0.0
 40
0.0
 40
0.0
 40
0.0
 40
0.0
 40
1.0
 40
1.0
 40
1.0
 40
2.0
 40
2.0
 40
2.0
 40
3.0
 40
3.0
 40
3.0
 40
4.0
 40
4.0
 40
4.0
 40
4.0
 10
74.9208277590475
 20
-115.3145888600603
 30
0.0
 10
74.9208277590475
 20
-115.2594496934072
 30
0.0
 10
74.87605836753039
 20
-115.2146821934187
 30
0.0
 10
74.82091920227043
 20
-115.2146821934187
 30
0.0
 10
74.76581531478736
 20
-115.2146821934187
 30
0.0
 10
74.7210125381526
 20
-115.2594496934072
 30
0.0
 10
74.7210125381526
 20
-115.3145888600603
 30
0.0
 10
74.7210125381526
 20
-115.370045526713
 30
0.0
 10
74.76581531478736
 20
-115.4148483044797
 30
0.0
 10
74.82091920227043
 20
-115.4148483044797
 30
0.0
 10
74.87605836753039
 20
-115.4148483044797
 30
0.0
 10
74.9208277590475
 20
-115.370045526713
 30
0.0
 10
74.9208277590475
 20
-115.3145888600603
 30
0.0
  0
SPLINE
  5
88
330
41
100
AcDbEntity
  8
_U+30EC_U+30A4_U+30E4_U+30FC 1
 62
   179
420
  2234388
370
     9
100
AcDbSpline
210
0.0
220
0.0
230
1.0
 70
    11
 71
     3
 72
    17
 73
    13
 74
     0
 42
0.0000000001
 43
0.0000000001
 12
1.0
 22
0.0
 32
0.0
 13
1.0
 23
0.0
 33
0.0
 40
0.0
 40
0.0
 40
0.0
 40
0.0
 40
1.0
 40
1.0
 40
1.0
 40
2.0
 40
2.0
 40
2.0
 40
3.0
 40
3.0
 40
3.0
 40
4.0
 40
4.0
 40
4.0
 40
4.0
 10
111.9201229780131
 20
-111.3148296943934
 30
0.0
 10
111.9201229780131
 20
-111.2596905277407
 30
0.0
 10
111.8753583053646
 20
-111.2149230277518
 30
0.0
 10
111.8202163138953
 20
-111.2149230277518
 30
0.0
 10
111.7651124264122
 20
-111.2149230277518
 30
0.0
 10
111.7203096497774
 20
-111.2596905277407
 30
0.0
 10
111.7203096497774
 20
-111.3148296943934
 30
0.0
 10
111.7203096497774
 20
-111.3699335832687
 30
0.0
 10
111.7651124264122
 20
-111.4147363610351
 30
0.0
 10
111.8202163138953
 20
-111.4147363610351
 30
0.0
 10
111.8753583053646
 20
-111.4147363610351
 30
0.0
 10
111.9201229780131
 20
-111.3699335832687
 30
0.0
 10
111.9201229780131
 20
-111.3148296943934
 30
0.0
  0
SPLINE
  5
89
330
41
100
AcDbEntity
  8
_U+30EC_U+30A4_U+30E4_U+30FC 1
 62
   179
420
  2234388
370
     9
100
AcDbSpline
210
0.0
220
0.0
230
1.0
 70
    11
 71
     3
 72
    17
 73
    13
 74
     0
 42
0.0000000001
 43
0.0000000001
 12
1.0
 22
0.0
 32
0.0
 13
1.0
 23
0.0
 33
0.0
 40
0.0
 40
0.0
 40
0.0
 40
0.0
 40
1.0
 40
1.0
 40
1.0
 40
2.0
 40
2.0
 40
2.0
 40
3.0
 40
3.0
 40
3.0
 40
4.0
 40
4.0
 40
4.0
 40
4.0
 10
115.920587598175
 20
-127.3148894126158
 30
0.0
 10
115.920587598175
 20
-127.259750245963
 30
0.0
 10
115.8757848215402
 20
-127.2149827459741
 30
0.0
 10
115.8206456562803
 20
-127.2149827459741
 30
0.0
 10
115.7648362132596
 20
-127.2149827459741
 30
0.0
 10
115.7207389921624
 20
-127.259750245963
 30
0.0
 10
115.7207389921624
 20
-127.3148894126158
 30
0.0
 10
115.7207389921624
 20
-127.369993301491
 30
0.0
 10
115.7648362132596
 20
-127.4147960792574
 30
0.0
 10
115.8206456562803
 20
-127.4147960792574
 30
0.0
 10
115.8757848215402
 20
-127.4147960792574
 30
0.0
 10
115.920587598175
 20
-127.369993301491
 30
0.0
 10
115.920587598175
 20
-127.3148894126158
 30
0.0
  0
SPLINE
  5
8A
330
41
100
AcDbEntity
  8
_U+30EC_U+30A4_U+30E4_U+30FC 1
 62
   179
420
  2234388
370
     9
100
AcDbSpline
210
0.0
220
0.0
230
1.0
 70
    11
 71
     3
 72
    17
 73
    13
 74
     0
 42
0.0000000001
 43
0.0000000001
 12
1.0
 22
0.0
 32
0.0
 13
1.0
 23
0.0
 33
0.0
 40
0.0
 40
0.0
 40
0.0
 40
0.0
 40
1.0
 40
1.0
 40
1.0
 40
2.0
 40
2.0
 40
2.0
 40
3.0
 40
3.0
 40
3.0
 40
4.0
 40
4.0
 40
4.0
 40
4.0
 10
115.920587598175
 20
-140.3149621871438
 30
0.0
 10
115.920587598175
 20
-140.2594702427129
 30
0.0
 10
115.8757848215402
 20
-140.2147027427244
 30
0.0
 10
115.8206456562803
 20
-140.2147027427244
 30
0.0
 10
115.7648362132596
 20
-140.2147027427244
 30
0.0
 10
115.7207389921624
 20
-140.2594702427129
 30
0.0
 10
115.7207389921624
 20
-140.3149621871438
 30
0.0
 10
115.7207389921624
 20
-140.3700660760187
 30
0.0
 10
115.7648362132596
 20
-140.4148688537854
 30
0.0
 10
115.8206456562803
 20
-140.4148688537854
 30
0.0
 10
115.8757848215402
 20
-140.4148688537854
 30
0.0
 10
115.920587598175
 20
-140.3700660760187
 30
0.0
 10
115.920587598175
 20
-140.3149621871438
 30
0.0
  0
SPLINE
  5
8B
330
41
100
AcDbEntity
  8
_U+30EC_U+30A4_U+30E4_U+30FC 1
 62
   179
420
  2234388
370
     9
100
AcDbSpline
210
0.0
220
0.0
230
1.0
 70
    11
 71
     3
 72
    17
 73
    13
 74
     0
 42
0.0000000001
 43
0.0000000001
 12
1.0
 22
0.0
 32
0.0
 13
1.0
 23
0.0
 33
0.0
 40
0.0
 40
0.0
 40
0.0
 40
0.0
 40
1.0
 40
1.0
 40
1.0
 40
2.0
 40
2.0
 40
2.0
 40
3.0
 40
3.0
 40
3.0
 40
4.0
 40
4.0
 40
4.0
 40
4.0
 10
115.920587598175
 20
-143.3149491308381
 30
0.0
 10
115.920587598175
 20
-143.2594571864073
 30
0.0
 10
115.8757848215402
 20
-143.2146896864187
 30
0.0
 10
115.8206456562803
 20
-143.2146896864187
 30
0.0
 10
115.7648362132596
 20
-143.2146896864187
 30
0.0
 10
115.7207389921624
 20
-143.2594571864073
 30
0.0
 10
115.7207389921624
 20
-143.3149491308381
 30
0.0
 10
115.7207389921624
 20
-143.370053019713
 30
0.0
 10
115.7648362132596
 20
-143.4148557974798
 30
0.0
 10
115.8206456562803
 20
-143.4148557974798
 30
0.0
 10
115.8757848215402
 20
-143.4148557974798
 30
0.0
 10
115.920587598175
 20
-143.370053019713
 30
0.0
 10
115.920587598175
 20
-143.3149491308381
 30
0.0
  0
SPLINE
  5
8C
330
41
100
AcDbEntity
  8
_U+30EC_U+30A4_U+30E4_U+30FC 1
 62
   179
420
  2234388
370
     9
100
AcDbSpline
210
0.0
220
0.0
230
1.0
 70
    11
 71
     3
 72
    17
 73
    13
 74
     0
 42
0.0000000001
 43
0.0000000001
 12
1.0
 22
0.0
 32
0.0
 13
1.0
 23
0.0
 33
0.0
 40
0.0
 40
0.0
 40
0.0
 40
0.0
 40
1.0
 40
1.0
 40
1.0
 40
2.0
 40
2.0
 40
2.0
 40
3.0
 40
3.0
 40
3.0
 40
4.0
 40
4.0
 40
4.0
 40
4.0
 10
71.92083899847987
 20
-147.3147082965044
 30
0.0
 10
71.92083899847987
 20
-147.2595691298519
 30
0.0
 10
71.87607149962199
 20
-147.2148016298627
 30
0.0
 10
71.82093233436203
 20
-147.2148016298627
 30
0.0
 10
71.7651228913414
 20
-147.2148016298627
 30
0.0
 10
71.7210256702442
 20
-147.2595691298519
 30
0.0
 10
71.7210256702442
 20
-147.3147082965044
 30
0.0
 10
71.7210256702442
 20
-147.3701649631577
 30
0.0
 10
71.7651228913414
 20
-147.4149324631462
 30
0.0
 10
71.82093233436203
 20
-147.4149324631462
 30
0.0
 10
71.87607149962199
 20
-147.4149324631462
 30
0.0
 10
71.92083899847987
 20
-147.3701649631577
 30
0.0
 10
71.92083899847987
 20
-147.3147082965044
 30
0.0
  0
SPLINE
  5
8D
330
41
100
AcDbEntity
  8
_U+30EC_U+30A4_U+30E4_U+30FC 1
 62
   179
420
  2234388
370
     9
100
AcDbSpline
210
0.0
220
0.0
230
1.0
 70
    11
 71
     3
 72
    17
 73
    13
 74
     0
 42
0.0000000001
 43
0.0000000001
 12
1.0
 22
0.0
 32
0.0
 13
1.0
 23
0.0
 33
0.0
 40
0.0
 40
0.0
 40
0.0
 40
0.0
 40
1.0
 40
1.0
 40
1.0
 40
2.0
 40
2.0
 40
2.0
 40
3.0
 40
3.0
 40
3.0
 40
4.0
 40
4.0
 40
4.0
 40
4.0
 10
81.92057179892099
 20
-147.3147082965044
 30
0.0
 10
81.92057179892099
 20
-147.2595691298519
 30
0.0
 10
81.8758043000631
 20
-147.2148016298627
 30
0.0
 10
81.82066513480315
 20
-147.2148016298627
 30
0.0
 10
81.76556124732008
 20
-147.2148016298627
 30
0.0
 10
81.72075847068531
 20
-147.2595691298519
 30
0.0
 10
81.72075847068531
 20
-147.3147082965044
 30
0.0
 10
81.72075847068531
 20
-147.3701649631577
 30
0.0
 10
81.76556124732008
 20
-147.4149324631462
 30
0.0
 10
81.82066513480315
 20
-147.4149324631462
 30
0.0
 10
81.8758043000631
 20
-147.4149324631462
 30
0.0
 10
81.92057179892099
 20
-147.3701649631577
 30
0.0
 10
81.92057179892099
 20
-147.3147082965044
 30
0.0
  0
SPLINE
  5
8E
330
41
100
AcDbEntity
  8
_U+30EC_U+30A4_U+30E4_U+30FC 1
 62
   179
420
  2234388
370
     9
100
AcDbSpline
210
0.0
220
0.0
230
1.0
 70
    11
 71
     3
 72
    17
 73
    13
 74
     0
 42
0.0000000001
 43
0.0000000001
 12
1.0
 22
0.0
 32
0.0
 13
1.0
 23
0.0
 33
0.0
 40
0.0
 40
0.0
 40
0.0
 40
0.0
 40
1.0
 40
1.0
 40
1.0
 40
2.0
 40
2.0
 40
2.0
 40
3.0
 40
3.0
 40
3.0
 40
4.0
 40
4.0
 40
4.0
 40
4.0
 10
67.92040965609488
 20
-119.3146655257268
 30
0.0
 10
67.92040965609488
 20
-119.2595616368519
 30
0.0
 10
67.87560687946011
 20
-119.2147588590852
 30
0.0
 10
67.82050299197704
 20
-119.2147588590852
 30
0.0
 10
67.76536382671709
 20
-119.2147588590852
 30
0.0
 10
67.72059632785921
 20
-119.2595616368519
 30
0.0
 10
67.72059632785921
 20
-119.3146655257268
 30
0.0
 10
67.72059632785921
 20
-119.3698046923799
 30
0.0
 10
67.76536382671709
 20
-119.4145721923684
 30
0.0
 10
67.82050299197704
 20
-119.4145721923684
 30
0.0
 10
67.87560687946011
 20
-119.4145721923684
 30
0.0
 10
67.92040965609488
 20
-119.3698046923799
 30
0.0
 10
67.92040965609488
 20
-119.3146655257268
 30
0.0
  0
SPLINE
  5
8F
330
41
100
AcDbEntity
  8
_U+30EC_U+30A4_U+30E4_U+30FC 1
 62
   179
420
  2234388
370
     9
100
AcDbSpline
210
0.0
220
0.0
230
1.0
 70
    11
 71
     3
 72
    17
 73
    13
 74
     0
 42
0.0000000001
 43
0.0000000001
 12
1.0
 22
0.0
 32
0.0
 13
1.0
 23
0.0
 33
0.0
 40
0.0
 40
0.0
 40
0.0
 40
0.0
 40
1.0
 40
1.0
 40
1.0
 40
2.0
 40
2.0
 40
2.0
 40
3.0
 40
3.0
 40
3.0
 40
4.0
 40
4.0
 40
4.0
 40
4.0
 10
67.92040965609488
 20
-143.3149491308381
 30
0.0
 10
67.92040965609488
 20
-143.2594571864073
 30
0.0
 10
67.87560687946011
 20
-143.2146896864187
 30
0.0
 10
67.82050299197704
 20
-143.2146896864187
 30
0.0
 10
67.76536382671709
 20
-143.2146896864187
 30
0.0
 10
67.72059632785921
 20
-143.2594571864073
 30
0.0
 10
67.72059632785921
 20
-143.3149491308381
 30
0.0
 10
67.72059632785921
 20
-143.370053019713
 30
0.0
 10
67.76536382671709
 20
-143.4148557974798
 30
0.0
 10
67.82050299197704
 20
-143.4148557974798
 30
0.0
 10
67.87560687946011
 20
-143.4148557974798
 30
0.0
 10
67.92040965609488
 20
-143.370053019713
 30
0.0
 10
67.92040965609488
 20
-143.3149491308381
 30
0.0
  0
POLYLINE
  5
90
330
41
100
AcDbEntity
  8
_U+30EC_U+30A4_U+30E4_U+30FC 1
 62
   179
420
  2234388
370
     9
100
AcDb2dPolyline
 66
     1
 10
0.0
 20
0.0
 30
0.0
  0
VERTEX
  5
91
330
90
100
AcDbEntity
  8
_U+30EC_U+30A4_U+30E4_U+30FC 1
 62
   179
420
  2234388
370
     9
100
AcDbVertex
100
AcDb2dVertex
 10
115.8206456562803
 20
-140.3149621871438
 30
0.0
  0
VERTEX
  5
92
330
90
100
AcDbEntity
  8
_U+30EC_U+30A4_U+30E4_U+30FC 1
 62
   179
420
  2234388
370
     9
100
AcDbVertex
100
AcDb2dVertex
 10
115.8206456562803
 20
-143.3149491308381
 30
0.0
  0
SEQEND
  5
93
330
90
100
AcDbEntity
  8
_U+30EC_U+30A4_U+30E4_U+30FC 1
 62
   179
420
  2234388
370
     9
  0
POLYLINE
  5
94
330
41
100
AcDbEntity
  8
_U+30EC_U+30A4_U+30E4_U+30FC 1
 62
   179
420
  2234388
370
     9
100
AcDb2dPolyline
 66
     1
 10
0.0
 20
0.0
 30
0.0
  0
VERTEX
  5
95
330
94
100
AcDbEntity
  8
_U+30EC_U+30A4_U+30E4_U+30FC 1
 62
   179
420
  2234388
370
     9
100
AcDbVertex
100
AcDb2dVertex
 10
84.36038284778733
 20
-140.3149621871438
 30
0.0
  0
VERTEX
  5
96
330
94
100
AcDbEntity
  8
_U+30EC_U+30A4_U+30E4_U+30FC 1
 62
   179
420
  2234388
370
     9
100
AcDbVertex
100
AcDb2dVertex
 10
116.8204178529962
 20
-140.3149621871438
 30
0.0
  0
SEQEND
  5
97
330
94
100
AcDbEntity
  8
_U+30EC_U+30A4_U+30E4_U+30FC 1
 62
   179
420
  2234388
370
     9
  0
POLYLINE
  5
98
330
41
100
AcDbEntity
  8
_U+30EC_U+30A4_U+30E4_U+30FC 1
 62
   179
420
  2234388
370
     9
100
AcDb2dPolyline
 66
     1
 10
0.0
 20
0.0
 30
0.0
  0
VERTEX
  5
99
330
98
100
AcDbEntity
  8
_U+30EC_U+30A4_U+30E4_U+30FC 1
 62
   179
420
  2234388
370
     9
100
AcDbVertex
100
AcDb2dVertex
 10
84.36038284778733
 20
-143.3149491308381
 30
0.0
  0
VERTEX
  5
9A
330
98
100
AcDbEntity
  8
_U+30EC_U+30A4_U+30E4_U+30FC 1
 62
   179
420
  2234388
370
     9
100
AcDbVertex
100
AcDb2dVertex
 10
116.8204178529962
 20
-143.3149491308381
 30
0.0
  0
SEQEND
  5
9B
330
98
100
AcDbEntity
  8
_U+30EC_U+30A4_U+30E4_U+30FC 1
 62
   179
420
  2234388
370
     9
  0
INSERT
  5
9D
330
41
100
AcDbEntity
  8
_U+30EC_U+30A4_U+30E4_U+30FC 1
100
AcDbBlockReference
  2
block 3
 10
0.0
 20
0.0
 30
0.0
  0
POLYLINE
  5
A2
330
41
100
AcDbEntity
  8
_U+30EC_U+30A4_U+30E4_U+30FC 1
 62
   179
420
  2234388
370
     9
100
AcDb2dPolyline
 66
     1
 10
0.0
 20
0.0
 30
0.0
  0
VERTEX
  5
A3
330
A2
100
AcDbEntity
  8
_U+30EC_U+30A4_U+30E4_U+30FC 1
 62
   179
420
  2234388
370
     9
100
AcDbVertex
100
AcDb2dVertex
 10
71.82093233436203
 20
-115.3145888600603
 30
0.0
  0
VERTEX
  5
A4
330
A2
100
AcDbEntity
  8
_U+30EC_U+30A4_U+30E4_U+30FC 1
 62
   179
420
  2234388
370
     9
100
AcDbVertex
100
AcDb2dVertex
 10
74.82091920227043
 20
-115.3145888600603
 30
0.0
  0
SEQEND
  5
A5
330
A2
100
AcDbEntity
  8
_U+30EC_U+30A4_U+30E4_U+30FC 1
 62
   179
420
  2234388
370
     9
  0
POLYLINE
  5
A6
330
41
100
AcDbEntity
  8
_U+30EC_U+30A4_U+30E4_U+30FC 1
 62
   179
420
  2234388
370
     9
100
AcDb2dPolyline
 66
     1
 10
0.0
 20
0.0
 30
0.0
  0
VERTEX
  5
A7
330
A6
100
AcDbEntity
  8
_U+30EC_U+30A4_U+30E4_U+30FC 1
 62
   179
420
  2234388
370
     9
100
AcDbVertex
100
AcDb2dVertex
 10
71.82093233436203
 20
-116.7745949708065
 30
0.0
  0
VERTEX
  5
A8
330
A6
100
AcDbEntity
  8
_U+30EC_U+30A4_U+30E4_U+30FC 1
 62
   179
420
  2234388
370
     9
100
AcDbVertex
100
AcDb2dVertex
 10
71.82093233436203
 20
-114.3148166380881
 30
0.0
  0
SEQEND
  5
A9
330
A6
100
AcDbEntity
  8
_U+30EC_U+30A4_U+30E4_U+30FC 1
 62
   179
420
  2234388
370
     9
  0
POLYLINE
  5
AA
330
41
100
AcDbEntity
  8
_U+30EC_U+30A4_U+30E4_U+30FC 1
 62
   179
420
  2234388
370
     9
100
AcDb2dPolyline
 66
     1
 10
0.0
 20
0.0
 30
0.0
  0
VERTEX
  5
AB
330
AA
100
AcDbEntity
  8
_U+30EC_U+30A4_U+30E4_U+30FC 1
 62
   179
420
  2234388
370
     9
100
AcDbVertex
100
AcDb2dVertex
 10
74.82091920227043
 20
-116.7745949708065
 30
0.0
  0
VERTEX
  5
AC
330
AA
100
AcDbEntity
  8
_U+30EC_U+30A4_U+30E4_U+30FC 1
 62
   179
420
  2234388
370
     9
100
AcDbVertex
100
AcDb2dVertex
 10
74.82091920227043
 20
-114.3148166380881
 30
0.0
  0
SEQEND
  5
AD
330
AA
100
AcDbEntity
  8
_U+30EC_U+30A4_U+30E4_U+30FC 1
 62
   179
420
  2234388
370
     9
  0
INSERT
  5
AF
330
41
100
AcDbEntity
  8
_U+30EC_U+30A4_U+30E4_U+30FC 1
100
AcDbBlockReference
  2
block 4
 10
0.0
 20
0.0
 30
0.0
  0
POLYLINE
  5
B4
330
41
100
AcDbEntity
  8
_U+30EC_U+30A4_U+30E4_U+30FC 1
 62
   179
420
  2234388
370
     9
100
AcDb2dPolyline
 66
     1
 10
0.0
 20
0.0
 30
0.0
  0
VERTEX
  5
B5
330
B4
100
AcDbEntity
  8
_U+30EC_U+30A4_U+30E4_U+30FC 1
 62
   179
420
  2234388
370
     9
100
AcDbVertex
100
AcDb2dVertex
 10
71.82093233436203
 20
-111.3148296943934
 30
0.0
  0
VERTEX
  5
B6
330
B4
100
AcDbEntity
  8
_U+30EC_U+30A4_U+30E4_U+30FC 1
 62
   179
420
  2234388
370
     9
100
AcDbVertex
100
AcDb2dVertex
 10
111.8202163138953
 20
-111.3148296943934
 30
0.0
  0
SEQEND
  5
B7
330
B4
100
AcDbEntity
  8
_U+30EC_U+30A4_U+30E4_U+30FC 1
 62
   179
420
  2234388
370
     9
  0
POLYLINE
  5
B8
330
41
100
AcDbEntity
  8
_U+30EC_U+30A4_U+30E4_U+30FC 1
 62
   179
420
  2234388
370
     9
100
AcDb2dPolyline
 66
     1
 10
0.0
 20
0.0
 30
0.0
  0
VERTEX
  5
B9
330
B8
100
AcDbEntity
  8
_U+30EC_U+30A4_U+30E4_U+30FC 1
 62
   179
420
  2234388
370
     9
100
AcDbVertex
100
AcDb2dVertex
 10
71.82093233436203
 20
-116.7745949708065
 30
0.0
  0
VERTEX
  5
BA
330
B8
100
AcDbEntity
  8
_U+30EC_U+30A4_U+30E4_U+30FC 1
 62
   179
420
  2234388
370
     9
100
AcDbVertex
100
AcDb2dVertex
 10
71.82093233436203
 20
-110.3150574724212
 30
0.0
  0
SEQEND
  5
BB
330
B8
100
AcDbEntity
  8
_U+30EC_U+30A4_U+30E4_U+30FC 1
 62
   179
420
  2234388
370
     9
  0
POLYLINE
  5
BC
330
41
100
AcDbEntity
  8
_U+30EC_U+30A4_U+30E4_U+30FC 1
 62
   179
420
  2234388
370
     9
100
AcDb2dPolyline
 66
     1
 10
0.0
 20
0.0
 30
0.0
  0
VERTEX
  5
BD
330
BC
100
AcDbEntity
  8
_U+30EC_U+30A4_U+30E4_U+30FC 1
 62
   179
420
  2234388
370
     9
100
AcDbVertex
100
AcDb2dVertex
 10
111.8202163138953
 20
-123.8746005245868
 30
0.0
  0
VERTEX
  5
BE
330
BC
100
AcDbEntity
  8
_U+30EC_U+30A4_U+30E4_U+30FC 1
 62
   179
420
  2234388
370
     9
100
AcDbVertex
100
AcDb2dVertex
 10
111.8202163138953
 20
-110.3150574724212
 30
0.0
  0
SEQEND
  5
BF
330
BC
100
AcDbEntity
  8
_U+30EC_U+30A4_U+30E4_U+30FC 1
 62
   179
420
  2234388
370
     9
  0
INSERT
  5
C1
330
41
100
AcDbEntity
  8
_U+30EC_U+30A4_U+30E4_U+30FC 1
100
AcDbBlockReference
  2
block 5
 10
0.0
 20
0.0
 30
0.0
  0
POLYLINE
  5
DC
330
41
100
AcDbEntity
  8
_U+30EC_U+30A4_U+30E4_U+30FC 1
 62
   179
420
  2234388
370
     9
100
AcDb2dPolyline
 66
     1
 10
0.0
 20
0.0
 30
0.0
  0
VERTEX
  5
DD
330
DC
100
AcDbEntity
  8
_U+30EC_U+30A4_U+30E4_U+30FC 1
 62
   179
420
  2234388
370
     9
100
AcDbVertex
100
AcDb2dVertex
 10
71.82093233436203
 20
-147.3147082965044
 30
0.0
  0
VERTEX
  5
DE
330
DC
100
AcDbEntity
  8
_U+30EC_U+30A4_U+30E4_U+30FC 1
 62
   179
420
  2234388
370
     9
100
AcDbVertex
100
AcDb2dVertex
 10
81.82066513480315
 20
-147.3147082965044
 30
0.0
  0
SEQEND
  5
DF
330
DC
100
AcDbEntity
  8
_U+30EC_U+30A4_U+30E4_U+30FC 1
 62
   179
420
  2234388
370
     9
  0
POLYLINE
  5
E0
330
41
100
AcDbEntity
  8
_U+30EC_U+30A4_U+30E4_U+30FC 1
 62
   179
420
  2234388
370
     9
100
AcDb2dPolyline
 66
     1
 10
0.0
 20
0.0
 30
0.0
  0
VERTEX
  5
E1
330
E0
100
AcDbEntity
  8
_U+30EC_U+30A4_U+30E4_U+30FC 1
 62
   179
420
  2234388
370
     9
100
AcDbVertex
100
AcDb2dVertex
 10
71.82093233436203
 20
-145.8546669079807
 30
0.0
  0
VERTEX
  5
E2
330
E0
100
AcDbEntity
  8
_U+30EC_U+30A4_U+30E4_U+30FC 1
 62
   179
420
  2234388
370
     9
100
AcDbVertex
100
AcDb2dVertex
 10
71.82093233436203
 20
-148.3147980184771
 30
0.0
  0
SEQEND
  5
E3
330
E0
100
AcDbEntity
  8
_U+30EC_U+30A4_U+30E4_U+30FC 1
 62
   179
420
  2234388
370
     9
  0
POLYLINE
  5
E4
330
41
100
AcDbEntity
  8
_U+30EC_U+30A4_U+30E4_U+30FC 1
 62
   179
420
  2234388
370
     9
100
AcDb2dPolyline
 66
     1
 10
0.0
 20
0.0
 30
0.0
  0
VERTEX
  5
E5
330
E4
100
AcDbEntity
  8
_U+30EC_U+30A4_U+30E4_U+30FC 1
 62
   179
420
  2234388
370
     9
100
AcDbVertex
100
AcDb2dVertex
 10
81.82066513480315
 20
-145.8546669079807
 30
0.0
  0
VERTEX
  5
E6
330
E4
100
AcDbEntity
  8
_U+30EC_U+30A4_U+30E4_U+30FC 1
 62
   179
420
  2234388
370
     9
100
AcDbVertex
100
AcDb2dVertex
 10
81.82066513480315
 20
-148.3147980184771
 30
0.0
  0
SEQEND
  5
E7
330
E4
100
AcDbEntity
  8
_U+30EC_U+30A4_U+30E4_U+30FC 1
 62
   179
420
  2234388
370
     9
  0
INSERT
  5
E9
330
41
100
AcDbEntity
  8
_U+30EC_U+30A4_U+30E4_U+30FC 1
100
AcDbBlockReference
  2
block 6
 10
0.0
 20
0.0
 30
0.0
  0
POLYLINE
  5
F1
330
41
100
AcDbEntity
  8
_U+30EC_U+30A4_U+30E4_U+30FC 1
 62
   179
420
  2234388
370
     9
100
AcDb2dPolyline
 66
     1
 10
0.0
 20
0.0
 30
0.0
  0
VERTEX
  5
F2
330
F1
100
AcDbEntity
  8
_U+30EC_U+30A4_U+30E4_U+30FC 1
 62
   179
420
  2234388
370
     9
100
AcDbVertex
100
AcDb2dVertex
 10
67.82050299197704
 20
-119.3146655257268
 30
0.0
  0
VERTEX
  5
F3
330
F1
100
AcDbEntity
  8
_U+30EC_U+30A4_U+30E4_U+30FC 1
 62
   179
420
  2234388
370
     9
100
AcDbVertex
100
AcDb2dVertex
 10
67.82050299197704
 20
-143.3149491308381
 30
0.0
  0
SEQEND
  5
F4
330
F1
100
AcDbEntity
  8
_U+30EC_U+30A4_U+30E4_U+30FC 1
 62
   179
420
  2234388
370
     9
  0
POLYLINE
  5
F5
330
41
100
AcDbEntity
  8
_U+30EC_U+30A4_U+30E4_U+30FC 1
 62
   179
420
  2234388
370
     9
100
AcDb2dPolyline
 66
     1
 10
0.0
 20
0.0
 30
0.0
  0
VERTEX
  5
F6
330
F5
100
AcDbEntity
  8
_U+30EC_U+30A4_U+30E4_U+30FC 1
 62
   179
420
  2234388
370
     9
100
AcDbVertex
100
AcDb2dVertex
 10
69.28050906584029
 20
-119.3146655257268
 30
0.0
  0
VERTEX
  5
F7
330
F5
100
AcDbEntity
  8
_U+30EC_U+30A4_U+30E4_U+30FC 1
 62
   179
420
  2234388
370
     9
100
AcDbVertex
100
AcDb2dVertex
 10
66.82073079526113
 20
-119.3146655257268
 30
0.0
  0
SEQEND
  5
F8
330
F5
100
AcDbEntity
  8
_U+30EC_U+30A4_U+30E4_U+30FC 1
 62
   179
420
  2234388
370
     9
  0
POLYLINE
  5
F9
330
41
100
AcDbEntity
  8
_U+30EC_U+30A4_U+30E4_U+30FC 1
 62
   179
420
  2234388
370
     9
100
AcDb2dPolyline
 66
     1
 10
0.0
 20
0.0
 30
0.0
  0
VERTEX
  5
FA
330
F9
100
AcDbEntity
  8
_U+30EC_U+30A4_U+30E4_U+30FC 1
 62
   179
420
  2234388
370
     9
100
AcDbVertex
100
AcDb2dVertex
 10
69.28050906584029
 20
-143.3149491308381
 30
0.0
  0
VERTEX
  5
FB
330
F9
100
AcDbEntity
  8
_U+30EC_U+30A4_U+30E4_U+30FC 1
 62
   179
420
  2234388
370
     9
100
AcDbVertex
100
AcDb2dVertex
 10
66.82073079526113
 20
-143.3149491308381
 30
0.0
  0
SEQEND
  5
FC
330
F9
100
AcDbEntity
  8
_U+30EC_U+30A4_U+30E4_U+30FC 1
 62
   179
420
  2234388
370
     9
  0
INSERT
  5
FE
330
41
100
AcDbEntity
  8
_U+30EC_U+30A4_U+30E4_U+30FC 1
100
AcDbBlockReference
  2
block 7
 10
0.0
 20
0.0
 30
0.0
  0
POLYLINE
  5
118
330
41
100
AcDbEntity
  8
_U+30EC_U+30A4_U+30E4_U+30FC 1
 62
   179
420
  2234388
370
     9
100
AcDb2dPolyline
 66
     1
 10
0.0
 20
0.0
 30
0.0
  0
VERTEX
  5
119
330
118
100
AcDbEntity
  8
_U+30EC_U+30A4_U+30E4_U+30FC 1
 62
   179
420
  2234388
370
     9
100
AcDbVertex
100
AcDb2dVertex
 10
115.8206456562803
 20
-140.3149621871438
 30
0.0
  0
VERTEX
  5
11A
330
118
100
AcDbEntity
  8
_U+30EC_U+30A4_U+30E4_U+30FC 1
 62
   179
420
  2234388
370
     9
100
AcDbVertex
100
AcDb2dVertex
 10
115.8206456562803
 20
-127.3148894126158
 30
0.0
  0
SEQEND
  5
11B
330
118
100
AcDbEntity
  8
_U+30EC_U+30A4_U+30E4_U+30FC 1
 62
   179
420
  2234388
370
     9
  0
POLYLINE
  5
11C
330
41
100
AcDbEntity
  8
_U+30EC_U+30A4_U+30E4_U+30FC 1
 62
   179
420
  2234388
370
     9
100
AcDb2dPolyline
 66
     1
 10
0.0
 20
0.0
 30
0.0
  0
VERTEX
  5
11D
330
11C
100
AcDbEntity
  8
_U+30EC_U+30A4_U+30E4_U+30FC 1
 62
   179
420
  2234388
370
     9
100
AcDbVertex
100
AcDb2dVertex
 10
115.0661951199723
 20
-127.3148894126158
 30
0.0
  0
VERTEX
  5
11E
330
11C
100
AcDbEntity
  8
_U+30EC_U+30A4_U+30E4_U+30FC 1
 62
   179
420
  2234388
370
     9
100
AcDbVertex
100
AcDb2dVertex
 10
116.8204178529962
 20
-127.3148894126158
 30
0.0
  0
SEQEND
  5
11F
330
11C
100
AcDbEntity
  8
_U+30EC_U+30A4_U+30E4_U+30FC 1
 62
   179
420
  2234388
370
     9
  0
INSERT
  5
121
330
41
100
AcDbEntity
  8
_U+30EC_U+30A4_U+30E4_U+30FC 1
100
AcDbBlockReference
  2
block 8
 10
0.0
 20
0.0
 30
0.0
  0
ENDBLK
  5
44
330
41
100
AcDbEntity
  8
0
100
AcDbBlockEnd
  0
BLOCK
  5
9E
330
9C
100
AcDbEntity
  8
0
100
AcDbBlockBegin
  2
block 3
 70
     0
 10
0.0
 20
0.0
 30
0.0
  3
block 3
  1

  0
SPLINE
  5
A0
330
9C
100
AcDbEntity
  8
_U+30EC_U+30A4_U+30E4_U+30FC 1
370
     0
100
AcDbSpline
210
0.0
220
0.0
230
1.0
 70
    11
 71
     3
 72
    62
 73
    58
 74
     0
 42
0.0000000001
 43
0.0000000001
 12
1.0
 22
0.0
 32
0.0
 13
1.0
 23
0.0
 33
0.0
 40
0.0
 40
0.0
 40
0.0
 40
0.0
 40
1.0
 40
1.0
 40
1.0
 40
2.0
 40
2.0
 40
2.0
 40
3.0
 40
3.0
 40
3.0
 40
4.0
 40
4.0
 40
4.0
 40
5.0
 40
5.0
 40
5.0
 40
6.0
 40
6.0
 40
6.0
 40
7.0
 40
7.0
 40
7.0
 40
8.0
 40
8.0
 40
8.0
 40
9.0
 40
9.0
 40
9.0
 40
10.0
 40
10.0
 40
10.0
 40
11.0
 40
11.0
 40
11.0
 40
12.0
 40
12.0
 40
12.0
 40
13.0
 40
13.0
 40
13.0
 40
14.0
 40
14.0
 40
14.0
 40
15.0
 40
15.0
 40
15.0
 40
16.0
 40
16.0
 40
16.0
 40
17.0
 40
17.0
 40
17.0
 40
18.0
 40
18.0
 40
18.0
 40
19.0
 40
19.0
 40
19.0
 40
19.0
 10
115.2746174842022
 20
-141.8208007457948
 30
0.0
 10
115.2746174842022
 20
-141.9162298907362
 30
0.0
 10
115.2536024017422
 20
-142.133959925404
 30
0.0
 10
115.0675672455387
 20
-142.2590168915186
 30
0.0
 10
114.9552571327195
 20
-142.3327419349029
 30
0.0
 10
114.8560383827443
 20
-142.3372205590338
 30
0.0
 10
114.7712890338072
 20
-142.3413546736161
 30
0.0
 10
114.7712890338072
 20
-142.3413546736161
 30
0.0
 10
114.7712890338072
 20
-142.1212130721086
 30
0.0
 10
114.7712890338072
 20
-142.1212130721086
 30
0.0
 10
114.84535858674
 20
-142.1191460148174
 30
0.0
 10
115.0799695892856
 20
-142.1088107283617
 30
0.0
 10
115.0799695892856
 20
-141.8252793699256
 30
0.0
 10
115.0799695892856
 20
-141.6878200600642
 30
0.0
 10
115.0103786604835
 20
-141.5352023300676
 30
0.0
 10
114.7819688298115
 20
-141.5352023300676
 30
0.0
 10
114.66552460241
 20
-141.5352023300676
 30
0.0
 10
114.616948756068
 20
-141.5734428899539
 30
0.0
 10
114.5852538776037
 20
-141.6051377684182
 30
0.0
 10
114.5111843246708
 20
-141.679207321351
 30
0.0
 10
114.4984374713754
 20
-141.7956515487525
 30
0.0
 10
114.4984374713754
 20
-141.850428566968
 30
0.0
 10
114.4984374713754
 20
-141.8697211016853
 30
0.0
 10
114.5005045286665
 20
-141.905550094732
 30
0.0
 10
114.5046386432488
 20
-141.933110858614
 30
0.0
 10
114.5046386432488
 20
-141.933110858614
 30
0.0
 10
114.3099907483322
 20
-141.933110858614
 30
0.0
 10
114.3099907483322
 20
-141.933110858614
 30
0.0
 10
114.3165364297542
 20
-141.8948702987277
 30
0.0
 10
114.3186034870454
 20
-141.8528401338076
 30
0.0
 10
114.3186034870454
 20
-141.8462944523856
 30
0.0
 10
114.3186034870454
 20
-141.7808376381659
 30
0.0
 10
114.2972438950368
 20
-141.582055628667
 30
0.0
 10
114.0605658352001
 20
-141.582055628667
 30
0.0
 10
113.8827989081612
 20
-141.582055628667
 30
0.0
 10
113.8276773803972
 20
-141.7129692571065
 30
0.0
 10
113.8276773803972
 20
-141.8232123126345
 30
0.0
 10
113.8276773803972
 20
-142.0874511363531
 30
0.0
 10
114.0605658352001
 20
-142.0960638750663
 30
0.0
 10
114.1322238212933
 20
-142.1001979896486
 30
0.0
 10
114.1322238212933
 20
-142.1001979896486
 30
0.0
 10
114.1322238212933
 20
-142.3034586232783
 30
0.0
 10
114.1322238212933
 20
-142.3034586232783
 30
0.0
 10
114.0075113647273
 20
-142.2948458845652
 30
0.0
 10
113.6309624281895
 20
-142.2672851206832
 30
0.0
 10
113.6309624281895
 20
-141.8104654593391
 30
0.0
 10
113.6309624281895
 20
-141.5861897432493
 30
0.0
 10
113.7580864515952
 20
-141.3450330592818
 30
0.0
 10
114.0540201537782
 20
-141.3450330592818
 30
0.0
 10
114.2403998195302
 20
-141.3450330592818
 30
0.0
 10
114.3227376016277
 20
-141.4401176946747
 30
0.0
 10
114.3840603012651
 20
-141.5396809541984
 30
0.0
 10
114.4116210651471
 20
-141.478358254561
 30
0.0
 10
114.4918917899534
 20
-141.2964572129398
 30
0.0
 10
114.769221976516
 20
-141.2964572129398
 30
0.0
 10
115.1075303531676
 20
-141.2964572129398
 30
0.0
 10
115.2746174842022
 20
-141.5438150687807
 30
0.0
 10
115.2746174842022
 20
-141.8208007457948
 30
0.0
  0
HATCH
  5
A1
330
9C
100
AcDbEntity
  8
_U+30EC_U+30A4_U+30E4_U+30FC 1
 62
   179
420
  2234388
100
AcDbHatch
 10
0.0
 20
0.0
 30
0.0
210
0.0
220
0.0
230
1.0
  2
SOLID
 70
     1
 71
     0
 91
        1
 92
        1
 93
        1
 72
     4
 94
        3
 73
     0
 74
     1
 95
       62
 96
       58
 40
0.0
 40
0.0
 40
0.0
 40
0.0
 40
1.0
 40
1.0
 40
1.0
 40
2.0
 40
2.0
 40
2.0
 40
3.0
 40
3.0
 40
3.0
 40
4.0
 40
4.0
 40
4.0
 40
5.0
 40
5.0
 40
5.0
 40
6.0
 40
6.0
 40
6.0
 40
7.0
 40
7.0
 40
7.0
 40
8.0
 40
8.0
 40
8.0
 40
9.0
 40
9.0
 40
9.0
 40
10.0
 40
10.0
 40
10.0
 40
11.0
 40
11.0
 40
11.0
 40
12.0
 40
12.0
 40
12.0
 40
13.0
 40
13.0
 40
13.0
 40
14.0
 40
14.0
 40
14.0
 40
15.0
 40
15.0
 40
15.0
 40
16.0
 40
16.0
 40
16.0
 40
17.0
 40
17.0
 40
17.0
 40
18.0
 40
18.0
 40
18.0
 40
19.0
 40
19.0
 40
19.0
 40
19.0
 10
115.2746174842022
 20
-141.8208007457948
 10
115.2746174842022
 20
-141.9162298907362
 10
115.2536024017422
 20
-142.133959925404
 10
115.0675672455387
 20
-142.2590168915186
 10
114.9552571327195
 20
-142.3327419349029
 10
114.8560383827443
 20
-142.3372205590338
 10
114.7712890338072
 20
-142.3413546736161
 10
114.7712890338072
 20
-142.3413546736161
 10
114.7712890338072
 20
-142.1212130721086
 10
114.7712890338072
 20
-142.1212130721086
 10
114.84535858674
 20
-142.1191460148174
 10
115.0799695892856
 20
-142.1088107283617
 10
115.0799695892856
 20
-141.8252793699256
 10
115.0799695892856
 20
-141.6878200600642
 10
115.0103786604835
 20
-141.5352023300676
 10
114.7819688298115
 20
-141.5352023300676
 10
114.66552460241
 20
-141.5352023300676
 10
114.616948756068
 20
-141.5734428899539
 10
114.5852538776037
 20
-141.6051377684182
 10
114.5111843246708
 20
-141.679207321351
 10
114.4984374713754
 20
-141.7956515487525
 10
114.4984374713754
 20
-141.850428566968
 10
114.4984374713754
 20
-141.8697211016853
 10
114.5005045286665
 20
-141.905550094732
 10
114.5046386432488
 20
-141.933110858614
 10
114.5046386432488
 20
-141.933110858614
 10
114.3099907483322
 20
-141.933110858614
 10
114.3099907483322
 20
-141.933110858614
 10
114.3165364297542
 20
-141.8948702987277
 10
114.3186034870454
 20
-141.8528401338076
 10
114.3186034870454
 20
-141.8462944523856
 10
114.3186034870454
 20
-141.7808376381659
 10
114.2972438950368
 20
-141.582055628667
 10
114.0605658352001
 20
-141.582055628667
 10
113.8827989081612
 20
-141.582055628667
 10
113.8276773803972
 20
-141.7129692571065
 10
113.8276773803972
 20
-141.8232123126345
 10
113.8276773803972
 20
-142.0874511363531
 10
114.0605658352001
 20
-142.0960638750663
 10
114.1322238212933
 20
-142.1001979896486
 10
114.1322238212933
 20
-142.1001979896486
 10
114.1322238212933
 20
-142.3034586232783
 10
114.1322238212933
 20
-142.3034586232783
 10
114.0075113647273
 20
-142.2948458845652
 10
113.6309624281895
 20
-142.2672851206832
 10
113.6309624281895
 20
-141.8104654593391
 10
113.6309624281895
 20
-141.5861897432493
 10
113.7580864515952
 20
-141.3450330592818
 10
114.0540201537782
 20
-141.3450330592818
 10
114.2403998195302
 20
-141.3450330592818
 10
114.3227376016277
 20
-141.4401176946747
 10
114.3840603012651
 20
-141.5396809541984
 10
114.4116210651471
 20
-141.478358254561
 10
114.4918917899534
 20
-141.2964572129398
 10
114.769221976516
 20
-141.2964572129398
 10
115.1075303531676
 20
-141.2964572129398
 10
115.2746174842022
 20
-141.5438150687807
 10
115.2746174842022
 20
-141.8208007457948
 97
        0
 97
        0
 75
     2
 76
     1
 98
        0
  0
ENDBLK
  5
9F
330
9C
100
AcDbEntity
  8
0
100
AcDbBlockEnd
  0
BLOCK
  5
B0
330
AE
100
AcDbEntity
  8
0
100
AcDbBlockBegin
  2
block 4
 70
     0
 10
0.0
 20
0.0
 30
0.0
  3
block 4
  1

  0
SPLINE
  5
B2
330
AE
100
AcDbEntity
  8
_U+30EC_U+30A4_U+30E4_U+30FC 1
370
     0
100
AcDbSpline
210
0.0
220
0.0
230
1.0
 70
    11
 71
     3
 72
    62
 73
    58
 74
     0
 42
0.0000000001
 43
0.0000000001
 12
1.0
 22
0.0
 32
0.0
 13
1.0
 23
0.0
 33
0.0
 40
0.0
 40
0.0
 40
0.0
 40
0.0
 40
1.0
 40
1.0
 40
1.0
 40
2.0
 40
2.0
 40
2.0
 40
3.0
 40
3.0
 40
3.0
 40
4.0
 40
4.0
 40
4.0
 40
5.0
 40
5.0
 40
5.0
 40
6.0
 40
6.0
 40
6.0
 40
7.0
 40
7.0
 40
7.0
 40
8.0
 40
8.0
 40
8.0
 40
9.0
 40
9.0
 40
9.0
 40
10.0
 40
10.0
 40
10.0
 40
11.0
 40
11.0
 40
11.0
 40
12.0
 40
12.0
 40
12.0
 40
13.0
 40
13.0
 40
13.0
 40
14.0
 40
14.0
 40
14.0
 40
15.0
 40
15.0
 40
15.0
 40
16.0
 40
16.0
 40
16.0
 40
17.0
 40
17.0
 40
17.0
 40
18.0
 40
18.0
 40
18.0
 40
19.0
 40
19.0
 40
19.0
 40
19.0
 10
73.31421574773047
 20
-114.7693942312903
 30
0.0
 10
73.21895885756332
 20
-114.7693942312903
 30
0.0
 10
73.00105656812127
 20
-114.748206894056
 30
0.0
 10
72.87634411155523
 20
-114.5619994830783
 30
0.0
 10
72.80227455862236
 20
-114.4498616250334
 30
0.0
 10
72.79796818926579
 20
-114.3504706202839
 30
0.0
 10
72.79383407468349
 20
-114.265893526121
 30
0.0
 10
72.79383407468349
 20
-114.265893526121
 30
0.0
 10
73.0138034214167
 20
-114.265893526121
 30
0.0
 10
73.0138034214167
 20
-114.265893526121
 30
0.0
 10
73.01587047870784
 20
-114.3399630790539
 30
0.0
 10
73.02655027471212
 20
-114.5747463363737
 30
0.0
 10
73.30990937837392
 20
-114.5747463363737
 30
0.0
 10
73.44754094300964
 20
-114.5747463363737
 30
0.0
 10
73.5998141634577
 20
-114.5049831527974
 30
0.0
 10
73.5998141634577
 20
-114.276401067351
 30
0.0
 10
73.5998141634577
 20
-114.1601290947239
 30
0.0
 10
73.56174585834567
 20
-114.1113809936076
 30
0.0
 10
73.53005097988138
 20
-114.0796861151433
 30
0.0
 10
73.45598142694851
 20
-114.0056165622104
 30
0.0
 10
73.33953719954707
 20
-113.9930419636893
 30
0.0
 10
73.28458792655732
 20
-113.9930419636893
 30
0.0
 10
73.26563990138845
 20
-113.9930419636893
 30
0.0
 10
73.22963865356759
 20
-113.9951090209804
 30
0.0
 10
73.2020778896856
 20
-113.9992431355627
 30
0.0
 10
73.2020778896856
 20
-113.9992431355627
 30
0.0
 10
73.2020778896856
 20
-113.8045952406461
 30
0.0
 10
73.2020778896856
 20
-113.8045952406461
 30
0.0
 10
73.2401461947976
 20
-113.8109686672938
 30
0.0
 10
73.28252086926618
 20
-113.8132079793592
 30
0.0
 10
73.28889429591389
 20
-113.8132079793592
 30
0.0
 10
73.35435111013363
 20
-113.8132079793592
 30
0.0
 10
73.55330537440682
 20
-113.7920206421249
 30
0.0
 10
73.55330537440682
 20
-113.5549980727397
 30
0.0
 10
73.55330537440682
 20
-113.3774034004751
 30
0.0
 10
73.42204723641879
 20
-113.3222818727111
 30
0.0
 10
73.31214869043933
 20
-113.3222818727111
 30
0.0
 10
73.0477376119464
 20
-113.3222818727111
 30
0.0
 10
73.03912487323328
 20
-113.5549980727397
 30
0.0
 10
73.03499075865098
 20
-113.6270005683814
 30
0.0
 10
73.03499075865098
 20
-113.6270005683814
 30
0.0
 10
72.8319023797955
 20
-113.6270005683814
 30
0.0
 10
72.8319023797955
 20
-113.6270005683814
 30
0.0
 10
72.84034286373436
 20
-113.5021158570411
 30
0.0
 10
72.86790362761636
 20
-113.1255669205033
 30
0.0
 10
73.32472328896048
 20
-113.1255669205033
 30
0.0
 10
73.54899900505025
 20
-113.1255669205033
 30
0.0
 10
73.79015568901774
 20
-113.2525186891348
 30
0.0
 10
73.79015568901774
 20
-113.548624646092
 30
0.0
 10
73.79015568901774
 20
-113.7348320570698
 30
0.0
 10
73.69507105362484
 20
-113.8173420939415
 30
0.0
 10
73.59550779410112
 20
-113.8786647935789
 30
0.0
 10
73.65700274851284
 20
-113.9062255574609
 30
0.0
 10
73.83890379013403
 20
-113.9866685370415
 30
0.0
 10
73.83890379013403
 20
-114.2638264688299
 30
0.0
 10
73.83890379013403
 20
-114.6023071002557
 30
0.0
 10
73.59137367951882
 20
-114.7693942312903
 30
0.0
 10
73.31421574773047
 20
-114.7693942312903
 30
0.0
  0
HATCH
  5
B3
330
AE
100
AcDbEntity
  8
_U+30EC_U+30A4_U+30E4_U+30FC 1
 62
   179
420
  2234388
100
AcDbHatch
 10
0.0
 20
0.0
 30
0.0
210
0.0
220
0.0
230
1.0
  2
SOLID
 70
     1
 71
     0
 91
        1
 92
        1
 93
        1
 72
     4
 94
        3
 73
     0
 74
     1
 95
       62
 96
       58
 40
0.0
 40
0.0
 40
0.0
 40
0.0
 40
1.0
 40
1.0
 40
1.0
 40
2.0
 40
2.0
 40
2.0
 40
3.0
 40
3.0
 40
3.0
 40
4.0
 40
4.0
 40
4.0
 40
5.0
 40
5.0
 40
5.0
 40
6.0
 40
6.0
 40
6.0
 40
7.0
 40
7.0
 40
7.0
 40
8.0
 40
8.0
 40
8.0
 40
9.0
 40
9.0
 40
9.0
 40
10.0
 40
10.0
 40
10.0
 40
11.0
 40
11.0
 40
11.0
 40
12.0
 40
12.0
 40
12.0
 40
13.0
 40
13.0
 40
13.0
 40
14.0
 40
14.0
 40
14.0
 40
15.0
 40
15.0
 40
15.0
 40
16.0
 40
16.0
 40
16.0
 40
17.0
 40
17.0
 40
17.0
 40
18.0
 40
18.0
 40
18.0
 40
19.0
 40
19.0
 40
19.0
 40
19.0
 10
73.31421574773047
 20
-114.7693942312903
 10
73.21895885756332
 20
-114.7693942312903
 10
73.00105656812127
 20
-114.748206894056
 10
72.87634411155523
 20
-114.5619994830783
 10
72.80227455862236
 20
-114.4498616250334
 10
72.79796818926579
 20
-114.3504706202839
 10
72.79383407468349
 20
-114.265893526121
 10
72.79383407468349
 20
-114.265893526121
 10
73.0138034214167
 20
-114.265893526121
 10
73.0138034214167
 20
-114.265893526121
 10
73.01587047870784
 20
-114.3399630790539
 10
73.02655027471212
 20
-114.5747463363737
 10
73.30990937837392
 20
-114.5747463363737
 10
73.44754094300964
 20
-114.5747463363737
 10
73.5998141634577
 20
-114.5049831527974
 10
73.5998141634577
 20
-114.276401067351
 10
73.5998141634577
 20
-114.1601290947239
 10
73.56174585834567
 20
-114.1113809936076
 10
73.53005097988138
 20
-114.0796861151433
 10
73.45598142694851
 20
-114.0056165622104
 10
73.33953719954707
 20
-113.9930419636893
 10
73.28458792655732
 20
-113.9930419636893
 10
73.26563990138845
 20
-113.9930419636893
 10
73.22963865356759
 20
-113.9951090209804
 10
73.2020778896856
 20
-113.9992431355627
 10
73.2020778896856
 20
-113.9992431355627
 10
73.2020778896856
 20
-113.8045952406461
 10
73.2020778896856
 20
-113.8045952406461
 10
73.2401461947976
 20
-113.8109686672938
 10
73.28252086926618
 20
-113.8132079793592
 10
73.28889429591389
 20
-113.8132079793592
 10
73.35435111013363
 20
-113.8132079793592
 10
73.55330537440682
 20
-113.7920206421249
 10
73.55330537440682
 20
-113.5549980727397
 10
73.55330537440682
 20
-113.3774034004751
 10
73.42204723641879
 20
-113.3222818727111
 10
73.31214869043933
 20
-113.3222818727111
 10
73.0477376119464
 20
-113.3222818727111
 10
73.03912487323328
 20
-113.5549980727397
 10
73.03499075865098
 20
-113.6270005683814
 10
73.03499075865098
 20
-113.6270005683814
 10
72.8319023797955
 20
-113.6270005683814
 10
72.8319023797955
 20
-113.6270005683814
 10
72.84034286373436
 20
-113.5021158570411
 10
72.86790362761636
 20
-113.1255669205033
 10
73.32472328896048
 20
-113.1255669205033
 10
73.54899900505025
 20
-113.1255669205033
 10
73.79015568901774
 20
-113.2525186891348
 10
73.79015568901774
 20
-113.548624646092
 10
73.79015568901774
 20
-113.7348320570698
 10
73.69507105362484
 20
-113.8173420939415
 10
73.59550779410112
 20
-113.8786647935789
 10
73.65700274851284
 20
-113.9062255574609
 10
73.83890379013403
 20
-113.9866685370415
 10
73.83890379013403
 20
-114.2638264688299
 10
73.83890379013403
 20
-114.6023071002557
 10
73.59137367951882
 20
-114.7693942312903
 10
73.31421574773047
 20
-114.7693942312903
 97
        0
 97
        0
 75
     2
 76
     1
 98
        0
  0
ENDBLK
  5
B1
330
AE
100
AcDbEntity
  8
0
100
AcDbBlockEnd
  0
BLOCK
  5
C2
330
C0
100
AcDbEntity
  8
0
100
AcDbBlockBegin
  2
block 5
 70
     0
 10
0.0
 20
0.0
 30
0.0
  3
block 5
  1

  0
POLYLINE
  5
C4
330
C0
100
AcDbEntity
  8
_U+30EC_U+30A4_U+30E4_U+30FC 1
370
     0
100
AcDb2dPolyline
 66
     1
 10
0.0
 20
0.0
 30
0.0
  0
VERTEX
  5
C5
330
C4
100
AcDbEntity
  8
_U+30EC_U+30A4_U+30E4_U+30FC 1
370
     0
100
AcDbVertex
100
AcDb2dVertex
 10
91.48761119674616
 20
-110.3712130800461
 30
0.0
  0
VERTEX
  5
C6
330
C4
100
AcDbEntity
  8
_U+30EC_U+30A4_U+30E4_U+30FC 1
370
     0
100
AcDbVertex
100
AcDb2dVertex
 10
91.48761119674616
 20
-110.7181341954108
 30
0.0
  0
VERTEX
  5
C7
330
C4
100
AcDbEntity
  8
_U+30EC_U+30A4_U+30E4_U+30FC 1
370
     0
100
AcDbVertex
100
AcDb2dVertex
 10
91.27005341685263
 20
-110.7181341954108
 30
0.0
  0
VERTEX
  5
C8
330
C4
100
AcDbEntity
  8
_U+30EC_U+30A4_U+30E4_U+30FC 1
370
     0
100
AcDbVertex
100
AcDb2dVertex
 10
91.27005341685263
 20
-110.3712130800461
 30
0.0
  0
VERTEX
  5
C9
330
C4
100
AcDbEntity
  8
_U+30EC_U+30A4_U+30E4_U+30FC 1
370
     0
100
AcDbVertex
100
AcDb2dVertex
 10
90.61410723646107
 20
-110.3712130800461
 30
0.0
  0
VERTEX
  5
CA
330
C4
100
AcDbEntity
  8
_U+30EC_U+30A4_U+30E4_U+30FC 1
370
     0
100
AcDbVertex
100
AcDb2dVertex
 10
90.61410723646107
 20
-110.1469373639563
 30
0.0
  0
VERTEX
  5
CB
330
C4
100
AcDbEntity
  8
_U+30EC_U+30A4_U+30E4_U+30FC 1
370
     0
100
AcDbVertex
100
AcDb2dVertex
 10
91.2931355566038
 20
-109.1738701441475
 30
0.0
  0
VERTEX
  5
CC
330
C4
100
AcDbEntity
  8
_U+30EC_U+30A4_U+30E4_U+30FC 1
370
     0
100
AcDbVertex
100
AcDb2dVertex
 10
91.48761119674616
 20
-109.1738701441475
 30
0.0
  0
VERTEX
  5
CD
330
C4
100
AcDbEntity
  8
_U+30EC_U+30A4_U+30E4_U+30FC 1
370
     0
100
AcDbVertex
100
AcDb2dVertex
 10
91.48761119674616
 20
-110.1722588157729
 30
0.0
  0
VERTEX
  5
CE
330
C4
100
AcDbEntity
  8
_U+30EC_U+30A4_U+30E4_U+30FC 1
370
     0
100
AcDbVertex
100
AcDb2dVertex
 10
91.6950059449582
 20
-110.1722588157729
 30
0.0
  0
VERTEX
  5
CF
330
C4
100
AcDbEntity
  8
_U+30EC_U+30A4_U+30E4_U+30FC 1
370
     0
100
AcDbVertex
100
AcDb2dVertex
 10
91.6950059449582
 20
-110.3712130800461
 30
0.0
  0
VERTEX
  5
D0
330
C4
100
AcDbEntity
  8
_U+30EC_U+30A4_U+30E4_U+30FC 1
370
     0
100
AcDbVertex
100
AcDb2dVertex
 10
91.48761119674616
 20
-110.3712130800461
 30
0.0
  0
SEQEND
  5
D1
330
C4
100
AcDbEntity
  8
_U+30EC_U+30A4_U+30E4_U+30FC 1
370
     0
  0
POLYLINE
  5
D2
330
C0
100
AcDbEntity
  8
_U+30EC_U+30A4_U+30E4_U+30FC 1
370
     0
100
AcDb2dPolyline
 66
     1
 10
0.0
 20
0.0
 30
0.0
  0
VERTEX
  5
D3
330
D2
100
AcDbEntity
  8
_U+30EC_U+30A4_U+30E4_U+30FC 1
370
     0
100
AcDbVertex
100
AcDb2dVertex
 10
91.27005341685263
 20
-109.5164848901556
 30
0.0
  0
VERTEX
  5
D4
330
D2
100
AcDbEntity
  8
_U+30EC_U+30A4_U+30E4_U+30FC 1
370
     0
100
AcDbVertex
100
AcDb2dVertex
 10
90.81288924595998
 20
-110.1722588157729
 30
0.0
  0
VERTEX
  5
D5
330
D2
100
AcDbEntity
  8
_U+30EC_U+30A4_U+30E4_U+30FC 1
370
     0
100
AcDbVertex
100
AcDb2dVertex
 10
91.27005341685263
 20
-110.1722588157729
 30
0.0
  0
VERTEX
  5
D6
330
D2
100
AcDbEntity
  8
_U+30EC_U+30A4_U+30E4_U+30FC 1
370
     0
100
AcDbVertex
100
AcDb2dVertex
 10
91.27005341685263
 20
-109.5164848901556
 30
0.0
  0
SEQEND
  5
D7
330
D2
100
AcDbEntity
  8
_U+30EC_U+30A4_U+30E4_U+30FC 1
370
     0
  0
HATCH
  5
D8
330
C0
100
AcDbEntity
  8
_U+30EC_U+30A4_U+30E4_U+30FC 1
 62
   179
420
  2234388
100
AcDbHatch
 10
0.0
 20
0.0
 30
0.0
210
0.0
220
0.0
230
1.0
  2
SOLID
 70
     1
 71
     0
 91
        2
 92
        1
 93
       11
 72
     1
 10
91.48761119674616
 20
-110.3712130800461
 11
91.48761119674616
 21
-110.7181341954108
 72
     1
 10
91.48761119674616
 20
-110.7181341954108
 11
91.27005341685263
 21
-110.7181341954108
 72
     1
 10
91.27005341685263
 20
-110.7181341954108
 11
91.27005341685263
 21
-110.3712130800461
 72
     1
 10
91.27005341685263
 20
-110.3712130800461
 11
90.61410723646107
 21
-110.3712130800461
 72
     1
 10
90.61410723646107
 20
-110.3712130800461
 11
90.61410723646107
 21
-110.1469373639563
 72
     1
 10
90.61410723646107
 20
-110.1469373639563
 11
91.2931355566038
 21
-109.1738701441475
 72
     1
 10
91.2931355566038
 20
-109.1738701441475
 11
91.48761119674616
 21
-109.1738701441475
 72
     1
 10
91.48761119674616
 20
-109.1738701441475
 11
91.48761119674616
 21
-110.1722588157729
 72
     1
 10
91.48761119674616
 20
-110.1722588157729
 11
91.6950059449582
 21
-110.1722588157729
 72
     1
 10
91.6950059449582
 20
-110.1722588157729
 11
91.6950059449582
 21
-110.3712130800461
 72
     1
 10
91.6950059449582
 20
-110.3712130800461
 11
91.48761119674616
 21
-110.3712130800461
 97
        0
 92
        1
 93
        3
 72
     1
 10
91.27005341685263
 20
-109.5164848901556
 11
90.81288924595998
 21
-110.1722588157729
 72
     1
 10
90.81288924595998
 20
-110.1722588157729
 11
91.27005341685263
 21
-110.1722588157729
 72
     1
 10
91.27005341685263
 20
-110.1722588157729
 11
91.27005341685263
 21
-109.5164848901556
 97
        0
 75
     2
 76
     1
 98
        0
  0
SPLINE
  5
D9
330
C0
100
AcDbEntity
  8
_U+30EC_U+30A4_U+30E4_U+30FC 1
370
     0
100
AcDbSpline
210
0.0
220
0.0
230
1.0
 70
    11
 71
     3
 72
    29
 73
    25
 74
     0
 42
0.0000000001
 43
0.0000000001
 12
1.0
 22
0.0
 32
0.0
 13
1.0
 23
0.0
 33
0.0
 40
0.0
 40
0.0
 40
0.0
 40
0.0
 40
1.0
 40
1.0
 40
1.0
 40
2.0
 40
2.0
 40
2.0
 40
3.0
 40
3.0
 40
3.0
 40
4.0
 40
4.0
 40
4.0
 40
5.0
 40
5.0
 40
5.0
 40
6.0
 40
6.0
 40
6.0
 40
7.0
 40
7.0
 40
7.0
 40
8.0
 40
8.0
 40
8.0
 40
8.0
 10
92.73025713827577
 20
-110.5403672683719
 30
0.0
 10
92.62208114003893
 20
-110.749829073875
 30
0.0
 10
92.44879283713087
 20
-110.7689493538182
 30
0.0
 10
92.33234860972942
 20
-110.7689493538182
 30
0.0
 10
92.17146265056824
 20
-110.7689493538182
 30
0.0
 10
92.02986922612448
 20
-110.7224405647673
 30
0.0
 10
91.93478459073158
 20
-110.5403672683719
 30
0.0
 10
91.83108721662556
 20
-110.3457193734552
 30
0.0
 10
91.81179468190817
 20
-110.1088690588443
 30
0.0
 10
91.81179468190817
 20
-109.945916042392
 30
0.0
 10
91.81179468190817
 20
-109.8020833058828
 30
0.0
 10
91.82902015933442
 20
-109.5504190806853
 30
0.0
 10
91.93478459073158
 20
-109.3514648164121
 30
0.0
 10
92.0426160794199
 20
-109.1483764375567
 30
0.0
 10
92.20350203858108
 20
-109.1251220430312
 30
0.0
 10
92.33234860972942
 20
-109.1251220430312
 30
0.0
 10
92.49116751159943
 20
-109.1251220430312
 30
0.0
 10
92.63482799333435
 20
-109.1695637747909
 30
0.0
 10
92.73025713827577
 20
-109.3514648164121
 30
0.0
 10
92.82947588825097
 20
-109.5440456540376
 30
0.0
 10
92.85290253755066
 20
-109.7724554847097
 30
0.0
 10
92.85290253755066
 20
-109.945916042392
 30
0.0
 10
92.85290253755066
 20
-110.1173095427832
 30
0.0
 10
92.83154294554213
 20
-110.3479586855207
 30
0.0
 10
92.73025713827577
 20
-110.5403672683719
 30
0.0
  0
SPLINE
  5
DA
330
C0
100
AcDbEntity
  8
_U+30EC_U+30A4_U+30E4_U+30FC 1
370
     0
100
AcDbSpline
210
0.0
220
0.0
230
1.0
 70
    11
 71
     3
 72
    17
 73
    13
 74
     0
 42
0.0000000001
 43
0.0000000001
 12
1.0
 22
0.0
 32
0.0
 13
1.0
 23
0.0
 33
0.0
 40
0.0
 40
0.0
 40
0.0
 40
0.0
 40
1.0
 40
1.0
 40
1.0
 40
2.0
 40
2.0
 40
2.0
 40
3.0
 40
3.0
 40
3.0
 40
4.0
 40
4.0
 40
4.0
 40
4.0
 10
92.33234860972942
 20
-109.3177028806567
 30
0.0
 10
92.08257918704881
 20
-109.3177028806567
 30
0.0
 10
92.03607039799793
 20
-109.6012342390927
 30
0.0
 10
92.03607039799793
 20
-109.945916042392
 30
0.0
 10
92.03607039799793
 20
-110.2654486486489
 30
0.0
 10
92.07224390059305
 20
-110.5743014589016
 30
0.0
 10
92.33234860972942
 20
-110.5743014589016
 30
0.0
 10
92.58005097511888
 20
-110.5743014589016
 30
0.0
 10
92.6286268214609
 20
-110.2928371577567
 30
0.0
 10
92.6286268214609
 20
-109.945916042392
 30
0.0
 10
92.6286268214609
 20
-109.6265556909093
 30
0.0
 10
92.59038626157464
 20
-109.3177028806567
 30
0.0
 10
92.33234860972942
 20
-109.3177028806567
 30
0.0
  0
HATCH
  5
DB
330
C0
100
AcDbEntity
  8
_U+30EC_U+30A4_U+30E4_U+30FC 1
 62
   179
420
  2234388
100
AcDbHatch
 10
0.0
 20
0.0
 30
0.0
210
0.0
220
0.0
230
1.0
  2
SOLID
 70
     1
 71
     0
 91
        2
 92
        1
 93
        1
 72
     4
 94
        3
 73
     0
 74
     1
 95
       29
 96
       25
 40
0.0
 40
0.0
 40
0.0
 40
0.0
 40
1.0
 40
1.0
 40
1.0
 40
2.0
 40
2.0
 40
2.0
 40
3.0
 40
3.0
 40
3.0
 40
4.0
 40
4.0
 40
4.0
 40
5.0
 40
5.0
 40
5.0
 40
6.0
 40
6.0
 40
6.0
 40
7.0
 40
7.0
 40
7.0
 40
8.0
 40
8.0
 40
8.0
 40
8.0
 10
92.73025713827577
 20
-110.5403672683719
 10
92.62208114003893
 20
-110.749829073875
 10
92.44879283713087
 20
-110.7689493538182
 10
92.33234860972942
 20
-110.7689493538182
 10
92.17146265056824
 20
-110.7689493538182
 10
92.02986922612448
 20
-110.7224405647673
 10
91.93478459073158
 20
-110.5403672683719
 10
91.83108721662556
 20
-110.3457193734552
 10
91.81179468190817
 20
-110.1088690588443
 10
91.81179468190817
 20
-109.945916042392
 10
91.81179468190817
 20
-109.8020833058828
 10
91.82902015933442
 20
-109.5504190806853
 10
91.93478459073158
 20
-109.3514648164121
 10
92.0426160794199
 20
-109.1483764375567
 10
92.20350203858108
 20
-109.1251220430312
 10
92.33234860972942
 20
-109.1251220430312
 10
92.49116751159943
 20
-109.1251220430312
 10
92.63482799333435
 20
-109.1695637747909
 10
92.73025713827577
 20
-109.3514648164121
 10
92.82947588825097
 20
-109.5440456540376
 10
92.85290253755066
 20
-109.7724554847097
 10
92.85290253755066
 20
-109.945916042392
 10
92.85290253755066
 20
-110.1173095427832
 10
92.83154294554213
 20
-110.3479586855207
 10
92.73025713827577
 20
-110.5403672683719
 97
        0
 97
        0
 92
        1
 93
        1
 72
     4
 94
        3
 73
     0
 74
     1
 95
       17
 96
       13
 40
0.0
 40
0.0
 40
0.0
 40
0.0
 40
1.0
 40
1.0
 40
1.0
 40
2.0
 40
2.0
 40
2.0
 40
3.0
 40
3.0
 40
3.0
 40
4.0
 40
4.0
 40
4.0
 40
4.0
 10
92.33234860972942
 20
-109.3177028806567
 10
92.08257918704881
 20
-109.3177028806567
 10
92.03607039799793
 20
-109.6012342390927
 10
92.03607039799793
 20
-109.945916042392
 10
92.03607039799793
 20
-110.2654486486489
 10
92.07224390059305
 20
-110.5743014589016
 10
92.33234860972942
 20
-110.5743014589016
 10
92.58005097511888
 20
-110.5743014589016
 10
92.6286268214609
 20
-110.2928371577567
 10
92.6286268214609
 20
-109.945916042392
 10
92.6286268214609
 20
-109.6265556909093
 10
92.59038626157464
 20
-109.3177028806567
 10
92.33234860972942
 20
-109.3177028806567
 97
        0
 97
        0
 75
     2
 76
     1
 98
        0
  0
ENDBLK
  5
C3
330
C0
100
AcDbEntity
  8
0
100
AcDbBlockEnd
  0
BLOCK
  5
EA
330
E8
100
AcDbEntity
  8
0
100
AcDbBlockBegin
  2
block 6
 70
     0
 10
0.0
 20
0.0
 30
0.0
  3
block 6
  1

  0
SPLINE
  5
EC
330
E8
100
AcDbEntity
  8
_U+30EC_U+30A4_U+30E4_U+30FC 1
370
     0
100
AcDbSpline
210
0.0
220
0.0
230
1.0
 70
    11
 71
     3
 72
    26
 73
    22
 74
     0
 42
0.0000000001
 43
0.0000000001
 12
1.0
 22
0.0
 32
0.0
 13
1.0
 23
0.0
 33
0.0
 40
0.0
 40
0.0
 40
0.0
 40
0.0
 40
1.0
 40
1.0
 40
1.0
 40
2.0
 40
2.0
 40
2.0
 40
3.0
 40
3.0
 40
3.0
 40
4.0
 40
4.0
 40
4.0
 40
5.0
 40
5.0
 40
5.0
 40
6.0
 40
6.0
 40
6.0
 40
7.0
 40
7.0
 40
7.0
 40
7.0
 10
76.10732691239679
 20
-146.7180039780775
 30
0.0
 10
76.10732691239679
 20
-146.7180039780775
 30
0.0
 10
76.10732691239679
 20
-145.6138508750549
 30
0.0
 10
76.10732691239679
 20
-145.6138508750549
 30
0.0
 10
76.10732691239679
 20
-145.6138508750549
 30
0.0
 10
75.77728676490985
 20
-145.6138508750549
 30
0.0
 10
75.77728676490985
 20
-145.6138508750549
 30
0.0
 10
75.77728676490985
 20
-145.6138508750549
 30
0.0
 10
75.77728676490985
 20
-145.4657117691891
 30
0.0
 10
75.77728676490985
 20
-145.4657117691891
 30
0.0
 10
76.10939396968793
 20
-145.4508978586026
 30
0.0
 10
76.1559027587388
 20
-145.2879448421502
 30
0.0
 10
76.18553057991195
 20
-145.17356767204
 30
0.0
 10
76.18553057991195
 20
-145.17356767204
 30
0.0
 10
76.33160262848655
 20
-145.17356767204
 30
0.0
 10
76.33160262848655
 20
-145.17356767204
 30
0.0
 10
76.33160262848655
 20
-145.17356767204
 30
0.0
 10
76.33160262848655
 20
-146.7180039780775
 30
0.0
 10
76.33160262848655
 20
-146.7180039780775
 30
0.0
 10
76.33160262848655
 20
-146.7180039780775
 30
0.0
 10
76.10732691239679
 20
-146.7180039780775
 30
0.0
 10
76.10732691239679
 20
-146.7180039780775
 30
0.0
  0
HATCH
  5
ED
330
E8
100
AcDbEntity
  8
_U+30EC_U+30A4_U+30E4_U+30FC 1
 62
   179
420
  2234388
100
AcDbHatch
 10
0.0
 20
0.0
 30
0.0
210
0.0
220
0.0
230
1.0
  2
SOLID
 70
     1
 71
     0
 91
        1
 92
        1
 93
        1
 72
     4
 94
        3
 73
     0
 74
     1
 95
       26
 96
       22
 40
0.0
 40
0.0
 40
0.0
 40
0.0
 40
1.0
 40
1.0
 40
1.0
 40
2.0
 40
2.0
 40
2.0
 40
3.0
 40
3.0
 40
3.0
 40
4.0
 40
4.0
 40
4.0
 40
5.0
 40
5.0
 40
5.0
 40
6.0
 40
6.0
 40
6.0
 40
7.0
 40
7.0
 40
7.0
 40
7.0
 10
76.10732691239679
 20
-146.7180039780775
 10
76.10732691239679
 20
-146.7180039780775
 10
76.10732691239679
 20
-145.6138508750549
 10
76.10732691239679
 20
-145.6138508750549
 10
76.10732691239679
 20
-145.6138508750549
 10
75.77728676490985
 20
-145.6138508750549
 10
75.77728676490985
 20
-145.6138508750549
 10
75.77728676490985
 20
-145.6138508750549
 10
75.77728676490985
 20
-145.4657117691891
 10
75.77728676490985
 20
-145.4657117691891
 10
76.10939396968793
 20
-145.4508978586026
 10
76.1559027587388
 20
-145.2879448421502
 10
76.18553057991195
 20
-145.17356767204
 10
76.18553057991195
 20
-145.17356767204
 10
76.33160262848655
 20
-145.17356767204
 10
76.33160262848655
 20
-145.17356767204
 10
76.33160262848655
 20
-145.17356767204
 10
76.33160262848655
 20
-146.7180039780775
 10
76.33160262848655
 20
-146.7180039780775
 10
76.33160262848655
 20
-146.7180039780775
 10
76.10732691239679
 20
-146.7180039780775
 10
76.10732691239679
 20
-146.7180039780775
 97
        0
 97
        0
 75
     2
 76
     1
 98
        0
  0
SPLINE
  5
EE
330
E8
100
AcDbEntity
  8
_U+30EC_U+30A4_U+30E4_U+30FC 1
370
     0
100
AcDbSpline
210
0.0
220
0.0
230
1.0
 70
    11
 71
     3
 72
    29
 73
    25
 74
     0
 42
0.0000000001
 43
0.0000000001
 12
1.0
 22
0.0
 32
0.0
 13
1.0
 23
0.0
 33
0.0
 40
0.0
 40
0.0
 40
0.0
 40
0.0
 40
1.0
 40
1.0
 40
1.0
 40
2.0
 40
2.0
 40
2.0
 40
3.0
 40
3.0
 40
3.0
 40
4.0
 40
4.0
 40
4.0
 40
5.0
 40
5.0
 40
5.0
 40
6.0
 40
6.0
 40
6.0
 40
7.0
 40
7.0
 40
7.0
 40
8.0
 40
8.0
 40
8.0
 40
8.0
 10
77.73048365027225
 20
-146.5402370510386
 30
0.0
 10
77.62265216158393
 20
-146.7496988565418
 30
0.0
 10
77.4491916039016
 20
-146.7686468817106
 30
0.0
 10
77.33274737650015
 20
-146.7686468817106
 30
0.0
 10
77.17203367211324
 20
-146.7686468817106
 30
0.0
 10
77.03026799289522
 20
-146.7221380926597
 30
0.0
 10
76.93501110272805
 20
-146.5402370510386
 30
0.0
 10
76.8314859833963
 20
-146.3455891561219
 30
0.0
 10
76.81236570345317
 20
-146.1089110962853
 30
0.0
 10
76.81236570345317
 20
-145.945958079833
 30
0.0
 10
76.81236570345317
 20
-145.8019530885495
 30
0.0
 10
76.82924667133089
 20
-145.5501166085778
 30
0.0
 10
76.93501110272805
 20
-145.3513345990789
 30
0.0
 10
77.04301484619064
 20
-145.1484184749976
 30
0.0
 10
77.20372855057754
 20
-145.1249918256979
 30
0.0
 10
77.33274737650015
 20
-145.1249918256979
 30
0.0
 10
77.4913940235959
 20
-145.1249918256979
 30
0.0
 10
77.63522676010508
 20
-145.1694335574576
 30
0.0
 10
77.73048365027225
 20
-145.3513345990789
 30
0.0
 10
77.8298746550217
 20
-145.5439154367043
 30
0.0
 10
77.85312904954714
 20
-145.7723252673764
 30
0.0
 10
77.85312904954714
 20
-145.945958079833
 30
0.0
 10
77.85312904954714
 20
-146.1171793254499
 30
0.0
 10
77.83211396708711
 20
-146.3476562134131
 30
0.0
 10
77.73048365027225
 20
-146.5402370510386
 30
0.0
  0
SPLINE
  5
EF
330
E8
100
AcDbEntity
  8
_U+30EC_U+30A4_U+30E4_U+30FC 1
370
     0
100
AcDbSpline
210
0.0
220
0.0
230
1.0
 70
    11
 71
     3
 72
    17
 73
    13
 74
     0
 42
0.0000000001
 43
0.0000000001
 12
1.0
 22
0.0
 32
0.0
 13
1.0
 23
0.0
 33
0.0
 40
0.0
 40
0.0
 40
0.0
 40
0.0
 40
1.0
 40
1.0
 40
1.0
 40
2.0
 40
2.0
 40
2.0
 40
3.0
 40
3.0
 40
3.0
 40
4.0
 40
4.0
 40
4.0
 40
4.0
 10
77.33274737650015
 20
-145.3175726633234
 30
0.0
 10
77.08315020859379
 20
-145.3175726633234
 30
0.0
 10
77.03664141954293
 20
-145.6011040217595
 30
0.0
 10
77.03664141954293
 20
-145.945958079833
 30
0.0
 10
77.03664141954293
 20
-146.2653184313156
 30
0.0
 10
77.07264266736378
 20
-146.573998986794
 30
0.0
 10
77.33274737650015
 20
-146.573998986794
 30
0.0
 10
77.58027748711535
 20
-146.573998986794
 30
0.0
 10
77.62902558823164
 20
-146.2928791951976
 30
0.0
 10
77.62902558823164
 20
-145.945958079833
 30
0.0
 10
77.62902558823164
 20
-145.6262532188018
 30
0.0
 10
77.59095728311962
 20
-145.3175726633234
 30
0.0
 10
77.33274737650015
 20
-145.3175726633234
 30
0.0
  0
HATCH
  5
F0
330
E8
100
AcDbEntity
  8
_U+30EC_U+30A4_U+30E4_U+30FC 1
 62
   179
420
  2234388
100
AcDbHatch
 10
0.0
 20
0.0
 30
0.0
210
0.0
220
0.0
230
1.0
  2
SOLID
 70
     1
 71
     0
 91
        2
 92
        1
 93
        1
 72
     4
 94
        3
 73
     0
 74
     1
 95
       29
 96
       25
 40
0.0
 40
0.0
 40
0.0
 40
0.0
 40
1.0
 40
1.0
 40
1.0
 40
2.0
 40
2.0
 40
2.0
 40
3.0
 40
3.0
 40
3.0
 40
4.0
 40
4.0
 40
4.0
 40
5.0
 40
5.0
 40
5.0
 40
6.0
 40
6.0
 40
6.0
 40
7.0
 40
7.0
 40
7.0
 40
8.0
 40
8.0
 40
8.0
 40
8.0
 10
77.73048365027225
 20
-146.5402370510386
 10
77.62265216158393
 20
-146.7496988565418
 10
77.4491916039016
 20
-146.7686468817106
 10
77.33274737650015
 20
-146.7686468817106
 10
77.17203367211324
 20
-146.7686468817106
 10
77.03026799289522
 20
-146.7221380926597
 10
76.93501110272805
 20
-146.5402370510386
 10
76.8314859833963
 20
-146.3455891561219
 10
76.81236570345317
 20
-146.1089110962853
 10
76.81236570345317
 20
-145.945958079833
 10
76.81236570345317
 20
-145.8019530885495
 10
76.82924667133089
 20
-145.5501166085778
 10
76.93501110272805
 20
-145.3513345990789
 10
77.04301484619064
 20
-145.1484184749976
 10
77.20372855057754
 20
-145.1249918256979
 10
77.33274737650015
 20
-145.1249918256979
 10
77.4913940235959
 20
-145.1249918256979
 10
77.63522676010508
 20
-145.1694335574576
 10
77.73048365027225
 20
-145.3513345990789
 10
77.8298746550217
 20
-145.5439154367043
 10
77.85312904954714
 20
-145.7723252673764
 10
77.85312904954714
 20
-145.945958079833
 10
77.85312904954714
 20
-146.1171793254499
 10
77.83211396708711
 20
-146.3476562134131
 10
77.73048365027225
 20
-146.5402370510386
 97
        0
 97
        0
 92
        1
 93
        1
 72
     4
 94
        3
 73
     0
 74
     1
 95
       17
 96
       13
 40
0.0
 40
0.0
 40
0.0
 40
0.0
 40
1.0
 40
1.0
 40
1.0
 40
2.0
 40
2.0
 40
2.0
 40
3.0
 40
3.0
 40
3.0
 40
4.0
 40
4.0
 40
4.0
 40
4.0
 10
77.33274737650015
 20
-145.3175726633234
 10
77.08315020859379
 20
-145.3175726633234
 10
77.03664141954293
 20
-145.6011040217595
 10
77.03664141954293
 20
-145.945958079833
 10
77.03664141954293
 20
-146.2653184313156
 10
77.07264266736378
 20
-146.573998986794
 10
77.33274737650015
 20
-146.573998986794
 10
77.58027748711535
 20
-146.573998986794
 10
77.62902558823164
 20
-146.2928791951976
 10
77.62902558823164
 20
-145.945958079833
 10
77.62902558823164
 20
-145.6262532188018
 10
77.59095728311962
 20
-145.3175726633234
 10
77.33274737650015
 20
-145.3175726633234
 97
        0
 97
        0
 75
     2
 76
     1
 98
        0
  0
ENDBLK
  5
EB
330
E8
100
AcDbEntity
  8
0
100
AcDbBlockEnd
  0
BLOCK
  5
FF
330
FD
100
AcDbEntity
  8
0
100
AcDbBlockBegin
  2
block 7
 70
     0
 10
0.0
 20
0.0
 30
0.0
  3
block 7
  1

  0
SPLINE
  5
101
330
FD
100
AcDbEntity
  8
_U+30EC_U+30A4_U+30E4_U+30FC 1
370
     0
100
AcDbSpline
210
0.0
220
0.0
230
1.0
 70
    11
 71
     3
 72
    44
 73
    40
 74
     0
 42
0.0000000001
 43
0.0000000001
 12
1.0
 22
0.0
 32
0.0
 13
1.0
 23
0.0
 33
0.0
 40
0.0
 40
0.0
 40
0.0
 40
0.0
 40
1.0
 40
1.0
 40
1.0
 40
2.0
 40
2.0
 40
2.0
 40
3.0
 40
3.0
 40
3.0
 40
4.0
 40
4.0
 40
4.0
 40
5.0
 40
5.0
 40
5.0
 40
6.0
 40
6.0
 40
6.0
 40
7.0
 40
7.0
 40
7.0
 40
8.0
 40
8.0
 40
8.0
 40
9.0
 40
9.0
 40
9.0
 40
10.0
 40
10.0
 40
10.0
 40
11.0
 40
11.0
 40
11.0
 40
12.0
 40
12.0
 40
12.0
 40
13.0
 40
13.0
 40
13.0
 40
13.0
 10
66.64209932144712
 20
-131.8858343854313
 30
0.0
 10
66.80074596854287
 20
-132.1035644200991
 30
0.0
 10
66.87481552147574
 20
-132.1965819982009
 30
0.0
 10
67.01864825798492
 20
-132.2455023540914
 30
0.0
 10
67.01864825798492
 20
-132.2455023540914
 30
0.0
 10
67.01864825798492
 20
-131.4669107744249
 30
0.0
 10
67.01864825798492
 20
-131.4669107744249
 30
0.0
 10
67.01864825798492
 20
-131.4669107744249
 30
0.0
 10
67.22380369413155
 20
-131.4669107744249
 30
0.0
 10
67.22380369413155
 20
-131.4669107744249
 30
0.0
 10
67.22380369413155
 20
-131.4669107744249
 30
0.0
 10
67.22380369413155
 20
-132.4949272672235
 30
0.0
 10
67.22380369413155
 20
-132.4949272672235
 30
0.0
 10
66.86620278276261
 20
-132.4632323887592
 30
0.0
 10
66.78799911524744
 20
-132.3977755745395
 30
0.0
 10
66.48965384622481
 20
-132.0126138992885
 30
0.0
 10
66.2908718367259
 20
-131.7566433047345
 30
0.0
 10
66.22317571044074
 20
-131.6911864905147
 30
0.0
 10
66.08571640057927
 20
-131.6911864905147
 30
0.0
 10
65.96720511588667
 20
-131.6911864905147
 30
0.0
 10
65.83594697789866
 20
-131.7631889861564
 30
0.0
 10
65.83594697789866
 20
-131.9599039383642
 30
0.0
 10
65.83594697789866
 20
-132.2200086475005
 30
0.0
 10
66.06659612063613
 20
-132.2286213862137
 30
0.0
 10
66.18304034803758
 20
-132.232755500796
 30
0.0
 10
66.18304034803758
 20
-132.232755500796
 30
0.0
 10
66.18304034803758
 20
-132.4570312168858
 30
0.0
 10
66.18304034803758
 20
-132.4570312168858
 30
0.0
 10
66.05608857940612
 20
-132.4484184781726
 30
0.0
 10
65.94395072136123
 20
-132.4377386821683
 30
0.0
 10
65.82543943666865
 20
-132.357467957362
 30
0.0
 10
65.66472573228174
 20
-132.2475694113826
 30
0.0
 10
65.63079154175203
 20
-132.0611897456305
 30
0.0
 10
65.63079154175203
 20
-131.9450900277776
 30
0.0
 10
65.63079154175203
 20
-131.667759841215
 30
0.0
 10
65.81493189543863
 20
-131.460365093003
 30
0.0
 10
66.08778345787042
 20
-131.460365093003
 30
0.0
 10
66.31619328854248
 20
-131.460365093003
 30
0.0
 10
66.4157565480662
 20
-131.5768093204044
 30
0.0
 10
66.64209932144712
 20
-131.8858343854313
 30
0.0
  0
HATCH
  5
102
330
FD
100
AcDbEntity
  8
_U+30EC_U+30A4_U+30E4_U+30FC 1
 62
   179
420
  2234388
100
AcDbHatch
 10
0.0
 20
0.0
 30
0.0
210
0.0
220
0.0
230
1.0
  2
SOLID
 70
     1
 71
     0
 91
        1
 92
        1
 93
        1
 72
     4
 94
        3
 73
     0
 74
     1
 95
       44
 96
       40
 40
0.0
 40
0.0
 40
0.0
 40
0.0
 40
1.0
 40
1.0
 40
1.0
 40
2.0
 40
2.0
 40
2.0
 40
3.0
 40
3.0
 40
3.0
 40
4.0
 40
4.0
 40
4.0
 40
5.0
 40
5.0
 40
5.0
 40
6.0
 40
6.0
 40
6.0
 40
7.0
 40
7.0
 40
7.0
 40
8.0
 40
8.0
 40
8.0
 40
9.0
 40
9.0
 40
9.0
 40
10.0
 40
10.0
 40
10.0
 40
11.0
 40
11.0
 40
11.0
 40
12.0
 40
12.0
 40
12.0
 40
13.0
 40
13.0
 40
13.0
 40
13.0
 10
66.64209932144712
 20
-131.8858343854313
 10
66.80074596854287
 20
-132.1035644200991
 10
66.87481552147574
 20
-132.1965819982009
 10
67.01864825798492
 20
-132.2455023540914
 10
67.01864825798492
 20
-132.2455023540914
 10
67.01864825798492
 20
-131.4669107744249
 10
67.01864825798492
 20
-131.4669107744249
 10
67.01864825798492
 20
-131.4669107744249
 10
67.22380369413155
 20
-131.4669107744249
 10
67.22380369413155
 20
-131.4669107744249
 10
67.22380369413155
 20
-131.4669107744249
 10
67.22380369413155
 20
-132.4949272672235
 10
67.22380369413155
 20
-132.4949272672235
 10
66.86620278276261
 20
-132.4632323887592
 10
66.78799911524744
 20
-132.3977755745395
 10
66.48965384622481
 20
-132.0126138992885
 10
66.2908718367259
 20
-131.7566433047345
 10
66.22317571044074
 20
-131.6911864905147
 10
66.08571640057927
 20
-131.6911864905147
 10
65.96720511588667
 20
-131.6911864905147
 10
65.83594697789866
 20
-131.7631889861564
 10
65.83594697789866
 20
-131.9599039383642
 10
65.83594697789866
 20
-132.2200086475005
 10
66.06659612063613
 20
-132.2286213862137
 10
66.18304034803758
 20
-132.232755500796
 10
66.18304034803758
 20
-132.232755500796
 10
66.18304034803758
 20
-132.4570312168858
 10
66.18304034803758
 20
-132.4570312168858
 10
66.05608857940612
 20
-132.4484184781726
 10
65.94395072136123
 20
-132.4377386821683
 10
65.82543943666865
 20
-132.357467957362
 10
65.66472573228174
 20
-132.2475694113826
 10
65.63079154175203
 20
-132.0611897456305
 10
65.63079154175203
 20
-131.9450900277776
 10
65.63079154175203
 20
-131.667759841215
 10
65.81493189543863
 20
-131.460365093003
 10
66.08778345787042
 20
-131.460365093003
 10
66.31619328854248
 20
-131.460365093003
 10
66.4157565480662
 20
-131.5768093204044
 10
66.64209932144712
 20
-131.8858343854313
 97
        0
 97
        0
 75
     2
 76
     1
 98
        0
  0
POLYLINE
  5
103
330
FD
100
AcDbEntity
  8
_U+30EC_U+30A4_U+30E4_U+30FC 1
370
     0
100
AcDb2dPolyline
 66
     1
 10
0.0
 20
0.0
 30
0.0
  0
VERTEX
  5
104
330
103
100
AcDbEntity
  8
_U+30EC_U+30A4_U+30E4_U+30FC 1
370
     0
100
AcDbVertex
100
AcDb2dVertex
 10
66.8768825787669
 20
-130.4699001409936
 30
0.0
  0
VERTEX
  5
105
330
103
100
AcDbEntity
  8
_U+30EC_U+30A4_U+30E4_U+30FC 1
370
     0
100
AcDbVertex
100
AcDb2dVertex
 10
67.22380369413155
 20
-130.4699001409936
 30
0.0
  0
VERTEX
  5
106
330
103
100
AcDbEntity
  8
_U+30EC_U+30A4_U+30E4_U+30FC 1
370
     0
100
AcDbVertex
100
AcDb2dVertex
 10
67.22380369413155
 20
-130.6876301756614
 30
0.0
  0
VERTEX
  5
107
330
103
100
AcDbEntity
  8
_U+30EC_U+30A4_U+30E4_U+30FC 1
370
     0
100
AcDbVertex
100
AcDb2dVertex
 10
66.8768825787669
 20
-130.6876301756614
 30
0.0
  0
VERTEX
  5
108
330
103
100
AcDbEntity
  8
_U+30EC_U+30A4_U+30E4_U+30FC 1
370
     0
100
AcDbVertex
100
AcDb2dVertex
 10
66.8768825787669
 20
-131.343576356053
 30
0.0
  0
VERTEX
  5
109
330
103
100
AcDbEntity
  8
_U+30EC_U+30A4_U+30E4_U+30FC 1
370
     0
100
AcDbVertex
100
AcDb2dVertex
 10
66.65260686267713
 20
-131.343576356053
 30
0.0
  0
VERTEX
  5
10A
330
103
100
AcDbEntity
  8
_U+30EC_U+30A4_U+30E4_U+30FC 1
370
     0
100
AcDbVertex
100
AcDb2dVertex
 10
65.6795396428683
 20
-130.6645480359103
 30
0.0
  0
VERTEX
  5
10B
330
103
100
AcDbEntity
  8
_U+30EC_U+30A4_U+30E4_U+30FC 1
370
     0
100
AcDbVertex
100
AcDb2dVertex
 10
65.6795396428683
 20
-130.4699001409936
 30
0.0
  0
VERTEX
  5
10C
330
103
100
AcDbEntity
  8
_U+30EC_U+30A4_U+30E4_U+30FC 1
370
     0
100
AcDbVertex
100
AcDb2dVertex
 10
66.67792831449371
 20
-130.4699001409936
 30
0.0
  0
VERTEX
  5
10D
330
103
100
AcDbEntity
  8
_U+30EC_U+30A4_U+30E4_U+30FC 1
370
     0
100
AcDbVertex
100
AcDb2dVertex
 10
66.67792831449371
 20
-130.2625053927816
 30
0.0
  0
VERTEX
  5
10E
330
103
100
AcDbEntity
  8
_U+30EC_U+30A4_U+30E4_U+30FC 1
370
     0
100
AcDbVertex
100
AcDb2dVertex
 10
66.8768825787669
 20
-130.2625053927816
 30
0.0
  0
VERTEX
  5
10F
330
103
100
AcDbEntity
  8
_U+30EC_U+30A4_U+30E4_U+30FC 1
370
     0
100
AcDbVertex
100
AcDb2dVertex
 10
66.8768825787669
 20
-130.4699001409936
 30
0.0
  0
SEQEND
  5
110
330
103
100
AcDbEntity
  8
_U+30EC_U+30A4_U+30E4_U+30FC 1
370
     0
  0
POLYLINE
  5
111
330
FD
100
AcDbEntity
  8
_U+30EC_U+30A4_U+30E4_U+30FC 1
370
     0
100
AcDb2dPolyline
 66
     1
 10
0.0
 20
0.0
 30
0.0
  0
VERTEX
  5
112
330
111
100
AcDbEntity
  8
_U+30EC_U+30A4_U+30E4_U+30FC 1
370
     0
100
AcDbVertex
100
AcDb2dVertex
 10
66.02215438887642
 20
-130.6876301756614
 30
0.0
  0
VERTEX
  5
113
330
111
100
AcDbEntity
  8
_U+30EC_U+30A4_U+30E4_U+30FC 1
370
     0
100
AcDbVertex
100
AcDb2dVertex
 10
66.67792831449371
 20
-131.1447943465541
 30
0.0
  0
VERTEX
  5
114
330
111
100
AcDbEntity
  8
_U+30EC_U+30A4_U+30E4_U+30FC 1
370
     0
100
AcDbVertex
100
AcDb2dVertex
 10
66.67792831449371
 20
-130.6876301756614
 30
0.0
  0
VERTEX
  5
115
330
111
100
AcDbEntity
  8
_U+30EC_U+30A4_U+30E4_U+30FC 1
370
     0
100
AcDbVertex
100
AcDb2dVertex
 10
66.02215438887642
 20
-130.6876301756614
 30
0.0
  0
SEQEND
  5
116
330
111
100
AcDbEntity
  8
_U+30EC_U+30A4_U+30E4_U+30FC 1
370
     0
  0
HATCH
  5
117
330
FD
100
AcDbEntity
  8
_U+30EC_U+30A4_U+30E4_U+30FC 1
 62
   179
420
  2234388
100
AcDbHatch
 10
0.0
 20
0.0
 30
0.0
210
0.0
220
0.0
230
1.0
  2
SOLID
 70
     1
 71
     0
 91
        2
 92
        1
 93
       11
 72
     1
 10
66.8768825787669
 20
-130.4699001409936
 11
67.22380369413155
 21
-130.4699001409936
 72
     1
 10
67.22380369413155
 20
-130.4699001409936
 11
67.22380369413155
 21
-130.6876301756614
 72
     1
 10
67.22380369413155
 20
-130.6876301756614
 11
66.8768825787669
 21
-130.6876301756614
 72
     1
 10
66.8768825787669
 20
-130.6876301756614
 11
66.8768825787669
 21
-131.343576356053
 72
     1
 10
66.8768825787669
 20
-131.343576356053
 11
66.65260686267713
 21
-131.343576356053
 72
     1
 10
66.65260686267713
 20
-131.343576356053
 11
65.6795396428683
 21
-130.6645480359103
 72
     1
 10
65.6795396428683
 20
-130.6645480359103
 11
65.6795396428683
 21
-130.4699001409936
 72
     1
 10
65.6795396428683
 20
-130.4699001409936
 11
66.67792831449371
 21
-130.4699001409936
 72
     1
 10
66.67792831449371
 20
-130.4699001409936
 11
66.67792831449371
 21
-130.2625053927816
 72
     1
 10
66.67792831449371
 20
-130.2625053927816
 11
66.8768825787669
 21
-130.2625053927816
 72
     1
 10
66.8768825787669
 20
-130.2625053927816
 11
66.8768825787669
 21
-130.4699001409936
 97
        0
 92
        1
 93
        3
 72
     1
 10
66.02215438887642
 20
-130.6876301756614
 11
66.67792831449371
 21
-131.1447943465541
 72
     1
 10
66.67792831449371
 20
-131.1447943465541
 11
66.67792831449371
 21
-130.6876301756614
 72
     1
 10
66.67792831449371
 20
-130.6876301756614
 11
66.02215438887642
 21
-130.6876301756614
 97
        0
 75
     2
 76
     1
 98
        0
  0
ENDBLK
  5
100
330
FD
100
AcDbEntity
  8
0
100
AcDbBlockEnd
  0
BLOCK
  5
122
330
120
100
AcDbEntity
  8
0
100
AcDbBlockBegin
  2
block 8
 70
     0
 10
0.0
 20
0.0
 30
0.0
  3
block 8
  1

  0
SPLINE
  5
124
330
120
100
AcDbEntity
  8
_U+30EC_U+30A4_U+30E4_U+30FC 1
370
     0
100
AcDbSpline
210
0.0
220
0.0
230
1.0
 70
    11
 71
     3
 72
    26
 73
    22
 74
     0
 42
0.0000000001
 43
0.0000000001
 12
1.0
 22
0.0
 32
0.0
 13
1.0
 23
0.0
 33
0.0
 40
0.0
 40
0.0
 40
0.0
 40
0.0
 40
1.0
 40
1.0
 40
1.0
 40
2.0
 40
2.0
 40
2.0
 40
3.0
 40
3.0
 40
3.0
 40
4.0
 40
4.0
 40
4.0
 40
5.0
 40
5.0
 40
5.0
 40
6.0
 40
6.0
 40
6.0
 40
7.0
 40
7.0
 40
7.0
 40
7.0
 10
115.223974580569
 20
-134.5275336035209
 30
0.0
 10
115.223974580569
 20
-134.5275336035209
 30
0.0
 10
114.1198214775464
 20
-134.5275336035209
 30
0.0
 10
114.1198214775464
 20
-134.5275336035209
 30
0.0
 10
114.1198214775464
 20
-134.5275336035209
 30
0.0
 10
114.1198214775464
 20
-134.8575737510078
 30
0.0
 10
114.1198214775464
 20
-134.8575737510078
 30
0.0
 10
114.1198214775464
 20
-134.8575737510078
 30
0.0
 10
113.9716823716807
 20
-134.8575737510078
 30
0.0
 10
113.9716823716807
 20
-134.8575737510078
 30
0.0
 10
113.9568684610941
 20
-134.5254665462298
 30
0.0
 10
113.7939154446418
 20
-134.4789577571789
 30
0.0
 10
113.6795382745315
 20
-134.4493299360057
 30
0.0
 10
113.6795382745315
 20
-134.4493299360057
 30
0.0
 10
113.6795382745315
 20
-134.3032578874311
 30
0.0
 10
113.6795382745315
 20
-134.3032578874311
 30
0.0
 10
113.6795382745315
 20
-134.3032578874311
 30
0.0
 10
115.223974580569
 20
-134.3032578874311
 30
0.0
 10
115.223974580569
 20
-134.3032578874311
 30
0.0
 10
115.223974580569
 20
-134.3032578874311
 30
0.0
 10
115.223974580569
 20
-134.5275336035209
 30
0.0
 10
115.223974580569
 20
-134.5275336035209
 30
0.0
  0
HATCH
  5
125
330
120
100
AcDbEntity
  8
_U+30EC_U+30A4_U+30E4_U+30FC 1
 62
   179
420
  2234388
100
AcDbHatch
 10
0.0
 20
0.0
 30
0.0
210
0.0
220
0.0
230
1.0
  2
SOLID
 70
     1
 71
     0
 91
        1
 92
        1
 93
        1
 72
     4
 94
        3
 73
     0
 74
     1
 95
       26
 96
       22
 40
0.0
 40
0.0
 40
0.0
 40
0.0
 40
1.0
 40
1.0
 40
1.0
 40
2.0
 40
2.0
 40
2.0
 40
3.0
 40
3.0
 40
3.0
 40
4.0
 40
4.0
 40
4.0
 40
5.0
 40
5.0
 40
5.0
 40
6.0
 40
6.0
 40
6.0
 40
7.0
 40
7.0
 40
7.0
 40
7.0
 10
115.223974580569
 20
-134.5275336035209
 10
115.223974580569
 20
-134.5275336035209
 10
114.1198214775464
 20
-134.5275336035209
 10
114.1198214775464
 20
-134.5275336035209
 10
114.1198214775464
 20
-134.5275336035209
 10
114.1198214775464
 20
-134.8575737510078
 10
114.1198214775464
 20
-134.8575737510078
 10
114.1198214775464
 20
-134.8575737510078
 10
113.9716823716807
 20
-134.8575737510078
 10
113.9716823716807
 20
-134.8575737510078
 10
113.9568684610941
 20
-134.5254665462298
 10
113.7939154446418
 20
-134.4789577571789
 10
113.6795382745315
 20
-134.4493299360057
 10
113.6795382745315
 20
-134.4493299360057
 10
113.6795382745315
 20
-134.3032578874311
 10
113.6795382745315
 20
-134.3032578874311
 10
113.6795382745315
 20
-134.3032578874311
 10
115.223974580569
 20
-134.3032578874311
 10
115.223974580569
 20
-134.3032578874311
 10
115.223974580569
 20
-134.3032578874311
 10
115.223974580569
 20
-134.5275336035209
 10
115.223974580569
 20
-134.5275336035209
 97
        0
 97
        0
 75
     2
 76
     1
 98
        0
  0
SPLINE
  5
126
330
120
100
AcDbEntity
  8
_U+30EC_U+30A4_U+30E4_U+30FC 1
370
     0
100
AcDbSpline
210
0.0
220
0.0
230
1.0
 70
    11
 71
     3
 72
    62
 73
    58
 74
     0
 42
0.0000000001
 43
0.0000000001
 12
1.0
 22
0.0
 32
0.0
 13
1.0
 23
0.0
 33
0.0
 40
0.0
 40
0.0
 40
0.0
 40
0.0
 40
1.0
 40
1.0
 40
1.0
 40
2.0
 40
2.0
 40
2.0
 40
3.0
 40
3.0
 40
3.0
 40
4.0
 40
4.0
 40
4.0
 40
5.0
 40
5.0
 40
5.0
 40
6.0
 40
6.0
 40
6.0
 40
7.0
 40
7.0
 40
7.0
 40
8.0
 40
8.0
 40
8.0
 40
9.0
 40
9.0
 40
9.0
 40
10.0
 40
10.0
 40
10.0
 40
11.0
 40
11.0
 40
11.0
 40
12.0
 40
12.0
 40
12.0
 40
13.0
 40
13.0
 40
13.0
 40
14.0
 40
14.0
 40
14.0
 40
15.0
 40
15.0
 40
15.0
 40
16.0
 40
16.0
 40
16.0
 40
17.0
 40
17.0
 40
17.0
 40
18.0
 40
18.0
 40
18.0
 40
19.0
 40
19.0
 40
19.0
 40
19.0
 10
115.2746174842022
 20
-133.3103813685821
 30
0.0
 10
115.2746174842022
 20
-133.4058105135236
 30
0.0
 10
115.2536024017422
 20
-133.6235405481913
 30
0.0
 10
115.0675672455387
 20
-133.7485975143059
 30
0.0
 10
114.9552571327195
 20
-133.8223225576903
 30
0.0
 10
114.8560383827443
 20
-133.8268011818211
 30
0.0
 10
114.7712890338072
 20
-133.8309352964034
 30
0.0
 10
114.7712890338072
 20
-133.8309352964034
 30
0.0
 10
114.7712890338072
 20
-133.6107936948959
 30
0.0
 10
114.7712890338072
 20
-133.6107936948959
 30
0.0
 10
114.84535858674
 20
-133.6087266376048
 30
0.0
 10
115.0799695892856
 20
-133.598391351149
 30
0.0
 10
115.0799695892856
 20
-133.314859992713
 30
0.0
 10
115.0799695892856
 20
-133.1774006828515
 30
0.0
 10
115.0103786604835
 20
-133.0247829528549
 30
0.0
 10
114.7819688298115
 20
-133.0247829528549
 30
0.0
 10
114.66552460241
 20
-133.0247829528549
 30
0.0
 10
114.616948756068
 20
-133.0630235127412
 30
0.0
 10
114.5852538776037
 20
-133.0947183912055
 30
0.0
 10
114.5111843246708
 20
-133.1687879441384
 30
0.0
 10
114.4984374713754
 20
-133.2852321715398
 30
0.0
 10
114.4984374713754
 20
-133.3400091897553
 30
0.0
 10
114.4984374713754
 20
-133.3593017244727
 30
0.0
 10
114.5005045286665
 20
-133.3951307175193
 30
0.0
 10
114.5046386432488
 20
-133.4226914814013
 30
0.0
 10
114.5046386432488
 20
-133.4226914814013
 30
0.0
 10
114.3099907483322
 20
-133.4226914814013
 30
0.0
 10
114.3099907483322
 20
-133.4226914814013
 30
0.0
 10
114.3165364297542
 20
-133.384450921515
 30
0.0
 10
114.3186034870454
 20
-133.3424207565949
 30
0.0
 10
114.3186034870454
 20
-133.335875075173
 30
0.0
 10
114.3186034870454
 20
-133.2704182609532
 30
0.0
 10
114.2972438950368
 20
-133.0716362514543
 30
0.0
 10
114.0605658352001
 20
-133.0716362514543
 30
0.0
 10
113.8827989081612
 20
-133.0716362514543
 30
0.0
 10
113.8276773803972
 20
-133.2025498798938
 30
0.0
 10
113.8276773803972
 20
-133.3127929354218
 30
0.0
 10
113.8276773803972
 20
-133.5770317591405
 30
0.0
 10
114.0605658352001
 20
-133.5856444978536
 30
0.0
 10
114.1322238212933
 20
-133.5897786124359
 30
0.0
 10
114.1322238212933
 20
-133.5897786124359
 30
0.0
 10
114.1322238212933
 20
-133.7930392460656
 30
0.0
 10
114.1322238212933
 20
-133.7930392460656
 30
0.0
 10
114.0075113647273
 20
-133.7844265073525
 30
0.0
 10
113.6309624281895
 20
-133.7568657434705
 30
0.0
 10
113.6309624281895
 20
-133.3000460821264
 30
0.0
 10
113.6309624281895
 20
-133.0757703660366
 30
0.0
 10
113.7580864515952
 20
-132.8346136820691
 30
0.0
 10
114.0540201537782
 20
-132.8346136820691
 30
0.0
 10
114.2403998195302
 20
-132.8346136820691
 30
0.0
 10
114.3227376016277
 20
-132.929698317462
 30
0.0
 10
114.3840603012651
 20
-133.0292615769857
 30
0.0
 10
114.4116210651471
 20
-132.9679388773483
 30
0.0
 10
114.4918917899534
 20
-132.7860378357271
 30
0.0
 10
114.769221976516
 20
-132.7860378357271
 30
0.0
 10
115.1075303531676
 20
-132.7860378357271
 30
0.0
 10
115.2746174842022
 20
-133.033395691568
 30
0.0
 10
115.2746174842022
 20
-133.3103813685821
 30
0.0
  0
HATCH
  5
127
330
120
100
AcDbEntity
  8
_U+30EC_U+30A4_U+30E4_U+30FC 1
 62
   179
420
  2234388
100
AcDbHatch
 10
0.0
 20
0.0
 30
0.0
210
0.0
220
0.0
230
1.0
  2
SOLID
 70
     1
 71
     0
 91
        1
 92
        1
 93
        1
 72
     4
 94
        3
 73
     0
 74
     1
 95
       62
 96
       58
 40
0.0
 40
0.0
 40
0.0
 40
0.0
 40
1.0
 40
1.0
 40
1.0
 40
2.0
 40
2.0
 40
2.0
 40
3.0
 40
3.0
 40
3.0
 40
4.0
 40
4.0
 40
4.0
 40
5.0
 40
5.0
 40
5.0
 40
6.0
 40
6.0
 40
6.0
 40
7.0
 40
7.0
 40
7.0
 40
8.0
 40
8.0
 40
8.0
 40
9.0
 40
9.0
 40
9.0
 40
10.0
 40
10.0
 40
10.0
 40
11.0
 40
11.0
 40
11.0
 40
12.0
 40
12.0
 40
12.0
 40
13.0
 40
13.0
 40
13.0
 40
14.0
 40
14.0
 40
14.0
 40
15.0
 40
15.0
 40
15.0
 40
16.0
 40
16.0
 40
16.0
 40
17.0
 40
17.0
 40
17.0
 40
18.0
 40
18.0
 40
18.0
 40
19.0
 40
19.0
 40
19.0
 40
19.0
 10
115.2746174842022
 20
-133.3103813685821
 10
115.2746174842022
 20
-133.4058105135236
 10
115.2536024017422
 20
-133.6235405481913
 10
115.0675672455387
 20
-133.7485975143059
 10
114.9552571327195
 20
-133.8223225576903
 10
114.8560383827443
 20
-133.8268011818211
 10
114.7712890338072
 20
-133.8309352964034
 10
114.7712890338072
 20
-133.8309352964034
 10
114.7712890338072
 20
-133.6107936948959
 10
114.7712890338072
 20
-133.6107936948959
 10
114.84535858674
 20
-133.6087266376048
 10
115.0799695892856
 20
-133.598391351149
 10
115.0799695892856
 20
-133.314859992713
 10
115.0799695892856
 20
-133.1774006828515
 10
115.0103786604835
 20
-133.0247829528549
 10
114.7819688298115
 20
-133.0247829528549
 10
114.66552460241
 20
-133.0247829528549
 10
114.616948756068
 20
-133.0630235127412
 10
114.5852538776037
 20
-133.0947183912055
 10
114.5111843246708
 20
-133.1687879441384
 10
114.4984374713754
 20
-133.2852321715398
 10
114.4984374713754
 20
-133.3400091897553
 10
114.4984374713754
 20
-133.3593017244727
 10
114.5005045286665
 20
-133.3951307175193
 10
114.5046386432488
 20
-133.4226914814013
 10
114.5046386432488
 20
-133.4226914814013
 10
114.3099907483322
 20
-133.4226914814013
 10
114.3099907483322
 20
-133.4226914814013
 10
114.3165364297542
 20
-133.384450921515
 10
114.3186034870454
 20
-133.3424207565949
 10
114.3186034870454
 20
-133.335875075173
 10
114.3186034870454
 20
-133.2704182609532
 10
114.2972438950368
 20
-133.0716362514543
 10
114.0605658352001
 20
-133.0716362514543
 10
113.8827989081612
 20
-133.0716362514543
 10
113.8276773803972
 20
-133.2025498798938
 10
113.8276773803972
 20
-133.3127929354218
 10
113.8276773803972
 20
-133.5770317591405
 10
114.0605658352001
 20
-133.5856444978536
 10
114.1322238212933
 20
-133.5897786124359
 10
114.1322238212933
 20
-133.5897786124359
 10
114.1322238212933
 20
-133.7930392460656
 10
114.1322238212933
 20
-133.7930392460656
 10
114.0075113647273
 20
-133.7844265073525
 10
113.6309624281895
 20
-133.7568657434705
 10
113.6309624281895
 20
-133.3000460821264
 10
113.6309624281895
 20
-133.0757703660366
 10
113.7580864515952
 20
-132.8346136820691
 10
114.0540201537782
 20
-132.8346136820691
 10
114.2403998195302
 20
-132.8346136820691
 10
114.3227376016277
 20
-132.929698317462
 10
114.3840603012651
 20
-133.0292615769857
 10
114.4116210651471
 20
-132.9679388773483
 10
114.4918917899534
 20
-132.7860378357271
 10
114.769221976516
 20
-132.7860378357271
 10
115.1075303531676
 20
-132.7860378357271
 10
115.2746174842022
 20
-133.033395691568
 10
115.2746174842022
 20
-133.3103813685821
 97
        0
 97
        0
 75
     2
 76
     1
 98
        0
  0
ENDBLK
  5
123
330
120
100
AcDbEntity
  8
0
100
AcDbBlockEnd
  0
BLOCK
  5
133
330
131
100
AcDbEntity
  8
0
100
AcDbBlockBegin
  2
block 9
 70
     0
 10
0.0
 20
0.0
 30
0.0
  3
block 9
  1

  0
SPLINE
  5
135
330
131
100
AcDbEntity
  8
_U+30EC_U+30A4_U+30E4_U+30FC 1
370
     0
100
AcDbSpline
210
0.0
220
0.0
230
1.0
 70
    11
 71
     3
 72
    26
 73
    22
 74
     0
 42
0.0000000001
 43
0.0000000001
 12
1.0
 22
0.0
 32
0.0
 13
1.0
 23
0.0
 33
0.0
 40
0.0
 40
0.0
 40
0.0
 40
0.0
 40
1.0
 40
1.0
 40
1.0
 40
2.0
 40
2.0
 40
2.0
 40
3.0
 40
3.0
 40
3.0
 40
4.0
 40
4.0
 40
4.0
 40
5.0
 40
5.0
 40
5.0
 40
6.0
 40
6.0
 40
6.0
 40
7.0
 40
7.0
 40
7.0
 40
7.0
 10
115.3497205657806
 20
-125.4491902355648
 30
0.0
 10
115.3497205657806
 20
-125.4491902355648
 30
0.0
 10
114.2455674627581
 20
-125.4491902355648
 30
0.0
 10
114.2455674627581
 20
-125.4491902355648
 30
0.0
 10
114.2455674627581
 20
-125.4491902355648
 30
0.0
 10
114.2455674627581
 20
-125.8019680132544
 30
0.0
 10
114.2455674627581
 20
-125.8019680132544
 30
0.0
 10
114.2455674627581
 20
-125.8019680132544
 30
0.0
 10
114.0974283568923
 20
-125.8019680132544
 30
0.0
 10
114.0974283568923
 20
-125.8019680132544
 30
0.0
 10
114.0826144463057
 20
-125.4469509234994
 30
0.0
 10
113.9196614298534
 20
-125.3971692937375
 30
0.0
 10
113.8052842597431
 20
-125.3656466700475
 30
0.0
 10
113.8052842597431
 20
-125.3656466700475
 30
0.0
 10
113.8052842597431
 20
-125.2095838445657
 30
0.0
 10
113.8052842597431
 20
-125.2095838445657
 30
0.0
 10
113.8052842597431
 20
-125.2095838445657
 30
0.0
 10
115.3497205657806
 20
-125.2095838445657
 30
0.0
 10
115.3497205657806
 20
-125.2095838445657
 30
0.0
 10
115.3497205657806
 20
-125.2095838445657
 30
0.0
 10
115.3497205657806
 20
-125.4491902355648
 30
0.0
 10
115.3497205657806
 20
-125.4491902355648
 30
0.0
  0
HATCH
  5
136
330
131
100
AcDbEntity
  8
_U+30EC_U+30A4_U+30E4_U+30FC 1
 62
     7
420
 16777215
100
AcDbHatch
 10
0.0
 20
0.0
 30
0.0
210
0.0
220
0.0
230
1.0
  2
SOLID
 70
     1
 71
     0
 91
        1
 92
        1
 93
        1
 72
     4
 94
        3
 73
     0
 74
     1
 95
       26
 96
       22
 40
0.0
 40
0.0
 40
0.0
 40
0.0
 40
1.0
 40
1.0
 40
1.0
 40
2.0
 40
2.0
 40
2.0
 40
3.0
 40
3.0
 40
3.0
 40
4.0
 40
4.0
 40
4.0
 40
5.0
 40
5.0
 40
5.0
 40
6.0
 40
6.0
 40
6.0
 40
7.0
 40
7.0
 40
7.0
 40
7.0
 10
115.3497205657806
 20
-125.4491902355648
 10
115.3497205657806
 20
-125.4491902355648
 10
114.2455674627581
 20
-125.4491902355648
 10
114.2455674627581
 20
-125.4491902355648
 10
114.2455674627581
 20
-125.4491902355648
 10
114.2455674627581
 20
-125.8019680132544
 10
114.2455674627581
 20
-125.8019680132544
 10
114.2455674627581
 20
-125.8019680132544
 10
114.0974283568923
 20
-125.8019680132544
 10
114.0974283568923
 20
-125.8019680132544
 10
114.0826144463057
 20
-125.4469509234994
 10
113.9196614298534
 20
-125.3971692937375
 10
113.8052842597431
 20
-125.3656466700475
 10
113.8052842597431
 20
-125.3656466700475
 10
113.8052842597431
 20
-125.2095838445657
 10
113.8052842597431
 20
-125.2095838445657
 10
113.8052842597431
 20
-125.2095838445657
 10
115.3497205657806
 20
-125.2095838445657
 10
115.3497205657806
 20
-125.2095838445657
 10
115.3497205657806
 20
-125.2095838445657
 10
115.3497205657806
 20
-125.4491902355648
 10
115.3497205657806
 20
-125.4491902355648
 97
        0
 97
        0
 75
     2
 76
     1
 98
        0
  0
ENDBLK
  5
134
330
131
100
AcDbEntity
  8
0
100
AcDbBlockEnd
  0
ENDSEC
  0
SECTION
  2
ENTITIES
  0
INSERT
  5
42
330
1F
100
AcDbEntity
  8
_U+30EC_U+30A4_U+30E4_U+30FC 1
100
AcDbBlockReference
  2
block 2
 10
0.0
 20
0.0
 30
0.0
  0
POLYLINE
  5
128
330
1F
100
AcDbEntity
  8
_U+30EC_U+30A4_U+30E4_U+30FC 1
 62
   179
420
  2234388
370
     9
100
AcDb2dPolyline
 66
     1
 10
0.0
 20
0.0
 30
0.0
  0
VERTEX
  5
129
330
128
100
AcDbEntity
  8
_U+30EC_U+30A4_U+30E4_U+30FC 1
 62
   179
420
  2234388
370
     9
100
AcDbVertex
100
AcDb2dVertex
 10
115.0654895644348
 20
-126.3289108017512
 30
0.0
  0
VERTEX
  5
12A
330
128
100
AcDbEntity
  8
_U+30EC_U+30A4_U+30E4_U+30FC 1
 62
   179
420
  2234388
370
     9
100
AcDbVertex
100
AcDb2dVertex
 10
116.8204178529962
 20
-126.3289108017512
 30
0.0
  0
SEQEND
  5
12B
330
128
100
AcDbEntity
  8
_U+30EC_U+30A4_U+30E4_U+30FC 1
 62
   179
420
  2234388
370
     9
  0
SPLINE
  5
12C
330
1F
100
AcDbEntity
  8
_U+30EC_U+30A4_U+30E4_U+30FC 1
 62
     7
420
 16777215
370
     9
100
AcDbSpline
210
0.0
220
0.0
230
1.0
 70
    11
 71
     3
 72
    17
 73
    13
 74
     0
 42
0.0000000001
 43
0.0000000001
 12
1.0
 22
0.0
 32
0.0
 13
1.0
 23
0.0
 33
0.0
 40
0.0
 40
0.0
 40
0.0
 40
0.0
 40
1.0
 40
1.0
 40
1.0
 40
2.0
 40
2.0
 40
2.0
 40
3.0
 40
3.0
 40
3.0
 40
4.0
 40
4.0
 40
4.0
 40
4.0
 10
115.8199753785196
 20
-126.4150238572852
 30
0.0
 10
115.8750792660027
 20
-126.4150238572852
 30
0.0
 10
115.9198820426374
 20
-126.3702210795185
 30
0.0
 10
115.9198820426374
 20
-126.3151171906435
 30
0.0
 10
115.9198820426374
 20
-126.2596605239906
 30
0.0
 10
115.8750792660027
 20
-126.2148577462242
 30
0.0
 10
115.8199753785196
 20
-126.2148577462242
 30
0.0
 10
115.7648362132596
 20
-126.2148577462242
 30
0.0
 10
115.7200687144018
 20
-126.2596605239906
 30
0.0
 10
115.7200687144018
 20
-126.3151171906435
 30
0.0
 10
115.7200687144018
 20
-126.3702210795185
 30
0.0
 10
115.7648362132596
 20
-126.4150238572852
 30
0.0
 10
115.8199753785196
 20
-126.4150238572852
 30
0.0
  0
POLYLINE
  5
12D
330
1F
100
AcDbEntity
  8
_U+30EC_U+30A4_U+30E4_U+30FC 1
 62
     7
420
 16777215
370
     9
100
AcDb2dPolyline
 66
     1
 10
0.0
 20
0.0
 30
0.0
  0
VERTEX
  5
12E
330
12D
100
AcDbEntity
  8
_U+30EC_U+30A4_U+30E4_U+30FC 1
 62
     7
420
 16777215
370
     9
100
AcDbVertex
100
AcDb2dVertex
 10
115.8206456562803
 20
-124.6604483021682
 30
0.0
  0
VERTEX
  5
12F
330
12D
100
AcDbEntity
  8
_U+30EC_U+30A4_U+30E4_U+30FC 1
 62
     7
420
 16777215
370
     9
100
AcDbVertex
100
AcDb2dVertex
 10
115.8206456562803
 20
-127.3148894126158
 30
0.0
  0
SEQEND
  5
130
330
12D
100
AcDbEntity
  8
_U+30EC_U+30A4_U+30E4_U+30FC 1
 62
     7
420
 16777215
370
     9
  0
INSERT
  5
132
330
1F
100
AcDbEntity
  8
_U+30EC_U+30A4_U+30E4_U+30FC 1
100
AcDbBlockReference
  2
block 9
 10
0.0
 20
0.0
 30
0.0
  0
ENDSEC
  0
SECTION
  2
OBJECTS
  0
DICTIONARY
  5
C
330
0
100
AcDbDictionary
281
     1
  3
ACAD_GROUP
350
D
  3
ACAD_LAYOUT
350
1A
  3
ACAD_MATERIAL
350
3B
  3
ACAD_MLEADERSTYLE
350
138
  3
ACAD_MLINESTYLE
350
17
  3
ACAD_PLOTSETTINGS
350
19
  3
ACAD_PLOTSTYLENAME
350
E
  3
ACAD_TABLESTYLE
350
137
  3
ACAD_VISUALSTYLE
350
2A
  0
SUN
  5
3F
330
29
100
AcDbSun
 90
        1
290
     0
 63
     7
421
 16777215
 40
1.0
291
     1
 91
  2455826
 92
 54000000
292
     0
 70
     2
 71
   256
280
     1
  0
DICTIONARY
  5
D
102
{ACAD_REACTORS
330
C
102
}
330
C
100
AcDbDictionary
281
     1
  0
DICTIONARY
  5
1A
102
{ACAD_REACTORS
330
C
102
}
330
C
100
AcDbDictionary
281
     1
  3
Layout1
350
1E
  3
Layout2
350
26
  3
Model
350
22
  0
DICTIONARY
  5
3B
102
{ACAD_REACTORS
330
C
102
}
330
C
100
AcDbDictionary
281
     1
  3
ByBlock
350
3D
  3
ByLayer
350
3C
  3
Global
350
3E
  0
DICTIONARY
  5
138
102
{ACAD_REACTORS
330
C
102
}
330
C
100
AcDbDictionary
281
     1
  0
DICTIONARY
  5
17
102
{ACAD_REACTORS
330
C
102
}
330
C
100
AcDbDictionary
281
     1
  3
Standard
350
18
  0
DICTIONARY
  5
19
102
{ACAD_REACTORS
330
C
102
}
330
C
100
AcDbDictionary
281
     1
  0
ACDBDICTIONARYWDFLT
  5
E
102
{ACAD_REACTORS
330
C
102
}
330
C
100
AcDbDictionary
281
     1
  3
Normal
350
F
100
AcDbDictionaryWithDefault
340
F
  0
DICTIONARY
  5
137
102
{ACAD_REACTORS
330
C
102
}
330
C
100
AcDbDictionary
281
     1
  0
DICTIONARY
  5
2A
102
{ACAD_REACTORS
330
C
102
}
330
C
100
AcDbDictionary
281
     1
  3
2dWireframe
350
2F
  3
3D Hidden
350
31
  3
3dWireframe
350
30
  3
Basic
350
32
  3
Brighten
350
36
  3
ColorChange
350
3A
  3
Conceptual
350
34
  3
Dim
350
35
  3
Facepattern
350
39
  3
Flat
350
2B
  3
FlatWithEdges
350
2C
  3
Gouraud
350
2D
  3
GouraudWithEdges
350
2E
  3
Linepattern
350
38
  3
Realistic
350
33
  3
Thicken
350
37
  0
LAYOUT
  5
1E
102
{ACAD_REACTORS
330
1A
102
}
330
1A
100
AcDbPlotSettings
  1

  2
none_device
  4

  6

 40
0.0
 41
0.0
 42
0.0
 43
0.0
 44
0.0
 45
0.0
 46
0.0
 47
0.0
 48
0.0
 49
0.0
140
0.0
141
0.0
142
1.0
143
1.0
 70
   688
 72
     0
 73
     0
 74
     5
  7

 75
    16
 76
     0
 77
     2
 78
   300
147
1.0
148
0.0
149
0.0
100
AcDbLayout
  1
Layout1
 70
     1
 71
     1
 10
0.0
 20
0.0
 11
12.0
 21
9.0
 12
0.0
 22
0.0
 32
0.0
 14
1.000000000000000E+20
 24
1.000000000000000E+20
 34
1.000000000000000E+20
 15
-1.000000000000000E+20
 25
-1.000000000000000E+20
 35
-1.000000000000000E+20
146
0.0
 13
0.0
 23
0.0
 33
0.0
 16
1.0
 26
0.0
 36
0.0
 17
0.0
 27
1.0
 37
0.0
 76
     0
330
1B
  0
LAYOUT
  5
26
102
{ACAD_REACTORS
330
1A
102
}
330
1A
100
AcDbPlotSettings
  1

  2
none_device
  4

  6

 40
0.0
 41
0.0
 42
0.0
 43
0.0
 44
0.0
 45
0.0
 46
0.0
 47
0.0
 48
0.0
 49
0.0
140
0.0
141
0.0
142
1.0
143
1.0
 70
   688
 72
     0
 73
     0
 74
     5
  7

 75
    16
 76
     0
 77
     2
 78
   300
147
1.0
148
0.0
149
0.0
100
AcDbLayout
  1
Layout2
 70
     1
 71
     2
 10
0.0
 20
0.0
 11
0.0
 21
0.0
 12
0.0
 22
0.0
 32
0.0
 14
0.0
 24
0.0
 34
0.0
 15
0.0
 25
0.0
 35
0.0
146
0.0
 13
0.0
 23
0.0
 33
0.0
 16
1.0
 26
0.0
 36
0.0
 17
0.0
 27
1.0
 37
0.0
 76
     0
330
23
  0
LAYOUT
  5
22
102
{ACAD_REACTORS
330
1A
102
}
330
1A
100
AcDbPlotSettings
  1

  2
none_device
  4

  6

 40
0.0
 41
0.0
 42
0.0
 43
0.0
 44
0.0
 45
0.0
 46
0.0
 47
0.0
 48
0.0
 49
0.0
140
0.0
141
0.0
142
1.0
143
1.0
 70
  1712
 72
     0
 73
     0
 74
     0
  7

 75
     0
 76
     0
 77
     2
 78
   300
147
1.0
148
0.0
149
0.0
100
AcDbLayout
  1
Model
 70
     1
 71
     0
 10
0.0
 20
0.0
 11
12.0
 21
9.0
 12
0.0
 22
0.0
 32
0.0
 14
1.000000000000000E+20
 24
1.000000000000000E+20
 34
1.000000000000000E+20
 15
-1.000000000000000E+20
 25
-1.000000000000000E+20
 35
-1.000000000000000E+20
146
0.0
 13
0.0
 23
0.0
 33
0.0
 16
1.0
 26
0.0
 36
0.0
 17
0.0
 27
1.0
 37
0.0
 76
     0
330
1F
331
29
  0
MATERIAL
  5
3D
102
{ACAD_REACTORS
330
3B
102
}
330
3B
100
AcDbMaterial
  1
ByBlock
 72
     1
 94
      127
  0
MATERIAL
  5
3C
102
{ACAD_REACTORS
330
3B
102
}
330
3B
100
AcDbMaterial
  1
ByLayer
 72
     1
 94
      127
  0
MATERIAL
  5
3E
102
{ACAD_REACTORS
330
3B
102
}
330
3B
100
AcDbMaterial
  1
Global
 72
     1
 94
      127
  0
MLINESTYLE
  5
18
102
{ACAD_REACTORS
330
17
102
}
330
17
100
AcDbMlineStyle
  2
Standard
 70
     0
  3

 62
   256
 51
90.0
 52
90.0
 71
     2
 49
0.5
 62
   256
  6
BYLAYER
 49
-0.5
 62
   256
  6
BYLAYER
  0
ACDBPLACEHOLDER
  5
F
102
{ACAD_REACTORS
330
E
102
}
330
E
  0
VISUALSTYLE
  5
2F
102
{ACAD_REACTORS
330
2A
102
}
330
2A
100
AcDbVisualStyle
  2
2dWireframe
 70
     4
177
     2
291
     0
 71
     0
176
     1
 72
     2
176
     1
 73
     0
176
     1
 90
        0
176
     1
 40
-0.6
176
     1
 41
-30.0
176
     1
 62
     5
 63
     7
421
 16777215
176
     1
 74
     1
176
     1
 91
        4
176
     1
 64
     7
176
     1
 65
   257
176
     1
 75
     1
176
     1
175
     1
176
     1
 42
1.0
176
     1
 92
        0
176
     1
 66
   257
176
     1
 43
1.0
176
     1
 76
     1
176
     1
 77
     6
176
     1
 78
     2
176
     1
 67
     7
176
     1
 79
     5
176
     1
170
     0
176
     1
171
     0
176
     1
290
     0
176
     1
 93
        1
176
     1
 44
0.0
176
     1
173
     0
176
     1
  0
VISUALSTYLE
  5
31
102
{ACAD_REACTORS
330
2A
102
}
330
2A
100
AcDbVisualStyle
  2
3D Hidden
 70
     6
177
     2
291
     0
 71
     1
176
     1
 72
     2
176
     1
 73
     2
176
     1
 90
        0
176
     1
 40
-0.6
176
     1
 41
-30.0
176
     1
 62
     5
 63
     7
421
 16777215
176
     1
 74
     2
176
     1
 91
        2
176
     1
 64
     7
176
     1
 65
   257
176
     1
 75
     2
176
     1
175
     1
176
     1
 42
40.0
176
     1
 92
        0
176
     1
 66
   257
176
     1
 43
1.0
176
     1
 76
     1
176
     1
 77
     6
176
     1
 78
     2
176
     1
 67
     7
176
     1
 79
     3
176
     1
170
     0
176
     1
171
     0
176
     1
290
     0
176
     1
 93
        1
176
     1
 44
0.0
176
     1
173
     0
176
     1
  0
VISUALSTYLE
  5
30
102
{ACAD_REACTORS
330
2A
102
}
330
2A
100
AcDbVisualStyle
  2
3dWireframe
 70
     5
177
     2
291
     0
 71
     0
176
     1
 72
     2
176
     1
 73
     0
176
     1
 90
        0
176
     1
 40
-0.6
176
     1
 41
-30.0
176
     1
 62
     5
 63
     7
421
 16777215
176
     1
 74
     1
176
     1
 91
        4
176
     1
 64
     7
176
     1
 65
   257
176
     1
 75
     1
176
     1
175
     1
176
     1
 42
1.0
176
     1
 92
        0
176
     1
 66
   257
176
     1
 43
1.0
176
     1
 76
     1
176
     1
 77
     6
176
     1
 78
     2
176
     1
 67
     7
176
     1
 79
     5
176
     1
170
     0
176
     1
171
     0
176
     1
290
     0
176
     1
 93
        1
176
     1
 44
0.0
176
     1
173
     0
176
     1
  0
VISUALSTYLE
  5
32
102
{ACAD_REACTORS
330
2A
102
}
330
2A
100
AcDbVisualStyle
  2
Basic
 70
     7
177
     2
291
     1
 71
     1
176
     1
 72
     0
176
     1
 73
     1
176
     1
 90
        0
176
     1
 40
-0.6
176
     1
 41
-30.0
176
     1
 62
     5
 63
     7
421
 16777215
176
     1
 74
     0
176
     1
 91
        4
176
     1
 64
     7
176
     1
 65
   257
176
     1
 75
     1
176
     1
175
     1
176
     1
 42
1.0
176
     1
 92
        8
176
     1
 66
     7
176
     1
 43
1.0
176
     1
 76
     1
176
     1
 77
     6
176
     1
 78
     2
176
     1
 67
     7
176
     1
 79
     5
176
     1
170
     0
176
     1
171
     0
176
     1
290
     0
176
     1
 93
        1
176
     1
 44
0.0
176
     1
173
     0
176
     1
  0
VISUALSTYLE
  5
36
102
{ACAD_REACTORS
330
2A
102
}
330
2A
100
AcDbVisualStyle
  2
Brighten
 70
    12
177
     2
291
     1
 71
     2
176
     1
 72
     2
176
     1
 73
     0
176
     1
 90
        0
176
     1
 40
-0.6
176
     1
 41
-30.0
176
     1
 62
     5
 63
     7
421
 16777215
176
     1
 74
     1
176
     1
 91
        4
176
     1
 64
     7
176
     1
 65
   257
176
     1
 75
     1
176
     1
175
     1
176
     1
 42
1.0
176
     1
 92
        8
176
     1
 66
     7
176
     1
 43
1.0
176
     1
 76
     1
176
     1
 77
     6
176
     1
 78
     2
176
     1
 67
     7
176
     1
 79
     5
176
     1
170
     0
176
     1
171
     0
176
     1
290
     0
176
     1
 93
        1
176
     1
 44
50.0
176
     1
173
     0
176
     1
  0
VISUALSTYLE
  5
3A
102
{ACAD_REACTORS
330
2A
102
}
330
2A
100
AcDbVisualStyle
  2
ColorChange
 70
    16
177
     2
291
     1
 71
     2
176
     1
 72
     2
176
     1
 73
     3
176
     1
 90
        0
176
     1
 40
-0.6
176
     1
 41
-30.0
176
     1
 62
     5
 63
     8
421
  8421504
176
     1
 74
     1
176
     1
 91
        4
176
     1
 64
     7
176
     1
 65
   257
176
     1
 75
     1
176
     1
175
     1
176
     1
 42
1.0
176
     1
 92
        8
176
     1
 66
     8
424
  8421504
176
     1
 43
1.0
176
     1
 76
     1
176
     1
 77
     6
176
     1
 78
     2
176
     1
 67
     7
176
     1
 79
     5
176
     1
170
     0
176
     1
171
     0
176
     1
290
     0
176
     1
 93
        1
176
     1
 44
0.0
176
     1
173
     0
176
     1
  0
VISUALSTYLE
  5
34
102
{ACAD_REACTORS
330
2A
102
}
330
2A
100
AcDbVisualStyle
  2
Conceptual
 70
     9
177
     2
291
     0
 71
     3
176
     1
 72
     2
176
     1
 73
     0
176
     1
 90
        0
176
     1
 40
-0.6
176
     1
 41
-30.0
176
     1
 62
     5
 63
     7
421
 16777215
176
     1
 74
     2
176
     1
 91
        2
176
     1
 64
     7
176
     1
 65
   257
176
     1
 75
     1
176
     1
175
     1
176
     1
 42
40.0
176
     1
 92
        8
176
     1
 66
     7
176
     1
 43
1.0
176
     1
 76
     1
176
     1
 77
     6
176
     1
 78
     2
176
     1
 67
     7
176
     1
 79
     3
176
     1
170
     0
176
     1
171
     0
176
     1
290
     0
176
     1
 93
        1
176
     1
 44
0.0
176
     1
173
     0
176
     1
  0
VISUALSTYLE
  5
35
102
{ACAD_REACTORS
330
2A
102
}
330
2A
100
AcDbVisualStyle
  2
Dim
 70
    11
177
     2
291
     1
 71
     2
176
     1
 72
     2
176
     1
 73
     0
176
     1
 90
        0
176
     1
 40
-0.6
176
     1
 41
-30.0
176
     1
 62
     5
 63
     7
421
 16777215
176
     1
 74
     1
176
     1
 91
        4
176
     1
 64
     7
176
     1
 65
   257
176
     1
 75
     1
176
     1
175
     1
176
     1
 42
1.0
176
     1
 92
        8
176
     1
 66
     7
176
     1
 43
1.0
176
     1
 76
     1
176
     1
 77
     6
176
     1
 78
     2
176
     1
 67
     7
176
     1
 79
     5
176
     1
170
     0
176
     1
171
     0
176
     1
290
     0
176
     1
 93
        1
176
     1
 44
-50.0
176
     1
173
     0
176
     1
  0
VISUALSTYLE
  5
39
102
{ACAD_REACTORS
330
2A
102
}
330
2A
100
AcDbVisualStyle
  2
Facepattern
 70
    15
177
     2
291
     1
 71
     2
176
     1
 72
     2
176
     1
 73
     0
176
     1
 90
        0
176
     1
 40
-0.6
176
     1
 41
-30.0
176
     1
 62
     5
 63
     7
421
 16777215
176
     1
 74
     1
176
     1
 91
        4
176
     1
 64
     7
176
     1
 65
   257
176
     1
 75
     1
176
     1
175
     1
176
     1
 42
1.0
176
     1
 92
        8
176
     1
 66
     7
176
     1
 43
1.0
176
     1
 76
     1
176
     1
 77
     6
176
     1
 78
     2
176
     1
 67
     7
176
     1
 79
     5
176
     1
170
     0
176
     1
171
     0
176
     1
290
     0
176
     1
 93
        1
176
     1
 44
0.0
176
     1
173
     0
176
     1
  0
VISUALSTYLE
  5
2B
102
{ACAD_REACTORS
330
2A
102
}
330
2A
100
AcDbVisualStyle
  2
Flat
 70
     0
177
     2
291
     1
 71
     2
176
     1
 72
     1
176
     1
 73
     1
176
     1
 90
        2
176
     1
 40
-0.6
176
     1
 41
30.0
176
     1
 62
     5
 63
     7
421
 16777215
176
     1
 74
     0
176
     1
 91
        4
176
     1
 64
     7
176
     1
 65
   257
176
     1
 75
     1
176
     1
175
     1
176
     1
 42
1.0
176
     1
 92
        8
176
     1
 66
     7
176
     1
 43
1.0
176
     1
 76
     1
176
     1
 77
     6
176
     1
 78
     2
176
     1
 67
     7
176
     1
 79
     5
176
     1
170
     0
176
     1
171
     0
176
     1
290
     0
176
     1
 93
       13
176
     1
 44
0.0
176
     1
173
     0
176
     1
  0
VISUALSTYLE
  5
2C
102
{ACAD_REACTORS
330
2A
102
}
330
2A
100
AcDbVisualStyle
  2
FlatWithEdges
 70
     1
177
     2
291
     1
 71
     2
176
     1
 72
     1
176
     1
 73
     1
176
     1
 90
        2
176
     1
 40
-0.6
176
     1
 41
30.0
176
     1
 62
     5
 63
     7
421
 16777215
176
     1
 74
     1
176
     1
 91
        4
176
     1
 64
     7
176
     1
 65
   257
176
     1
 75
     1
176
     1
175
     1
176
     1
 42
1.0
176
     1
 92
        0
176
     1
 66
   257
176
     1
 43
1.0
176
     1
 76
     1
176
     1
 77
     6
176
     1
 78
     2
176
     1
 67
     7
176
     1
 79
     5
176
     1
170
     0
176
     1
171
     0
176
     1
290
     0
176
     1
 93
       13
176
     1
 44
0.0
176
     1
173
     0
176
     1
  0
VISUALSTYLE
  5
2D
102
{ACAD_REACTORS
330
2A
102
}
330
2A
100
AcDbVisualStyle
  2
Gouraud
 70
     2
177
     2
291
     1
 71
     2
176
     1
 72
     2
176
     1
 73
     1
176
     1
 90
        2
176
     1
 40
-0.6
176
     1
 41
30.0
176
     1
 62
     5
 63
     7
421
 16777215
176
     1
 74
     0
176
     1
 91
        4
176
     1
 64
     7
176
     1
 65
   257
176
     1
 75
     1
176
     1
175
     1
176
     1
 42
1.0
176
     1
 92
        0
176
     1
 66
     7
176
     1
 43
1.0
176
     1
 76
     1
176
     1
 77
     6
176
     1
 78
     2
176
     1
 67
     7
176
     1
 79
     5
176
     1
170
     0
176
     1
171
     0
176
     1
290
     0
176
     1
 93
       13
176
     1
 44
0.0
176
     1
173
     0
176
     1
  0
VISUALSTYLE
  5
2E
102
{ACAD_REACTORS
330
2A
102
}
330
2A
100
AcDbVisualStyle
  2
GouraudWithEdges
 70
     3
177
     2
291
     1
 71
     2
176
     1
 72
     2
176
     1
 73
     1
176
     1
 90
        2
176
     1
 40
-0.6
176
     1
 41
30.0
176
     1
 62
     5
 63
     7
421
 16777215
176
     1
 74
     1
176
     1
 91
        4
176
     1
 64
     7
176
     1
 65
   257
176
     1
 75
     1
176
     1
175
     1
176
     1
 42
1.0
176
     1
 92
        0
176
     1
 66
   257
176
     1
 43
1.0
176
     1
 76
     1
176
     1
 77
     6
176
     1
 78
     2
176
     1
 67
     7
176
     1
 79
     5
176
     1
170
     0
176
     1
171
     0
176
     1
290
     0
176
     1
 93
       13
176
     1
 44
0.0
176
     1
173
     0
176
     1
  0
VISUALSTYLE
  5
38
102
{ACAD_REACTORS
330
2A
102
}
330
2A
100
AcDbVisualStyle
  2
Linepattern
 70
    14
177
     2
291
     1
 71
     2
176
     1
 72
     2
176
     1
 73
     0
176
     1
 90
        0
176
     1
 40
-0.6
176
     1
 41
-30.0
176
     1
 62
     5
 63
     7
421
 16777215
176
     1
 74
     1
176
     1
 91
        4
176
     1
 64
     7
176
     1
 65
   257
176
     1
 75
     7
176
     1
175
     7
176
     1
 42
1.0
176
     1
 92
        8
176
     1
 66
     7
176
     1
 43
1.0
176
     1
 76
     1
176
     1
 77
     6
176
     1
 78
     2
176
     1
 67
     7
176
     1
 79
     5
176
     1
170
     0
176
     1
171
     0
176
     1
290
     0
176
     1
 93
        1
176
     1
 44
0.0
176
     1
173
     0
176
     1
  0
VISUALSTYLE
  5
33
102
{ACAD_REACTORS
330
2A
102
}
330
2A
100
AcDbVisualStyle
  2
Realistic
 70
     8
177
     2
291
     0
 71
     2
176
     1
 72
     2
176
     1
 73
     0
176
     1
 90
        0
176
     1
 40
-0.6
176
     1
 41
-30.0
176
     1
 62
     5
 63
     7
421
 16777215
176
     1
 74
     1
176
     1
 91
        0
176
     1
 64
     7
176
     1
 65
   257
176
     1
 75
     1
176
     1
175
     1
176
     1
 42
1.0
176
     1
 92
        8
176
     1
 66
     8
424
  7895160
176
     1
 43
1.0
176
     1
 76
     1
176
     1
 77
     6
176
     1
 78
     2
176
     1
 67
     7
176
     1
 79
     5
176
     1
170
     0
176
     1
171
     0
176
     1
290
     0
176
     1
 93
       13
176
     1
 44
0.0
176
     1
173
     0
176
     1
  0
VISUALSTYLE
  5
37
102
{ACAD_REACTORS
330
2A
102
}
330
2A
100
AcDbVisualStyle
  2
Thicken
 70
    13
177
     2
291
     1
 71
     2
176
     1
 72
     2
176
     1
 73
     0
176
     1
 90
        0
176
     1
 40
-0.6
176
     1
 41
-30.0
176
     1
 62
     5
 63
     7
421
 16777215
176
     1
 74
     1
176
     1
 91
        4
176
     1
 64
     7
176
     1
 65
   257
176
     1
 75
     1
176
     1
175
     1
176
     1
 42
1.0
176
     1
 92
       12
176
     1
 66
     7
176
     1
 43
1.0
176
     1
 76
     1
176
     1
 77
     6
176
     1
 78
     2
176
     1
 67
     7
176
     1
 79
     5
176
     1
170
     0
176
     1
171
     0
176
     1
290
     0
176
     1
 93
        1
176
     1
 44
0.0
176
     1
173
     0
176
     1
  0
ENDSEC
  0
EOF
