  0
SECTION
  2
HEADER
  9
$ACADVER
  1
AC1024
  9
$ACADMAINTVER
 70
     6
  9
$DWGCODEPAGE
  3
UNDEFINED
  9
$INSBASE
 10
0.0
 20
0.0
 30
0.0
  9
$EXTMIN
 10
1.000000000000000E+20
 20
1.000000000000000E+20
 30
1.000000000000000E+20
  9
$EXTMAX
 10
-1.000000000000000E+20
 20
-1.000000000000000E+20
 30
-1.000000000000000E+20
  9
$LIMMIN
 10
0.0
 20
0.0
  9
$LIMMAX
 10
12.0
 20
9.0
  9
$ORTHOMODE
 70
     0
  9
$REGENMODE
 70
     1
  9
$FILLMODE
 70
     1
  9
$QTEXTMODE
 70
     0
  9
$MIRRTEXT
 70
     1
  9
$LTSCALE
 40
1.0
  9
$ATTMODE
 70
     1
  9
$TEXTSIZE
 40
0.2
  9
$TRACEWID
 40
0.05
  9
$TEXTSTYLE
  7
Standard
  9
$CLAYER
  8
0
  9
$CELTYPE
  6
ByLayer
  9
$CECOLOR
 62
   256
  9
$CELTSCALE
 40
1.0
  9
$DISPSILH
 70
     0
  9
$DIMSCALE
 40
1.0
  9
$DIMASZ
 40
0.18
  9
$DIMEXO
 40
0.0625
  9
$DIMDLI
 40
0.38
  9
$DIMRND
 40
0.0
  9
$DIMDLE
 40
0.0
  9
$DIMEXE
 40
0.18
  9
$DIMTP
 40
0.0
  9
$DIMTM
 40
0.0
  9
$DIMTXT
 40
0.18
  9
$DIMCEN
 40
0.09
  9
$DIMTSZ
 40
0.0
  9
$DIMTOL
 70
     0
  9
$DIMLIM
 70
     0
  9
$DIMTIH
 70
     1
  9
$DIMTOH
 70
     1
  9
$DIMSE1
 70
     0
  9
$DIMSE2
 70
     0
  9
$DIMTAD
 70
     0
  9
$DIMZIN
 70
     0
  9
$DIMBLK
  1

  9
$DIMASO
 70
     1
  9
$DIMSHO
 70
     1
  9
$DIMPOST
  1

  9
$DIMAPOST
  1

  9
$DIMALT
 70
     0
  9
$DIMALTD
 70
     2
  9
$DIMALTF
 40
25.4
  9
$DIMLFAC
 40
1.0
  9
$DIMTOFL
 70
     0
  9
$DIMTVP
 40
0.0
  9
$DIMTIX
 70
     0
  9
$DIMSOXD
 70
     0
  9
$DIMSAH
 70
     0
  9
$DIMBLK1
  1

  9
$DIMBLK2
  1

  9
$DIMSTYLE
  2
Standard
  9
$DIMCLRD
 70
     0
  9
$DIMCLRE
 70
     0
  9
$DIMCLRT
 70
     0
  9
$DIMTFAC
 40
1.0
  9
$DIMGAP
 40
0.09
  9
$DIMJUST
 70
     0
  9
$DIMSD1
 70
     0
  9
$DIMSD2
 70
     0
  9
$DIMTOLJ
 70
     1
  9
$DIMTZIN
 70
     0
  9
$DIMALTZ
 70
     0
  9
$DIMALTTZ
 70
     0
  9
$DIMUPT
 70
     0
  9
$DIMDEC
 70
     4
  9
$DIMTDEC
 70
     4
  9
$DIMALTU
 70
     2
  9
$DIMALTTD
 70
     2
  9
$DIMTXSTY
  7
Standard
  9
$DIMAUNIT
 70
     0
  9
$DIMADEC
 70
     0
  9
$DIMALTRND
 40
0.0
  9
$DIMAZIN
 70
     0
  9
$DIMDSEP
 70
    46
  9
$DIMATFIT
 70
     3
  9
$DIMFRAC
 70
     0
  9
$DIMLDRBLK
  1

  9
$DIMLUNIT
 70
     2
  9
$DIMLWD
 70
    -2
  9
$DIMLWE
 70
    -2
  9
$DIMTMOVE
 70
     0
  9
$DIMFXL
 40
1.0
  9
$DIMFXLON
 70
     0
  9
$DIMJOGANG
 40
0.7853981633974483
  9
$DIMTFILL
 70
     0
  9
$DIMTFILLCLR
 70
     0
  9
$DIMARCSYM
 70
     0
  9
$DIMLTYPE
  6

  9
$DIMLTEX1
  6

  9
$DIMLTEX2
  6

  9
$DIMTXTDIRECTION
 70
     0
  9
$LUNITS
 70
     2
  9
$LUPREC
 70
     4
  9
$SKETCHINC
 40
0.1
  9
$FILLETRAD
 40
0.5
  9
$AUNITS
 70
     0
  9
$AUPREC
 70
     0
  9
$MENU
  1
.
  9
$ELEVATION
 40
0.0
  9
$PELEVATION
 40
0.0
  9
$THICKNESS
 40
0.0
  9
$LIMCHECK
 70
     0
  9
$CHAMFERA
 40
0.5
  9
$CHAMFERB
 40
0.5
  9
$CHAMFERC
 40
1.0
  9
$CHAMFERD
 40
0.0
  9
$SKPOLY
 70
     0
  9
$TDCREATE
 40
2457917.613935173
  9
$TDUCREATE
 40
2457917.238935185
  9
$TDUPDATE
 40
2457917.613935173
  9
$TDUUPDATE
 40
2457917.238935185
  9
$TDINDWG
 40
0.0000000116
  9
$TDUSRTIMER
 40
0.0000000116
  9
$USRTIMER
 70
     1
  9
$ANGBASE
 50
0.0
  9
$ANGDIR
 70
     0
  9
$PDMODE
 70
     0
  9
$PDSIZE
 40
0.0
  9
$PLINEWID
 40
0.0
  9
$SPLFRAME
 70
     0
  9
$SPLINETYPE
 70
     6
  9
$SPLINESEGS
 70
     8
  9
$HANDSEED
  5
127
  9
$SURFTAB1
 70
     6
  9
$SURFTAB2
 70
     6
  9
$SURFTYPE
 70
     6
  9
$SURFU
 70
     6
  9
$SURFV
 70
     6
  9
$UCSBASE
  2

  9
$UCSNAME
  2

  9
$UCSORG
 10
0.0
 20
0.0
 30
0.0
  9
$UCSXDIR
 10
1.0
 20
0.0
 30
0.0
  9
$UCSYDIR
 10
0.0
 20
1.0
 30
0.0
  9
$UCSORTHOREF
  2

  9
$UCSORTHOVIEW
 70
     0
  9
$UCSORGTOP
 10
0.0
 20
0.0
 30
0.0
  9
$UCSORGBOTTOM
 10
0.0
 20
0.0
 30
0.0
  9
$UCSORGLEFT
 10
0.0
 20
0.0
 30
0.0
  9
$UCSORGRIGHT
 10
0.0
 20
0.0
 30
0.0
  9
$UCSORGFRONT
 10
0.0
 20
0.0
 30
0.0
  9
$UCSORGBACK
 10
0.0
 20
0.0
 30
0.0
  9
$PUCSBASE
  2

  9
$PUCSNAME
  2

  9
$PUCSORG
 10
0.0
 20
0.0
 30
0.0
  9
$PUCSXDIR
 10
1.0
 20
0.0
 30
0.0
  9
$PUCSYDIR
 10
0.0
 20
1.0
 30
0.0
  9
$PUCSORTHOREF
  2

  9
$PUCSORTHOVIEW
 70
     0
  9
$PUCSORGTOP
 10
0.0
 20
0.0
 30
0.0
  9
$PUCSORGBOTTOM
 10
0.0
 20
0.0
 30
0.0
  9
$PUCSORGLEFT
 10
0.0
 20
0.0
 30
0.0
  9
$PUCSORGRIGHT
 10
0.0
 20
0.0
 30
0.0
  9
$PUCSORGFRONT
 10
0.0
 20
0.0
 30
0.0
  9
$PUCSORGBACK
 10
0.0
 20
0.0
 30
0.0
  9
$USERI1
 70
     0
  9
$USERI2
 70
     0
  9
$USERI3
 70
     0
  9
$USERI4
 70
     0
  9
$USERI5
 70
     0
  9
$USERR1
 40
0.0
  9
$USERR2
 40
0.0
  9
$USERR3
 40
0.0
  9
$USERR4
 40
0.0
  9
$USERR5
 40
0.0
  9
$WORLDVIEW
 70
     1
  9
$SHADEDGE
 70
     3
  9
$SHADEDIF
 70
    70
  9
$TILEMODE
 70
     1
  9
$MAXACTVP
 70
    64
  9
$PINSBASE
 10
0.0
 20
0.0
 30
0.0
  9
$PLIMCHECK
 70
     0
  9
$PEXTMIN
 10
1.000000000000000E+20
 20
1.000000000000000E+20
 30
1.000000000000000E+20
  9
$PEXTMAX
 10
-1.000000000000000E+20
 20
-1.000000000000000E+20
 30
-1.000000000000000E+20
  9
$PLIMMIN
 10
0.0
 20
0.0
  9
$PLIMMAX
 10
12.0
 20
9.0
  9
$UNITMODE
 70
     0
  9
$VISRETAIN
 70
     1
  9
$PLINEGEN
 70
     0
  9
$PSLTSCALE
 70
     1
  9
$TREEDEPTH
 70
  3020
  9
$CMLSTYLE
  2
Standard
  9
$CMLJUST
 70
     0
  9
$CMLSCALE
 40
1.0
  9
$PROXYGRAPHICS
 70
     1
  9
$MEASUREMENT
 70
     0
  9
$CELWEIGHT
370
    -1
  9
$ENDCAPS
280
     0
  9
$JOINSTYLE
280
     0
  9
$LWDISPLAY
290
     1
  9
$INSUNITS
 70
     1
  9
$HYPERLINKBASE
  1

  9
$STYLESHEET
  1

  9
$XEDIT
290
     1
  9
$CEPSNTYPE
380
     0
  9
$PSTYLEMODE
290
     1
  9
$FINGERPRINTGUID
  2
{0CF580A1-834D-C2DD-5D6D-1603182CD7DC}
  9
$VERSIONGUID
  2
{FAEB1C32-E019-11D5-929B-00C0DF256EC4}
  9
$EXTNAMES
290
     1
  9
$PSVPSCALE
 40
0.0
  9
$OLESTARTUP
290
     0
  9
$SORTENTS
280
   127
  9
$INDEXCTL
280
     0
  9
$HIDETEXT
280
     1
  9
$XCLIPFRAME
280
     2
  9
$HALOGAP
280
     0
  9
$OBSCOLOR
 70
   257
  9
$OBSLTYPE
280
     0
  9
$INTERSECTIONDISPLAY
280
     0
  9
$INTERSECTIONCOLOR
 70
   257
  9
$DIMASSOC
280
     2
  9
$PROJECTNAME
  1

  9
$CAMERADISPLAY
290
     0
  9
$LENSLENGTH
 40
50.0
  9
$CAMERAHEIGHT
 40
0.0
  9
$STEPSPERSEC
 40
2.0
  9
$STEPSIZE
 40
6.0
  9
$3DDWFPREC
 40
2.0
  9
$PSOLWIDTH
 40
0.25
  9
$PSOLHEIGHT
 40
4.0
  9
$LOFTANG1
 40
1.570796326794897
  9
$LOFTANG2
 40
1.570796326794897
  9
$LOFTMAG1
 40
0.0
  9
$LOFTMAG2
 40
0.0
  9
$LOFTPARAM
 70
     7
  9
$LOFTNORMALS
280
     1
  9
$LATITUDE
 40
37.795
  9
$LONGITUDE
 40
-122.394
  9
$NORTHDIRECTION
 40
0.0
  9
$TIMEZONE
 70
 -8000
  9
$LIGHTGLYPHDISPLAY
280
     1
  9
$TILEMODELIGHTSYNCH
280
     1
  9
$CMATERIAL
347
3C
  9
$SOLIDHIST
280
     1
  9
$SHOWHIST
280
     1
  9
$DWFFRAME
280
     2
  9
$DGNFRAME
280
     2
  9
$REALWORLDSCALE
290
     1
  9
$INTERFERECOLOR
 62
   256
  9
$CSHADOW
280
     0
  9
$SHADOWPLANELOCATION
 40
0.0
  0
ENDSEC
  0
SECTION
  2
CLASSES
  0
CLASS
  1
ACDBDICTIONARYWDFLT
  2
AcDbDictionaryWithDefault
  3
ObjectDBX Classes
 90
        0
 91
        4
280
     0
281
     0
  0
CLASS
  1
VISUALSTYLE
  2
AcDbVisualStyle
  3
ObjectDBX Classes
 90
     4095
 91
        4
280
     0
281
     0
  0
CLASS
  1
MATERIAL
  2
AcDbMaterial
  3
ObjectDBX Classes
 90
     1153
 91
        4
280
     0
281
     0
  0
CLASS
  1
SUN
  2
AcDbSun
  3
SCENEOE
 90
     1024
 91
        4
280
     0
281
     0
  0
ENDSEC
  0
SECTION
  2
TABLES
  0
TABLE
  2
VPORT
  5
8
330
0
100
AcDbSymbolTable
 70
     1
  0
VPORT
  5
29
330
8
100
AcDbSymbolTableRecord
100
AcDbViewportTableRecord
  2
*Active
 70
     0
 10
0.0
 20
0.0
 11
1.0
 21
1.0
 12
0.0
 22
0.0
 13
0.0
 23
0.0
 14
0.5
 24
0.5
 15
0.5
 25
0.5
 16
0.0
 26
0.0
 36
1.0
 17
91.00082462281999
 27
-128.4993055234307
 37
0.0
 40
256.9986110468615
 41
0.7081814508812795
 42
50.0
 43
0.0
 44
0.0
 50
0.0
 51
0.0
 71
     0
 72
   100
 73
     1
 74
     3
 75
     0
 76
     0
 77
     0
 78
     0
281
     0
 65
     1
110
0.0
120
0.0
130
0.0
111
1.0
121
0.0
131
0.0
112
0.0
122
1.0
132
0.0
 79
     0
146
0.0
 60
     3
 61
     5
292
     1
282
     1
141
0.0
142
0.0
 63
   250
361
3F
  0
ENDTAB
  0
TABLE
  2
LTYPE
  5
5
330
0
100
AcDbSymbolTable
 70
     1
  0
LTYPE
  5
14
330
5
100
AcDbSymbolTableRecord
100
AcDbLinetypeTableRecord
  2
ByBlock
 70
     0
  3

 72
    65
 73
     0
 40
0.0
  0
LTYPE
  5
15
330
5
100
AcDbSymbolTableRecord
100
AcDbLinetypeTableRecord
  2
ByLayer
 70
     0
  3

 72
    65
 73
     0
 40
0.0
  0
LTYPE
  5
16
330
5
100
AcDbSymbolTableRecord
100
AcDbLinetypeTableRecord
  2
Continuous
 70
     0
  3
Solid line
 72
    65
 73
     0
 40
0.0
  0
ENDTAB
  0
TABLE
  2
LAYER
  5
2
330
0
100
AcDbSymbolTable
 70
     2
  0
LAYER
  5
10
330
2
100
AcDbSymbolTableRecord
100
AcDbLayerTableRecord
  2
0
 70
     0
 62
     7
  6
Continuous
370
    -3
390
F
347
3E
  0
LAYER
  5
40
330
2
100
AcDbSymbolTableRecord
100
AcDbLayerTableRecord
  2
_U+30EC_U+30A4_U+30E4_U+30FC 1
 70
     0
 62
     7
  6
Continuous
370
    -3
390
F
347
3E
  0
ENDTAB
  0
TABLE
  2
STYLE
  5
3
330
0
100
AcDbSymbolTable
 70
     1
  0
STYLE
  5
11
330
3
100
AcDbSymbolTableRecord
100
AcDbTextStyleTableRecord
  2
Standard
 70
     0
 40
0.0
 41
1.0
 50
0.0
 71
     0
 42
0.2
  3
txt
  4

  0
ENDTAB
  0
TABLE
  2
VIEW
  5
6
330
0
100
AcDbSymbolTable
 70
     0
  0
ENDTAB
  0
TABLE
  2
UCS
  5
7
330
0
100
AcDbSymbolTable
 70
     0
  0
ENDTAB
  0
TABLE
  2
APPID
  5
9
330
0
100
AcDbSymbolTable
 70
     1
  0
APPID
  5
12
330
9
100
AcDbSymbolTableRecord
100
AcDbRegAppTableRecord
  2
ACAD
 70
     0
  0
ENDTAB
  0
TABLE
  2
DIMSTYLE
  5
A
330
0
100
AcDbSymbolTable
 70
     1
100
AcDbDimStyleTable
  0
DIMSTYLE
105
27
330
A
100
AcDbSymbolTableRecord
100
AcDbDimStyleTableRecord
  2
Standard
 70
     0
178
     0
340
11
  0
ENDTAB
  0
TABLE
  2
BLOCK_RECORD
  5
1
330
0
100
AcDbSymbolTable
 70
     9
  0
BLOCK_RECORD
  5
1F
330
1
100
AcDbSymbolTableRecord
100
AcDbBlockTableRecord
  2
*Model_Space
340
22
 70
     0
280
     1
281
     0
  0
BLOCK_RECORD
  5
1B
330
1
100
AcDbSymbolTableRecord
100
AcDbBlockTableRecord
  2
*Paper_Space
340
1E
 70
     0
280
     1
281
     0
  0
BLOCK_RECORD
  5
23
330
1
100
AcDbSymbolTableRecord
100
AcDbBlockTableRecord
  2
*Paper_Space0
340
26
 70
     0
280
     1
281
     0
  0
BLOCK_RECORD
  5
41
330
1
100
AcDbSymbolTableRecord
100
AcDbBlockTableRecord
  2
block 2
340
0
102
{BLKREFS
331
42
102
}
 70
     0
280
     1
281
     0
  0
BLOCK_RECORD
  5
9C
330
1
100
AcDbSymbolTableRecord
100
AcDbBlockTableRecord
  2
block 3
340
0
102
{BLKREFS
331
9D
102
}
 70
     0
280
     1
281
     0
  0
BLOCK_RECORD
  5
AE
330
1
100
AcDbSymbolTableRecord
100
AcDbBlockTableRecord
  2
block 4
340
0
102
{BLKREFS
331
AF
102
}
 70
     0
280
     1
281
     0
  0
BLOCK_RECORD
  5
C0
330
1
100
AcDbSymbolTableRecord
100
AcDbBlockTableRecord
  2
block 5
340
0
102
{BLKREFS
331
C1
102
}
 70
     0
280
     1
281
     0
  0
BLOCK_RECORD
  5
E8
330
1
100
AcDbSymbolTableRecord
100
AcDbBlockTableRecord
  2
block 6
340
0
102
{BLKREFS
331
E9
102
}
 70
     0
280
     1
281
     0
  0
BLOCK_RECORD
  5
FD
330
1
100
AcDbSymbolTableRecord
100
AcDbBlockTableRecord
  2
block 7
340
0
102
{BLKREFS
331
FE
102
}
 70
     0
280
     1
281
     0
  0
BLOCK_RECORD
  5
10D
330
1
100
AcDbSymbolTableRecord
100
AcDbBlockTableRecord
  2
block 8
340
0
102
{BLKREFS
331
10E
102
}
 70
     0
280
     1
281
     0
  0
BLOCK_RECORD
  5
11F
330
1
100
AcDbSymbolTableRecord
100
AcDbBlockTableRecord
  2
block 9
340
0
102
{BLKREFS
331
120
102
}
 70
     0
280
     1
281
     0
  0
ENDTAB
  0
ENDSEC
  0
SECTION
  2
BLOCKS
  0
BLOCK
  5
20
330
1F
100
AcDbEntity
  8
0
100
AcDbBlockBegin
  2
*Model_Space
 70
     0
 10
0.0
 20
0.0
 30
0.0
  3
*Model_Space
  1

  0
ENDBLK
  5
21
330
1F
100
AcDbEntity
  8
0
100
AcDbBlockEnd
  0
BLOCK
  5
1C
330
1B
100
AcDbEntity
 67
     1
  8
0
100
AcDbBlockBegin
  2
*Paper_Space
 70
     0
 10
0.0
 20
0.0
 30
0.0
  3
*Paper_Space
  1

  0
ENDBLK
  5
1D
330
1B
100
AcDbEntity
 67
     1
  8
0
100
AcDbBlockEnd
  0
BLOCK
  5
24
330
23
100
AcDbEntity
  8
0
100
AcDbBlockBegin
  2
*Paper_Space0
 70
     0
 10
0.0
 20
0.0
 30
0.0
  3
*Paper_Space0
  1

  0
ENDBLK
  5
25
330
23
100
AcDbEntity
  8
0
100
AcDbBlockEnd
  0
BLOCK
  5
43
330
41
100
AcDbEntity
  8
0
100
AcDbBlockBegin
  2
block 2
 70
     0
 10
0.0
 20
0.0
 30
0.0
  3
block 2
  1

  0
POLYLINE
  5
45
330
41
100
AcDbEntity
  8
_U+30EC_U+30A4_U+30E4_U+30FC 1
 62
   179
420
  2234388
370
    25
100
AcDb2dPolyline
 66
     1
 10
0.0
 20
0.0
 30
0.0
  0
VERTEX
  5
46
330
45
100
AcDbEntity
  8
_U+30EC_U+30A4_U+30E4_U+30FC 1
 62
   179
420
  2234388
370
    25
100
AcDbVertex
100
AcDb2dVertex
 10
72.74834981070164
 20
-128.9037652455521
 30
0.0
  0
VERTEX
  5
47
330
45
100
AcDbEntity
  8
_U+30EC_U+30A4_U+30E4_U+30FC 1
 62
   179
420
  2234388
370
    25
100
AcDbVertex
100
AcDb2dVertex
 10
111.8484738131744
 20
-128.9037652455521
 30
0.0
  0
SEQEND
  5
48
330
45
100
AcDbEntity
  8
_U+30EC_U+30A4_U+30E4_U+30FC 1
 62
   179
420
  2234388
370
    25
  0
POLYLINE
  5
49
330
41
100
AcDbEntity
  8
_U+30EC_U+30A4_U+30E4_U+30FC 1
 62
   179
420
  2234388
370
    25
100
AcDb2dPolyline
 66
     1
 10
0.0
 20
0.0
 30
0.0
  0
VERTEX
  5
4A
330
49
100
AcDbEntity
  8
_U+30EC_U+30A4_U+30E4_U+30FC 1
 62
   179
420
  2234388
370
    25
100
AcDbVertex
100
AcDb2dVertex
 10
78.84840659952067
 20
-138.9038510763854
 30
0.0
  0
VERTEX
  5
4B
330
49
100
AcDbEntity
  8
_U+30EC_U+30A4_U+30E4_U+30FC 1
 62
   179
420
  2234388
370
    25
100
AcDbVertex
100
AcDb2dVertex
 10
81.84839346742908
 20
-138.9038510763854
 30
0.0
  0
SEQEND
  5
4C
330
49
100
AcDbEntity
  8
_U+30EC_U+30A4_U+30E4_U+30FC 1
 62
   179
420
  2234388
370
    25
  0
POLYLINE
  5
4D
330
41
100
AcDbEntity
  8
_U+30EC_U+30A4_U+30E4_U+30FC 1
 62
   179
420
  2234388
370
    25
100
AcDb2dPolyline
 66
     1
 10
0.0
 20
0.0
 30
0.0
  0
VERTEX
  5
4E
330
4D
100
AcDbEntity
  8
_U+30EC_U+30A4_U+30E4_U+30FC 1
 62
   179
420
  2234388
370
    25
100
AcDbVertex
100
AcDb2dVertex
 10
71.84834316699606
 20
-141.9038380200798
 30
0.0
  0
VERTEX
  5
4F
330
4D
100
AcDbEntity
  8
_U+30EC_U+30A4_U+30E4_U+30FC 1
 62
   179
420
  2234388
370
    25
100
AcDbVertex
100
AcDb2dVertex
 10
81.84839346742908
 20
-141.9038380200798
 30
0.0
  0
SEQEND
  5
50
330
4D
100
AcDbEntity
  8
_U+30EC_U+30A4_U+30E4_U+30FC 1
 62
   179
420
  2234388
370
    25
  0
POLYLINE
  5
51
330
41
100
AcDbEntity
  8
_U+30EC_U+30A4_U+30E4_U+30FC 1
 62
   179
420
  2234388
370
    25
100
AcDb2dPolyline
 66
     1
 10
0.0
 20
0.0
 30
0.0
  0
VERTEX
  5
52
330
51
100
AcDbEntity
  8
_U+30EC_U+30A4_U+30E4_U+30FC 1
 62
   179
420
  2234388
370
    25
100
AcDbVertex
100
AcDb2dVertex
 10
71.84834316699606
 20
-120.9035766364406
 30
0.0
  0
VERTEX
  5
53
330
51
100
AcDbEntity
  8
_U+30EC_U+30A4_U+30E4_U+30FC 1
 62
   179
420
  2234388
370
    25
100
AcDbVertex
100
AcDb2dVertex
 10
71.84834316699606
 20
-141.9038380200798
 30
0.0
  0
SEQEND
  5
54
330
51
100
AcDbEntity
  8
_U+30EC_U+30A4_U+30E4_U+30FC 1
 62
   179
420
  2234388
370
    25
  0
POLYLINE
  5
55
330
41
100
AcDbEntity
  8
_U+30EC_U+30A4_U+30E4_U+30FC 1
 62
   179
420
  2234388
370
    25
100
AcDb2dPolyline
 66
     1
 10
0.0
 20
0.0
 30
0.0
  0
VERTEX
  5
56
330
55
100
AcDbEntity
  8
_U+30EC_U+30A4_U+30E4_U+30FC 1
 62
   179
420
  2234388
370
    25
100
AcDbVertex
100
AcDb2dVertex
 10
111.8484738131744
 20
-128.0038996902212
 30
0.0
  0
VERTEX
  5
57
330
55
100
AcDbEntity
  8
_U+30EC_U+30A4_U+30E4_U+30FC 1
 62
   179
420
  2234388
370
    25
100
AcDbVertex
100
AcDb2dVertex
 10
111.8484738131744
 20
-128.9037652455521
 30
0.0
  0
SEQEND
  5
58
330
55
100
AcDbEntity
  8
_U+30EC_U+30A4_U+30E4_U+30FC 1
 62
   179
420
  2234388
370
    25
  0
POLYLINE
  5
59
330
41
100
AcDbEntity
  8
_U+30EC_U+30A4_U+30E4_U+30FC 1
 62
   179
420
  2234388
370
    25
100
AcDb2dPolyline
 66
     1
 10
0.0
 20
0.0
 30
0.0
  0
VERTEX
  5
5A
330
59
100
AcDbEntity
  8
_U+30EC_U+30A4_U+30E4_U+30FC 1
 62
   179
420
  2234388
370
    25
100
AcDbVertex
100
AcDb2dVertex
 10
71.84834316699606
 20
-120.9035766364406
 30
0.0
  0
VERTEX
  5
5B
330
59
100
AcDbEntity
  8
_U+30EC_U+30A4_U+30E4_U+30FC 1
 62
   179
420
  2234388
370
    25
100
AcDbVertex
100
AcDb2dVertex
 10
74.84833003490446
 20
-120.9035766364406
 30
0.0
  0
SEQEND
  5
5C
330
59
100
AcDbEntity
  8
_U+30EC_U+30A4_U+30E4_U+30FC 1
 62
   179
420
  2234388
370
    25
  0
POLYLINE
  5
5D
330
41
100
AcDbEntity
  8
_U+30EC_U+30A4_U+30E4_U+30FC 1
 62
   179
420
  2234388
370
    25
100
AcDb2dPolyline
 66
     1
 10
0.0
 20
0.0
 30
0.0
  0
VERTEX
  5
5E
330
5D
100
AcDbEntity
  8
_U+30EC_U+30A4_U+30E4_U+30FC 1
 62
   179
420
  2234388
370
    25
100
AcDbVertex
100
AcDb2dVertex
 10
74.84833003490446
 20
-120.9035766364406
 30
0.0
  0
VERTEX
  5
5F
330
5D
100
AcDbEntity
  8
_U+30EC_U+30A4_U+30E4_U+30FC 1
 62
   179
420
  2234388
370
    25
100
AcDbVertex
100
AcDb2dVertex
 10
74.84833003490446
 20
-121.9036663584131
 30
0.0
  0
SEQEND
  5
60
330
5D
100
AcDbEntity
  8
_U+30EC_U+30A4_U+30E4_U+30FC 1
 62
   179
420
  2234388
370
    25
  0
POLYLINE
  5
61
330
41
100
AcDbEntity
  8
_U+30EC_U+30A4_U+30E4_U+30FC 1
 62
   179
420
  2234388
370
    25
100
AcDb2dPolyline
 66
     1
 10
0.0
 20
0.0
 30
0.0
  0
VERTEX
  5
62
330
61
100
AcDbEntity
  8
_U+30EC_U+30A4_U+30E4_U+30FC 1
 62
   179
420
  2234388
370
    25
100
AcDbVertex
100
AcDb2dVertex
 10
72.74834981070164
 20
-121.9036663584131
 30
0.0
  0
VERTEX
  5
63
330
61
100
AcDbEntity
  8
_U+30EC_U+30A4_U+30E4_U+30FC 1
 62
   179
420
  2234388
370
    25
100
AcDbVertex
100
AcDb2dVertex
 10
74.84833003490446
 20
-121.9036663584131
 30
0.0
  0
SEQEND
  5
64
330
61
100
AcDbEntity
  8
_U+30EC_U+30A4_U+30E4_U+30FC 1
 62
   179
420
  2234388
370
    25
  0
POLYLINE
  5
65
330
41
100
AcDbEntity
  8
_U+30EC_U+30A4_U+30E4_U+30FC 1
 62
   179
420
  2234388
370
    25
100
AcDb2dPolyline
 66
     1
 10
0.0
 20
0.0
 30
0.0
  0
VERTEX
  5
66
330
65
100
AcDbEntity
  8
_U+30EC_U+30A4_U+30E4_U+30FC 1
 62
   179
420
  2234388
370
    25
100
AcDbVertex
100
AcDb2dVertex
 10
81.84839346742908
 20
-138.9038510763854
 30
0.0
  0
VERTEX
  5
67
330
65
100
AcDbEntity
  8
_U+30EC_U+30A4_U+30E4_U+30FC 1
 62
   179
420
  2234388
370
    25
100
AcDbVertex
100
AcDb2dVertex
 10
81.84839346742908
 20
-141.9038380200798
 30
0.0
  0
SEQEND
  5
68
330
65
100
AcDbEntity
  8
_U+30EC_U+30A4_U+30E4_U+30FC 1
 62
   179
420
  2234388
370
    25
  0
POLYLINE
  5
69
330
41
100
AcDbEntity
  8
_U+30EC_U+30A4_U+30E4_U+30FC 1
 62
   179
420
  2234388
370
    25
100
AcDb2dPolyline
 66
     1
 10
0.0
 20
0.0
 30
0.0
  0
VERTEX
  5
6A
330
69
100
AcDbEntity
  8
_U+30EC_U+30A4_U+30E4_U+30FC 1
 62
   179
420
  2234388
370
    25
100
AcDbVertex
100
AcDb2dVertex
 10
78.84840659952067
 20
-138.9038510763854
 30
0.0
  0
VERTEX
  5
6B
330
69
100
AcDbEntity
  8
_U+30EC_U+30A4_U+30E4_U+30FC 1
 62
   179
420
  2234388
370
    25
100
AcDbVertex
100
AcDb2dVertex
 10
78.84840659952067
 20
-139.9035880205798
 30
0.0
  0
SEQEND
  5
6C
330
69
100
AcDbEntity
  8
_U+30EC_U+30A4_U+30E4_U+30FC 1
 62
   179
420
  2234388
370
    25
  0
POLYLINE
  5
6D
330
41
100
AcDbEntity
  8
_U+30EC_U+30A4_U+30E4_U+30FC 1
 62
   179
420
  2234388
370
    25
100
AcDb2dPolyline
 66
     1
 10
0.0
 20
0.0
 30
0.0
  0
VERTEX
  5
6E
330
6D
100
AcDbEntity
  8
_U+30EC_U+30A4_U+30E4_U+30FC 1
 62
   179
420
  2234388
370
    25
100
AcDbVertex
100
AcDb2dVertex
 10
78.84840659952067
 20
-139.9035880205798
 30
0.0
  0
VERTEX
  5
6F
330
6D
100
AcDbEntity
  8
_U+30EC_U+30A4_U+30E4_U+30FC 1
 62
   179
420
  2234388
370
    25
100
AcDbVertex
100
AcDb2dVertex
 10
80.84830377072127
 20
-139.9035880205798
 30
0.0
  0
SEQEND
  5
70
330
6D
100
AcDbEntity
  8
_U+30EC_U+30A4_U+30E4_U+30FC 1
 62
   179
420
  2234388
370
    25
  0
POLYLINE
  5
71
330
41
100
AcDbEntity
  8
_U+30EC_U+30A4_U+30E4_U+30FC 1
 62
   179
420
  2234388
370
    25
100
AcDb2dPolyline
 66
     1
 10
0.0
 20
0.0
 30
0.0
  0
VERTEX
  5
72
330
71
100
AcDbEntity
  8
_U+30EC_U+30A4_U+30E4_U+30FC 1
 62
   179
420
  2234388
370
    25
100
AcDbVertex
100
AcDb2dVertex
 10
72.74834981070164
 20
-140.9037130203295
 30
0.0
  0
VERTEX
  5
73
330
71
100
AcDbEntity
  8
_U+30EC_U+30A4_U+30E4_U+30FC 1
 62
   179
420
  2234388
370
    25
100
AcDbVertex
100
AcDb2dVertex
 10
80.84830377072127
 20
-140.9037130203295
 30
0.0
  0
SEQEND
  5
74
330
71
100
AcDbEntity
  8
_U+30EC_U+30A4_U+30E4_U+30FC 1
 62
   179
420
  2234388
370
    25
  0
POLYLINE
  5
75
330
41
100
AcDbEntity
  8
_U+30EC_U+30A4_U+30E4_U+30FC 1
 62
   179
420
  2234388
370
    25
100
AcDb2dPolyline
 66
     1
 10
0.0
 20
0.0
 30
0.0
  0
VERTEX
  5
76
330
75
100
AcDbEntity
  8
_U+30EC_U+30A4_U+30E4_U+30FC 1
 62
   179
420
  2234388
370
    25
100
AcDbVertex
100
AcDb2dVertex
 10
80.84830377072127
 20
-139.9035880205798
 30
0.0
  0
VERTEX
  5
77
330
75
100
AcDbEntity
  8
_U+30EC_U+30A4_U+30E4_U+30FC 1
 62
   179
420
  2234388
370
    25
100
AcDbVertex
100
AcDb2dVertex
 10
80.84830377072127
 20
-140.9037130203295
 30
0.0
  0
SEQEND
  5
78
330
75
100
AcDbEntity
  8
_U+30EC_U+30A4_U+30E4_U+30FC 1
 62
   179
420
  2234388
370
    25
  0
POLYLINE
  5
79
330
41
100
AcDbEntity
  8
_U+30EC_U+30A4_U+30E4_U+30FC 1
 62
   179
420
  2234388
370
    25
100
AcDb2dPolyline
 66
     1
 10
0.0
 20
0.0
 30
0.0
  0
VERTEX
  5
7A
330
79
100
AcDbEntity
  8
_U+30EC_U+30A4_U+30E4_U+30FC 1
 62
   179
420
  2234388
370
    25
100
AcDbVertex
100
AcDb2dVertex
 10
72.74834981070164
 20
-128.0038996902212
 30
0.0
  0
VERTEX
  5
7B
330
79
100
AcDbEntity
  8
_U+30EC_U+30A4_U+30E4_U+30FC 1
 62
   179
420
  2234388
370
    25
100
AcDbVertex
100
AcDb2dVertex
 10
111.8484738131744
 20
-128.0038996902212
 30
0.0
  0
SEQEND
  5
7C
330
79
100
AcDbEntity
  8
_U+30EC_U+30A4_U+30E4_U+30FC 1
 62
   179
420
  2234388
370
    25
  0
POLYLINE
  5
7D
330
41
100
AcDbEntity
  8
_U+30EC_U+30A4_U+30E4_U+30FC 1
 62
   179
420
  2234388
370
    25
100
AcDb2dPolyline
 66
     1
 10
0.0
 20
0.0
 30
0.0
  0
VERTEX
  5
7E
330
7D
100
AcDbEntity
  8
_U+30EC_U+30A4_U+30E4_U+30FC 1
 62
   179
420
  2234388
370
    25
100
AcDbVertex
100
AcDb2dVertex
 10
72.74834981070164
 20
-121.9036663584131
 30
0.0
  0
VERTEX
  5
7F
330
7D
100
AcDbEntity
  8
_U+30EC_U+30A4_U+30E4_U+30FC 1
 62
   179
420
  2234388
370
    25
100
AcDbVertex
100
AcDb2dVertex
 10
72.74834981070164
 20
-128.0038996902212
 30
0.0
  0
SEQEND
  5
80
330
7D
100
AcDbEntity
  8
_U+30EC_U+30A4_U+30E4_U+30FC 1
 62
   179
420
  2234388
370
    25
  0
POLYLINE
  5
81
330
41
100
AcDbEntity
  8
_U+30EC_U+30A4_U+30E4_U+30FC 1
 62
   179
420
  2234388
370
    25
100
AcDb2dPolyline
 66
     1
 10
0.0
 20
0.0
 30
0.0
  0
VERTEX
  5
82
330
81
100
AcDbEntity
  8
_U+30EC_U+30A4_U+30E4_U+30FC 1
 62
   179
420
  2234388
370
    25
100
AcDbVertex
100
AcDb2dVertex
 10
72.74834981070164
 20
-128.9037652455521
 30
0.0
  0
VERTEX
  5
83
330
81
100
AcDbEntity
  8
_U+30EC_U+30A4_U+30E4_U+30FC 1
 62
   179
420
  2234388
370
    25
100
AcDbVertex
100
AcDb2dVertex
 10
72.74834981070164
 20
-140.9037130203295
 30
0.0
  0
SEQEND
  5
84
330
81
100
AcDbEntity
  8
_U+30EC_U+30A4_U+30E4_U+30FC 1
 62
   179
420
  2234388
370
    25
  0
SPLINE
  5
85
330
41
100
AcDbEntity
  8
_U+30EC_U+30A4_U+30E4_U+30FC 1
 62
   179
420
  2234388
370
     9
100
AcDbSpline
210
0.0
220
0.0
230
1.0
 70
    11
 71
     3
 72
    17
 73
    13
 74
     0
 42
0.0000000001
 43
0.0000000001
 12
1.0
 22
0.0
 32
0.0
 13
1.0
 23
0.0
 33
0.0
 40
0.0
 40
0.0
 40
0.0
 40
0.0
 40
1.0
 40
1.0
 40
1.0
 40
2.0
 40
2.0
 40
2.0
 40
3.0
 40
3.0
 40
3.0
 40
4.0
 40
4.0
 40
4.0
 40
4.0
 10
71.94839094222141
 20
-112.9037055273298
 30
0.0
 10
71.94839094222141
 20
-112.8482488606768
 30
0.0
 10
71.90362344336351
 20
-112.8037988606878
 30
0.0
 10
71.84834316699606
 20
-112.8037988606878
 30
0.0
 10
71.79302761285172
 20
-112.8037988606878
 30
0.0
 10
71.74840122510135
 20
-112.8482488606768
 30
0.0
 10
71.74840122510135
 20
-112.9037055273298
 30
0.0
 10
71.74840122510135
 20
-112.9591621939824
 30
0.0
 10
71.79302761285172
 20
-113.0039649717492
 30
0.0
 10
71.84834316699606
 20
-113.0039649717492
 30
0.0
 10
71.90362344336351
 20
-113.0039649717492
 30
0.0
 10
71.94839094222141
 20
-112.9591621939824
 30
0.0
 10
71.94839094222141
 20
-112.9037055273298
 30
0.0
  0
SPLINE
  5
86
330
41
100
AcDbEntity
  8
_U+30EC_U+30A4_U+30E4_U+30FC 1
 62
   179
420
  2234388
370
     9
100
AcDbSpline
210
0.0
220
0.0
230
1.0
 70
    11
 71
     3
 72
    17
 73
    13
 74
     0
 42
0.0000000001
 43
0.0000000001
 12
1.0
 22
0.0
 32
0.0
 13
1.0
 23
0.0
 33
0.0
 40
0.0
 40
0.0
 40
0.0
 40
0.0
 40
1.0
 40
1.0
 40
1.0
 40
2.0
 40
2.0
 40
2.0
 40
3.0
 40
3.0
 40
3.0
 40
4.0
 40
4.0
 40
4.0
 40
4.0
 10
71.94839094222141
 20
-116.9038174707741
 30
0.0
 10
71.94839094222141
 20
-116.848678304121
 30
0.0
 10
71.90362344336351
 20
-116.8039108041325
 30
0.0
 10
71.84834316699606
 20
-116.8039108041325
 30
0.0
 10
71.79302761285172
 20
-116.8039108041325
 30
0.0
 10
71.74840122510135
 20
-116.848678304121
 30
0.0
 10
71.74840122510135
 20
-116.9038174707741
 30
0.0
 10
71.74840122510135
 20
-116.958921359649
 30
0.0
 10
71.79302761285172
 20
-117.0037241374157
 30
0.0
 10
71.84834316699606
 20
-117.0037241374157
 30
0.0
 10
71.90362344336351
 20
-117.0037241374157
 30
0.0
 10
71.94839094222141
 20
-116.958921359649
 30
0.0
 10
71.94839094222141
 20
-116.9038174707741
 30
0.0
  0
SPLINE
  5
87
330
41
100
AcDbEntity
  8
_U+30EC_U+30A4_U+30E4_U+30FC 1
 62
   179
420
  2234388
370
     9
100
AcDbSpline
210
0.0
220
0.0
230
1.0
 70
    11
 71
     3
 72
    17
 73
    13
 74
     0
 42
0.0000000001
 43
0.0000000001
 12
1.0
 22
0.0
 32
0.0
 13
1.0
 23
0.0
 33
0.0
 40
0.0
 40
0.0
 40
0.0
 40
0.0
 40
1.0
 40
1.0
 40
1.0
 40
2.0
 40
2.0
 40
2.0
 40
3.0
 40
3.0
 40
3.0
 40
4.0
 40
4.0
 40
4.0
 40
4.0
 10
74.94837781012981
 20
-116.9038174707741
 30
0.0
 10
74.94837781012981
 20
-116.848678304121
 30
0.0
 10
74.90361031127192
 20
-116.8039108041325
 30
0.0
 10
74.84833003490446
 20
-116.8039108041325
 30
0.0
 10
74.7931908696445
 20
-116.8039108041325
 30
0.0
 10
74.74842337078663
 20
-116.848678304121
 30
0.0
 10
74.74842337078663
 20
-116.9038174707741
 30
0.0
 10
74.74842337078663
 20
-116.958921359649
 30
0.0
 10
74.7931908696445
 20
-117.0037241374157
 30
0.0
 10
74.84833003490446
 20
-117.0037241374157
 30
0.0
 10
74.90361031127192
 20
-117.0037241374157
 30
0.0
 10
74.94837781012981
 20
-116.958921359649
 30
0.0
 10
74.94837781012981
 20
-116.9038174707741
 30
0.0
  0
SPLINE
  5
88
330
41
100
AcDbEntity
  8
_U+30EC_U+30A4_U+30E4_U+30FC 1
 62
   179
420
  2234388
370
     9
100
AcDbSpline
210
0.0
220
0.0
230
1.0
 70
    11
 71
     3
 72
    17
 73
    13
 74
     0
 42
0.0000000001
 43
0.0000000001
 12
1.0
 22
0.0
 32
0.0
 13
1.0
 23
0.0
 33
0.0
 40
0.0
 40
0.0
 40
0.0
 40
0.0
 40
1.0
 40
1.0
 40
1.0
 40
2.0
 40
2.0
 40
2.0
 40
3.0
 40
3.0
 40
3.0
 40
4.0
 40
4.0
 40
4.0
 40
4.0
 10
111.9483833053465
 20
-112.9037055273298
 30
0.0
 10
111.9483833053465
 20
-112.8482488606768
 30
0.0
 10
111.9035805275798
 20
-112.8037988606878
 30
0.0
 10
111.8484738131744
 20
-112.8037988606878
 30
0.0
 10
111.7933346479144
 20
-112.8037988606878
 30
0.0
 10
111.7485671490565
 20
-112.8482488606768
 30
0.0
 10
111.7485671490565
 20
-112.9037055273298
 30
0.0
 10
111.7485671490565
 20
-112.9591621939824
 30
0.0
 10
111.7933346479144
 20
-113.0039649717492
 30
0.0
 10
111.8484738131744
 20
-113.0039649717492
 30
0.0
 10
111.9035805275798
 20
-113.0039649717492
 30
0.0
 10
111.9483833053465
 20
-112.9591621939824
 30
0.0
 10
111.9483833053465
 20
-112.9037055273298
 30
0.0
  0
SPLINE
  5
89
330
41
100
AcDbEntity
  8
_U+30EC_U+30A4_U+30E4_U+30FC 1
 62
   179
420
  2234388
370
     9
100
AcDbSpline
210
0.0
220
0.0
230
1.0
 70
    11
 71
     3
 72
    17
 73
    13
 74
     0
 42
0.0000000001
 43
0.0000000001
 12
1.0
 22
0.0
 32
0.0
 13
1.0
 23
0.0
 33
0.0
 40
0.0
 40
0.0
 40
0.0
 40
0.0
 40
1.0
 40
1.0
 40
1.0
 40
2.0
 40
2.0
 40
2.0
 40
3.0
 40
3.0
 40
3.0
 40
4.0
 40
4.0
 40
4.0
 40
4.0
 10
115.9481395419165
 20
-128.9037652455521
 30
0.0
 10
115.9481395419165
 20
-128.848626078899
 30
0.0
 10
115.9033367652818
 20
-128.8038585789105
 30
0.0
 10
115.8482328777987
 20
-128.8038585789105
 30
0.0
 10
115.7930937125387
 20
-128.8038585789105
 30
0.0
 10
115.7483262136809
 20
-128.848626078899
 30
0.0
 10
115.7483262136809
 20
-128.9037652455521
 30
0.0
 10
115.7483262136809
 20
-128.958869134427
 30
0.0
 10
115.7930937125387
 20
-129.0036719121937
 30
0.0
 10
115.8482328777987
 20
-129.0036719121937
 30
0.0
 10
115.9033367652818
 20
-129.0036719121937
 30
0.0
 10
115.9481395419165
 20
-128.958869134427
 30
0.0
 10
115.9481395419165
 20
-128.9037652455521
 30
0.0
  0
SPLINE
  5
8A
330
41
100
AcDbEntity
  8
_U+30EC_U+30A4_U+30E4_U+30FC 1
 62
   179
420
  2234388
370
     9
100
AcDbSpline
210
0.0
220
0.0
230
1.0
 70
    11
 71
     3
 72
    17
 73
    13
 74
     0
 42
0.0000000001
 43
0.0000000001
 12
1.0
 22
0.0
 32
0.0
 13
1.0
 23
0.0
 33
0.0
 40
0.0
 40
0.0
 40
0.0
 40
0.0
 40
1.0
 40
1.0
 40
1.0
 40
2.0
 40
2.0
 40
2.0
 40
3.0
 40
3.0
 40
3.0
 40
4.0
 40
4.0
 40
4.0
 40
4.0
 10
115.9481395419165
 20
-138.9038510763854
 30
0.0
 10
115.9481395419165
 20
-138.8483591319546
 30
0.0
 10
115.9033367652818
 20
-138.803591631966
 30
0.0
 10
115.8482328777987
 20
-138.803591631966
 30
0.0
 10
115.7930937125387
 20
-138.803591631966
 30
0.0
 10
115.7483262136809
 20
-138.8483591319546
 30
0.0
 10
115.7483262136809
 20
-138.9038510763854
 30
0.0
 10
115.7483262136809
 20
-138.9589549652603
 30
0.0
 10
115.7930937125387
 20
-139.0037577430271
 30
0.0
 10
115.8482328777987
 20
-139.0037577430271
 30
0.0
 10
115.9033367652818
 20
-139.0037577430271
 30
0.0
 10
115.9481395419165
 20
-138.9589549652603
 30
0.0
 10
115.9481395419165
 20
-138.9038510763854
 30
0.0
  0
SPLINE
  5
8B
330
41
100
AcDbEntity
  8
_U+30EC_U+30A4_U+30E4_U+30FC 1
 62
   179
420
  2234388
370
     9
100
AcDbSpline
210
0.0
220
0.0
230
1.0
 70
    11
 71
     3
 72
    17
 73
    13
 74
     0
 42
0.0000000001
 43
0.0000000001
 12
1.0
 22
0.0
 32
0.0
 13
1.0
 23
0.0
 33
0.0
 40
0.0
 40
0.0
 40
0.0
 40
0.0
 40
1.0
 40
1.0
 40
1.0
 40
2.0
 40
2.0
 40
2.0
 40
3.0
 40
3.0
 40
3.0
 40
4.0
 40
4.0
 40
4.0
 40
4.0
 10
115.9481395419165
 20
-141.9038380200798
 30
0.0
 10
115.9481395419165
 20
-141.8483460756489
 30
0.0
 10
115.9033367652818
 20
-141.8035785756604
 30
0.0
 10
115.8482328777987
 20
-141.8035785756604
 30
0.0
 10
115.7930937125387
 20
-141.8035785756604
 30
0.0
 10
115.7483262136809
 20
-141.8483460756489
 30
0.0
 10
115.7483262136809
 20
-141.9038380200798
 30
0.0
 10
115.7483262136809
 20
-141.9589419089547
 30
0.0
 10
115.7930937125387
 20
-142.0037446867214
 30
0.0
 10
115.8482328777987
 20
-142.0037446867214
 30
0.0
 10
115.9033367652818
 20
-142.0037446867214
 30
0.0
 10
115.9481395419165
 20
-141.9589419089547
 30
0.0
 10
115.9481395419165
 20
-141.9038380200798
 30
0.0
  0
SPLINE
  5
8C
330
41
100
AcDbEntity
  8
_U+30EC_U+30A4_U+30E4_U+30FC 1
 62
   179
420
  2234388
370
     9
100
AcDbSpline
210
0.0
220
0.0
230
1.0
 70
    11
 71
     3
 72
    17
 73
    13
 74
     0
 42
0.0000000001
 43
0.0000000001
 12
1.0
 22
0.0
 32
0.0
 13
1.0
 23
0.0
 33
0.0
 40
0.0
 40
0.0
 40
0.0
 40
0.0
 40
1.0
 40
1.0
 40
1.0
 40
2.0
 40
2.0
 40
2.0
 40
3.0
 40
3.0
 40
3.0
 40
4.0
 40
4.0
 40
4.0
 40
4.0
 10
71.94839094222141
 20
-145.903597185746
 30
0.0
 10
71.94839094222141
 20
-145.8484580190936
 30
0.0
 10
71.90362344336351
 20
-145.8036905191044
 30
0.0
 10
71.84834316699606
 20
-145.8036905191044
 30
0.0
 10
71.79302761285172
 20
-145.8036905191044
 30
0.0
 10
71.74840122510135
 20
-145.8484580190936
 30
0.0
 10
71.74840122510135
 20
-145.903597185746
 30
0.0
 10
71.74840122510135
 20
-145.9590538523993
 30
0.0
 10
71.79302761285172
 20
-146.0038213523879
 30
0.0
 10
71.84834316699606
 20
-146.0038213523879
 30
0.0
 10
71.90362344336351
 20
-146.0038213523879
 30
0.0
 10
71.94839094222141
 20
-145.9590538523993
 30
0.0
 10
71.94839094222141
 20
-145.903597185746
 30
0.0
  0
SPLINE
  5
8D
330
41
100
AcDbEntity
  8
_U+30EC_U+30A4_U+30E4_U+30FC 1
 62
   179
420
  2234388
370
     9
100
AcDbSpline
210
0.0
220
0.0
230
1.0
 70
    11
 71
     3
 72
    17
 73
    13
 74
     0
 42
0.0000000001
 43
0.0000000001
 12
1.0
 22
0.0
 32
0.0
 13
1.0
 23
0.0
 33
0.0
 40
0.0
 40
0.0
 40
0.0
 40
0.0
 40
1.0
 40
1.0
 40
1.0
 40
2.0
 40
2.0
 40
2.0
 40
3.0
 40
3.0
 40
3.0
 40
4.0
 40
4.0
 40
4.0
 40
4.0
 10
81.94830013154692
 20
-145.903597185746
 30
0.0
 10
81.94830013154692
 20
-145.8484580190936
 30
0.0
 10
81.90353263268902
 20
-145.8036905191044
 30
0.0
 10
81.84839346742908
 20
-145.8036905191044
 30
0.0
 10
81.7932916462182
 20
-145.8036905191044
 30
0.0
 10
81.74848886845179
 20
-145.8484580190936
 30
0.0
 10
81.74848886845179
 20
-145.903597185746
 30
0.0
 10
81.74848886845179
 20
-145.9590538523993
 30
0.0
 10
81.7932916462182
 20
-146.0038213523879
 30
0.0
 10
81.84839346742908
 20
-146.0038213523879
 30
0.0
 10
81.90353263268902
 20
-146.0038213523879
 30
0.0
 10
81.94830013154692
 20
-145.9590538523993
 30
0.0
 10
81.94830013154692
 20
-145.903597185746
 30
0.0
  0
SPLINE
  5
8E
330
41
100
AcDbEntity
  8
_U+30EC_U+30A4_U+30E4_U+30FC 1
 62
   179
420
  2234388
370
     9
100
AcDbSpline
210
0.0
220
0.0
230
1.0
 70
    11
 71
     3
 72
    17
 73
    13
 74
     0
 42
0.0000000001
 43
0.0000000001
 12
1.0
 22
0.0
 32
0.0
 13
1.0
 23
0.0
 33
0.0
 40
0.0
 40
0.0
 40
0.0
 40
0.0
 40
1.0
 40
1.0
 40
1.0
 40
2.0
 40
2.0
 40
2.0
 40
3.0
 40
3.0
 40
3.0
 40
4.0
 40
4.0
 40
4.0
 40
4.0
 10
67.94831437760519
 20
-120.9035766364406
 30
0.0
 10
67.94831437760519
 20
-120.8484374697879
 30
0.0
 10
67.90351160097043
 20
-120.8036346920212
 30
0.0
 10
67.84840771348736
 20
-120.8036346920212
 30
0.0
 10
67.79309215934302
 20
-120.8036346920212
 30
0.0
 10
67.74832466048514
 20
-120.8484374697879
 30
0.0
 10
67.74832466048514
 20
-120.9035766364406
 30
0.0
 10
67.74832466048514
 20
-120.9586805253159
 30
0.0
 10
67.79309215934302
 20
-121.0034833030826
 30
0.0
 10
67.84840771348736
 20
-121.0034833030826
 30
0.0
 10
67.90351160097043
 20
-121.0034833030826
 30
0.0
 10
67.94831437760519
 20
-120.9586805253159
 30
0.0
 10
67.94831437760519
 20
-120.9035766364406
 30
0.0
  0
SPLINE
  5
8F
330
41
100
AcDbEntity
  8
_U+30EC_U+30A4_U+30E4_U+30FC 1
 62
   179
420
  2234388
370
     9
100
AcDbSpline
210
0.0
220
0.0
230
1.0
 70
    11
 71
     3
 72
    17
 73
    13
 74
     0
 42
0.0000000001
 43
0.0000000001
 12
1.0
 22
0.0
 32
0.0
 13
1.0
 23
0.0
 33
0.0
 40
0.0
 40
0.0
 40
0.0
 40
0.0
 40
1.0
 40
1.0
 40
1.0
 40
2.0
 40
2.0
 40
2.0
 40
3.0
 40
3.0
 40
3.0
 40
4.0
 40
4.0
 40
4.0
 40
4.0
 10
67.94831437760519
 20
-141.9038380200798
 30
0.0
 10
67.94831437760519
 20
-141.8483460756489
 30
0.0
 10
67.90351160097043
 20
-141.8035785756604
 30
0.0
 10
67.84840771348736
 20
-141.8035785756604
 30
0.0
 10
67.79309215934302
 20
-141.8035785756604
 30
0.0
 10
67.74832466048514
 20
-141.8483460756489
 30
0.0
 10
67.74832466048514
 20
-141.9038380200798
 30
0.0
 10
67.74832466048514
 20
-141.9589419089547
 30
0.0
 10
67.79309215934302
 20
-142.0037446867214
 30
0.0
 10
67.84840771348736
 20
-142.0037446867214
 30
0.0
 10
67.90351160097043
 20
-142.0037446867214
 30
0.0
 10
67.94831437760519
 20
-141.9589419089547
 30
0.0
 10
67.94831437760519
 20
-141.9038380200798
 30
0.0
  0
POLYLINE
  5
90
330
41
100
AcDbEntity
  8
_U+30EC_U+30A4_U+30E4_U+30FC 1
 62
   179
420
  2234388
370
     9
100
AcDb2dPolyline
 66
     1
 10
0.0
 20
0.0
 30
0.0
  0
VERTEX
  5
91
330
90
100
AcDbEntity
  8
_U+30EC_U+30A4_U+30E4_U+30FC 1
 62
   179
420
  2234388
370
     9
100
AcDbVertex
100
AcDb2dVertex
 10
115.8482328777987
 20
-138.9038510763854
 30
0.0
  0
VERTEX
  5
92
330
90
100
AcDbEntity
  8
_U+30EC_U+30A4_U+30E4_U+30FC 1
 62
   179
420
  2234388
370
     9
100
AcDbVertex
100
AcDb2dVertex
 10
115.8482328777987
 20
-141.9038380200798
 30
0.0
  0
SEQEND
  5
93
330
90
100
AcDbEntity
  8
_U+30EC_U+30A4_U+30E4_U+30FC 1
 62
   179
420
  2234388
370
     9
  0
POLYLINE
  5
94
330
41
100
AcDbEntity
  8
_U+30EC_U+30A4_U+30E4_U+30FC 1
 62
   179
420
  2234388
370
     9
100
AcDb2dPolyline
 66
     1
 10
0.0
 20
0.0
 30
0.0
  0
VERTEX
  5
95
330
94
100
AcDbEntity
  8
_U+30EC_U+30A4_U+30E4_U+30FC 1
 62
   179
420
  2234388
370
     9
100
AcDbVertex
100
AcDb2dVertex
 10
84.38811118041326
 20
-138.9038510763854
 30
0.0
  0
VERTEX
  5
96
330
94
100
AcDbEntity
  8
_U+30EC_U+30A4_U+30E4_U+30FC 1
 62
   179
420
  2234388
370
     9
100
AcDbVertex
100
AcDb2dVertex
 10
116.8486753522753
 20
-138.9038510763854
 30
0.0
  0
SEQEND
  5
97
330
94
100
AcDbEntity
  8
_U+30EC_U+30A4_U+30E4_U+30FC 1
 62
   179
420
  2234388
370
     9
  0
POLYLINE
  5
98
330
41
100
AcDbEntity
  8
_U+30EC_U+30A4_U+30E4_U+30FC 1
 62
   179
420
  2234388
370
     9
100
AcDb2dPolyline
 66
     1
 10
0.0
 20
0.0
 30
0.0
  0
VERTEX
  5
99
330
98
100
AcDbEntity
  8
_U+30EC_U+30A4_U+30E4_U+30FC 1
 62
   179
420
  2234388
370
     9
100
AcDbVertex
100
AcDb2dVertex
 10
84.38811118041326
 20
-141.9038380200798
 30
0.0
  0
VERTEX
  5
9A
330
98
100
AcDbEntity
  8
_U+30EC_U+30A4_U+30E4_U+30FC 1
 62
   179
420
  2234388
370
     9
100
AcDbVertex
100
AcDb2dVertex
 10
116.8486753522753
 20
-141.9038380200798
 30
0.0
  0
SEQEND
  5
9B
330
98
100
AcDbEntity
  8
_U+30EC_U+30A4_U+30E4_U+30FC 1
 62
   179
420
  2234388
370
     9
  0
INSERT
  5
9D
330
41
100
AcDbEntity
  8
_U+30EC_U+30A4_U+30E4_U+30FC 1
100
AcDbBlockReference
  2
block 3
 10
0.0
 20
0.0
 30
0.0
  0
POLYLINE
  5
A2
330
41
100
AcDbEntity
  8
_U+30EC_U+30A4_U+30E4_U+30FC 1
 62
   179
420
  2234388
370
     9
100
AcDb2dPolyline
 66
     1
 10
0.0
 20
0.0
 30
0.0
  0
VERTEX
  5
A3
330
A2
100
AcDbEntity
  8
_U+30EC_U+30A4_U+30E4_U+30FC 1
 62
   179
420
  2234388
370
     9
100
AcDbVertex
100
AcDb2dVertex
 10
71.84834316699606
 20
-116.9038174707741
 30
0.0
  0
VERTEX
  5
A4
330
A2
100
AcDbEntity
  8
_U+30EC_U+30A4_U+30E4_U+30FC 1
 62
   179
420
  2234388
370
     9
100
AcDbVertex
100
AcDb2dVertex
 10
74.84833003490446
 20
-116.9038174707741
 30
0.0
  0
SEQEND
  5
A5
330
A2
100
AcDbEntity
  8
_U+30EC_U+30A4_U+30E4_U+30FC 1
 62
   179
420
  2234388
370
     9
  0
POLYLINE
  5
A6
330
41
100
AcDbEntity
  8
_U+30EC_U+30A4_U+30E4_U+30FC 1
 62
   179
420
  2234388
370
     9
100
AcDb2dPolyline
 66
     1
 10
0.0
 20
0.0
 30
0.0
  0
VERTEX
  5
A7
330
A6
100
AcDbEntity
  8
_U+30EC_U+30A4_U+30E4_U+30FC 1
 62
   179
420
  2234388
370
     9
100
AcDbVertex
100
AcDb2dVertex
 10
71.84834316699606
 20
-118.3638235815203
 30
0.0
  0
VERTEX
  5
A8
330
A6
100
AcDbEntity
  8
_U+30EC_U+30A4_U+30E4_U+30FC 1
 62
   179
420
  2234388
370
     9
100
AcDbVertex
100
AcDb2dVertex
 10
71.84834316699606
 20
-115.9036924710241
 30
0.0
  0
SEQEND
  5
A9
330
A6
100
AcDbEntity
  8
_U+30EC_U+30A4_U+30E4_U+30FC 1
 62
   179
420
  2234388
370
     9
  0
POLYLINE
  5
AA
330
41
100
AcDbEntity
  8
_U+30EC_U+30A4_U+30E4_U+30FC 1
 62
   179
420
  2234388
370
     9
100
AcDb2dPolyline
 66
     1
 10
0.0
 20
0.0
 30
0.0
  0
VERTEX
  5
AB
330
AA
100
AcDbEntity
  8
_U+30EC_U+30A4_U+30E4_U+30FC 1
 62
   179
420
  2234388
370
     9
100
AcDbVertex
100
AcDb2dVertex
 10
74.84833003490446
 20
-118.3638235815203
 30
0.0
  0
VERTEX
  5
AC
330
AA
100
AcDbEntity
  8
_U+30EC_U+30A4_U+30E4_U+30FC 1
 62
   179
420
  2234388
370
     9
100
AcDbVertex
100
AcDb2dVertex
 10
74.84833003490446
 20
-115.9036924710241
 30
0.0
  0
SEQEND
  5
AD
330
AA
100
AcDbEntity
  8
_U+30EC_U+30A4_U+30E4_U+30FC 1
 62
   179
420
  2234388
370
     9
  0
INSERT
  5
AF
330
41
100
AcDbEntity
  8
_U+30EC_U+30A4_U+30E4_U+30FC 1
100
AcDbBlockReference
  2
block 4
 10
0.0
 20
0.0
 30
0.0
  0
POLYLINE
  5
B4
330
41
100
AcDbEntity
  8
_U+30EC_U+30A4_U+30E4_U+30FC 1
 62
   179
420
  2234388
370
     9
100
AcDb2dPolyline
 66
     1
 10
0.0
 20
0.0
 30
0.0
  0
VERTEX
  5
B5
330
B4
100
AcDbEntity
  8
_U+30EC_U+30A4_U+30E4_U+30FC 1
 62
   179
420
  2234388
370
     9
100
AcDbVertex
100
AcDb2dVertex
 10
71.84834316699606
 20
-112.9037055273298
 30
0.0
  0
VERTEX
  5
B6
330
B4
100
AcDbEntity
  8
_U+30EC_U+30A4_U+30E4_U+30FC 1
 62
   179
420
  2234388
370
     9
100
AcDbVertex
100
AcDb2dVertex
 10
111.8484738131744
 20
-112.9037055273298
 30
0.0
  0
SEQEND
  5
B7
330
B4
100
AcDbEntity
  8
_U+30EC_U+30A4_U+30E4_U+30FC 1
 62
   179
420
  2234388
370
     9
  0
POLYLINE
  5
B8
330
41
100
AcDbEntity
  8
_U+30EC_U+30A4_U+30E4_U+30FC 1
 62
   179
420
  2234388
370
     9
100
AcDb2dPolyline
 66
     1
 10
0.0
 20
0.0
 30
0.0
  0
VERTEX
  5
B9
330
B8
100
AcDbEntity
  8
_U+30EC_U+30A4_U+30E4_U+30FC 1
 62
   179
420
  2234388
370
     9
100
AcDbVertex
100
AcDb2dVertex
 10
71.84834316699606
 20
-118.3638235815203
 30
0.0
  0
VERTEX
  5
BA
330
B8
100
AcDbEntity
  8
_U+30EC_U+30A4_U+30E4_U+30FC 1
 62
   179
420
  2234388
370
     9
100
AcDbVertex
100
AcDb2dVertex
 10
71.84834316699606
 20
-111.9035805275798
 30
0.0
  0
SEQEND
  5
BB
330
B8
100
AcDbEntity
  8
_U+30EC_U+30A4_U+30E4_U+30FC 1
 62
   179
420
  2234388
370
     9
  0
POLYLINE
  5
BC
330
41
100
AcDbEntity
  8
_U+30EC_U+30A4_U+30E4_U+30FC 1
 62
   179
420
  2234388
370
     9
100
AcDb2dPolyline
 66
     1
 10
0.0
 20
0.0
 30
0.0
  0
VERTEX
  5
BD
330
BC
100
AcDbEntity
  8
_U+30EC_U+30A4_U+30E4_U+30FC 1
 62
   179
420
  2234388
370
     9
100
AcDbVertex
100
AcDb2dVertex
 10
111.8484738131744
 20
-125.4634763575231
 30
0.0
  0
VERTEX
  5
BE
330
BC
100
AcDbEntity
  8
_U+30EC_U+30A4_U+30E4_U+30FC 1
 62
   179
420
  2234388
370
     9
100
AcDbVertex
100
AcDb2dVertex
 10
111.8484738131744
 20
-111.9035805275798
 30
0.0
  0
SEQEND
  5
BF
330
BC
100
AcDbEntity
  8
_U+30EC_U+30A4_U+30E4_U+30FC 1
 62
   179
420
  2234388
370
     9
  0
INSERT
  5
C1
330
41
100
AcDbEntity
  8
_U+30EC_U+30A4_U+30E4_U+30FC 1
100
AcDbBlockReference
  2
block 5
 10
0.0
 20
0.0
 30
0.0
  0
POLYLINE
  5
DC
330
41
100
AcDbEntity
  8
_U+30EC_U+30A4_U+30E4_U+30FC 1
 62
   179
420
  2234388
370
     9
100
AcDb2dPolyline
 66
     1
 10
0.0
 20
0.0
 30
0.0
  0
VERTEX
  5
DD
330
DC
100
AcDbEntity
  8
_U+30EC_U+30A4_U+30E4_U+30FC 1
 62
   179
420
  2234388
370
     9
100
AcDbVertex
100
AcDb2dVertex
 10
71.84834316699606
 20
-145.903597185746
 30
0.0
  0
VERTEX
  5
DE
330
DC
100
AcDbEntity
  8
_U+30EC_U+30A4_U+30E4_U+30FC 1
 62
   179
420
  2234388
370
     9
100
AcDbVertex
100
AcDb2dVertex
 10
81.84839346742908
 20
-145.903597185746
 30
0.0
  0
SEQEND
  5
DF
330
DC
100
AcDbEntity
  8
_U+30EC_U+30A4_U+30E4_U+30FC 1
 62
   179
420
  2234388
370
     9
  0
POLYLINE
  5
E0
330
41
100
AcDbEntity
  8
_U+30EC_U+30A4_U+30E4_U+30FC 1
 62
   179
420
  2234388
370
     9
100
AcDb2dPolyline
 66
     1
 10
0.0
 20
0.0
 30
0.0
  0
VERTEX
  5
E1
330
E0
100
AcDbEntity
  8
_U+30EC_U+30A4_U+30E4_U+30FC 1
 62
   179
420
  2234388
370
     9
100
AcDbVertex
100
AcDb2dVertex
 10
71.84834316699606
 20
-144.4435557972223
 30
0.0
  0
VERTEX
  5
E2
330
E0
100
AcDbEntity
  8
_U+30EC_U+30A4_U+30E4_U+30FC 1
 62
   179
420
  2234388
370
     9
100
AcDbVertex
100
AcDb2dVertex
 10
71.84834316699606
 20
-146.9036869077188
 30
0.0
  0
SEQEND
  5
E3
330
E0
100
AcDbEntity
  8
_U+30EC_U+30A4_U+30E4_U+30FC 1
 62
   179
420
  2234388
370
     9
  0
POLYLINE
  5
E4
330
41
100
AcDbEntity
  8
_U+30EC_U+30A4_U+30E4_U+30FC 1
 62
   179
420
  2234388
370
     9
100
AcDb2dPolyline
 66
     1
 10
0.0
 20
0.0
 30
0.0
  0
VERTEX
  5
E5
330
E4
100
AcDbEntity
  8
_U+30EC_U+30A4_U+30E4_U+30FC 1
 62
   179
420
  2234388
370
     9
100
AcDbVertex
100
AcDb2dVertex
 10
81.84839346742908
 20
-144.4435557972223
 30
0.0
  0
VERTEX
  5
E6
330
E4
100
AcDbEntity
  8
_U+30EC_U+30A4_U+30E4_U+30FC 1
 62
   179
420
  2234388
370
     9
100
AcDbVertex
100
AcDb2dVertex
 10
81.84839346742908
 20
-146.9036869077188
 30
0.0
  0
SEQEND
  5
E7
330
E4
100
AcDbEntity
  8
_U+30EC_U+30A4_U+30E4_U+30FC 1
 62
   179
420
  2234388
370
     9
  0
INSERT
  5
E9
330
41
100
AcDbEntity
  8
_U+30EC_U+30A4_U+30E4_U+30FC 1
100
AcDbBlockReference
  2
block 6
 10
0.0
 20
0.0
 30
0.0
  0
POLYLINE
  5
F1
330
41
100
AcDbEntity
  8
_U+30EC_U+30A4_U+30E4_U+30FC 1
 62
   179
420
  2234388
370
     9
100
AcDb2dPolyline
 66
     1
 10
0.0
 20
0.0
 30
0.0
  0
VERTEX
  5
F2
330
F1
100
AcDbEntity
  8
_U+30EC_U+30A4_U+30E4_U+30FC 1
 62
   179
420
  2234388
370
     9
100
AcDbVertex
100
AcDb2dVertex
 10
67.84840771348736
 20
-120.9035766364406
 30
0.0
  0
VERTEX
  5
F3
330
F1
100
AcDbEntity
  8
_U+30EC_U+30A4_U+30E4_U+30FC 1
 62
   179
420
  2234388
370
     9
100
AcDbVertex
100
AcDb2dVertex
 10
67.84840771348736
 20
-141.9038380200798
 30
0.0
  0
SEQEND
  5
F4
330
F1
100
AcDbEntity
  8
_U+30EC_U+30A4_U+30E4_U+30FC 1
 62
   179
420
  2234388
370
     9
  0
POLYLINE
  5
F5
330
41
100
AcDbEntity
  8
_U+30EC_U+30A4_U+30E4_U+30FC 1
 62
   179
420
  2234388
370
     9
100
AcDb2dPolyline
 66
     1
 10
0.0
 20
0.0
 30
0.0
  0
VERTEX
  5
F6
330
F5
100
AcDbEntity
  8
_U+30EC_U+30A4_U+30E4_U+30FC 1
 62
   179
420
  2234388
370
     9
100
AcDbVertex
100
AcDb2dVertex
 10
69.30827267624309
 20
-120.9035766364406
 30
0.0
  0
VERTEX
  5
F7
330
F5
100
AcDbEntity
  8
_U+30EC_U+30A4_U+30E4_U+30FC 1
 62
   179
420
  2234388
370
     9
100
AcDbVertex
100
AcDb2dVertex
 10
66.84828273900267
 20
-120.9035766364406
 30
0.0
  0
SEQEND
  5
F8
330
F5
100
AcDbEntity
  8
_U+30EC_U+30A4_U+30E4_U+30FC 1
 62
   179
420
  2234388
370
     9
  0
POLYLINE
  5
F9
330
41
100
AcDbEntity
  8
_U+30EC_U+30A4_U+30E4_U+30FC 1
 62
   179
420
  2234388
370
     9
100
AcDb2dPolyline
 66
     1
 10
0.0
 20
0.0
 30
0.0
  0
VERTEX
  5
FA
330
F9
100
AcDbEntity
  8
_U+30EC_U+30A4_U+30E4_U+30FC 1
 62
   179
420
  2234388
370
     9
100
AcDbVertex
100
AcDb2dVertex
 10
69.30827267624309
 20
-141.9038380200798
 30
0.0
  0
VERTEX
  5
FB
330
F9
100
AcDbEntity
  8
_U+30EC_U+30A4_U+30E4_U+30FC 1
 62
   179
420
  2234388
370
     9
100
AcDbVertex
100
AcDb2dVertex
 10
66.84828273900267
 20
-141.9038380200798
 30
0.0
  0
SEQEND
  5
FC
330
F9
100
AcDbEntity
  8
_U+30EC_U+30A4_U+30E4_U+30FC 1
 62
   179
420
  2234388
370
     9
  0
INSERT
  5
FE
330
41
100
AcDbEntity
  8
_U+30EC_U+30A4_U+30E4_U+30FC 1
100
AcDbBlockReference
  2
block 7
 10
0.0
 20
0.0
 30
0.0
  0
POLYLINE
  5
105
330
41
100
AcDbEntity
  8
_U+30EC_U+30A4_U+30E4_U+30FC 1
 62
   179
420
  2234388
370
     9
100
AcDb2dPolyline
 66
     1
 10
0.0
 20
0.0
 30
0.0
  0
VERTEX
  5
106
330
105
100
AcDbEntity
  8
_U+30EC_U+30A4_U+30E4_U+30FC 1
 62
   179
420
  2234388
370
     9
100
AcDbVertex
100
AcDb2dVertex
 10
115.8482328777987
 20
-128.9037652455521
 30
0.0
  0
VERTEX
  5
107
330
105
100
AcDbEntity
  8
_U+30EC_U+30A4_U+30E4_U+30FC 1
 62
   179
420
  2234388
370
     9
100
AcDbVertex
100
AcDb2dVertex
 10
115.8482328777987
 20
-138.9038510763854
 30
0.0
  0
SEQEND
  5
108
330
105
100
AcDbEntity
  8
_U+30EC_U+30A4_U+30E4_U+30FC 1
 62
   179
420
  2234388
370
     9
  0
POLYLINE
  5
109
330
41
100
AcDbEntity
  8
_U+30EC_U+30A4_U+30E4_U+30FC 1
 62
   179
420
  2234388
370
     9
100
AcDb2dPolyline
 66
     1
 10
0.0
 20
0.0
 30
0.0
  0
VERTEX
  5
10A
330
109
100
AcDbEntity
  8
_U+30EC_U+30A4_U+30E4_U+30FC 1
 62
   179
420
  2234388
370
     9
100
AcDbVertex
100
AcDb2dVertex
 10
115.0937499712266
 20
-128.9037652455521
 30
0.0
  0
VERTEX
  5
10B
330
109
100
AcDbEntity
  8
_U+30EC_U+30A4_U+30E4_U+30FC 1
 62
   179
420
  2234388
370
     9
100
AcDbVertex
100
AcDb2dVertex
 10
116.8486753522753
 20
-128.9037652455521
 30
0.0
  0
SEQEND
  5
10C
330
109
100
AcDbEntity
  8
_U+30EC_U+30A4_U+30E4_U+30FC 1
 62
   179
420
  2234388
370
     9
  0
INSERT
  5
10E
330
41
100
AcDbEntity
  8
_U+30EC_U+30A4_U+30E4_U+30FC 1
100
AcDbBlockReference
  2
block 8
 10
0.0
 20
0.0
 30
0.0
  0
ENDBLK
  5
44
330
41
100
AcDbEntity
  8
0
100
AcDbBlockEnd
  0
BLOCK
  5
9E
330
9C
100
AcDbEntity
  8
0
100
AcDbBlockBegin
  2
block 3
 70
     0
 10
0.0
 20
0.0
 30
0.0
  3
block 3
  1

  0
SPLINE
  5
A0
330
9C
100
AcDbEntity
  8
_U+30EC_U+30A4_U+30E4_U+30FC 1
370
     0
100
AcDbSpline
210
0.0
220
0.0
230
1.0
 70
    11
 71
     3
 72
    62
 73
    58
 74
     0
 42
0.0000000001
 43
0.0000000001
 12
1.0
 22
0.0
 32
0.0
 13
1.0
 23
0.0
 33
0.0
 40
0.0
 40
0.0
 40
0.0
 40
0.0
 40
1.0
 40
1.0
 40
1.0
 40
2.0
 40
2.0
 40
2.0
 40
3.0
 40
3.0
 40
3.0
 40
4.0
 40
4.0
 40
4.0
 40
5.0
 40
5.0
 40
5.0
 40
6.0
 40
6.0
 40
6.0
 40
7.0
 40
7.0
 40
7.0
 40
8.0
 40
8.0
 40
8.0
 40
9.0
 40
9.0
 40
9.0
 40
10.0
 40
10.0
 40
10.0
 40
11.0
 40
11.0
 40
11.0
 40
12.0
 40
12.0
 40
12.0
 40
13.0
 40
13.0
 40
13.0
 40
14.0
 40
14.0
 40
14.0
 40
15.0
 40
15.0
 40
15.0
 40
16.0
 40
16.0
 40
16.0
 40
17.0
 40
17.0
 40
17.0
 40
18.0
 40
18.0
 40
18.0
 40
19.0
 40
19.0
 40
19.0
 40
19.0
 10
115.3028672671812
 20
-140.4096896350365
 30
0.0
 10
115.3028672671812
 20
-140.5051187799779
 30
0.0
 10
115.2818521847212
 20
-140.7228488146457
 30
0.0
 10
115.0958170285177
 20
-140.8479057807602
 30
0.0
 10
114.9835069156986
 20
-140.9216308241446
 30
0.0
 10
114.8842881657234
 20
-140.9261094482754
 30
0.0
 10
114.7995388167862
 20
-140.9302435628577
 30
0.0
 10
114.7995388167862
 20
-140.9302435628577
 30
0.0
 10
114.7995388167862
 20
-140.7101019613503
 30
0.0
 10
114.7995388167862
 20
-140.7101019613503
 30
0.0
 10
114.8736083697191
 20
-140.7080349040591
 30
0.0
 10
115.1082193722646
 20
-140.6976996176033
 30
0.0
 10
115.1082193722646
 20
-140.4141682591673
 30
0.0
 10
115.1082193722646
 20
-140.2767089493058
 30
0.0
 10
115.0386284434626
 20
-140.1240912193093
 30
0.0
 10
114.8102186127905
 20
-140.1240912193093
 30
0.0
 10
114.6937743853891
 20
-140.1240912193093
 30
0.0
 10
114.645198539047
 20
-140.1623317791955
 30
0.0
 10
114.6135036605827
 20
-140.1940266576598
 30
0.0
 10
114.5394341076499
 20
-140.2680962105927
 30
0.0
 10
114.5266872543544
 20
-140.3845404379942
 30
0.0
 10
114.5266872543544
 20
-140.4393174562096
 30
0.0
 10
114.5266872543544
 20
-140.458609990927
 30
0.0
 10
114.5287543116456
 20
-140.4944389839736
 30
0.0
 10
114.5328884262279
 20
-140.5219997478556
 30
0.0
 10
114.5328884262279
 20
-140.5219997478556
 30
0.0
 10
114.3382405313113
 20
-140.5219997478556
 30
0.0
 10
114.3382405313113
 20
-140.5219997478556
 30
0.0
 10
114.3447862127333
 20
-140.4837591879694
 30
0.0
 10
114.3468532700244
 20
-140.4417290230493
 30
0.0
 10
114.3468532700244
 20
-140.4351833416273
 30
0.0
 10
114.3468532700244
 20
-140.3697265274076
 30
0.0
 10
114.3254936780159
 20
-140.1709445179087
 30
0.0
 10
114.0888156181792
 20
-140.1709445179087
 30
0.0
 10
113.9110486911403
 20
-140.1709445179087
 30
0.0
 10
113.8559271633763
 20
-140.3018581463482
 30
0.0
 10
113.8559271633763
 20
-140.4121012018761
 30
0.0
 10
113.8559271633763
 20
-140.6763400255948
 30
0.0
 10
114.0888156181792
 20
-140.6849527643079
 30
0.0
 10
114.1604736042724
 20
-140.6890868788902
 30
0.0
 10
114.1604736042724
 20
-140.6890868788902
 30
0.0
 10
114.1604736042724
 20
-140.89234751252
 30
0.0
 10
114.1604736042724
 20
-140.89234751252
 30
0.0
 10
114.0357611477063
 20
-140.8837347738069
 30
0.0
 10
113.6592122111685
 20
-140.8561740099248
 30
0.0
 10
113.6592122111685
 20
-140.3993543485807
 30
0.0
 10
113.6592122111685
 20
-140.175078632491
 30
0.0
 10
113.7863362345743
 20
-139.9339219485235
 30
0.0
 10
114.0822699367572
 20
-139.9339219485235
 30
0.0
 10
114.2686496025092
 20
-139.9339219485235
 30
0.0
 10
114.3509873846067
 20
-140.0290065839164
 30
0.0
 10
114.4123100842442
 20
-140.1285698434401
 30
0.0
 10
114.4398708481261
 20
-140.0672471438026
 30
0.0
 10
114.5201415729325
 20
-139.8853461021814
 30
0.0
 10
114.7974717594951
 20
-139.8853461021814
 30
0.0
 10
115.1357801361466
 20
-139.8853461021814
 30
0.0
 10
115.3028672671812
 20
-140.1327039580224
 30
0.0
 10
115.3028672671812
 20
-140.4096896350365
 30
0.0
  0
HATCH
  5
A1
330
9C
100
AcDbEntity
  8
_U+30EC_U+30A4_U+30E4_U+30FC 1
 62
   179
420
  2234388
100
AcDbHatch
 10
0.0
 20
0.0
 30
0.0
210
0.0
220
0.0
230
1.0
  2
SOLID
 70
     1
 71
     0
 91
        1
 92
        1
 93
        1
 72
     4
 94
        3
 73
     0
 74
     1
 95
       62
 96
       58
 40
0.0
 40
0.0
 40
0.0
 40
0.0
 40
1.0
 40
1.0
 40
1.0
 40
2.0
 40
2.0
 40
2.0
 40
3.0
 40
3.0
 40
3.0
 40
4.0
 40
4.0
 40
4.0
 40
5.0
 40
5.0
 40
5.0
 40
6.0
 40
6.0
 40
6.0
 40
7.0
 40
7.0
 40
7.0
 40
8.0
 40
8.0
 40
8.0
 40
9.0
 40
9.0
 40
9.0
 40
10.0
 40
10.0
 40
10.0
 40
11.0
 40
11.0
 40
11.0
 40
12.0
 40
12.0
 40
12.0
 40
13.0
 40
13.0
 40
13.0
 40
14.0
 40
14.0
 40
14.0
 40
15.0
 40
15.0
 40
15.0
 40
16.0
 40
16.0
 40
16.0
 40
17.0
 40
17.0
 40
17.0
 40
18.0
 40
18.0
 40
18.0
 40
19.0
 40
19.0
 40
19.0
 40
19.0
 10
115.3028672671812
 20
-140.4096896350365
 10
115.3028672671812
 20
-140.5051187799779
 10
115.2818521847212
 20
-140.7228488146457
 10
115.0958170285177
 20
-140.8479057807602
 10
114.9835069156986
 20
-140.9216308241446
 10
114.8842881657234
 20
-140.9261094482754
 10
114.7995388167862
 20
-140.9302435628577
 10
114.7995388167862
 20
-140.9302435628577
 10
114.7995388167862
 20
-140.7101019613503
 10
114.7995388167862
 20
-140.7101019613503
 10
114.8736083697191
 20
-140.7080349040591
 10
115.1082193722646
 20
-140.6976996176033
 10
115.1082193722646
 20
-140.4141682591673
 10
115.1082193722646
 20
-140.2767089493058
 10
115.0386284434626
 20
-140.1240912193093
 10
114.8102186127905
 20
-140.1240912193093
 10
114.6937743853891
 20
-140.1240912193093
 10
114.645198539047
 20
-140.1623317791955
 10
114.6135036605827
 20
-140.1940266576598
 10
114.5394341076499
 20
-140.2680962105927
 10
114.5266872543544
 20
-140.3845404379942
 10
114.5266872543544
 20
-140.4393174562096
 10
114.5266872543544
 20
-140.458609990927
 10
114.5287543116456
 20
-140.4944389839736
 10
114.5328884262279
 20
-140.5219997478556
 10
114.5328884262279
 20
-140.5219997478556
 10
114.3382405313113
 20
-140.5219997478556
 10
114.3382405313113
 20
-140.5219997478556
 10
114.3447862127333
 20
-140.4837591879694
 10
114.3468532700244
 20
-140.4417290230493
 10
114.3468532700244
 20
-140.4351833416273
 10
114.3468532700244
 20
-140.3697265274076
 10
114.3254936780159
 20
-140.1709445179087
 10
114.0888156181792
 20
-140.1709445179087
 10
113.9110486911403
 20
-140.1709445179087
 10
113.8559271633763
 20
-140.3018581463482
 10
113.8559271633763
 20
-140.4121012018761
 10
113.8559271633763
 20
-140.6763400255948
 10
114.0888156181792
 20
-140.6849527643079
 10
114.1604736042724
 20
-140.6890868788902
 10
114.1604736042724
 20
-140.6890868788902
 10
114.1604736042724
 20
-140.89234751252
 10
114.1604736042724
 20
-140.89234751252
 10
114.0357611477063
 20
-140.8837347738069
 10
113.6592122111685
 20
-140.8561740099248
 10
113.6592122111685
 20
-140.3993543485807
 10
113.6592122111685
 20
-140.175078632491
 10
113.7863362345743
 20
-139.9339219485235
 10
114.0822699367572
 20
-139.9339219485235
 10
114.2686496025092
 20
-139.9339219485235
 10
114.3509873846067
 20
-140.0290065839164
 10
114.4123100842442
 20
-140.1285698434401
 10
114.4398708481261
 20
-140.0672471438026
 10
114.5201415729325
 20
-139.8853461021814
 10
114.7974717594951
 20
-139.8853461021814
 10
115.1357801361466
 20
-139.8853461021814
 10
115.3028672671812
 20
-140.1327039580224
 10
115.3028672671812
 20
-140.4096896350365
 97
        0
 97
        0
 75
     2
 76
     1
 98
        0
  0
ENDBLK
  5
9F
330
9C
100
AcDbEntity
  8
0
100
AcDbBlockEnd
  0
BLOCK
  5
B0
330
AE
100
AcDbEntity
  8
0
100
AcDbBlockBegin
  2
block 4
 70
     0
 10
0.0
 20
0.0
 30
0.0
  3
block 4
  1

  0
SPLINE
  5
B2
330
AE
100
AcDbEntity
  8
_U+30EC_U+30A4_U+30E4_U+30FC 1
370
     0
100
AcDbSpline
210
0.0
220
0.0
230
1.0
 70
    11
 71
     3
 72
    62
 73
    58
 74
     0
 42
0.0000000001
 43
0.0000000001
 12
1.0
 22
0.0
 32
0.0
 13
1.0
 23
0.0
 33
0.0
 40
0.0
 40
0.0
 40
0.0
 40
0.0
 40
1.0
 40
1.0
 40
1.0
 40
2.0
 40
2.0
 40
2.0
 40
3.0
 40
3.0
 40
3.0
 40
4.0
 40
4.0
 40
4.0
 40
5.0
 40
5.0
 40
5.0
 40
6.0
 40
6.0
 40
6.0
 40
7.0
 40
7.0
 40
7.0
 40
8.0
 40
8.0
 40
8.0
 40
9.0
 40
9.0
 40
9.0
 40
10.0
 40
10.0
 40
10.0
 40
11.0
 40
11.0
 40
11.0
 40
12.0
 40
12.0
 40
12.0
 40
13.0
 40
13.0
 40
13.0
 40
14.0
 40
14.0
 40
14.0
 40
15.0
 40
15.0
 40
15.0
 40
16.0
 40
16.0
 40
16.0
 40
17.0
 40
17.0
 40
17.0
 40
18.0
 40
18.0
 40
18.0
 40
19.0
 40
19.0
 40
19.0
 40
19.0
 10
73.34194876638674
 20
-116.3582722690875
 30
0.0
 10
73.24669187621959
 20
-116.3582722690875
 30
0.0
 10
73.02878958677753
 20
-116.3370849318532
 30
0.0
 10
72.90407713021149
 20
-116.1508775208755
 30
0.0
 10
72.83000757727861
 20
-116.0387396628306
 30
0.0
 10
72.82570120792205
 20
-115.9393486580811
 30
0.0
 10
72.82156709333975
 20
-115.8547715639183
 30
0.0
 10
72.82156709333975
 20
-115.8547715639183
 30
0.0
 10
73.04153644007295
 20
-115.8547715639183
 30
0.0
 10
73.04153644007295
 20
-115.8547715639183
 30
0.0
 10
73.0436034973641
 20
-115.9288411168511
 30
0.0
 10
73.05428329336837
 20
-116.1636243741709
 30
0.0
 10
73.33781465180444
 20
-116.1636243741709
 30
0.0
 10
73.4752739616659
 20
-116.1636243741709
 30
0.0
 10
73.62754718211394
 20
-116.0938611905946
 30
0.0
 10
73.62754718211394
 20
-115.8652791051483
 30
0.0
 10
73.62754718211394
 20
-115.7490071325211
 30
0.0
 10
73.58947887700194
 20
-115.7002590314048
 30
0.0
 10
73.55778399853764
 20
-115.6685641529405
 30
0.0
 10
73.48371444560478
 20
-115.5944946000076
 30
0.0
 10
73.36727021820333
 20
-115.5819200014865
 30
0.0
 10
73.31232094521359
 20
-115.5819200014865
 30
0.0
 10
73.29337292004472
 20
-115.5819200014865
 30
0.0
 10
73.25737167222385
 20
-115.5839870587776
 30
0.0
 10
73.22981090834186
 20
-115.5881211733599
 30
0.0
 10
73.22981090834186
 20
-115.5881211733599
 30
0.0
 10
73.22981090834186
 20
-115.3934732784433
 30
0.0
 10
73.22981090834186
 20
-115.3934732784433
 30
0.0
 10
73.26787921345387
 20
-115.399846705091
 30
0.0
 10
73.31025388792244
 20
-115.4020860171564
 30
0.0
 10
73.31662731457016
 20
-115.4020860171564
 30
0.0
 10
73.3820841287899
 20
-115.4020860171564
 30
0.0
 10
73.58103839306308
 20
-115.3808986799221
 30
0.0
 10
73.58103839306308
 20
-115.143876110537
 30
0.0
 10
73.58103839306308
 20
-114.9662814382723
 30
0.0
 10
73.44978025507505
 20
-114.9111599105083
 30
0.0
 10
73.3398817090956
 20
-114.9111599105083
 30
0.0
 10
73.07547063060267
 20
-114.9111599105083
 30
0.0
 10
73.0670301466638
 20
-115.143876110537
 30
0.0
 10
73.06272377730724
 20
-115.2158786061787
 30
0.0
 10
73.06272377730724
 20
-115.2158786061787
 30
0.0
 10
72.85963539845176
 20
-115.2158786061787
 30
0.0
 10
72.85963539845176
 20
-115.2158786061787
 30
0.0
 10
72.86807588239063
 20
-115.0909938948384
 30
0.0
 10
72.89563664627262
 20
-114.7144449583006
 30
0.0
 10
73.35245630761675
 20
-114.7144449583006
 30
0.0
 10
73.57673202370651
 20
-114.7144449583006
 30
0.0
 10
73.817888707674
 20
-114.841396726932
 30
0.0
 10
73.817888707674
 20
-115.1375026838892
 30
0.0
 10
73.817888707674
 20
-115.323710094867
 30
0.0
 10
73.72280407228111
 20
-115.4062201317387
 30
0.0
 10
73.62324081275739
 20
-115.4675428313762
 30
0.0
 10
73.6847357671691
 20
-115.4951035952582
 30
0.0
 10
73.86663680879029
 20
-115.5755465748388
 30
0.0
 10
73.86663680879029
 20
-115.8527045066271
 30
0.0
 10
73.86663680879029
 20
-116.1911851380529
 30
0.0
 10
73.61910669817509
 20
-116.3582722690875
 30
0.0
 10
73.34194876638674
 20
-116.3582722690875
 30
0.0
  0
HATCH
  5
B3
330
AE
100
AcDbEntity
  8
_U+30EC_U+30A4_U+30E4_U+30FC 1
 62
   179
420
  2234388
100
AcDbHatch
 10
0.0
 20
0.0
 30
0.0
210
0.0
220
0.0
230
1.0
  2
SOLID
 70
     1
 71
     0
 91
        1
 92
        1
 93
        1
 72
     4
 94
        3
 73
     0
 74
     1
 95
       62
 96
       58
 40
0.0
 40
0.0
 40
0.0
 40
0.0
 40
1.0
 40
1.0
 40
1.0
 40
2.0
 40
2.0
 40
2.0
 40
3.0
 40
3.0
 40
3.0
 40
4.0
 40
4.0
 40
4.0
 40
5.0
 40
5.0
 40
5.0
 40
6.0
 40
6.0
 40
6.0
 40
7.0
 40
7.0
 40
7.0
 40
8.0
 40
8.0
 40
8.0
 40
9.0
 40
9.0
 40
9.0
 40
10.0
 40
10.0
 40
10.0
 40
11.0
 40
11.0
 40
11.0
 40
12.0
 40
12.0
 40
12.0
 40
13.0
 40
13.0
 40
13.0
 40
14.0
 40
14.0
 40
14.0
 40
15.0
 40
15.0
 40
15.0
 40
16.0
 40
16.0
 40
16.0
 40
17.0
 40
17.0
 40
17.0
 40
18.0
 40
18.0
 40
18.0
 40
19.0
 40
19.0
 40
19.0
 40
19.0
 10
73.34194876638674
 20
-116.3582722690875
 10
73.24669187621959
 20
-116.3582722690875
 10
73.02878958677753
 20
-116.3370849318532
 10
72.90407713021149
 20
-116.1508775208755
 10
72.83000757727861
 20
-116.0387396628306
 10
72.82570120792205
 20
-115.9393486580811
 10
72.82156709333975
 20
-115.8547715639183
 10
72.82156709333975
 20
-115.8547715639183
 10
73.04153644007295
 20
-115.8547715639183
 10
73.04153644007295
 20
-115.8547715639183
 10
73.0436034973641
 20
-115.9288411168511
 10
73.05428329336837
 20
-116.1636243741709
 10
73.33781465180444
 20
-116.1636243741709
 10
73.4752739616659
 20
-116.1636243741709
 10
73.62754718211394
 20
-116.0938611905946
 10
73.62754718211394
 20
-115.8652791051483
 10
73.62754718211394
 20
-115.7490071325211
 10
73.58947887700194
 20
-115.7002590314048
 10
73.55778399853764
 20
-115.6685641529405
 10
73.48371444560478
 20
-115.5944946000076
 10
73.36727021820333
 20
-115.5819200014865
 10
73.31232094521359
 20
-115.5819200014865
 10
73.29337292004472
 20
-115.5819200014865
 10
73.25737167222385
 20
-115.5839870587776
 10
73.22981090834186
 20
-115.5881211733599
 10
73.22981090834186
 20
-115.5881211733599
 10
73.22981090834186
 20
-115.3934732784433
 10
73.22981090834186
 20
-115.3934732784433
 10
73.26787921345387
 20
-115.399846705091
 10
73.31025388792244
 20
-115.4020860171564
 10
73.31662731457016
 20
-115.4020860171564
 10
73.3820841287899
 20
-115.4020860171564
 10
73.58103839306308
 20
-115.3808986799221
 10
73.58103839306308
 20
-115.143876110537
 10
73.58103839306308
 20
-114.9662814382723
 10
73.44978025507505
 20
-114.9111599105083
 10
73.3398817090956
 20
-114.9111599105083
 10
73.07547063060267
 20
-114.9111599105083
 10
73.0670301466638
 20
-115.143876110537
 10
73.06272377730724
 20
-115.2158786061787
 10
73.06272377730724
 20
-115.2158786061787
 10
72.85963539845176
 20
-115.2158786061787
 10
72.85963539845176
 20
-115.2158786061787
 10
72.86807588239063
 20
-115.0909938948384
 10
72.89563664627262
 20
-114.7144449583006
 10
73.35245630761675
 20
-114.7144449583006
 10
73.57673202370651
 20
-114.7144449583006
 10
73.817888707674
 20
-114.841396726932
 10
73.817888707674
 20
-115.1375026838892
 10
73.817888707674
 20
-115.323710094867
 10
73.72280407228111
 20
-115.4062201317387
 10
73.62324081275739
 20
-115.4675428313762
 10
73.6847357671691
 20
-115.4951035952582
 10
73.86663680879029
 20
-115.5755465748388
 10
73.86663680879029
 20
-115.8527045066271
 10
73.86663680879029
 20
-116.1911851380529
 10
73.61910669817509
 20
-116.3582722690875
 10
73.34194876638674
 20
-116.3582722690875
 97
        0
 97
        0
 75
     2
 76
     1
 98
        0
  0
ENDBLK
  5
B1
330
AE
100
AcDbEntity
  8
0
100
AcDbBlockEnd
  0
BLOCK
  5
C2
330
C0
100
AcDbEntity
  8
0
100
AcDbBlockBegin
  2
block 5
 70
     0
 10
0.0
 20
0.0
 30
0.0
  3
block 5
  1

  0
POLYLINE
  5
C4
330
C0
100
AcDbEntity
  8
_U+30EC_U+30A4_U+30E4_U+30FC 1
370
     0
100
AcDb2dPolyline
 66
     1
 10
0.0
 20
0.0
 30
0.0
  0
VERTEX
  5
C5
330
C4
100
AcDbEntity
  8
_U+30EC_U+30A4_U+30E4_U+30FC 1
370
     0
100
AcDbVertex
100
AcDb2dVertex
 10
91.51551647017668
 20
-111.9600911178433
 30
0.0
  0
VERTEX
  5
C6
330
C4
100
AcDbEntity
  8
_U+30EC_U+30A4_U+30E4_U+30FC 1
370
     0
100
AcDbVertex
100
AcDb2dVertex
 10
91.51551647017668
 20
-112.307012233208
 30
0.0
  0
VERTEX
  5
C7
330
C4
100
AcDbEntity
  8
_U+30EC_U+30A4_U+30E4_U+30FC 1
370
     0
100
AcDbVertex
100
AcDb2dVertex
 10
91.29795869028315
 20
-112.307012233208
 30
0.0
  0
VERTEX
  5
C8
330
C4
100
AcDbEntity
  8
_U+30EC_U+30A4_U+30E4_U+30FC 1
370
     0
100
AcDbVertex
100
AcDb2dVertex
 10
91.29795869028315
 20
-111.9600911178433
 30
0.0
  0
VERTEX
  5
C9
330
C4
100
AcDbEntity
  8
_U+30EC_U+30A4_U+30E4_U+30FC 1
370
     0
100
AcDbVertex
100
AcDb2dVertex
 10
90.64201250989159
 20
-111.9600911178433
 30
0.0
  0
VERTEX
  5
CA
330
C4
100
AcDbEntity
  8
_U+30EC_U+30A4_U+30E4_U+30FC 1
370
     0
100
AcDbVertex
100
AcDb2dVertex
 10
90.64201250989159
 20
-111.7358154017536
 30
0.0
  0
VERTEX
  5
CB
330
C4
100
AcDbEntity
  8
_U+30EC_U+30A4_U+30E4_U+30FC 1
370
     0
100
AcDbVertex
100
AcDb2dVertex
 10
91.32104083003432
 20
-110.7627481819447
 30
0.0
  0
VERTEX
  5
CC
330
C4
100
AcDbEntity
  8
_U+30EC_U+30A4_U+30E4_U+30FC 1
370
     0
100
AcDbVertex
100
AcDb2dVertex
 10
91.51551647017668
 20
-110.7627481819447
 30
0.0
  0
VERTEX
  5
CD
330
C4
100
AcDbEntity
  8
_U+30EC_U+30A4_U+30E4_U+30FC 1
370
     0
100
AcDbVertex
100
AcDb2dVertex
 10
91.51551647017668
 20
-111.7611368535701
 30
0.0
  0
VERTEX
  5
CE
330
C4
100
AcDbEntity
  8
_U+30EC_U+30A4_U+30E4_U+30FC 1
370
     0
100
AcDbVertex
100
AcDb2dVertex
 10
91.72291121838872
 20
-111.7611368535701
 30
0.0
  0
VERTEX
  5
CF
330
C4
100
AcDbEntity
  8
_U+30EC_U+30A4_U+30E4_U+30FC 1
370
     0
100
AcDbVertex
100
AcDb2dVertex
 10
91.72291121838872
 20
-111.9600911178433
 30
0.0
  0
VERTEX
  5
D0
330
C4
100
AcDbEntity
  8
_U+30EC_U+30A4_U+30E4_U+30FC 1
370
     0
100
AcDbVertex
100
AcDb2dVertex
 10
91.51551647017668
 20
-111.9600911178433
 30
0.0
  0
SEQEND
  5
D1
330
C4
100
AcDbEntity
  8
_U+30EC_U+30A4_U+30E4_U+30FC 1
370
     0
  0
POLYLINE
  5
D2
330
C0
100
AcDbEntity
  8
_U+30EC_U+30A4_U+30E4_U+30FC 1
370
     0
100
AcDb2dPolyline
 66
     1
 10
0.0
 20
0.0
 30
0.0
  0
VERTEX
  5
D3
330
D2
100
AcDbEntity
  8
_U+30EC_U+30A4_U+30E4_U+30FC 1
370
     0
100
AcDbVertex
100
AcDb2dVertex
 10
91.29795869028315
 20
-111.1053629279528
 30
0.0
  0
VERTEX
  5
D4
330
D2
100
AcDbEntity
  8
_U+30EC_U+30A4_U+30E4_U+30FC 1
370
     0
100
AcDbVertex
100
AcDb2dVertex
 10
90.8407945193905
 20
-111.7611368535701
 30
0.0
  0
VERTEX
  5
D5
330
D2
100
AcDbEntity
  8
_U+30EC_U+30A4_U+30E4_U+30FC 1
370
     0
100
AcDbVertex
100
AcDb2dVertex
 10
91.29795869028315
 20
-111.7611368535701
 30
0.0
  0
VERTEX
  5
D6
330
D2
100
AcDbEntity
  8
_U+30EC_U+30A4_U+30E4_U+30FC 1
370
     0
100
AcDbVertex
100
AcDb2dVertex
 10
91.29795869028315
 20
-111.1053629279528
 30
0.0
  0
SEQEND
  5
D7
330
D2
100
AcDbEntity
  8
_U+30EC_U+30A4_U+30E4_U+30FC 1
370
     0
  0
HATCH
  5
D8
330
C0
100
AcDbEntity
  8
_U+30EC_U+30A4_U+30E4_U+30FC 1
 62
   179
420
  2234388
100
AcDbHatch
 10
0.0
 20
0.0
 30
0.0
210
0.0
220
0.0
230
1.0
  2
SOLID
 70
     1
 71
     0
 91
        2
 92
        1
 93
       11
 72
     1
 10
91.51551647017668
 20
-111.9600911178433
 11
91.51551647017668
 21
-112.307012233208
 72
     1
 10
91.51551647017668
 20
-112.307012233208
 11
91.29795869028315
 21
-112.307012233208
 72
     1
 10
91.29795869028315
 20
-112.307012233208
 11
91.29795869028315
 21
-111.9600911178433
 72
     1
 10
91.29795869028315
 20
-111.9600911178433
 11
90.64201250989159
 21
-111.9600911178433
 72
     1
 10
90.64201250989159
 20
-111.9600911178433
 11
90.64201250989159
 21
-111.7358154017536
 72
     1
 10
90.64201250989159
 20
-111.7358154017536
 11
91.32104083003432
 21
-110.7627481819447
 72
     1
 10
91.32104083003432
 20
-110.7627481819447
 11
91.51551647017668
 21
-110.7627481819447
 72
     1
 10
91.51551647017668
 20
-110.7627481819447
 11
91.51551647017668
 21
-111.7611368535701
 72
     1
 10
91.51551647017668
 20
-111.7611368535701
 11
91.72291121838872
 21
-111.7611368535701
 72
     1
 10
91.72291121838872
 20
-111.7611368535701
 11
91.72291121838872
 21
-111.9600911178433
 72
     1
 10
91.72291121838872
 20
-111.9600911178433
 11
91.51551647017668
 21
-111.9600911178433
 97
        0
 92
        1
 93
        3
 72
     1
 10
91.29795869028315
 20
-111.1053629279528
 11
90.8407945193905
 21
-111.7611368535701
 72
     1
 10
90.8407945193905
 20
-111.7611368535701
 11
91.29795869028315
 21
-111.7611368535701
 72
     1
 10
91.29795869028315
 20
-111.7611368535701
 11
91.29795869028315
 21
-111.1053629279528
 97
        0
 75
     2
 76
     1
 98
        0
  0
SPLINE
  5
D9
330
C0
100
AcDbEntity
  8
_U+30EC_U+30A4_U+30E4_U+30FC 1
370
     0
100
AcDbSpline
210
0.0
220
0.0
230
1.0
 70
    11
 71
     3
 72
    29
 73
    25
 74
     0
 42
0.0000000001
 43
0.0000000001
 12
1.0
 22
0.0
 32
0.0
 13
1.0
 23
0.0
 33
0.0
 40
0.0
 40
0.0
 40
0.0
 40
0.0
 40
1.0
 40
1.0
 40
1.0
 40
2.0
 40
2.0
 40
2.0
 40
3.0
 40
3.0
 40
3.0
 40
4.0
 40
4.0
 40
4.0
 40
5.0
 40
5.0
 40
5.0
 40
6.0
 40
6.0
 40
6.0
 40
7.0
 40
7.0
 40
7.0
 40
8.0
 40
8.0
 40
8.0
 40
8.0
 10
92.7581624117063
 20
-112.1292453061691
 30
0.0
 10
92.64998641346945
 20
-112.3387071116723
 30
0.0
 10
92.47669811056139
 20
-112.3578273916154
 30
0.0
 10
92.36025388315994
 20
-112.3578273916154
 30
0.0
 10
92.19936792399878
 20
-112.3578273916154
 30
0.0
 10
92.05777449955501
 20
-112.3113186025645
 30
0.0
 10
91.96268986416212
 20
-112.1292453061691
 30
0.0
 10
91.8589924900561
 20
-111.9345974112525
 30
0.0
 10
91.83969995533869
 20
-111.6977470966415
 30
0.0
 10
91.83969995533869
 20
-111.5347940801892
 30
0.0
 10
91.83969995533869
 20
-111.39096134368
 30
0.0
 10
91.85692543276494
 20
-111.1392971184825
 30
0.0
 10
91.96268986416212
 20
-110.9403428542094
 30
0.0
 10
92.07052135285043
 20
-110.7372544753539
 30
0.0
 10
92.2314073120116
 20
-110.7140000808285
 30
0.0
 10
92.36025388315994
 20
-110.7140000808285
 30
0.0
 10
92.51907278502996
 20
-110.7140000808285
 30
0.0
 10
92.66273326676487
 20
-110.7584418125882
 30
0.0
 10
92.7581624117063
 20
-110.9403428542094
 30
0.0
 10
92.85738116168149
 20
-111.1329236918348
 30
0.0
 10
92.8808078109812
 20
-111.3613335225069
 30
0.0
 10
92.8808078109812
 20
-111.5347940801892
 30
0.0
 10
92.8808078109812
 20
-111.7061875805804
 30
0.0
 10
92.85944821897264
 20
-111.9368367233179
 30
0.0
 10
92.7581624117063
 20
-112.1292453061691
 30
0.0
  0
SPLINE
  5
DA
330
C0
100
AcDbEntity
  8
_U+30EC_U+30A4_U+30E4_U+30FC 1
370
     0
100
AcDbSpline
210
0.0
220
0.0
230
1.0
 70
    11
 71
     3
 72
    17
 73
    13
 74
     0
 42
0.0000000001
 43
0.0000000001
 12
1.0
 22
0.0
 32
0.0
 13
1.0
 23
0.0
 33
0.0
 40
0.0
 40
0.0
 40
0.0
 40
0.0
 40
1.0
 40
1.0
 40
1.0
 40
2.0
 40
2.0
 40
2.0
 40
3.0
 40
3.0
 40
3.0
 40
4.0
 40
4.0
 40
4.0
 40
4.0
 10
92.36025388315994
 20
-110.9065809184539
 30
0.0
 10
92.11048446047933
 20
-110.9065809184539
 30
0.0
 10
92.06397567142845
 20
-111.19011227689
 30
0.0
 10
92.06397567142845
 20
-111.5347940801892
 30
0.0
 10
92.06397567142845
 20
-111.8543266864461
 30
0.0
 10
92.10014917402358
 20
-112.1631794966988
 30
0.0
 10
92.36025388315994
 20
-112.1631794966988
 30
0.0
 10
92.6079562485494
 20
-112.1631794966988
 30
0.0
 10
92.65653209489143
 20
-111.8817151955539
 30
0.0
 10
92.65653209489143
 20
-111.5347940801892
 30
0.0
 10
92.65653209489143
 20
-111.2154337287066
 30
0.0
 10
92.61829153500516
 20
-110.9065809184539
 30
0.0
 10
92.36025388315994
 20
-110.9065809184539
 30
0.0
  0
HATCH
  5
DB
330
C0
100
AcDbEntity
  8
_U+30EC_U+30A4_U+30E4_U+30FC 1
 62
   179
420
  2234388
100
AcDbHatch
 10
0.0
 20
0.0
 30
0.0
210
0.0
220
0.0
230
1.0
  2
SOLID
 70
     1
 71
     0
 91
        2
 92
        1
 93
        1
 72
     4
 94
        3
 73
     0
 74
     1
 95
       29
 96
       25
 40
0.0
 40
0.0
 40
0.0
 40
0.0
 40
1.0
 40
1.0
 40
1.0
 40
2.0
 40
2.0
 40
2.0
 40
3.0
 40
3.0
 40
3.0
 40
4.0
 40
4.0
 40
4.0
 40
5.0
 40
5.0
 40
5.0
 40
6.0
 40
6.0
 40
6.0
 40
7.0
 40
7.0
 40
7.0
 40
8.0
 40
8.0
 40
8.0
 40
8.0
 10
92.7581624117063
 20
-112.1292453061691
 10
92.64998641346945
 20
-112.3387071116723
 10
92.47669811056139
 20
-112.3578273916154
 10
92.36025388315994
 20
-112.3578273916154
 10
92.19936792399878
 20
-112.3578273916154
 10
92.05777449955501
 20
-112.3113186025645
 10
91.96268986416212
 20
-112.1292453061691
 10
91.8589924900561
 20
-111.9345974112525
 10
91.83969995533869
 20
-111.6977470966415
 10
91.83969995533869
 20
-111.5347940801892
 10
91.83969995533869
 20
-111.39096134368
 10
91.85692543276494
 20
-111.1392971184825
 10
91.96268986416212
 20
-110.9403428542094
 10
92.07052135285043
 20
-110.7372544753539
 10
92.2314073120116
 20
-110.7140000808285
 10
92.36025388315994
 20
-110.7140000808285
 10
92.51907278502996
 20
-110.7140000808285
 10
92.66273326676487
 20
-110.7584418125882
 10
92.7581624117063
 20
-110.9403428542094
 10
92.85738116168149
 20
-111.1329236918348
 10
92.8808078109812
 20
-111.3613335225069
 10
92.8808078109812
 20
-111.5347940801892
 10
92.8808078109812
 20
-111.7061875805804
 10
92.85944821897264
 20
-111.9368367233179
 10
92.7581624117063
 20
-112.1292453061691
 97
        0
 97
        0
 92
        1
 93
        1
 72
     4
 94
        3
 73
     0
 74
     1
 95
       17
 96
       13
 40
0.0
 40
0.0
 40
0.0
 40
0.0
 40
1.0
 40
1.0
 40
1.0
 40
2.0
 40
2.0
 40
2.0
 40
3.0
 40
3.0
 40
3.0
 40
4.0
 40
4.0
 40
4.0
 40
4.0
 10
92.36025388315994
 20
-110.9065809184539
 10
92.11048446047933
 20
-110.9065809184539
 10
92.06397567142845
 20
-111.19011227689
 10
92.06397567142845
 20
-111.5347940801892
 10
92.06397567142845
 20
-111.8543266864461
 10
92.10014917402358
 20
-112.1631794966988
 10
92.36025388315994
 20
-112.1631794966988
 10
92.6079562485494
 20
-112.1631794966988
 10
92.65653209489143
 20
-111.8817151955539
 10
92.65653209489143
 20
-111.5347940801892
 10
92.65653209489143
 20
-111.2154337287066
 10
92.61829153500516
 20
-110.9065809184539
 10
92.36025388315994
 20
-110.9065809184539
 97
        0
 97
        0
 75
     2
 76
     1
 98
        0
  0
ENDBLK
  5
C3
330
C0
100
AcDbEntity
  8
0
100
AcDbBlockEnd
  0
BLOCK
  5
EA
330
E8
100
AcDbEntity
  8
0
100
AcDbBlockBegin
  2
block 6
 70
     0
 10
0.0
 20
0.0
 30
0.0
  3
block 6
  1

  0
SPLINE
  5
EC
330
E8
100
AcDbEntity
  8
_U+30EC_U+30A4_U+30E4_U+30FC 1
370
     0
100
AcDbSpline
210
0.0
220
0.0
230
1.0
 70
    11
 71
     3
 72
    26
 73
    22
 74
     0
 42
0.0000000001
 43
0.0000000001
 12
1.0
 22
0.0
 32
0.0
 13
1.0
 23
0.0
 33
0.0
 40
0.0
 40
0.0
 40
0.0
 40
0.0
 40
1.0
 40
1.0
 40
1.0
 40
2.0
 40
2.0
 40
2.0
 40
3.0
 40
3.0
 40
3.0
 40
4.0
 40
4.0
 40
4.0
 40
5.0
 40
5.0
 40
5.0
 40
6.0
 40
6.0
 40
6.0
 40
7.0
 40
7.0
 40
7.0
 40
7.0
 10
76.1352321858273
 20
-145.3068928673191
 30
0.0
 10
76.1352321858273
 20
-145.3068928673191
 30
0.0
 10
76.1352321858273
 20
-144.2027397642966
 30
0.0
 10
76.1352321858273
 20
-144.2027397642966
 30
0.0
 10
76.1352321858273
 20
-144.2027397642966
 30
0.0
 10
75.80519203834037
 20
-144.2027397642966
 30
0.0
 10
75.80519203834037
 20
-144.2027397642966
 30
0.0
 10
75.80519203834037
 20
-144.2027397642966
 30
0.0
 10
75.80519203834037
 20
-144.0546006584308
 30
0.0
 10
75.80519203834037
 20
-144.0546006584308
 30
0.0
 10
76.13729924311846
 20
-144.0397867478442
 30
0.0
 10
76.18380803216932
 20
-143.8768337313919
 30
0.0
 10
76.21343585334247
 20
-143.7624565612816
 30
0.0
 10
76.21343585334247
 20
-143.7624565612816
 30
0.0
 10
76.35950790191707
 20
-143.7624565612816
 30
0.0
 10
76.35950790191707
 20
-143.7624565612816
 30
0.0
 10
76.35950790191707
 20
-143.7624565612816
 30
0.0
 10
76.35950790191707
 20
-145.3068928673191
 30
0.0
 10
76.35950790191707
 20
-145.3068928673191
 30
0.0
 10
76.35950790191707
 20
-145.3068928673191
 30
0.0
 10
76.1352321858273
 20
-145.3068928673191
 30
0.0
 10
76.1352321858273
 20
-145.3068928673191
 30
0.0
  0
HATCH
  5
ED
330
E8
100
AcDbEntity
  8
_U+30EC_U+30A4_U+30E4_U+30FC 1
 62
   179
420
  2234388
100
AcDbHatch
 10
0.0
 20
0.0
 30
0.0
210
0.0
220
0.0
230
1.0
  2
SOLID
 70
     1
 71
     0
 91
        1
 92
        1
 93
        1
 72
     4
 94
        3
 73
     0
 74
     1
 95
       26
 96
       22
 40
0.0
 40
0.0
 40
0.0
 40
0.0
 40
1.0
 40
1.0
 40
1.0
 40
2.0
 40
2.0
 40
2.0
 40
3.0
 40
3.0
 40
3.0
 40
4.0
 40
4.0
 40
4.0
 40
5.0
 40
5.0
 40
5.0
 40
6.0
 40
6.0
 40
6.0
 40
7.0
 40
7.0
 40
7.0
 40
7.0
 10
76.1352321858273
 20
-145.3068928673191
 10
76.1352321858273
 20
-145.3068928673191
 10
76.1352321858273
 20
-144.2027397642966
 10
76.1352321858273
 20
-144.2027397642966
 10
76.1352321858273
 20
-144.2027397642966
 10
75.80519203834037
 20
-144.2027397642966
 10
75.80519203834037
 20
-144.2027397642966
 10
75.80519203834037
 20
-144.2027397642966
 10
75.80519203834037
 20
-144.0546006584308
 10
75.80519203834037
 20
-144.0546006584308
 10
76.13729924311846
 20
-144.0397867478442
 10
76.18380803216932
 20
-143.8768337313919
 10
76.21343585334247
 20
-143.7624565612816
 10
76.21343585334247
 20
-143.7624565612816
 10
76.35950790191707
 20
-143.7624565612816
 10
76.35950790191707
 20
-143.7624565612816
 10
76.35950790191707
 20
-143.7624565612816
 10
76.35950790191707
 20
-145.3068928673191
 10
76.35950790191707
 20
-145.3068928673191
 10
76.35950790191707
 20
-145.3068928673191
 10
76.1352321858273
 20
-145.3068928673191
 10
76.1352321858273
 20
-145.3068928673191
 97
        0
 97
        0
 75
     2
 76
     1
 98
        0
  0
SPLINE
  5
EE
330
E8
100
AcDbEntity
  8
_U+30EC_U+30A4_U+30E4_U+30FC 1
370
     0
100
AcDbSpline
210
0.0
220
0.0
230
1.0
 70
    11
 71
     3
 72
    29
 73
    25
 74
     0
 42
0.0000000001
 43
0.0000000001
 12
1.0
 22
0.0
 32
0.0
 13
1.0
 23
0.0
 33
0.0
 40
0.0
 40
0.0
 40
0.0
 40
0.0
 40
1.0
 40
1.0
 40
1.0
 40
2.0
 40
2.0
 40
2.0
 40
3.0
 40
3.0
 40
3.0
 40
4.0
 40
4.0
 40
4.0
 40
5.0
 40
5.0
 40
5.0
 40
6.0
 40
6.0
 40
6.0
 40
7.0
 40
7.0
 40
7.0
 40
8.0
 40
8.0
 40
8.0
 40
8.0
 10
77.75838892370277
 20
-145.1291259402802
 30
0.0
 10
77.65055743501445
 20
-145.3385877457834
 30
0.0
 10
77.47709687733212
 20
-145.3575357709523
 30
0.0
 10
77.36065264993067
 20
-145.3575357709523
 30
0.0
 10
77.19993894554376
 20
-145.3575357709523
 30
0.0
 10
77.05817326632574
 20
-145.3110269819014
 30
0.0
 10
76.96291637615857
 20
-145.1291259402802
 30
0.0
 10
76.85939125682683
 20
-144.9344780453636
 30
0.0
 10
76.84027097688369
 20
-144.697799985527
 30
0.0
 10
76.84027097688369
 20
-144.5348469690746
 30
0.0
 10
76.84027097688369
 20
-144.3908419777912
 30
0.0
 10
76.85715194476141
 20
-144.1390054978194
 30
0.0
 10
76.96291637615857
 20
-143.9402234883205
 30
0.0
 10
77.07092011962116
 20
-143.7373073642393
 30
0.0
 10
77.23163382400807
 20
-143.7138807149396
 30
0.0
 10
77.36065264993067
 20
-143.7138807149396
 30
0.0
 10
77.51929929702644
 20
-143.7138807149396
 30
0.0
 10
77.6631320335356
 20
-143.7583224466993
 30
0.0
 10
77.75838892370277
 20
-143.9402234883205
 30
0.0
 10
77.85777992845223
 20
-144.132804325946
 30
0.0
 10
77.88103432297765
 20
-144.361214156618
 30
0.0
 10
77.88103432297765
 20
-144.5348469690746
 30
0.0
 10
77.88103432297765
 20
-144.7060682146916
 30
0.0
 10
77.86001924051764
 20
-144.9365451026547
 30
0.0
 10
77.75838892370277
 20
-145.1291259402802
 30
0.0
  0
SPLINE
  5
EF
330
E8
100
AcDbEntity
  8
_U+30EC_U+30A4_U+30E4_U+30FC 1
370
     0
100
AcDbSpline
210
0.0
220
0.0
230
1.0
 70
    11
 71
     3
 72
    17
 73
    13
 74
     0
 42
0.0000000001
 43
0.0000000001
 12
1.0
 22
0.0
 32
0.0
 13
1.0
 23
0.0
 33
0.0
 40
0.0
 40
0.0
 40
0.0
 40
0.0
 40
1.0
 40
1.0
 40
1.0
 40
2.0
 40
2.0
 40
2.0
 40
3.0
 40
3.0
 40
3.0
 40
4.0
 40
4.0
 40
4.0
 40
4.0
 10
77.36065264993067
 20
-143.906461552565
 30
0.0
 10
77.11105548202433
 20
-143.906461552565
 30
0.0
 10
77.06454669297345
 20
-144.1899929110011
 30
0.0
 10
77.06454669297345
 20
-144.5348469690746
 30
0.0
 10
77.06454669297345
 20
-144.8542073205573
 30
0.0
 10
77.10054794079431
 20
-145.1628878760357
 30
0.0
 10
77.36065264993067
 20
-145.1628878760357
 30
0.0
 10
77.60818276054587
 20
-145.1628878760357
 30
0.0
 10
77.65693086166216
 20
-144.8817680844393
 30
0.0
 10
77.65693086166216
 20
-144.5348469690746
 30
0.0
 10
77.65693086166216
 20
-144.2151421080434
 30
0.0
 10
77.61886255655016
 20
-143.906461552565
 30
0.0
 10
77.36065264993067
 20
-143.906461552565
 30
0.0
  0
HATCH
  5
F0
330
E8
100
AcDbEntity
  8
_U+30EC_U+30A4_U+30E4_U+30FC 1
 62
   179
420
  2234388
100
AcDbHatch
 10
0.0
 20
0.0
 30
0.0
210
0.0
220
0.0
230
1.0
  2
SOLID
 70
     1
 71
     0
 91
        2
 92
        1
 93
        1
 72
     4
 94
        3
 73
     0
 74
     1
 95
       29
 96
       25
 40
0.0
 40
0.0
 40
0.0
 40
0.0
 40
1.0
 40
1.0
 40
1.0
 40
2.0
 40
2.0
 40
2.0
 40
3.0
 40
3.0
 40
3.0
 40
4.0
 40
4.0
 40
4.0
 40
5.0
 40
5.0
 40
5.0
 40
6.0
 40
6.0
 40
6.0
 40
7.0
 40
7.0
 40
7.0
 40
8.0
 40
8.0
 40
8.0
 40
8.0
 10
77.75838892370277
 20
-145.1291259402802
 10
77.65055743501445
 20
-145.3385877457834
 10
77.47709687733212
 20
-145.3575357709523
 10
77.36065264993067
 20
-145.3575357709523
 10
77.19993894554376
 20
-145.3575357709523
 10
77.05817326632574
 20
-145.3110269819014
 10
76.96291637615857
 20
-145.1291259402802
 10
76.85939125682683
 20
-144.9344780453636
 10
76.84027097688369
 20
-144.697799985527
 10
76.84027097688369
 20
-144.5348469690746
 10
76.84027097688369
 20
-144.3908419777912
 10
76.85715194476141
 20
-144.1390054978194
 10
76.96291637615857
 20
-143.9402234883205
 10
77.07092011962116
 20
-143.7373073642393
 10
77.23163382400807
 20
-143.7138807149396
 10
77.36065264993067
 20
-143.7138807149396
 10
77.51929929702644
 20
-143.7138807149396
 10
77.6631320335356
 20
-143.7583224466993
 10
77.75838892370277
 20
-143.9402234883205
 10
77.85777992845223
 20
-144.132804325946
 10
77.88103432297765
 20
-144.361214156618
 10
77.88103432297765
 20
-144.5348469690746
 10
77.88103432297765
 20
-144.7060682146916
 10
77.86001924051764
 20
-144.9365451026547
 10
77.75838892370277
 20
-145.1291259402802
 97
        0
 97
        0
 92
        1
 93
        1
 72
     4
 94
        3
 73
     0
 74
     1
 95
       17
 96
       13
 40
0.0
 40
0.0
 40
0.0
 40
0.0
 40
1.0
 40
1.0
 40
1.0
 40
2.0
 40
2.0
 40
2.0
 40
3.0
 40
3.0
 40
3.0
 40
4.0
 40
4.0
 40
4.0
 40
4.0
 10
77.36065264993067
 20
-143.906461552565
 10
77.11105548202433
 20
-143.906461552565
 10
77.06454669297345
 20
-144.1899929110011
 10
77.06454669297345
 20
-144.5348469690746
 10
77.06454669297345
 20
-144.8542073205573
 10
77.10054794079431
 20
-145.1628878760357
 10
77.36065264993067
 20
-145.1628878760357
 10
77.60818276054587
 20
-145.1628878760357
 10
77.65693086166216
 20
-144.8817680844393
 10
77.65693086166216
 20
-144.5348469690746
 10
77.65693086166216
 20
-144.2151421080434
 10
77.61886255655016
 20
-143.906461552565
 10
77.36065264993067
 20
-143.906461552565
 97
        0
 97
        0
 75
     2
 76
     1
 98
        0
  0
ENDBLK
  5
EB
330
E8
100
AcDbEntity
  8
0
100
AcDbBlockEnd
  0
BLOCK
  5
FF
330
FD
100
AcDbEntity
  8
0
100
AcDbBlockBegin
  2
block 7
 70
     0
 10
0.0
 20
0.0
 30
0.0
  3
block 7
  1

  0
SPLINE
  5
101
330
FD
100
AcDbEntity
  8
_U+30EC_U+30A4_U+30E4_U+30FC 1
370
     0
100
AcDbSpline
210
0.0
220
0.0
230
1.0
 70
    11
 71
     3
 72
    44
 73
    40
 74
     0
 42
0.0000000001
 43
0.0000000001
 12
1.0
 22
0.0
 32
0.0
 13
1.0
 23
0.0
 33
0.0
 40
0.0
 40
0.0
 40
0.0
 40
0.0
 40
1.0
 40
1.0
 40
1.0
 40
2.0
 40
2.0
 40
2.0
 40
3.0
 40
3.0
 40
3.0
 40
4.0
 40
4.0
 40
4.0
 40
5.0
 40
5.0
 40
5.0
 40
6.0
 40
6.0
 40
6.0
 40
7.0
 40
7.0
 40
7.0
 40
8.0
 40
8.0
 40
8.0
 40
9.0
 40
9.0
 40
9.0
 40
10.0
 40
10.0
 40
10.0
 40
11.0
 40
11.0
 40
11.0
 40
12.0
 40
12.0
 40
12.0
 40
13.0
 40
13.0
 40
13.0
 40
13.0
 10
66.67000459487764
 20
-131.9747178489508
 30
0.0
 10
66.82865124197339
 20
-132.1924478836186
 30
0.0
 10
66.90272079490627
 20
-132.2854654617203
 30
0.0
 10
67.04655353141546
 20
-132.3343858176109
 30
0.0
 10
67.04655353141546
 20
-132.3343858176109
 30
0.0
 10
67.04655353141546
 20
-131.5557942379444
 30
0.0
 10
67.04655353141546
 20
-131.5557942379444
 30
0.0
 10
67.04655353141546
 20
-131.5557942379444
 30
0.0
 10
67.25170896756208
 20
-131.5557942379444
 30
0.0
 10
67.25170896756208
 20
-131.5557942379444
 30
0.0
 10
67.25170896756208
 20
-131.5557942379444
 30
0.0
 10
67.25170896756208
 20
-132.583810730743
 30
0.0
 10
67.25170896756208
 20
-132.583810730743
 30
0.0
 10
66.89410805619315
 20
-132.5521158522786
 30
0.0
 10
66.81590438867798
 20
-132.4866590380589
 30
0.0
 10
66.51755911965533
 20
-132.101497362808
 30
0.0
 10
66.31877711015642
 20
-131.8455267682539
 30
0.0
 10
66.25108098387126
 20
-131.7800699540342
 30
0.0
 10
66.11362167400979
 20
-131.7800699540342
 30
0.0
 10
65.9951103893172
 20
-131.7800699540342
 30
0.0
 10
65.86385225132918
 20
-131.8520724496759
 30
0.0
 10
65.86385225132918
 20
-132.0487874018836
 30
0.0
 10
65.86385225132918
 20
-132.30889211102
 30
0.0
 10
66.09450139406665
 20
-132.3175048497331
 30
0.0
 10
66.2109456214681
 20
-132.3216389643154
 30
0.0
 10
66.2109456214681
 20
-132.3216389643154
 30
0.0
 10
66.2109456214681
 20
-132.5459146804052
 30
0.0
 10
66.2109456214681
 20
-132.5459146804052
 30
0.0
 10
66.08399385283664
 20
-132.5373019416921
 30
0.0
 10
65.97185599479177
 20
-132.5266221456878
 30
0.0
 10
65.85334471009917
 20
-132.4463514208815
 30
0.0
 10
65.69263100571226
 20
-132.336452874902
 30
0.0
 10
65.65869681518255
 20
-132.15007320915
 30
0.0
 10
65.65869681518255
 20
-132.0339734912971
 30
0.0
 10
65.65869681518255
 20
-131.7566433047345
 30
0.0
 10
65.84283716886915
 20
-131.5492485565224
 30
0.0
 10
66.11568873130093
 20
-131.5492485565224
 30
0.0
 10
66.34409856197301
 20
-131.5492485565224
 30
0.0
 10
66.44366182149673
 20
-131.6656927839239
 30
0.0
 10
66.67000459487764
 20
-131.9747178489508
 30
0.0
  0
HATCH
  5
102
330
FD
100
AcDbEntity
  8
_U+30EC_U+30A4_U+30E4_U+30FC 1
 62
   179
420
  2234388
100
AcDbHatch
 10
0.0
 20
0.0
 30
0.0
210
0.0
220
0.0
230
1.0
  2
SOLID
 70
     1
 71
     0
 91
        1
 92
        1
 93
        1
 72
     4
 94
        3
 73
     0
 74
     1
 95
       44
 96
       40
 40
0.0
 40
0.0
 40
0.0
 40
0.0
 40
1.0
 40
1.0
 40
1.0
 40
2.0
 40
2.0
 40
2.0
 40
3.0
 40
3.0
 40
3.0
 40
4.0
 40
4.0
 40
4.0
 40
5.0
 40
5.0
 40
5.0
 40
6.0
 40
6.0
 40
6.0
 40
7.0
 40
7.0
 40
7.0
 40
8.0
 40
8.0
 40
8.0
 40
9.0
 40
9.0
 40
9.0
 40
10.0
 40
10.0
 40
10.0
 40
11.0
 40
11.0
 40
11.0
 40
12.0
 40
12.0
 40
12.0
 40
13.0
 40
13.0
 40
13.0
 40
13.0
 10
66.67000459487764
 20
-131.9747178489508
 10
66.82865124197339
 20
-132.1924478836186
 10
66.90272079490627
 20
-132.2854654617203
 10
67.04655353141546
 20
-132.3343858176109
 10
67.04655353141546
 20
-132.3343858176109
 10
67.04655353141546
 20
-131.5557942379444
 10
67.04655353141546
 20
-131.5557942379444
 10
67.04655353141546
 20
-131.5557942379444
 10
67.25170896756208
 20
-131.5557942379444
 10
67.25170896756208
 20
-131.5557942379444
 10
67.25170896756208
 20
-131.5557942379444
 10
67.25170896756208
 20
-132.583810730743
 10
67.25170896756208
 20
-132.583810730743
 10
66.89410805619315
 20
-132.5521158522786
 10
66.81590438867798
 20
-132.4866590380589
 10
66.51755911965533
 20
-132.101497362808
 10
66.31877711015642
 20
-131.8455267682539
 10
66.25108098387126
 20
-131.7800699540342
 10
66.11362167400979
 20
-131.7800699540342
 10
65.9951103893172
 20
-131.7800699540342
 10
65.86385225132918
 20
-131.8520724496759
 10
65.86385225132918
 20
-132.0487874018836
 10
65.86385225132918
 20
-132.30889211102
 10
66.09450139406665
 20
-132.3175048497331
 10
66.2109456214681
 20
-132.3216389643154
 10
66.2109456214681
 20
-132.3216389643154
 10
66.2109456214681
 20
-132.5459146804052
 10
66.2109456214681
 20
-132.5459146804052
 10
66.08399385283664
 20
-132.5373019416921
 10
65.97185599479177
 20
-132.5266221456878
 10
65.85334471009917
 20
-132.4463514208815
 10
65.69263100571226
 20
-132.336452874902
 10
65.65869681518255
 20
-132.15007320915
 10
65.65869681518255
 20
-132.0339734912971
 10
65.65869681518255
 20
-131.7566433047345
 10
65.84283716886915
 20
-131.5492485565224
 10
66.11568873130093
 20
-131.5492485565224
 10
66.34409856197301
 20
-131.5492485565224
 10
66.44366182149673
 20
-131.6656927839239
 10
66.67000459487764
 20
-131.9747178489508
 97
        0
 97
        0
 75
     2
 76
     1
 98
        0
  0
SPLINE
  5
103
330
FD
100
AcDbEntity
  8
_U+30EC_U+30A4_U+30E4_U+30FC 1
370
     0
100
AcDbSpline
210
0.0
220
0.0
230
1.0
 70
    11
 71
     3
 72
    26
 73
    22
 74
     0
 42
0.0000000001
 43
0.0000000001
 12
1.0
 22
0.0
 32
0.0
 13
1.0
 23
0.0
 33
0.0
 40
0.0
 40
0.0
 40
0.0
 40
0.0
 40
1.0
 40
1.0
 40
1.0
 40
2.0
 40
2.0
 40
2.0
 40
3.0
 40
3.0
 40
3.0
 40
4.0
 40
4.0
 40
4.0
 40
5.0
 40
5.0
 40
5.0
 40
6.0
 40
6.0
 40
6.0
 40
7.0
 40
7.0
 40
7.0
 40
7.0
 10
67.25170896756208
 20
-130.9394666556332
 30
0.0
 10
67.25170896756208
 20
-130.9394666556332
 30
0.0
 10
66.14738360976524
 20
-130.9394666556332
 30
0.0
 10
66.14738360976524
 20
-130.9394666556332
 30
0.0
 10
66.14738360976524
 20
-130.9394666556332
 30
0.0
 10
66.14738360976524
 20
-131.2695068031201
 30
0.0
 10
66.14738360976524
 20
-131.2695068031201
 30
0.0
 10
66.14738360976524
 20
-131.2695068031201
 30
0.0
 10
65.9992445038995
 20
-131.2695068031201
 30
0.0
 10
65.9992445038995
 20
-131.2695068031201
 30
0.0
 10
65.98460284808719
 20
-130.937399598342
 30
0.0
 10
65.82164983163487
 20
-130.8908908092912
 30
0.0
 10
65.70744491629884
 20
-130.861262988118
 30
0.0
 10
65.70744491629884
 20
-130.861262988118
 30
0.0
 10
65.70744491629884
 20
-130.7151909395434
 30
0.0
 10
65.70744491629884
 20
-130.7151909395434
 30
0.0
 10
65.70744491629884
 20
-130.7151909395434
 30
0.0
 10
67.25170896756208
 20
-130.7151909395434
 30
0.0
 10
67.25170896756208
 20
-130.7151909395434
 30
0.0
 10
67.25170896756208
 20
-130.7151909395434
 30
0.0
 10
67.25170896756208
 20
-130.9394666556332
 30
0.0
 10
67.25170896756208
 20
-130.9394666556332
 30
0.0
  0
HATCH
  5
104
330
FD
100
AcDbEntity
  8
_U+30EC_U+30A4_U+30E4_U+30FC 1
 62
   179
420
  2234388
100
AcDbHatch
 10
0.0
 20
0.0
 30
0.0
210
0.0
220
0.0
230
1.0
  2
SOLID
 70
     1
 71
     0
 91
        1
 92
        1
 93
        1
 72
     4
 94
        3
 73
     0
 74
     1
 95
       26
 96
       22
 40
0.0
 40
0.0
 40
0.0
 40
0.0
 40
1.0
 40
1.0
 40
1.0
 40
2.0
 40
2.0
 40
2.0
 40
3.0
 40
3.0
 40
3.0
 40
4.0
 40
4.0
 40
4.0
 40
5.0
 40
5.0
 40
5.0
 40
6.0
 40
6.0
 40
6.0
 40
7.0
 40
7.0
 40
7.0
 40
7.0
 10
67.25170896756208
 20
-130.9394666556332
 10
67.25170896756208
 20
-130.9394666556332
 10
66.14738360976524
 20
-130.9394666556332
 10
66.14738360976524
 20
-130.9394666556332
 10
66.14738360976524
 20
-130.9394666556332
 10
66.14738360976524
 20
-131.2695068031201
 10
66.14738360976524
 20
-131.2695068031201
 10
66.14738360976524
 20
-131.2695068031201
 10
65.9992445038995
 20
-131.2695068031201
 10
65.9992445038995
 20
-131.2695068031201
 10
65.98460284808719
 20
-130.937399598342
 10
65.82164983163487
 20
-130.8908908092912
 10
65.70744491629884
 20
-130.861262988118
 10
65.70744491629884
 20
-130.861262988118
 10
65.70744491629884
 20
-130.7151909395434
 10
65.70744491629884
 20
-130.7151909395434
 10
65.70744491629884
 20
-130.7151909395434
 10
67.25170896756208
 20
-130.7151909395434
 10
67.25170896756208
 20
-130.7151909395434
 10
67.25170896756208
 20
-130.7151909395434
 10
67.25170896756208
 20
-130.9394666556332
 10
67.25170896756208
 20
-130.9394666556332
 97
        0
 97
        0
 75
     2
 76
     1
 98
        0
  0
ENDBLK
  5
100
330
FD
100
AcDbEntity
  8
0
100
AcDbBlockEnd
  0
BLOCK
  5
10F
330
10D
100
AcDbEntity
  8
0
100
AcDbBlockBegin
  2
block 8
 70
     0
 10
0.0
 20
0.0
 30
0.0
  3
block 8
  1

  0
SPLINE
  5
111
330
10D
100
AcDbEntity
  8
_U+30EC_U+30A4_U+30E4_U+30FC 1
370
     0
100
AcDbSpline
210
0.0
220
0.0
230
1.0
 70
    11
 71
     3
 72
    26
 73
    22
 74
     0
 42
0.0000000001
 43
0.0000000001
 12
1.0
 22
0.0
 32
0.0
 13
1.0
 23
0.0
 33
0.0
 40
0.0
 40
0.0
 40
0.0
 40
0.0
 40
1.0
 40
1.0
 40
1.0
 40
2.0
 40
2.0
 40
2.0
 40
3.0
 40
3.0
 40
3.0
 40
4.0
 40
4.0
 40
4.0
 40
5.0
 40
5.0
 40
5.0
 40
6.0
 40
6.0
 40
6.0
 40
7.0
 40
7.0
 40
7.0
 40
7.0
 10
115.2518798539995
 20
-134.6164170670403
 30
0.0
 10
115.2518798539995
 20
-134.6164170670403
 30
0.0
 10
114.147726750977
 20
-134.6164170670403
 30
0.0
 10
114.147726750977
 20
-134.6164170670403
 30
0.0
 10
114.147726750977
 20
-134.6164170670403
 30
0.0
 10
114.147726750977
 20
-134.9464572145273
 30
0.0
 10
114.147726750977
 20
-134.9464572145273
 30
0.0
 10
114.147726750977
 20
-134.9464572145273
 30
0.0
 10
113.9995876451112
 20
-134.9464572145273
 30
0.0
 10
113.9995876451112
 20
-134.9464572145273
 30
0.0
 10
113.9847737345247
 20
-134.6143500097492
 30
0.0
 10
113.8218207180723
 20
-134.5678412206983
 30
0.0
 10
113.707443547962
 20
-134.5382133995252
 30
0.0
 10
113.707443547962
 20
-134.5382133995252
 30
0.0
 10
113.707443547962
 20
-134.3921413509506
 30
0.0
 10
113.707443547962
 20
-134.3921413509506
 30
0.0
 10
113.707443547962
 20
-134.3921413509506
 30
0.0
 10
115.2518798539995
 20
-134.3921413509506
 30
0.0
 10
115.2518798539995
 20
-134.3921413509506
 30
0.0
 10
115.2518798539995
 20
-134.3921413509506
 30
0.0
 10
115.2518798539995
 20
-134.6164170670403
 30
0.0
 10
115.2518798539995
 20
-134.6164170670403
 30
0.0
  0
HATCH
  5
112
330
10D
100
AcDbEntity
  8
_U+30EC_U+30A4_U+30E4_U+30FC 1
 62
   179
420
  2234388
100
AcDbHatch
 10
0.0
 20
0.0
 30
0.0
210
0.0
220
0.0
230
1.0
  2
SOLID
 70
     1
 71
     0
 91
        1
 92
        1
 93
        1
 72
     4
 94
        3
 73
     0
 74
     1
 95
       26
 96
       22
 40
0.0
 40
0.0
 40
0.0
 40
0.0
 40
1.0
 40
1.0
 40
1.0
 40
2.0
 40
2.0
 40
2.0
 40
3.0
 40
3.0
 40
3.0
 40
4.0
 40
4.0
 40
4.0
 40
5.0
 40
5.0
 40
5.0
 40
6.0
 40
6.0
 40
6.0
 40
7.0
 40
7.0
 40
7.0
 40
7.0
 10
115.2518798539995
 20
-134.6164170670403
 10
115.2518798539995
 20
-134.6164170670403
 10
114.147726750977
 20
-134.6164170670403
 10
114.147726750977
 20
-134.6164170670403
 10
114.147726750977
 20
-134.6164170670403
 10
114.147726750977
 20
-134.9464572145273
 10
114.147726750977
 20
-134.9464572145273
 10
114.147726750977
 20
-134.9464572145273
 10
113.9995876451112
 20
-134.9464572145273
 10
113.9995876451112
 20
-134.9464572145273
 10
113.9847737345247
 20
-134.6143500097492
 10
113.8218207180723
 20
-134.5678412206983
 10
113.707443547962
 20
-134.5382133995252
 10
113.707443547962
 20
-134.5382133995252
 10
113.707443547962
 20
-134.3921413509506
 10
113.707443547962
 20
-134.3921413509506
 10
113.707443547962
 20
-134.3921413509506
 10
115.2518798539995
 20
-134.3921413509506
 10
115.2518798539995
 20
-134.3921413509506
 10
115.2518798539995
 20
-134.3921413509506
 10
115.2518798539995
 20
-134.6164170670403
 10
115.2518798539995
 20
-134.6164170670403
 97
        0
 97
        0
 75
     2
 76
     1
 98
        0
  0
SPLINE
  5
113
330
10D
100
AcDbEntity
  8
_U+30EC_U+30A4_U+30E4_U+30FC 1
370
     0
100
AcDbSpline
210
0.0
220
0.0
230
1.0
 70
    11
 71
     3
 72
    29
 73
    25
 74
     0
 42
0.0000000001
 43
0.0000000001
 12
1.0
 22
0.0
 32
0.0
 13
1.0
 23
0.0
 33
0.0
 40
0.0
 40
0.0
 40
0.0
 40
0.0
 40
1.0
 40
1.0
 40
1.0
 40
2.0
 40
2.0
 40
2.0
 40
3.0
 40
3.0
 40
3.0
 40
4.0
 40
4.0
 40
4.0
 40
5.0
 40
5.0
 40
5.0
 40
6.0
 40
6.0
 40
6.0
 40
7.0
 40
7.0
 40
7.0
 40
8.0
 40
8.0
 40
8.0
 40
8.0
 10
115.0741129269606
 20
-132.9930880743906
 30
0.0
 10
115.2835747324638
 20
-133.1012640726275
 30
0.0
 10
115.3025227576327
 20
-133.2745523755355
 30
0.0
 10
115.3025227576327
 20
-133.390996602937
 30
0.0
 10
115.3025227576327
 20
-133.5518825620981
 30
0.0
 10
115.2560139685818
 20
-133.6934759865419
 30
0.0
 10
115.0741129269606
 20
-133.7885606219348
 30
0.0
 10
114.879465032044
 20
-133.8922579960408
 30
0.0
 10
114.6427869722074
 20
-133.9112060212097
 30
0.0
 10
114.479833955755
 20
-133.9112060212097
 30
0.0
 10
114.3358289644716
 20
-133.9112060212097
 30
0.0
 10
114.0839924844998
 20
-133.894325053332
 30
0.0
 10
113.8852104750009
 20
-133.7885606219348
 30
0.0
 10
113.6822943509197
 20
-133.6807291332465
 30
0.0
 10
113.65886770162
 20
-133.5198431740853
 30
0.0
 10
113.65886770162
 20
-133.390996602937
 30
0.0
 10
113.65886770162
 20
-133.232177701067
 30
0.0
 10
113.7033094333797
 20
-133.088517219332
 30
0.0
 10
113.8852104750009
 20
-132.9930880743906
 30
0.0
 10
114.0777913126264
 20
-132.8938693244154
 30
0.0
 10
114.3062011432985
 20
-132.8704426751157
 30
0.0
 10
114.479833955755
 20
-132.8704426751157
 30
0.0
 10
114.651055201372
 20
-132.8704426751157
 30
0.0
 10
114.8815320893352
 20
-132.8918022671243
 30
0.0
 10
115.0741129269606
 20
-132.9930880743906
 30
0.0
  0
SPLINE
  5
114
330
10D
100
AcDbEntity
  8
_U+30EC_U+30A4_U+30E4_U+30FC 1
370
     0
100
AcDbSpline
210
0.0
220
0.0
230
1.0
 70
    11
 71
     3
 72
    17
 73
    13
 74
     0
 42
0.0000000001
 43
0.0000000001
 12
1.0
 22
0.0
 32
0.0
 13
1.0
 23
0.0
 33
0.0
 40
0.0
 40
0.0
 40
0.0
 40
0.0
 40
1.0
 40
1.0
 40
1.0
 40
2.0
 40
2.0
 40
2.0
 40
3.0
 40
3.0
 40
3.0
 40
4.0
 40
4.0
 40
4.0
 40
4.0
 10
113.8514485392455
 20
-133.390996602937
 30
0.0
 10
113.8514485392455
 20
-133.6404215160691
 30
0.0
 10
114.1349798976815
 20
-133.6872748146685
 30
0.0
 10
114.479833955755
 20
-133.6872748146685
 30
0.0
 10
114.7991943072377
 20
-133.6872748146685
 30
0.0
 10
115.1078748627161
 20
-133.6511013120733
 30
0.0
 10
115.1078748627161
 20
-133.390996602937
 30
0.0
 10
115.1078748627161
 20
-133.1432942375475
 30
0.0
 10
114.8267550711197
 20
-133.0947183912055
 30
0.0
 10
114.479833955755
 20
-133.0947183912055
 30
0.0
 10
114.1601290947239
 20
-133.0947183912055
 30
0.0
 10
113.8514485392455
 20
-133.1329589510918
 30
0.0
 10
113.8514485392455
 20
-133.390996602937
 30
0.0
  0
HATCH
  5
115
330
10D
100
AcDbEntity
  8
_U+30EC_U+30A4_U+30E4_U+30FC 1
 62
   179
420
  2234388
100
AcDbHatch
 10
0.0
 20
0.0
 30
0.0
210
0.0
220
0.0
230
1.0
  2
SOLID
 70
     1
 71
     0
 91
        2
 92
        1
 93
        1
 72
     4
 94
        3
 73
     0
 74
     1
 95
       29
 96
       25
 40
0.0
 40
0.0
 40
0.0
 40
0.0
 40
1.0
 40
1.0
 40
1.0
 40
2.0
 40
2.0
 40
2.0
 40
3.0
 40
3.0
 40
3.0
 40
4.0
 40
4.0
 40
4.0
 40
5.0
 40
5.0
 40
5.0
 40
6.0
 40
6.0
 40
6.0
 40
7.0
 40
7.0
 40
7.0
 40
8.0
 40
8.0
 40
8.0
 40
8.0
 10
115.0741129269606
 20
-132.9930880743906
 10
115.2835747324638
 20
-133.1012640726275
 10
115.3025227576327
 20
-133.2745523755355
 10
115.3025227576327
 20
-133.390996602937
 10
115.3025227576327
 20
-133.5518825620981
 10
115.2560139685818
 20
-133.6934759865419
 10
115.0741129269606
 20
-133.7885606219348
 10
114.879465032044
 20
-133.8922579960408
 10
114.6427869722074
 20
-133.9112060212097
 10
114.479833955755
 20
-133.9112060212097
 10
114.3358289644716
 20
-133.9112060212097
 10
114.0839924844998
 20
-133.894325053332
 10
113.8852104750009
 20
-133.7885606219348
 10
113.6822943509197
 20
-133.6807291332465
 10
113.65886770162
 20
-133.5198431740853
 10
113.65886770162
 20
-133.390996602937
 10
113.65886770162
 20
-133.232177701067
 10
113.7033094333797
 20
-133.088517219332
 10
113.8852104750009
 20
-132.9930880743906
 10
114.0777913126264
 20
-132.8938693244154
 10
114.3062011432985
 20
-132.8704426751157
 10
114.479833955755
 20
-132.8704426751157
 10
114.651055201372
 20
-132.8704426751157
 10
114.8815320893352
 20
-132.8918022671243
 10
115.0741129269606
 20
-132.9930880743906
 97
        0
 97
        0
 92
        1
 93
        1
 72
     4
 94
        3
 73
     0
 74
     1
 95
       17
 96
       13
 40
0.0
 40
0.0
 40
0.0
 40
0.0
 40
1.0
 40
1.0
 40
1.0
 40
2.0
 40
2.0
 40
2.0
 40
3.0
 40
3.0
 40
3.0
 40
4.0
 40
4.0
 40
4.0
 40
4.0
 10
113.8514485392455
 20
-133.390996602937
 10
113.8514485392455
 20
-133.6404215160691
 10
114.1349798976815
 20
-133.6872748146685
 10
114.479833955755
 20
-133.6872748146685
 10
114.7991943072377
 20
-133.6872748146685
 10
115.1078748627161
 20
-133.6511013120733
 10
115.1078748627161
 20
-133.390996602937
 10
115.1078748627161
 20
-133.1432942375475
 10
114.8267550711197
 20
-133.0947183912055
 10
114.479833955755
 20
-133.0947183912055
 10
114.1601290947239
 20
-133.0947183912055
 10
113.8514485392455
 20
-133.1329589510918
 10
113.8514485392455
 20
-133.390996602937
 97
        0
 97
        0
 75
     2
 76
     1
 98
        0
  0
ENDBLK
  5
110
330
10D
100
AcDbEntity
  8
0
100
AcDbBlockEnd
  0
BLOCK
  5
121
330
11F
100
AcDbEntity
  8
0
100
AcDbBlockBegin
  2
block 9
 70
     0
 10
0.0
 20
0.0
 30
0.0
  3
block 9
  1

  0
SPLINE
  5
123
330
11F
100
AcDbEntity
  8
_U+30EC_U+30A4_U+30E4_U+30FC 1
370
     0
100
AcDbSpline
210
0.0
220
0.0
230
1.0
 70
    11
 71
     3
 72
    26
 73
    22
 74
     0
 42
0.0000000001
 43
0.0000000001
 12
1.0
 22
0.0
 32
0.0
 13
1.0
 23
0.0
 33
0.0
 40
0.0
 40
0.0
 40
0.0
 40
0.0
 40
1.0
 40
1.0
 40
1.0
 40
2.0
 40
2.0
 40
2.0
 40
3.0
 40
3.0
 40
3.0
 40
4.0
 40
4.0
 40
4.0
 40
5.0
 40
5.0
 40
5.0
 40
6.0
 40
6.0
 40
6.0
 40
7.0
 40
7.0
 40
7.0
 40
7.0
 10
115.2518798539995
 20
-127.1924085511012
 30
0.0
 10
115.2518798539995
 20
-127.1924085511012
 30
0.0
 10
114.147726750977
 20
-127.1924085511012
 30
0.0
 10
114.147726750977
 20
-127.1924085511012
 30
0.0
 10
114.147726750977
 20
-127.1924085511012
 30
0.0
 10
114.147726750977
 20
-127.5451863287908
 30
0.0
 10
114.147726750977
 20
-127.5451863287908
 30
0.0
 10
114.147726750977
 20
-127.5451863287908
 30
0.0
 10
113.9995876451112
 20
-127.5451863287908
 30
0.0
 10
113.9995876451112
 20
-127.5451863287908
 30
0.0
 10
113.9847737345247
 20
-127.1901692390358
 30
0.0
 10
113.8218207180723
 20
-127.1403876092739
 30
0.0
 10
113.707443547962
 20
-127.1088649855839
 30
0.0
 10
113.707443547962
 20
-127.1088649855839
 30
0.0
 10
113.707443547962
 20
-126.9528021601021
 30
0.0
 10
113.707443547962
 20
-126.9528021601021
 30
0.0
 10
113.707443547962
 20
-126.9528021601021
 30
0.0
 10
115.2518798539995
 20
-126.9528021601021
 30
0.0
 10
115.2518798539995
 20
-126.9528021601021
 30
0.0
 10
115.2518798539995
 20
-126.9528021601021
 30
0.0
 10
115.2518798539995
 20
-127.1924085511012
 30
0.0
 10
115.2518798539995
 20
-127.1924085511012
 30
0.0
  0
HATCH
  5
124
330
11F
100
AcDbEntity
  8
_U+30EC_U+30A4_U+30E4_U+30FC 1
 62
     7
420
 16777215
100
AcDbHatch
 10
0.0
 20
0.0
 30
0.0
210
0.0
220
0.0
230
1.0
  2
SOLID
 70
     1
 71
     0
 91
        1
 92
        1
 93
        1
 72
     4
 94
        3
 73
     0
 74
     1
 95
       26
 96
       22
 40
0.0
 40
0.0
 40
0.0
 40
0.0
 40
1.0
 40
1.0
 40
1.0
 40
2.0
 40
2.0
 40
2.0
 40
3.0
 40
3.0
 40
3.0
 40
4.0
 40
4.0
 40
4.0
 40
5.0
 40
5.0
 40
5.0
 40
6.0
 40
6.0
 40
6.0
 40
7.0
 40
7.0
 40
7.0
 40
7.0
 10
115.2518798539995
 20
-127.1924085511012
 10
115.2518798539995
 20
-127.1924085511012
 10
114.147726750977
 20
-127.1924085511012
 10
114.147726750977
 20
-127.1924085511012
 10
114.147726750977
 20
-127.1924085511012
 10
114.147726750977
 20
-127.5451863287908
 10
114.147726750977
 20
-127.5451863287908
 10
114.147726750977
 20
-127.5451863287908
 10
113.9995876451112
 20
-127.5451863287908
 10
113.9995876451112
 20
-127.5451863287908
 10
113.9847737345247
 20
-127.1901692390358
 10
113.8218207180723
 20
-127.1403876092739
 10
113.707443547962
 20
-127.1088649855839
 10
113.707443547962
 20
-127.1088649855839
 10
113.707443547962
 20
-126.9528021601021
 10
113.707443547962
 20
-126.9528021601021
 10
113.707443547962
 20
-126.9528021601021
 10
115.2518798539995
 20
-126.9528021601021
 10
115.2518798539995
 20
-126.9528021601021
 10
115.2518798539995
 20
-126.9528021601021
 10
115.2518798539995
 20
-127.1924085511012
 10
115.2518798539995
 20
-127.1924085511012
 97
        0
 97
        0
 75
     2
 76
     1
 98
        0
  0
ENDBLK
  5
122
330
11F
100
AcDbEntity
  8
0
100
AcDbBlockEnd
  0
ENDSEC
  0
SECTION
  2
ENTITIES
  0
INSERT
  5
42
330
1F
100
AcDbEntity
  8
_U+30EC_U+30A4_U+30E4_U+30FC 1
100
AcDbBlockReference
  2
block 2
 10
0.0
 20
0.0
 30
0.0
  0
POLYLINE
  5
116
330
1F
100
AcDbEntity
  8
_U+30EC_U+30A4_U+30E4_U+30FC 1
 62
   179
420
  2234388
370
     9
100
AcDb2dPolyline
 66
     1
 10
0.0
 20
0.0
 30
0.0
  0
VERTEX
  5
117
330
116
100
AcDbEntity
  8
_U+30EC_U+30A4_U+30E4_U+30FC 1
 62
   179
420
  2234388
370
     9
100
AcDbVertex
100
AcDb2dVertex
 10
115.0937499712266
 20
-128.0032294124435
 30
0.0
  0
VERTEX
  5
118
330
116
100
AcDbEntity
  8
_U+30EC_U+30A4_U+30E4_U+30FC 1
 62
   179
420
  2234388
370
     9
100
AcDbVertex
100
AcDb2dVertex
 10
116.8480050745146
 20
-128.0032294124435
 30
0.0
  0
SEQEND
  5
119
330
116
100
AcDbEntity
  8
_U+30EC_U+30A4_U+30E4_U+30FC 1
 62
   179
420
  2234388
370
     9
  0
SPLINE
  5
11A
330
1F
100
AcDbEntity
  8
_U+30EC_U+30A4_U+30E4_U+30FC 1
 62
     7
420
 16777215
370
     9
100
AcDbSpline
210
0.0
220
0.0
230
1.0
 70
    11
 71
     3
 72
    17
 73
    13
 74
     0
 42
0.0000000001
 43
0.0000000001
 12
1.0
 22
0.0
 32
0.0
 13
1.0
 23
0.0
 33
0.0
 40
0.0
 40
0.0
 40
0.0
 40
0.0
 40
1.0
 40
1.0
 40
1.0
 40
2.0
 40
2.0
 40
2.0
 40
3.0
 40
3.0
 40
3.0
 40
4.0
 40
4.0
 40
4.0
 40
4.0
 10
115.8475273222611
 20
-128.0893424679778
 30
0.0
 10
115.9026694154687
 20
-128.0893424679778
 30
0.0
 10
115.947433986379
 20
-128.0445396902111
 30
0.0
 10
115.947433986379
 20
-127.9894358013359
 30
0.0
 10
115.947433986379
 20
-127.9339791346832
 30
0.0
 10
115.9026694154687
 20
-127.8891763569165
 30
0.0
 10
115.8475273222611
 20
-127.8891763569165
 30
0.0
 10
115.7924234347781
 20
-127.8891763569165
 30
0.0
 10
115.7476206581433
 20
-127.9339791346832
 30
0.0
 10
115.7476206581433
 20
-127.9894358013359
 30
0.0
 10
115.7476206581433
 20
-128.0445396902111
 30
0.0
 10
115.7924234347781
 20
-128.0893424679778
 30
0.0
 10
115.8475273222611
 20
-128.0893424679778
 30
0.0
  0
POLYLINE
  5
11B
330
1F
100
AcDbEntity
  8
_U+30EC_U+30A4_U+30E4_U+30FC 1
 62
     7
420
 16777215
370
     9
100
AcDb2dPolyline
 66
     1
 10
0.0
 20
0.0
 30
0.0
  0
VERTEX
  5
11C
330
11B
100
AcDbEntity
  8
_U+30EC_U+30A4_U+30E4_U+30FC 1
 62
     7
420
 16777215
370
     9
100
AcDbVertex
100
AcDb2dVertex
 10
115.8482328777987
 20
-126.5111558017056
 30
0.0
  0
VERTEX
  5
11D
330
11B
100
AcDbEntity
  8
_U+30EC_U+30A4_U+30E4_U+30FC 1
 62
     7
420
 16777215
370
     9
100
AcDbVertex
100
AcDb2dVertex
 10
115.8482328777987
 20
-128.9892080233081
 30
0.0
  0
SEQEND
  5
11E
330
11B
100
AcDbEntity
  8
_U+30EC_U+30A4_U+30E4_U+30FC 1
 62
     7
420
 16777215
370
     9
  0
INSERT
  5
120
330
1F
100
AcDbEntity
  8
_U+30EC_U+30A4_U+30E4_U+30FC 1
100
AcDbBlockReference
  2
block 9
 10
0.0
 20
0.0
 30
0.0
  0
ENDSEC
  0
SECTION
  2
OBJECTS
  0
DICTIONARY
  5
C
330
0
100
AcDbDictionary
281
     1
  3
ACAD_GROUP
350
D
  3
ACAD_LAYOUT
350
1A
  3
ACAD_MATERIAL
350
3B
  3
ACAD_MLEADERSTYLE
350
126
  3
ACAD_MLINESTYLE
350
17
  3
ACAD_PLOTSETTINGS
350
19
  3
ACAD_PLOTSTYLENAME
350
E
  3
ACAD_TABLESTYLE
350
125
  3
ACAD_VISUALSTYLE
350
2A
  0
SUN
  5
3F
330
29
100
AcDbSun
 90
        1
290
     0
 63
     7
421
 16777215
 40
1.0
291
     1
 91
  2455826
 92
 54000000
292
     0
 70
     2
 71
   256
280
     1
  0
DICTIONARY
  5
D
102
{ACAD_REACTORS
330
C
102
}
330
C
100
AcDbDictionary
281
     1
  0
DICTIONARY
  5
1A
102
{ACAD_REACTORS
330
C
102
}
330
C
100
AcDbDictionary
281
     1
  3
Layout1
350
1E
  3
Layout2
350
26
  3
Model
350
22
  0
DICTIONARY
  5
3B
102
{ACAD_REACTORS
330
C
102
}
330
C
100
AcDbDictionary
281
     1
  3
ByBlock
350
3D
  3
ByLayer
350
3C
  3
Global
350
3E
  0
DICTIONARY
  5
126
102
{ACAD_REACTORS
330
C
102
}
330
C
100
AcDbDictionary
281
     1
  0
DICTIONARY
  5
17
102
{ACAD_REACTORS
330
C
102
}
330
C
100
AcDbDictionary
281
     1
  3
Standard
350
18
  0
DICTIONARY
  5
19
102
{ACAD_REACTORS
330
C
102
}
330
C
100
AcDbDictionary
281
     1
  0
ACDBDICTIONARYWDFLT
  5
E
102
{ACAD_REACTORS
330
C
102
}
330
C
100
AcDbDictionary
281
     1
  3
Normal
350
F
100
AcDbDictionaryWithDefault
340
F
  0
DICTIONARY
  5
125
102
{ACAD_REACTORS
330
C
102
}
330
C
100
AcDbDictionary
281
     1
  0
DICTIONARY
  5
2A
102
{ACAD_REACTORS
330
C
102
}
330
C
100
AcDbDictionary
281
     1
  3
2dWireframe
350
2F
  3
3D Hidden
350
31
  3
3dWireframe
350
30
  3
Basic
350
32
  3
Brighten
350
36
  3
ColorChange
350
3A
  3
Conceptual
350
34
  3
Dim
350
35
  3
Facepattern
350
39
  3
Flat
350
2B
  3
FlatWithEdges
350
2C
  3
Gouraud
350
2D
  3
GouraudWithEdges
350
2E
  3
Linepattern
350
38
  3
Realistic
350
33
  3
Thicken
350
37
  0
LAYOUT
  5
1E
102
{ACAD_REACTORS
330
1A
102
}
330
1A
100
AcDbPlotSettings
  1

  2
none_device
  4

  6

 40
0.0
 41
0.0
 42
0.0
 43
0.0
 44
0.0
 45
0.0
 46
0.0
 47
0.0
 48
0.0
 49
0.0
140
0.0
141
0.0
142
1.0
143
1.0
 70
   688
 72
     0
 73
     0
 74
     5
  7

 75
    16
 76
     0
 77
     2
 78
   300
147
1.0
148
0.0
149
0.0
100
AcDbLayout
  1
Layout1
 70
     1
 71
     1
 10
0.0
 20
0.0
 11
12.0
 21
9.0
 12
0.0
 22
0.0
 32
0.0
 14
1.000000000000000E+20
 24
1.000000000000000E+20
 34
1.000000000000000E+20
 15
-1.000000000000000E+20
 25
-1.000000000000000E+20
 35
-1.000000000000000E+20
146
0.0
 13
0.0
 23
0.0
 33
0.0
 16
1.0
 26
0.0
 36
0.0
 17
0.0
 27
1.0
 37
0.0
 76
     0
330
1B
  0
LAYOUT
  5
26
102
{ACAD_REACTORS
330
1A
102
}
330
1A
100
AcDbPlotSettings
  1

  2
none_device
  4

  6

 40
0.0
 41
0.0
 42
0.0
 43
0.0
 44
0.0
 45
0.0
 46
0.0
 47
0.0
 48
0.0
 49
0.0
140
0.0
141
0.0
142
1.0
143
1.0
 70
   688
 72
     0
 73
     0
 74
     5
  7

 75
    16
 76
     0
 77
     2
 78
   300
147
1.0
148
0.0
149
0.0
100
AcDbLayout
  1
Layout2
 70
     1
 71
     2
 10
0.0
 20
0.0
 11
0.0
 21
0.0
 12
0.0
 22
0.0
 32
0.0
 14
0.0
 24
0.0
 34
0.0
 15
0.0
 25
0.0
 35
0.0
146
0.0
 13
0.0
 23
0.0
 33
0.0
 16
1.0
 26
0.0
 36
0.0
 17
0.0
 27
1.0
 37
0.0
 76
     0
330
23
  0
LAYOUT
  5
22
102
{ACAD_REACTORS
330
1A
102
}
330
1A
100
AcDbPlotSettings
  1

  2
none_device
  4

  6

 40
0.0
 41
0.0
 42
0.0
 43
0.0
 44
0.0
 45
0.0
 46
0.0
 47
0.0
 48
0.0
 49
0.0
140
0.0
141
0.0
142
1.0
143
1.0
 70
  1712
 72
     0
 73
     0
 74
     0
  7

 75
     0
 76
     0
 77
     2
 78
   300
147
1.0
148
0.0
149
0.0
100
AcDbLayout
  1
Model
 70
     1
 71
     0
 10
0.0
 20
0.0
 11
12.0
 21
9.0
 12
0.0
 22
0.0
 32
0.0
 14
1.000000000000000E+20
 24
1.000000000000000E+20
 34
1.000000000000000E+20
 15
-1.000000000000000E+20
 25
-1.000000000000000E+20
 35
-1.000000000000000E+20
146
0.0
 13
0.0
 23
0.0
 33
0.0
 16
1.0
 26
0.0
 36
0.0
 17
0.0
 27
1.0
 37
0.0
 76
     0
330
1F
331
29
  0
MATERIAL
  5
3D
102
{ACAD_REACTORS
330
3B
102
}
330
3B
100
AcDbMaterial
  1
ByBlock
 72
     1
 94
      127
  0
MATERIAL
  5
3C
102
{ACAD_REACTORS
330
3B
102
}
330
3B
100
AcDbMaterial
  1
ByLayer
 72
     1
 94
      127
  0
MATERIAL
  5
3E
102
{ACAD_REACTORS
330
3B
102
}
330
3B
100
AcDbMaterial
  1
Global
 72
     1
 94
      127
  0
MLINESTYLE
  5
18
102
{ACAD_REACTORS
330
17
102
}
330
17
100
AcDbMlineStyle
  2
Standard
 70
     0
  3

 62
   256
 51
90.0
 52
90.0
 71
     2
 49
0.5
 62
   256
  6
BYLAYER
 49
-0.5
 62
   256
  6
BYLAYER
  0
ACDBPLACEHOLDER
  5
F
102
{ACAD_REACTORS
330
E
102
}
330
E
  0
VISUALSTYLE
  5
2F
102
{ACAD_REACTORS
330
2A
102
}
330
2A
100
AcDbVisualStyle
  2
2dWireframe
 70
     4
177
     2
291
     0
 71
     0
176
     1
 72
     2
176
     1
 73
     0
176
     1
 90
        0
176
     1
 40
-0.6
176
     1
 41
-30.0
176
     1
 62
     5
 63
     7
421
 16777215
176
     1
 74
     1
176
     1
 91
        4
176
     1
 64
     7
176
     1
 65
   257
176
     1
 75
     1
176
     1
175
     1
176
     1
 42
1.0
176
     1
 92
        0
176
     1
 66
   257
176
     1
 43
1.0
176
     1
 76
     1
176
     1
 77
     6
176
     1
 78
     2
176
     1
 67
     7
176
     1
 79
     5
176
     1
170
     0
176
     1
171
     0
176
     1
290
     0
176
     1
 93
        1
176
     1
 44
0.0
176
     1
173
     0
176
     1
  0
VISUALSTYLE
  5
31
102
{ACAD_REACTORS
330
2A
102
}
330
2A
100
AcDbVisualStyle
  2
3D Hidden
 70
     6
177
     2
291
     0
 71
     1
176
     1
 72
     2
176
     1
 73
     2
176
     1
 90
        0
176
     1
 40
-0.6
176
     1
 41
-30.0
176
     1
 62
     5
 63
     7
421
 16777215
176
     1
 74
     2
176
     1
 91
        2
176
     1
 64
     7
176
     1
 65
   257
176
     1
 75
     2
176
     1
175
     1
176
     1
 42
40.0
176
     1
 92
        0
176
     1
 66
   257
176
     1
 43
1.0
176
     1
 76
     1
176
     1
 77
     6
176
     1
 78
     2
176
     1
 67
     7
176
     1
 79
     3
176
     1
170
     0
176
     1
171
     0
176
     1
290
     0
176
     1
 93
        1
176
     1
 44
0.0
176
     1
173
     0
176
     1
  0
VISUALSTYLE
  5
30
102
{ACAD_REACTORS
330
2A
102
}
330
2A
100
AcDbVisualStyle
  2
3dWireframe
 70
     5
177
     2
291
     0
 71
     0
176
     1
 72
     2
176
     1
 73
     0
176
     1
 90
        0
176
     1
 40
-0.6
176
     1
 41
-30.0
176
     1
 62
     5
 63
     7
421
 16777215
176
     1
 74
     1
176
     1
 91
        4
176
     1
 64
     7
176
     1
 65
   257
176
     1
 75
     1
176
     1
175
     1
176
     1
 42
1.0
176
     1
 92
        0
176
     1
 66
   257
176
     1
 43
1.0
176
     1
 76
     1
176
     1
 77
     6
176
     1
 78
     2
176
     1
 67
     7
176
     1
 79
     5
176
     1
170
     0
176
     1
171
     0
176
     1
290
     0
176
     1
 93
        1
176
     1
 44
0.0
176
     1
173
     0
176
     1
  0
VISUALSTYLE
  5
32
102
{ACAD_REACTORS
330
2A
102
}
330
2A
100
AcDbVisualStyle
  2
Basic
 70
     7
177
     2
291
     1
 71
     1
176
     1
 72
     0
176
     1
 73
     1
176
     1
 90
        0
176
     1
 40
-0.6
176
     1
 41
-30.0
176
     1
 62
     5
 63
     7
421
 16777215
176
     1
 74
     0
176
     1
 91
        4
176
     1
 64
     7
176
     1
 65
   257
176
     1
 75
     1
176
     1
175
     1
176
     1
 42
1.0
176
     1
 92
        8
176
     1
 66
     7
176
     1
 43
1.0
176
     1
 76
     1
176
     1
 77
     6
176
     1
 78
     2
176
     1
 67
     7
176
     1
 79
     5
176
     1
170
     0
176
     1
171
     0
176
     1
290
     0
176
     1
 93
        1
176
     1
 44
0.0
176
     1
173
     0
176
     1
  0
VISUALSTYLE
  5
36
102
{ACAD_REACTORS
330
2A
102
}
330
2A
100
AcDbVisualStyle
  2
Brighten
 70
    12
177
     2
291
     1
 71
     2
176
     1
 72
     2
176
     1
 73
     0
176
     1
 90
        0
176
     1
 40
-0.6
176
     1
 41
-30.0
176
     1
 62
     5
 63
     7
421
 16777215
176
     1
 74
     1
176
     1
 91
        4
176
     1
 64
     7
176
     1
 65
   257
176
     1
 75
     1
176
     1
175
     1
176
     1
 42
1.0
176
     1
 92
        8
176
     1
 66
     7
176
     1
 43
1.0
176
     1
 76
     1
176
     1
 77
     6
176
     1
 78
     2
176
     1
 67
     7
176
     1
 79
     5
176
     1
170
     0
176
     1
171
     0
176
     1
290
     0
176
     1
 93
        1
176
     1
 44
50.0
176
     1
173
     0
176
     1
  0
VISUALSTYLE
  5
3A
102
{ACAD_REACTORS
330
2A
102
}
330
2A
100
AcDbVisualStyle
  2
ColorChange
 70
    16
177
     2
291
     1
 71
     2
176
     1
 72
     2
176
     1
 73
     3
176
     1
 90
        0
176
     1
 40
-0.6
176
     1
 41
-30.0
176
     1
 62
     5
 63
     8
421
  8421504
176
     1
 74
     1
176
     1
 91
        4
176
     1
 64
     7
176
     1
 65
   257
176
     1
 75
     1
176
     1
175
     1
176
     1
 42
1.0
176
     1
 92
        8
176
     1
 66
     8
424
  8421504
176
     1
 43
1.0
176
     1
 76
     1
176
     1
 77
     6
176
     1
 78
     2
176
     1
 67
     7
176
     1
 79
     5
176
     1
170
     0
176
     1
171
     0
176
     1
290
     0
176
     1
 93
        1
176
     1
 44
0.0
176
     1
173
     0
176
     1
  0
VISUALSTYLE
  5
34
102
{ACAD_REACTORS
330
2A
102
}
330
2A
100
AcDbVisualStyle
  2
Conceptual
 70
     9
177
     2
291
     0
 71
     3
176
     1
 72
     2
176
     1
 73
     0
176
     1
 90
        0
176
     1
 40
-0.6
176
     1
 41
-30.0
176
     1
 62
     5
 63
     7
421
 16777215
176
     1
 74
     2
176
     1
 91
        2
176
     1
 64
     7
176
     1
 65
   257
176
     1
 75
     1
176
     1
175
     1
176
     1
 42
40.0
176
     1
 92
        8
176
     1
 66
     7
176
     1
 43
1.0
176
     1
 76
     1
176
     1
 77
     6
176
     1
 78
     2
176
     1
 67
     7
176
     1
 79
     3
176
     1
170
     0
176
     1
171
     0
176
     1
290
     0
176
     1
 93
        1
176
     1
 44
0.0
176
     1
173
     0
176
     1
  0
VISUALSTYLE
  5
35
102
{ACAD_REACTORS
330
2A
102
}
330
2A
100
AcDbVisualStyle
  2
Dim
 70
    11
177
     2
291
     1
 71
     2
176
     1
 72
     2
176
     1
 73
     0
176
     1
 90
        0
176
     1
 40
-0.6
176
     1
 41
-30.0
176
     1
 62
     5
 63
     7
421
 16777215
176
     1
 74
     1
176
     1
 91
        4
176
     1
 64
     7
176
     1
 65
   257
176
     1
 75
     1
176
     1
175
     1
176
     1
 42
1.0
176
     1
 92
        8
176
     1
 66
     7
176
     1
 43
1.0
176
     1
 76
     1
176
     1
 77
     6
176
     1
 78
     2
176
     1
 67
     7
176
     1
 79
     5
176
     1
170
     0
176
     1
171
     0
176
     1
290
     0
176
     1
 93
        1
176
     1
 44
-50.0
176
     1
173
     0
176
     1
  0
VISUALSTYLE
  5
39
102
{ACAD_REACTORS
330
2A
102
}
330
2A
100
AcDbVisualStyle
  2
Facepattern
 70
    15
177
     2
291
     1
 71
     2
176
     1
 72
     2
176
     1
 73
     0
176
     1
 90
        0
176
     1
 40
-0.6
176
     1
 41
-30.0
176
     1
 62
     5
 63
     7
421
 16777215
176
     1
 74
     1
176
     1
 91
        4
176
     1
 64
     7
176
     1
 65
   257
176
     1
 75
     1
176
     1
175
     1
176
     1
 42
1.0
176
     1
 92
        8
176
     1
 66
     7
176
     1
 43
1.0
176
     1
 76
     1
176
     1
 77
     6
176
     1
 78
     2
176
     1
 67
     7
176
     1
 79
     5
176
     1
170
     0
176
     1
171
     0
176
     1
290
     0
176
     1
 93
        1
176
     1
 44
0.0
176
     1
173
     0
176
     1
  0
VISUALSTYLE
  5
2B
102
{ACAD_REACTORS
330
2A
102
}
330
2A
100
AcDbVisualStyle
  2
Flat
 70
     0
177
     2
291
     1
 71
     2
176
     1
 72
     1
176
     1
 73
     1
176
     1
 90
        2
176
     1
 40
-0.6
176
     1
 41
30.0
176
     1
 62
     5
 63
     7
421
 16777215
176
     1
 74
     0
176
     1
 91
        4
176
     1
 64
     7
176
     1
 65
   257
176
     1
 75
     1
176
     1
175
     1
176
     1
 42
1.0
176
     1
 92
        8
176
     1
 66
     7
176
     1
 43
1.0
176
     1
 76
     1
176
     1
 77
     6
176
     1
 78
     2
176
     1
 67
     7
176
     1
 79
     5
176
     1
170
     0
176
     1
171
     0
176
     1
290
     0
176
     1
 93
       13
176
     1
 44
0.0
176
     1
173
     0
176
     1
  0
VISUALSTYLE
  5
2C
102
{ACAD_REACTORS
330
2A
102
}
330
2A
100
AcDbVisualStyle
  2
FlatWithEdges
 70
     1
177
     2
291
     1
 71
     2
176
     1
 72
     1
176
     1
 73
     1
176
     1
 90
        2
176
     1
 40
-0.6
176
     1
 41
30.0
176
     1
 62
     5
 63
     7
421
 16777215
176
     1
 74
     1
176
     1
 91
        4
176
     1
 64
     7
176
     1
 65
   257
176
     1
 75
     1
176
     1
175
     1
176
     1
 42
1.0
176
     1
 92
        0
176
     1
 66
   257
176
     1
 43
1.0
176
     1
 76
     1
176
     1
 77
     6
176
     1
 78
     2
176
     1
 67
     7
176
     1
 79
     5
176
     1
170
     0
176
     1
171
     0
176
     1
290
     0
176
     1
 93
       13
176
     1
 44
0.0
176
     1
173
     0
176
     1
  0
VISUALSTYLE
  5
2D
102
{ACAD_REACTORS
330
2A
102
}
330
2A
100
AcDbVisualStyle
  2
Gouraud
 70
     2
177
     2
291
     1
 71
     2
176
     1
 72
     2
176
     1
 73
     1
176
     1
 90
        2
176
     1
 40
-0.6
176
     1
 41
30.0
176
     1
 62
     5
 63
     7
421
 16777215
176
     1
 74
     0
176
     1
 91
        4
176
     1
 64
     7
176
     1
 65
   257
176
     1
 75
     1
176
     1
175
     1
176
     1
 42
1.0
176
     1
 92
        0
176
     1
 66
     7
176
     1
 43
1.0
176
     1
 76
     1
176
     1
 77
     6
176
     1
 78
     2
176
     1
 67
     7
176
     1
 79
     5
176
     1
170
     0
176
     1
171
     0
176
     1
290
     0
176
     1
 93
       13
176
     1
 44
0.0
176
     1
173
     0
176
     1
  0
VISUALSTYLE
  5
2E
102
{ACAD_REACTORS
330
2A
102
}
330
2A
100
AcDbVisualStyle
  2
GouraudWithEdges
 70
     3
177
     2
291
     1
 71
     2
176
     1
 72
     2
176
     1
 73
     1
176
     1
 90
        2
176
     1
 40
-0.6
176
     1
 41
30.0
176
     1
 62
     5
 63
     7
421
 16777215
176
     1
 74
     1
176
     1
 91
        4
176
     1
 64
     7
176
     1
 65
   257
176
     1
 75
     1
176
     1
175
     1
176
     1
 42
1.0
176
     1
 92
        0
176
     1
 66
   257
176
     1
 43
1.0
176
     1
 76
     1
176
     1
 77
     6
176
     1
 78
     2
176
     1
 67
     7
176
     1
 79
     5
176
     1
170
     0
176
     1
171
     0
176
     1
290
     0
176
     1
 93
       13
176
     1
 44
0.0
176
     1
173
     0
176
     1
  0
VISUALSTYLE
  5
38
102
{ACAD_REACTORS
330
2A
102
}
330
2A
100
AcDbVisualStyle
  2
Linepattern
 70
    14
177
     2
291
     1
 71
     2
176
     1
 72
     2
176
     1
 73
     0
176
     1
 90
        0
176
     1
 40
-0.6
176
     1
 41
-30.0
176
     1
 62
     5
 63
     7
421
 16777215
176
     1
 74
     1
176
     1
 91
        4
176
     1
 64
     7
176
     1
 65
   257
176
     1
 75
     7
176
     1
175
     7
176
     1
 42
1.0
176
     1
 92
        8
176
     1
 66
     7
176
     1
 43
1.0
176
     1
 76
     1
176
     1
 77
     6
176
     1
 78
     2
176
     1
 67
     7
176
     1
 79
     5
176
     1
170
     0
176
     1
171
     0
176
     1
290
     0
176
     1
 93
        1
176
     1
 44
0.0
176
     1
173
     0
176
     1
  0
VISUALSTYLE
  5
33
102
{ACAD_REACTORS
330
2A
102
}
330
2A
100
AcDbVisualStyle
  2
Realistic
 70
     8
177
     2
291
     0
 71
     2
176
     1
 72
     2
176
     1
 73
     0
176
     1
 90
        0
176
     1
 40
-0.6
176
     1
 41
-30.0
176
     1
 62
     5
 63
     7
421
 16777215
176
     1
 74
     1
176
     1
 91
        0
176
     1
 64
     7
176
     1
 65
   257
176
     1
 75
     1
176
     1
175
     1
176
     1
 42
1.0
176
     1
 92
        8
176
     1
 66
     8
424
  7895160
176
     1
 43
1.0
176
     1
 76
     1
176
     1
 77
     6
176
     1
 78
     2
176
     1
 67
     7
176
     1
 79
     5
176
     1
170
     0
176
     1
171
     0
176
     1
290
     0
176
     1
 93
       13
176
     1
 44
0.0
176
     1
173
     0
176
     1
  0
VISUALSTYLE
  5
37
102
{ACAD_REACTORS
330
2A
102
}
330
2A
100
AcDbVisualStyle
  2
Thicken
 70
    13
177
     2
291
     1
 71
     2
176
     1
 72
     2
176
     1
 73
     0
176
     1
 90
        0
176
     1
 40
-0.6
176
     1
 41
-30.0
176
     1
 62
     5
 63
     7
421
 16777215
176
     1
 74
     1
176
     1
 91
        4
176
     1
 64
     7
176
     1
 65
   257
176
     1
 75
     1
176
     1
175
     1
176
     1
 42
1.0
176
     1
 92
       12
176
     1
 66
     7
176
     1
 43
1.0
176
     1
 76
     1
176
     1
 77
     6
176
     1
 78
     2
176
     1
 67
     7
176
     1
 79
     5
176
     1
170
     0
176
     1
171
     0
176
     1
290
     0
176
     1
 93
        1
176
     1
 44
0.0
176
     1
173
     0
176
     1
  0
ENDSEC
  0
EOF
