  0
SECTION
  2
HEADER
  9
$ACADVER
  1
AC1024
  9
$ACADMAINTVER
 70
     6
  9
$DWGCODEPAGE
  3
UNDEFINED
  9
$INSBASE
 10
0.0
 20
0.0
 30
0.0
  9
$EXTMIN
 10
1.000000000000000E+20
 20
1.000000000000000E+20
 30
1.000000000000000E+20
  9
$EXTMAX
 10
-1.000000000000000E+20
 20
-1.000000000000000E+20
 30
-1.000000000000000E+20
  9
$LIMMIN
 10
0.0
 20
0.0
  9
$LIMMAX
 10
12.0
 20
9.0
  9
$ORTHOMODE
 70
     0
  9
$REGENMODE
 70
     1
  9
$FILLMODE
 70
     1
  9
$QTEXTMODE
 70
     0
  9
$MIRRTEXT
 70
     1
  9
$LTSCALE
 40
1.0
  9
$ATTMODE
 70
     1
  9
$TEXTSIZE
 40
0.2
  9
$TRACEWID
 40
0.05
  9
$TEXTSTYLE
  7
Standard
  9
$CLAYER
  8
0
  9
$CELTYPE
  6
ByLayer
  9
$CECOLOR
 62
   256
  9
$CELTSCALE
 40
1.0
  9
$DISPSILH
 70
     0
  9
$DIMSCALE
 40
1.0
  9
$DIMASZ
 40
0.18
  9
$DIMEXO
 40
0.0625
  9
$DIMDLI
 40
0.38
  9
$DIMRND
 40
0.0
  9
$DIMDLE
 40
0.0
  9
$DIMEXE
 40
0.18
  9
$DIMTP
 40
0.0
  9
$DIMTM
 40
0.0
  9
$DIMTXT
 40
0.18
  9
$DIMCEN
 40
0.09
  9
$DIMTSZ
 40
0.0
  9
$DIMTOL
 70
     0
  9
$DIMLIM
 70
     0
  9
$DIMTIH
 70
     1
  9
$DIMTOH
 70
     1
  9
$DIMSE1
 70
     0
  9
$DIMSE2
 70
     0
  9
$DIMTAD
 70
     0
  9
$DIMZIN
 70
     0
  9
$DIMBLK
  1

  9
$DIMASO
 70
     1
  9
$DIMSHO
 70
     1
  9
$DIMPOST
  1

  9
$DIMAPOST
  1

  9
$DIMALT
 70
     0
  9
$DIMALTD
 70
     2
  9
$DIMALTF
 40
25.4
  9
$DIMLFAC
 40
1.0
  9
$DIMTOFL
 70
     0
  9
$DIMTVP
 40
0.0
  9
$DIMTIX
 70
     0
  9
$DIMSOXD
 70
     0
  9
$DIMSAH
 70
     0
  9
$DIMBLK1
  1

  9
$DIMBLK2
  1

  9
$DIMSTYLE
  2
Standard
  9
$DIMCLRD
 70
     0
  9
$DIMCLRE
 70
     0
  9
$DIMCLRT
 70
     0
  9
$DIMTFAC
 40
1.0
  9
$DIMGAP
 40
0.09
  9
$DIMJUST
 70
     0
  9
$DIMSD1
 70
     0
  9
$DIMSD2
 70
     0
  9
$DIMTOLJ
 70
     1
  9
$DIMTZIN
 70
     0
  9
$DIMALTZ
 70
     0
  9
$DIMALTTZ
 70
     0
  9
$DIMUPT
 70
     0
  9
$DIMDEC
 70
     4
  9
$DIMTDEC
 70
     4
  9
$DIMALTU
 70
     2
  9
$DIMALTTD
 70
     2
  9
$DIMTXSTY
  7
Standard
  9
$DIMAUNIT
 70
     0
  9
$DIMADEC
 70
     0
  9
$DIMALTRND
 40
0.0
  9
$DIMAZIN
 70
     0
  9
$DIMDSEP
 70
    46
  9
$DIMATFIT
 70
     3
  9
$DIMFRAC
 70
     0
  9
$DIMLDRBLK
  1

  9
$DIMLUNIT
 70
     2
  9
$DIMLWD
 70
    -2
  9
$DIMLWE
 70
    -2
  9
$DIMTMOVE
 70
     0
  9
$DIMFXL
 40
1.0
  9
$DIMFXLON
 70
     0
  9
$DIMJOGANG
 40
0.7853981633974483
  9
$DIMTFILL
 70
     0
  9
$DIMTFILLCLR
 70
     0
  9
$DIMARCSYM
 70
     0
  9
$DIMLTYPE
  6

  9
$DIMLTEX1
  6

  9
$DIMLTEX2
  6

  9
$DIMTXTDIRECTION
 70
     0
  9
$LUNITS
 70
     2
  9
$LUPREC
 70
     4
  9
$SKETCHINC
 40
0.1
  9
$FILLETRAD
 40
0.5
  9
$AUNITS
 70
     0
  9
$AUPREC
 70
     0
  9
$MENU
  1
.
  9
$ELEVATION
 40
0.0
  9
$PELEVATION
 40
0.0
  9
$THICKNESS
 40
0.0
  9
$LIMCHECK
 70
     0
  9
$CHAMFERA
 40
0.5
  9
$CHAMFERB
 40
0.5
  9
$CHAMFERC
 40
1.0
  9
$CHAMFERD
 40
0.0
  9
$SKPOLY
 70
     0
  9
$TDCREATE
 40
2457917.613888889
  9
$TDUCREATE
 40
2457917.238888889
  9
$TDUPDATE
 40
2457917.613888889
  9
$TDUUPDATE
 40
2457917.238888889
  9
$TDINDWG
 40
0.0000000116
  9
$TDUSRTIMER
 40
0.0000000116
  9
$USRTIMER
 70
     1
  9
$ANGBASE
 50
0.0
  9
$ANGDIR
 70
     0
  9
$PDMODE
 70
     0
  9
$PDSIZE
 40
0.0
  9
$PLINEWID
 40
0.0
  9
$SPLFRAME
 70
     0
  9
$SPLINETYPE
 70
     6
  9
$SPLINESEGS
 70
     8
  9
$HANDSEED
  5
126
  9
$SURFTAB1
 70
     6
  9
$SURFTAB2
 70
     6
  9
$SURFTYPE
 70
     6
  9
$SURFU
 70
     6
  9
$SURFV
 70
     6
  9
$UCSBASE
  2

  9
$UCSNAME
  2

  9
$UCSORG
 10
0.0
 20
0.0
 30
0.0
  9
$UCSXDIR
 10
1.0
 20
0.0
 30
0.0
  9
$UCSYDIR
 10
0.0
 20
1.0
 30
0.0
  9
$UCSORTHOREF
  2

  9
$UCSORTHOVIEW
 70
     0
  9
$UCSORGTOP
 10
0.0
 20
0.0
 30
0.0
  9
$UCSORGBOTTOM
 10
0.0
 20
0.0
 30
0.0
  9
$UCSORGLEFT
 10
0.0
 20
0.0
 30
0.0
  9
$UCSORGRIGHT
 10
0.0
 20
0.0
 30
0.0
  9
$UCSORGFRONT
 10
0.0
 20
0.0
 30
0.0
  9
$UCSORGBACK
 10
0.0
 20
0.0
 30
0.0
  9
$PUCSBASE
  2

  9
$PUCSNAME
  2

  9
$PUCSORG
 10
0.0
 20
0.0
 30
0.0
  9
$PUCSXDIR
 10
1.0
 20
0.0
 30
0.0
  9
$PUCSYDIR
 10
0.0
 20
1.0
 30
0.0
  9
$PUCSORTHOREF
  2

  9
$PUCSORTHOVIEW
 70
     0
  9
$PUCSORGTOP
 10
0.0
 20
0.0
 30
0.0
  9
$PUCSORGBOTTOM
 10
0.0
 20
0.0
 30
0.0
  9
$PUCSORGLEFT
 10
0.0
 20
0.0
 30
0.0
  9
$PUCSORGRIGHT
 10
0.0
 20
0.0
 30
0.0
  9
$PUCSORGFRONT
 10
0.0
 20
0.0
 30
0.0
  9
$PUCSORGBACK
 10
0.0
 20
0.0
 30
0.0
  9
$USERI1
 70
     0
  9
$USERI2
 70
     0
  9
$USERI3
 70
     0
  9
$USERI4
 70
     0
  9
$USERI5
 70
     0
  9
$USERR1
 40
0.0
  9
$USERR2
 40
0.0
  9
$USERR3
 40
0.0
  9
$USERR4
 40
0.0
  9
$USERR5
 40
0.0
  9
$WORLDVIEW
 70
     1
  9
$SHADEDGE
 70
     3
  9
$SHADEDIF
 70
    70
  9
$TILEMODE
 70
     1
  9
$MAXACTVP
 70
    64
  9
$PINSBASE
 10
0.0
 20
0.0
 30
0.0
  9
$PLIMCHECK
 70
     0
  9
$PEXTMIN
 10
1.000000000000000E+20
 20
1.000000000000000E+20
 30
1.000000000000000E+20
  9
$PEXTMAX
 10
-1.000000000000000E+20
 20
-1.000000000000000E+20
 30
-1.000000000000000E+20
  9
$PLIMMIN
 10
0.0
 20
0.0
  9
$PLIMMAX
 10
12.0
 20
9.0
  9
$UNITMODE
 70
     0
  9
$VISRETAIN
 70
     1
  9
$PLINEGEN
 70
     0
  9
$PSLTSCALE
 70
     1
  9
$TREEDEPTH
 70
  3020
  9
$CMLSTYLE
  2
Standard
  9
$CMLJUST
 70
     0
  9
$CMLSCALE
 40
1.0
  9
$PROXYGRAPHICS
 70
     1
  9
$MEASUREMENT
 70
     0
  9
$CELWEIGHT
370
    -1
  9
$ENDCAPS
280
     0
  9
$JOINSTYLE
280
     0
  9
$LWDISPLAY
290
     1
  9
$INSUNITS
 70
     1
  9
$HYPERLINKBASE
  1

  9
$STYLESHEET
  1

  9
$XEDIT
290
     1
  9
$CEPSNTYPE
380
     0
  9
$PSTYLEMODE
290
     1
  9
$FINGERPRINTGUID
  2
{11C83BA9-951E-A3BF-4E73-AD20A337785E}
  9
$VERSIONGUID
  2
{FAEB1C32-E019-11D5-929B-00C0DF256EC4}
  9
$EXTNAMES
290
     1
  9
$PSVPSCALE
 40
0.0
  9
$OLESTARTUP
290
     0
  9
$SORTENTS
280
   127
  9
$INDEXCTL
280
     0
  9
$HIDETEXT
280
     1
  9
$XCLIPFRAME
280
     2
  9
$HALOGAP
280
     0
  9
$OBSCOLOR
 70
   257
  9
$OBSLTYPE
280
     0
  9
$INTERSECTIONDISPLAY
280
     0
  9
$INTERSECTIONCOLOR
 70
   257
  9
$DIMASSOC
280
     2
  9
$PROJECTNAME
  1

  9
$CAMERADISPLAY
290
     0
  9
$LENSLENGTH
 40
50.0
  9
$CAMERAHEIGHT
 40
0.0
  9
$STEPSPERSEC
 40
2.0
  9
$STEPSIZE
 40
6.0
  9
$3DDWFPREC
 40
2.0
  9
$PSOLWIDTH
 40
0.25
  9
$PSOLHEIGHT
 40
4.0
  9
$LOFTANG1
 40
1.570796326794897
  9
$LOFTANG2
 40
1.570796326794897
  9
$LOFTMAG1
 40
0.0
  9
$LOFTMAG2
 40
0.0
  9
$LOFTPARAM
 70
     7
  9
$LOFTNORMALS
280
     1
  9
$LATITUDE
 40
37.795
  9
$LONGITUDE
 40
-122.394
  9
$NORTHDIRECTION
 40
0.0
  9
$TIMEZONE
 70
 -8000
  9
$LIGHTGLYPHDISPLAY
280
     1
  9
$TILEMODELIGHTSYNCH
280
     1
  9
$CMATERIAL
347
3C
  9
$SOLIDHIST
280
     1
  9
$SHOWHIST
280
     1
  9
$DWFFRAME
280
     2
  9
$DGNFRAME
280
     2
  9
$REALWORLDSCALE
290
     1
  9
$INTERFERECOLOR
 62
   256
  9
$CSHADOW
280
     0
  9
$SHADOWPLANELOCATION
 40
0.0
  0
ENDSEC
  0
SECTION
  2
CLASSES
  0
CLASS
  1
ACDBDICTIONARYWDFLT
  2
AcDbDictionaryWithDefault
  3
ObjectDBX Classes
 90
        0
 91
        4
280
     0
281
     0
  0
CLASS
  1
VISUALSTYLE
  2
AcDbVisualStyle
  3
ObjectDBX Classes
 90
     4095
 91
        4
280
     0
281
     0
  0
CLASS
  1
MATERIAL
  2
AcDbMaterial
  3
ObjectDBX Classes
 90
     1153
 91
        4
280
     0
281
     0
  0
CLASS
  1
SUN
  2
AcDbSun
  3
SCENEOE
 90
     1024
 91
        4
280
     0
281
     0
  0
ENDSEC
  0
SECTION
  2
TABLES
  0
TABLE
  2
VPORT
  5
8
330
0
100
AcDbSymbolTable
 70
     1
  0
VPORT
  5
29
330
8
100
AcDbSymbolTableRecord
100
AcDbViewportTableRecord
  2
*Active
 70
     0
 10
0.0
 20
0.0
 11
1.0
 21
1.0
 12
0.0
 22
0.0
 13
0.0
 23
0.0
 14
0.5
 24
0.5
 15
0.5
 25
0.5
 16
0.0
 26
0.0
 36
1.0
 17
91.00082462281999
 27
-128.4993055234307
 37
0.0
 40
256.9986110468615
 41
0.7081814508812795
 42
50.0
 43
0.0
 44
0.0
 50
0.0
 51
0.0
 71
     0
 72
   100
 73
     1
 74
     3
 75
     0
 76
     0
 77
     0
 78
     0
281
     0
 65
     1
110
0.0
120
0.0
130
0.0
111
1.0
121
0.0
131
0.0
112
0.0
122
1.0
132
0.0
 79
     0
146
0.0
 60
     3
 61
     5
292
     1
282
     1
141
0.0
142
0.0
 63
   250
361
3F
  0
ENDTAB
  0
TABLE
  2
LTYPE
  5
5
330
0
100
AcDbSymbolTable
 70
     1
  0
LTYPE
  5
14
330
5
100
AcDbSymbolTableRecord
100
AcDbLinetypeTableRecord
  2
ByBlock
 70
     0
  3

 72
    65
 73
     0
 40
0.0
  0
LTYPE
  5
15
330
5
100
AcDbSymbolTableRecord
100
AcDbLinetypeTableRecord
  2
ByLayer
 70
     0
  3

 72
    65
 73
     0
 40
0.0
  0
LTYPE
  5
16
330
5
100
AcDbSymbolTableRecord
100
AcDbLinetypeTableRecord
  2
Continuous
 70
     0
  3
Solid line
 72
    65
 73
     0
 40
0.0
  0
ENDTAB
  0
TABLE
  2
LAYER
  5
2
330
0
100
AcDbSymbolTable
 70
     2
  0
LAYER
  5
10
330
2
100
AcDbSymbolTableRecord
100
AcDbLayerTableRecord
  2
0
 70
     0
 62
     7
  6
Continuous
370
    -3
390
F
347
3E
  0
LAYER
  5
40
330
2
100
AcDbSymbolTableRecord
100
AcDbLayerTableRecord
  2
_U+30EC_U+30A4_U+30E4_U+30FC 1
 70
     0
 62
     7
  6
Continuous
370
    -3
390
F
347
3E
  0
ENDTAB
  0
TABLE
  2
STYLE
  5
3
330
0
100
AcDbSymbolTable
 70
     1
  0
STYLE
  5
11
330
3
100
AcDbSymbolTableRecord
100
AcDbTextStyleTableRecord
  2
Standard
 70
     0
 40
0.0
 41
1.0
 50
0.0
 71
     0
 42
0.2
  3
txt
  4

  0
ENDTAB
  0
TABLE
  2
VIEW
  5
6
330
0
100
AcDbSymbolTable
 70
     0
  0
ENDTAB
  0
TABLE
  2
UCS
  5
7
330
0
100
AcDbSymbolTable
 70
     0
  0
ENDTAB
  0
TABLE
  2
APPID
  5
9
330
0
100
AcDbSymbolTable
 70
     1
  0
APPID
  5
12
330
9
100
AcDbSymbolTableRecord
100
AcDbRegAppTableRecord
  2
ACAD
 70
     0
  0
ENDTAB
  0
TABLE
  2
DIMSTYLE
  5
A
330
0
100
AcDbSymbolTable
 70
     1
100
AcDbDimStyleTable
  0
DIMSTYLE
105
27
330
A
100
AcDbSymbolTableRecord
100
AcDbDimStyleTableRecord
  2
Standard
 70
     0
178
     0
340
11
  0
ENDTAB
  0
TABLE
  2
BLOCK_RECORD
  5
1
330
0
100
AcDbSymbolTable
 70
     9
  0
BLOCK_RECORD
  5
1F
330
1
100
AcDbSymbolTableRecord
100
AcDbBlockTableRecord
  2
*Model_Space
340
22
 70
     0
280
     1
281
     0
  0
BLOCK_RECORD
  5
1B
330
1
100
AcDbSymbolTableRecord
100
AcDbBlockTableRecord
  2
*Paper_Space
340
1E
 70
     0
280
     1
281
     0
  0
BLOCK_RECORD
  5
23
330
1
100
AcDbSymbolTableRecord
100
AcDbBlockTableRecord
  2
*Paper_Space0
340
26
 70
     0
280
     1
281
     0
  0
BLOCK_RECORD
  5
41
330
1
100
AcDbSymbolTableRecord
100
AcDbBlockTableRecord
  2
block 2
340
0
102
{BLKREFS
331
42
102
}
 70
     0
280
     1
281
     0
  0
BLOCK_RECORD
  5
9C
330
1
100
AcDbSymbolTableRecord
100
AcDbBlockTableRecord
  2
block 3
340
0
102
{BLKREFS
331
9D
102
}
 70
     0
280
     1
281
     0
  0
BLOCK_RECORD
  5
AA
330
1
100
AcDbSymbolTableRecord
100
AcDbBlockTableRecord
  2
block 4
340
0
102
{BLKREFS
331
AB
102
}
 70
     0
280
     1
281
     0
  0
BLOCK_RECORD
  5
BC
330
1
100
AcDbSymbolTableRecord
100
AcDbBlockTableRecord
  2
block 5
340
0
102
{BLKREFS
331
BD
102
}
 70
     0
280
     1
281
     0
  0
BLOCK_RECORD
  5
D2
330
1
100
AcDbSymbolTableRecord
100
AcDbBlockTableRecord
  2
block 6
340
0
102
{BLKREFS
331
D3
102
}
 70
     0
280
     1
281
     0
  0
BLOCK_RECORD
  5
E4
330
1
100
AcDbSymbolTableRecord
100
AcDbBlockTableRecord
  2
block 7
340
0
102
{BLKREFS
331
E5
102
}
 70
     0
280
     1
281
     0
  0
BLOCK_RECORD
  5
10C
330
1
100
AcDbSymbolTableRecord
100
AcDbBlockTableRecord
  2
block 8
340
0
102
{BLKREFS
331
10D
102
}
 70
     0
280
     1
281
     0
  0
BLOCK_RECORD
  5
11E
330
1
100
AcDbSymbolTableRecord
100
AcDbBlockTableRecord
  2
block 9
340
0
102
{BLKREFS
331
11F
102
}
 70
     0
280
     1
281
     0
  0
ENDTAB
  0
ENDSEC
  0
SECTION
  2
BLOCKS
  0
BLOCK
  5
20
330
1F
100
AcDbEntity
  8
0
100
AcDbBlockBegin
  2
*Model_Space
 70
     0
 10
0.0
 20
0.0
 30
0.0
  3
*Model_Space
  1

  0
ENDBLK
  5
21
330
1F
100
AcDbEntity
  8
0
100
AcDbBlockEnd
  0
BLOCK
  5
1C
330
1B
100
AcDbEntity
 67
     1
  8
0
100
AcDbBlockBegin
  2
*Paper_Space
 70
     0
 10
0.0
 20
0.0
 30
0.0
  3
*Paper_Space
  1

  0
ENDBLK
  5
1D
330
1B
100
AcDbEntity
 67
     1
  8
0
100
AcDbBlockEnd
  0
BLOCK
  5
24
330
23
100
AcDbEntity
  8
0
100
AcDbBlockBegin
  2
*Paper_Space0
 70
     0
 10
0.0
 20
0.0
 30
0.0
  3
*Paper_Space0
  1

  0
ENDBLK
  5
25
330
23
100
AcDbEntity
  8
0
100
AcDbBlockEnd
  0
BLOCK
  5
43
330
41
100
AcDbEntity
  8
0
100
AcDbBlockBegin
  2
block 2
 70
     0
 10
0.0
 20
0.0
 30
0.0
  3
block 2
  1

  0
POLYLINE
  5
45
330
41
100
AcDbEntity
  8
_U+30EC_U+30A4_U+30E4_U+30FC 1
 62
   179
420
  2234388
370
    25
100
AcDb2dPolyline
 66
     1
 10
0.0
 20
0.0
 30
0.0
  0
VERTEX
  5
46
330
45
100
AcDbEntity
  8
_U+30EC_U+30A4_U+30E4_U+30FC 1
 62
   179
420
  2234388
370
    25
100
AcDbVertex
100
AcDb2dVertex
 10
72.74834981070164
 20
-130.3913585785136
 30
0.0
  0
VERTEX
  5
47
330
45
100
AcDbEntity
  8
_U+30EC_U+30A4_U+30E4_U+30FC 1
 62
   179
420
  2234388
370
    25
100
AcDbVertex
100
AcDb2dVertex
 10
111.8484738131744
 20
-130.3913585785136
 30
0.0
  0
SEQEND
  5
48
330
45
100
AcDbEntity
  8
_U+30EC_U+30A4_U+30E4_U+30FC 1
 62
   179
420
  2234388
370
    25
  0
POLYLINE
  5
49
330
41
100
AcDbEntity
  8
_U+30EC_U+30A4_U+30E4_U+30FC 1
 62
   179
420
  2234388
370
    25
100
AcDb2dPolyline
 66
     1
 10
0.0
 20
0.0
 30
0.0
  0
VERTEX
  5
4A
330
49
100
AcDbEntity
  8
_U+30EC_U+30A4_U+30E4_U+30FC 1
 62
   179
420
  2234388
370
    25
100
AcDbVertex
100
AcDb2dVertex
 10
78.84840659952067
 20
-137.3911046878742
 30
0.0
  0
VERTEX
  5
4B
330
49
100
AcDbEntity
  8
_U+30EC_U+30A4_U+30E4_U+30FC 1
 62
   179
420
  2234388
370
    25
100
AcDbVertex
100
AcDb2dVertex
 10
81.84839346742908
 20
-137.3911046878742
 30
0.0
  0
SEQEND
  5
4C
330
49
100
AcDbEntity
  8
_U+30EC_U+30A4_U+30E4_U+30FC 1
 62
   179
420
  2234388
370
    25
  0
POLYLINE
  5
4D
330
41
100
AcDbEntity
  8
_U+30EC_U+30A4_U+30E4_U+30FC 1
 62
   179
420
  2234388
370
    25
100
AcDb2dPolyline
 66
     1
 10
0.0
 20
0.0
 30
0.0
  0
VERTEX
  5
4E
330
4D
100
AcDbEntity
  8
_U+30EC_U+30A4_U+30E4_U+30FC 1
 62
   179
420
  2234388
370
    25
100
AcDbVertex
100
AcDb2dVertex
 10
71.84834316699606
 20
-140.3910916315692
 30
0.0
  0
VERTEX
  5
4F
330
4D
100
AcDbEntity
  8
_U+30EC_U+30A4_U+30E4_U+30FC 1
 62
   179
420
  2234388
370
    25
100
AcDbVertex
100
AcDb2dVertex
 10
81.84839346742908
 20
-140.3910916315692
 30
0.0
  0
SEQEND
  5
50
330
4D
100
AcDbEntity
  8
_U+30EC_U+30A4_U+30E4_U+30FC 1
 62
   179
420
  2234388
370
    25
  0
POLYLINE
  5
51
330
41
100
AcDbEntity
  8
_U+30EC_U+30A4_U+30E4_U+30FC 1
 62
   179
420
  2234388
370
    25
100
AcDb2dPolyline
 66
     1
 10
0.0
 20
0.0
 30
0.0
  0
VERTEX
  5
52
330
51
100
AcDbEntity
  8
_U+30EC_U+30A4_U+30E4_U+30FC 1
 62
   179
420
  2234388
370
    25
100
AcDbVertex
100
AcDb2dVertex
 10
71.84834316699606
 20
-122.3913110805132
 30
0.0
  0
VERTEX
  5
53
330
51
100
AcDbEntity
  8
_U+30EC_U+30A4_U+30E4_U+30FC 1
 62
   179
420
  2234388
370
    25
100
AcDbVertex
100
AcDb2dVertex
 10
71.84834316699606
 20
-140.3910916315692
 30
0.0
  0
SEQEND
  5
54
330
51
100
AcDbEntity
  8
_U+30EC_U+30A4_U+30E4_U+30FC 1
 62
   179
420
  2234388
370
    25
  0
POLYLINE
  5
55
330
41
100
AcDbEntity
  8
_U+30EC_U+30A4_U+30E4_U+30FC 1
 62
   179
420
  2234388
370
    25
100
AcDb2dPolyline
 66
     1
 10
0.0
 20
0.0
 30
0.0
  0
VERTEX
  5
56
330
55
100
AcDbEntity
  8
_U+30EC_U+30A4_U+30E4_U+30FC 1
 62
   179
420
  2234388
370
    25
100
AcDbVertex
100
AcDb2dVertex
 10
111.8484738131744
 20
-129.4914930231827
 30
0.0
  0
VERTEX
  5
57
330
55
100
AcDbEntity
  8
_U+30EC_U+30A4_U+30E4_U+30FC 1
 62
   179
420
  2234388
370
    25
100
AcDbVertex
100
AcDb2dVertex
 10
111.8484738131744
 20
-130.3913585785136
 30
0.0
  0
SEQEND
  5
58
330
55
100
AcDbEntity
  8
_U+30EC_U+30A4_U+30E4_U+30FC 1
 62
   179
420
  2234388
370
    25
  0
POLYLINE
  5
59
330
41
100
AcDbEntity
  8
_U+30EC_U+30A4_U+30E4_U+30FC 1
 62
   179
420
  2234388
370
    25
100
AcDb2dPolyline
 66
     1
 10
0.0
 20
0.0
 30
0.0
  0
VERTEX
  5
5A
330
59
100
AcDbEntity
  8
_U+30EC_U+30A4_U+30E4_U+30FC 1
 62
   179
420
  2234388
370
    25
100
AcDbVertex
100
AcDb2dVertex
 10
71.84834316699606
 20
-122.3913110805132
 30
0.0
  0
VERTEX
  5
5B
330
59
100
AcDbEntity
  8
_U+30EC_U+30A4_U+30E4_U+30FC 1
 62
   179
420
  2234388
370
    25
100
AcDbVertex
100
AcDb2dVertex
 10
74.84833003490446
 20
-122.3913110805132
 30
0.0
  0
SEQEND
  5
5C
330
59
100
AcDbEntity
  8
_U+30EC_U+30A4_U+30E4_U+30FC 1
 62
   179
420
  2234388
370
    25
  0
POLYLINE
  5
5D
330
41
100
AcDbEntity
  8
_U+30EC_U+30A4_U+30E4_U+30FC 1
 62
   179
420
  2234388
370
    25
100
AcDb2dPolyline
 66
     1
 10
0.0
 20
0.0
 30
0.0
  0
VERTEX
  5
5E
330
5D
100
AcDbEntity
  8
_U+30EC_U+30A4_U+30E4_U+30FC 1
 62
   179
420
  2234388
370
    25
100
AcDbVertex
100
AcDb2dVertex
 10
74.84833003490446
 20
-122.3913110805132
 30
0.0
  0
VERTEX
  5
5F
330
5D
100
AcDbEntity
  8
_U+30EC_U+30A4_U+30E4_U+30FC 1
 62
   179
420
  2234388
370
    25
100
AcDbVertex
100
AcDb2dVertex
 10
74.84833003490446
 20
-123.3910833024857
 30
0.0
  0
SEQEND
  5
60
330
5D
100
AcDbEntity
  8
_U+30EC_U+30A4_U+30E4_U+30FC 1
 62
   179
420
  2234388
370
    25
  0
POLYLINE
  5
61
330
41
100
AcDbEntity
  8
_U+30EC_U+30A4_U+30E4_U+30FC 1
 62
   179
420
  2234388
370
    25
100
AcDb2dPolyline
 66
     1
 10
0.0
 20
0.0
 30
0.0
  0
VERTEX
  5
62
330
61
100
AcDbEntity
  8
_U+30EC_U+30A4_U+30E4_U+30FC 1
 62
   179
420
  2234388
370
    25
100
AcDbVertex
100
AcDb2dVertex
 10
72.74834981070164
 20
-123.3910833024857
 30
0.0
  0
VERTEX
  5
63
330
61
100
AcDbEntity
  8
_U+30EC_U+30A4_U+30E4_U+30FC 1
 62
   179
420
  2234388
370
    25
100
AcDbVertex
100
AcDb2dVertex
 10
74.84833003490446
 20
-123.3910833024857
 30
0.0
  0
SEQEND
  5
64
330
61
100
AcDbEntity
  8
_U+30EC_U+30A4_U+30E4_U+30FC 1
 62
   179
420
  2234388
370
    25
  0
POLYLINE
  5
65
330
41
100
AcDbEntity
  8
_U+30EC_U+30A4_U+30E4_U+30FC 1
 62
   179
420
  2234388
370
    25
100
AcDb2dPolyline
 66
     1
 10
0.0
 20
0.0
 30
0.0
  0
VERTEX
  5
66
330
65
100
AcDbEntity
  8
_U+30EC_U+30A4_U+30E4_U+30FC 1
 62
   179
420
  2234388
370
    25
100
AcDbVertex
100
AcDb2dVertex
 10
81.84839346742908
 20
-137.3911046878742
 30
0.0
  0
VERTEX
  5
67
330
65
100
AcDbEntity
  8
_U+30EC_U+30A4_U+30E4_U+30FC 1
 62
   179
420
  2234388
370
    25
100
AcDbVertex
100
AcDb2dVertex
 10
81.84839346742908
 20
-140.3910916315692
 30
0.0
  0
SEQEND
  5
68
330
65
100
AcDbEntity
  8
_U+30EC_U+30A4_U+30E4_U+30FC 1
 62
   179
420
  2234388
370
    25
  0
POLYLINE
  5
69
330
41
100
AcDbEntity
  8
_U+30EC_U+30A4_U+30E4_U+30FC 1
 62
   179
420
  2234388
370
    25
100
AcDb2dPolyline
 66
     1
 10
0.0
 20
0.0
 30
0.0
  0
VERTEX
  5
6A
330
69
100
AcDbEntity
  8
_U+30EC_U+30A4_U+30E4_U+30FC 1
 62
   179
420
  2234388
370
    25
100
AcDbVertex
100
AcDb2dVertex
 10
78.84840659952067
 20
-137.3911046878742
 30
0.0
  0
VERTEX
  5
6B
330
69
100
AcDbEntity
  8
_U+30EC_U+30A4_U+30E4_U+30FC 1
 62
   179
420
  2234388
370
    25
100
AcDbVertex
100
AcDb2dVertex
 10
78.84840659952067
 20
-138.3908769098467
 30
0.0
  0
SEQEND
  5
6C
330
69
100
AcDbEntity
  8
_U+30EC_U+30A4_U+30E4_U+30FC 1
 62
   179
420
  2234388
370
    25
  0
POLYLINE
  5
6D
330
41
100
AcDbEntity
  8
_U+30EC_U+30A4_U+30E4_U+30FC 1
 62
   179
420
  2234388
370
    25
100
AcDb2dPolyline
 66
     1
 10
0.0
 20
0.0
 30
0.0
  0
VERTEX
  5
6E
330
6D
100
AcDbEntity
  8
_U+30EC_U+30A4_U+30E4_U+30FC 1
 62
   179
420
  2234388
370
    25
100
AcDbVertex
100
AcDb2dVertex
 10
78.84840659952067
 20
-138.3908769098467
 30
0.0
  0
VERTEX
  5
6F
330
6D
100
AcDbEntity
  8
_U+30EC_U+30A4_U+30E4_U+30FC 1
 62
   179
420
  2234388
370
    25
100
AcDbVertex
100
AcDb2dVertex
 10
80.84830377072127
 20
-138.3908769098467
 30
0.0
  0
SEQEND
  5
70
330
6D
100
AcDbEntity
  8
_U+30EC_U+30A4_U+30E4_U+30FC 1
 62
   179
420
  2234388
370
    25
  0
POLYLINE
  5
71
330
41
100
AcDbEntity
  8
_U+30EC_U+30A4_U+30E4_U+30FC 1
 62
   179
420
  2234388
370
    25
100
AcDb2dPolyline
 66
     1
 10
0.0
 20
0.0
 30
0.0
  0
VERTEX
  5
72
330
71
100
AcDbEntity
  8
_U+30EC_U+30A4_U+30E4_U+30FC 1
 62
   179
420
  2234388
370
    25
100
AcDbVertex
100
AcDb2dVertex
 10
72.74834981070164
 20
-139.3913194095966
 30
0.0
  0
VERTEX
  5
73
330
71
100
AcDbEntity
  8
_U+30EC_U+30A4_U+30E4_U+30FC 1
 62
   179
420
  2234388
370
    25
100
AcDbVertex
100
AcDb2dVertex
 10
80.84830377072127
 20
-139.3913194095966
 30
0.0
  0
SEQEND
  5
74
330
71
100
AcDbEntity
  8
_U+30EC_U+30A4_U+30E4_U+30FC 1
 62
   179
420
  2234388
370
    25
  0
POLYLINE
  5
75
330
41
100
AcDbEntity
  8
_U+30EC_U+30A4_U+30E4_U+30FC 1
 62
   179
420
  2234388
370
    25
100
AcDb2dPolyline
 66
     1
 10
0.0
 20
0.0
 30
0.0
  0
VERTEX
  5
76
330
75
100
AcDbEntity
  8
_U+30EC_U+30A4_U+30E4_U+30FC 1
 62
   179
420
  2234388
370
    25
100
AcDbVertex
100
AcDb2dVertex
 10
80.84830377072127
 20
-138.3908769098467
 30
0.0
  0
VERTEX
  5
77
330
75
100
AcDbEntity
  8
_U+30EC_U+30A4_U+30E4_U+30FC 1
 62
   179
420
  2234388
370
    25
100
AcDbVertex
100
AcDb2dVertex
 10
80.84830377072127
 20
-139.3913194095966
 30
0.0
  0
SEQEND
  5
78
330
75
100
AcDbEntity
  8
_U+30EC_U+30A4_U+30E4_U+30FC 1
 62
   179
420
  2234388
370
    25
  0
POLYLINE
  5
79
330
41
100
AcDbEntity
  8
_U+30EC_U+30A4_U+30E4_U+30FC 1
 62
   179
420
  2234388
370
    25
100
AcDb2dPolyline
 66
     1
 10
0.0
 20
0.0
 30
0.0
  0
VERTEX
  5
7A
330
79
100
AcDbEntity
  8
_U+30EC_U+30A4_U+30E4_U+30FC 1
 62
   179
420
  2234388
370
    25
100
AcDbVertex
100
AcDb2dVertex
 10
72.74834981070164
 20
-123.3910833024857
 30
0.0
  0
VERTEX
  5
7B
330
79
100
AcDbEntity
  8
_U+30EC_U+30A4_U+30E4_U+30FC 1
 62
   179
420
  2234388
370
    25
100
AcDbVertex
100
AcDb2dVertex
 10
72.74834981070164
 20
-129.4914930231827
 30
0.0
  0
SEQEND
  5
7C
330
79
100
AcDbEntity
  8
_U+30EC_U+30A4_U+30E4_U+30FC 1
 62
   179
420
  2234388
370
    25
  0
POLYLINE
  5
7D
330
41
100
AcDbEntity
  8
_U+30EC_U+30A4_U+30E4_U+30FC 1
 62
   179
420
  2234388
370
    25
100
AcDb2dPolyline
 66
     1
 10
0.0
 20
0.0
 30
0.0
  0
VERTEX
  5
7E
330
7D
100
AcDbEntity
  8
_U+30EC_U+30A4_U+30E4_U+30FC 1
 62
   179
420
  2234388
370
    25
100
AcDbVertex
100
AcDb2dVertex
 10
72.74834981070164
 20
-129.4914930231827
 30
0.0
  0
VERTEX
  5
7F
330
7D
100
AcDbEntity
  8
_U+30EC_U+30A4_U+30E4_U+30FC 1
 62
   179
420
  2234388
370
    25
100
AcDbVertex
100
AcDb2dVertex
 10
111.8484738131744
 20
-129.4914930231827
 30
0.0
  0
SEQEND
  5
80
330
7D
100
AcDbEntity
  8
_U+30EC_U+30A4_U+30E4_U+30FC 1
 62
   179
420
  2234388
370
    25
  0
POLYLINE
  5
81
330
41
100
AcDbEntity
  8
_U+30EC_U+30A4_U+30E4_U+30FC 1
 62
   179
420
  2234388
370
    25
100
AcDb2dPolyline
 66
     1
 10
0.0
 20
0.0
 30
0.0
  0
VERTEX
  5
82
330
81
100
AcDbEntity
  8
_U+30EC_U+30A4_U+30E4_U+30FC 1
 62
   179
420
  2234388
370
    25
100
AcDbVertex
100
AcDb2dVertex
 10
72.74834981070164
 20
-130.3913585785136
 30
0.0
  0
VERTEX
  5
83
330
81
100
AcDbEntity
  8
_U+30EC_U+30A4_U+30E4_U+30FC 1
 62
   179
420
  2234388
370
    25
100
AcDbVertex
100
AcDb2dVertex
 10
72.74834981070164
 20
-139.3913194095966
 30
0.0
  0
SEQEND
  5
84
330
81
100
AcDbEntity
  8
_U+30EC_U+30A4_U+30E4_U+30FC 1
 62
   179
420
  2234388
370
    25
  0
SPLINE
  5
85
330
41
100
AcDbEntity
  8
_U+30EC_U+30A4_U+30E4_U+30FC 1
 62
   179
420
  2234388
370
     9
100
AcDbSpline
210
0.0
220
0.0
230
1.0
 70
    11
 71
     3
 72
    17
 73
    13
 74
     0
 42
0.0000000001
 43
0.0000000001
 12
1.0
 22
0.0
 32
0.0
 13
1.0
 23
0.0
 33
0.0
 40
0.0
 40
0.0
 40
0.0
 40
0.0
 40
1.0
 40
1.0
 40
1.0
 40
2.0
 40
2.0
 40
2.0
 40
3.0
 40
3.0
 40
3.0
 40
4.0
 40
4.0
 40
4.0
 40
4.0
 10
71.94839094222141
 20
-114.3911224714024
 30
0.0
 10
71.94839094222141
 20
-114.3360185825271
 30
0.0
 10
71.90362344336351
 20
-114.2912158047604
 30
0.0
 10
71.84834316699606
 20
-114.2912158047604
 30
0.0
 10
71.79302761285172
 20
-114.2912158047604
 30
0.0
 10
71.74840122510135
 20
-114.3360185825271
 30
0.0
 10
71.74840122510135
 20
-114.3911224714024
 30
0.0
 10
71.74840122510135
 20
-114.4465791380551
 30
0.0
 10
71.79302761285172
 20
-114.4913819158214
 30
0.0
 10
71.84834316699606
 20
-114.4913819158214
 30
0.0
 10
71.90362344336351
 20
-114.4913819158214
 30
0.0
 10
71.94839094222141
 20
-114.4465791380551
 30
0.0
 10
71.94839094222141
 20
-114.3911224714024
 30
0.0
  0
SPLINE
  5
86
330
41
100
AcDbEntity
  8
_U+30EC_U+30A4_U+30E4_U+30FC 1
 62
   179
420
  2234388
370
     9
100
AcDbSpline
210
0.0
220
0.0
230
1.0
 70
    11
 71
     3
 72
    17
 73
    13
 74
     0
 42
0.0000000001
 43
0.0000000001
 12
1.0
 22
0.0
 32
0.0
 13
1.0
 23
0.0
 33
0.0
 40
0.0
 40
0.0
 40
0.0
 40
0.0
 40
1.0
 40
1.0
 40
1.0
 40
2.0
 40
2.0
 40
2.0
 40
3.0
 40
3.0
 40
3.0
 40
4.0
 40
4.0
 40
4.0
 40
4.0
 10
71.94839094222141
 20
-118.3915519148466
 30
0.0
 10
71.94839094222141
 20
-118.3364480259714
 30
0.0
 10
71.90362344336351
 20
-118.291645248205
 30
0.0
 10
71.84834316699606
 20
-118.291645248205
 30
0.0
 10
71.79302761285172
 20
-118.291645248205
 30
0.0
 10
71.74840122510135
 20
-118.3364480259714
 30
0.0
 10
71.74840122510135
 20
-118.3915519148466
 30
0.0
 10
71.74840122510135
 20
-118.4466910814994
 30
0.0
 10
71.79302761285172
 20
-118.4914585814883
 30
0.0
 10
71.84834316699606
 20
-118.4914585814883
 30
0.0
 10
71.90362344336351
 20
-118.4914585814883
 30
0.0
 10
71.94839094222141
 20
-118.4466910814994
 30
0.0
 10
71.94839094222141
 20
-118.3915519148466
 30
0.0
  0
SPLINE
  5
87
330
41
100
AcDbEntity
  8
_U+30EC_U+30A4_U+30E4_U+30FC 1
 62
   179
420
  2234388
370
     9
100
AcDbSpline
210
0.0
220
0.0
230
1.0
 70
    11
 71
     3
 72
    17
 73
    13
 74
     0
 42
0.0000000001
 43
0.0000000001
 12
1.0
 22
0.0
 32
0.0
 13
1.0
 23
0.0
 33
0.0
 40
0.0
 40
0.0
 40
0.0
 40
0.0
 40
1.0
 40
1.0
 40
1.0
 40
2.0
 40
2.0
 40
2.0
 40
3.0
 40
3.0
 40
3.0
 40
4.0
 40
4.0
 40
4.0
 40
4.0
 10
74.94837781012981
 20
-118.3915519148466
 30
0.0
 10
74.94837781012981
 20
-118.3364480259714
 30
0.0
 10
74.90361031127192
 20
-118.291645248205
 30
0.0
 10
74.84833003490446
 20
-118.291645248205
 30
0.0
 10
74.7931908696445
 20
-118.291645248205
 30
0.0
 10
74.74842337078663
 20
-118.3364480259714
 30
0.0
 10
74.74842337078663
 20
-118.3915519148466
 30
0.0
 10
74.74842337078663
 20
-118.4466910814994
 30
0.0
 10
74.7931908696445
 20
-118.4914585814883
 30
0.0
 10
74.84833003490446
 20
-118.4914585814883
 30
0.0
 10
74.90361031127192
 20
-118.4914585814883
 30
0.0
 10
74.94837781012981
 20
-118.4466910814994
 30
0.0
 10
74.94837781012981
 20
-118.3915519148466
 30
0.0
  0
SPLINE
  5
88
330
41
100
AcDbEntity
  8
_U+30EC_U+30A4_U+30E4_U+30FC 1
 62
   179
420
  2234388
370
     9
100
AcDbSpline
210
0.0
220
0.0
230
1.0
 70
    11
 71
     3
 72
    17
 73
    13
 74
     0
 42
0.0000000001
 43
0.0000000001
 12
1.0
 22
0.0
 32
0.0
 13
1.0
 23
0.0
 33
0.0
 40
0.0
 40
0.0
 40
0.0
 40
0.0
 40
1.0
 40
1.0
 40
1.0
 40
2.0
 40
2.0
 40
2.0
 40
3.0
 40
3.0
 40
3.0
 40
4.0
 40
4.0
 40
4.0
 40
4.0
 10
111.9483833053465
 20
-114.3911224714024
 30
0.0
 10
111.9483833053465
 20
-114.3360185825271
 30
0.0
 10
111.9035805275798
 20
-114.2912158047604
 30
0.0
 10
111.8484738131744
 20
-114.2912158047604
 30
0.0
 10
111.7933346479144
 20
-114.2912158047604
 30
0.0
 10
111.7485671490565
 20
-114.3360185825271
 30
0.0
 10
111.7485671490565
 20
-114.3911224714024
 30
0.0
 10
111.7485671490565
 20
-114.4465791380551
 30
0.0
 10
111.7933346479144
 20
-114.4913819158214
 30
0.0
 10
111.8484738131744
 20
-114.4913819158214
 30
0.0
 10
111.9035805275798
 20
-114.4913819158214
 30
0.0
 10
111.9483833053465
 20
-114.4465791380551
 30
0.0
 10
111.9483833053465
 20
-114.3911224714024
 30
0.0
  0
SPLINE
  5
89
330
41
100
AcDbEntity
  8
_U+30EC_U+30A4_U+30E4_U+30FC 1
 62
   179
420
  2234388
370
     9
100
AcDbSpline
210
0.0
220
0.0
230
1.0
 70
    11
 71
     3
 72
    17
 73
    13
 74
     0
 42
0.0000000001
 43
0.0000000001
 12
1.0
 22
0.0
 32
0.0
 13
1.0
 23
0.0
 33
0.0
 40
0.0
 40
0.0
 40
0.0
 40
0.0
 40
1.0
 40
1.0
 40
1.0
 40
2.0
 40
2.0
 40
2.0
 40
3.0
 40
3.0
 40
3.0
 40
4.0
 40
4.0
 40
4.0
 40
4.0
 10
115.9481395419165
 20
-130.3913585785136
 30
0.0
 10
115.9481395419165
 20
-130.3362194118605
 30
0.0
 10
115.9033367652818
 20
-130.2914519118713
 30
0.0
 10
115.8482328777987
 20
-130.2914519118713
 30
0.0
 10
115.7930937125387
 20
-130.2914519118713
 30
0.0
 10
115.7483262136809
 20
-130.3362194118605
 30
0.0
 10
115.7483262136809
 20
-130.3913585785136
 30
0.0
 10
115.7483262136809
 20
-130.4464624673885
 30
0.0
 10
115.7930937125387
 20
-130.4912652451552
 30
0.0
 10
115.8482328777987
 20
-130.4912652451552
 30
0.0
 10
115.9033367652818
 20
-130.4912652451552
 30
0.0
 10
115.9481395419165
 20
-130.4464624673885
 30
0.0
 10
115.9481395419165
 20
-130.3913585785136
 30
0.0
  0
SPLINE
  5
8A
330
41
100
AcDbEntity
  8
_U+30EC_U+30A4_U+30E4_U+30FC 1
 62
   179
420
  2234388
370
     9
100
AcDbSpline
210
0.0
220
0.0
230
1.0
 70
    11
 71
     3
 72
    17
 73
    13
 74
     0
 42
0.0000000001
 43
0.0000000001
 12
1.0
 22
0.0
 32
0.0
 13
1.0
 23
0.0
 33
0.0
 40
0.0
 40
0.0
 40
0.0
 40
0.0
 40
1.0
 40
1.0
 40
1.0
 40
2.0
 40
2.0
 40
2.0
 40
3.0
 40
3.0
 40
3.0
 40
4.0
 40
4.0
 40
4.0
 40
4.0
 10
115.9481395419165
 20
-137.3911046878742
 30
0.0
 10
115.9481395419165
 20
-137.3359655212217
 30
0.0
 10
115.9033367652818
 20
-137.2911980212325
 30
0.0
 10
115.8482328777987
 20
-137.2911980212325
 30
0.0
 10
115.7930937125387
 20
-137.2911980212325
 30
0.0
 10
115.7483262136809
 20
-137.3359655212217
 30
0.0
 10
115.7483262136809
 20
-137.3911046878742
 30
0.0
 10
115.7483262136809
 20
-137.4462085767497
 30
0.0
 10
115.7930937125387
 20
-137.4910113545164
 30
0.0
 10
115.8482328777987
 20
-137.4910113545164
 30
0.0
 10
115.9033367652818
 20
-137.4910113545164
 30
0.0
 10
115.9481395419165
 20
-137.4462085767497
 30
0.0
 10
115.9481395419165
 20
-137.3911046878742
 30
0.0
  0
SPLINE
  5
8B
330
41
100
AcDbEntity
  8
_U+30EC_U+30A4_U+30E4_U+30FC 1
 62
   179
420
  2234388
370
     9
100
AcDbSpline
210
0.0
220
0.0
230
1.0
 70
    11
 71
     3
 72
    17
 73
    13
 74
     0
 42
0.0000000001
 43
0.0000000001
 12
1.0
 22
0.0
 32
0.0
 13
1.0
 23
0.0
 33
0.0
 40
0.0
 40
0.0
 40
0.0
 40
0.0
 40
1.0
 40
1.0
 40
1.0
 40
2.0
 40
2.0
 40
2.0
 40
3.0
 40
3.0
 40
3.0
 40
4.0
 40
4.0
 40
4.0
 40
4.0
 10
115.9481395419165
 20
-140.3910916315692
 30
0.0
 10
115.9481395419165
 20
-140.3359524649161
 30
0.0
 10
115.9033367652818
 20
-140.2911849649275
 30
0.0
 10
115.8482328777987
 20
-140.2911849649275
 30
0.0
 10
115.7930937125387
 20
-140.2911849649275
 30
0.0
 10
115.7483262136809
 20
-140.3359524649161
 30
0.0
 10
115.7483262136809
 20
-140.3910916315692
 30
0.0
 10
115.7483262136809
 20
-140.4461955204441
 30
0.0
 10
115.7930937125387
 20
-140.4909982982108
 30
0.0
 10
115.8482328777987
 20
-140.4909982982108
 30
0.0
 10
115.9033367652818
 20
-140.4909982982108
 30
0.0
 10
115.9481395419165
 20
-140.4461955204441
 30
0.0
 10
115.9481395419165
 20
-140.3910916315692
 30
0.0
  0
SPLINE
  5
8C
330
41
100
AcDbEntity
  8
_U+30EC_U+30A4_U+30E4_U+30FC 1
 62
   179
420
  2234388
370
     9
100
AcDbSpline
210
0.0
220
0.0
230
1.0
 70
    11
 71
     3
 72
    17
 73
    13
 74
     0
 42
0.0000000001
 43
0.0000000001
 12
1.0
 22
0.0
 32
0.0
 13
1.0
 23
0.0
 33
0.0
 40
0.0
 40
0.0
 40
0.0
 40
0.0
 40
1.0
 40
1.0
 40
1.0
 40
2.0
 40
2.0
 40
2.0
 40
3.0
 40
3.0
 40
3.0
 40
4.0
 40
4.0
 40
4.0
 40
4.0
 10
71.94839094222141
 20
-144.3908507972354
 30
0.0
 10
71.94839094222141
 20
-144.335711630583
 30
0.0
 10
71.90362344336351
 20
-144.2909441305938
 30
0.0
 10
71.84834316699606
 20
-144.2909441305938
 30
0.0
 10
71.79302761285172
 20
-144.2909441305938
 30
0.0
 10
71.74840122510135
 20
-144.335711630583
 30
0.0
 10
71.74840122510135
 20
-144.3908507972354
 30
0.0
 10
71.74840122510135
 20
-144.4466602416659
 30
0.0
 10
71.79302761285172
 20
-144.4914277416551
 30
0.0
 10
71.84834316699606
 20
-144.4914277416551
 30
0.0
 10
71.90362344336351
 20
-144.4914277416551
 30
0.0
 10
71.94839094222141
 20
-144.4466602416659
 30
0.0
 10
71.94839094222141
 20
-144.3908507972354
 30
0.0
  0
SPLINE
  5
8D
330
41
100
AcDbEntity
  8
_U+30EC_U+30A4_U+30E4_U+30FC 1
 62
   179
420
  2234388
370
     9
100
AcDbSpline
210
0.0
220
0.0
230
1.0
 70
    11
 71
     3
 72
    17
 73
    13
 74
     0
 42
0.0000000001
 43
0.0000000001
 12
1.0
 22
0.0
 32
0.0
 13
1.0
 23
0.0
 33
0.0
 40
0.0
 40
0.0
 40
0.0
 40
0.0
 40
1.0
 40
1.0
 40
1.0
 40
2.0
 40
2.0
 40
2.0
 40
3.0
 40
3.0
 40
3.0
 40
4.0
 40
4.0
 40
4.0
 40
4.0
 10
81.94830013154692
 20
-144.3908507972354
 30
0.0
 10
81.94830013154692
 20
-144.335711630583
 30
0.0
 10
81.90353263268902
 20
-144.2909441305938
 30
0.0
 10
81.84839346742908
 20
-144.2909441305938
 30
0.0
 10
81.7932916462182
 20
-144.2909441305938
 30
0.0
 10
81.74848886845179
 20
-144.335711630583
 30
0.0
 10
81.74848886845179
 20
-144.3908507972354
 30
0.0
 10
81.74848886845179
 20
-144.4466602416659
 30
0.0
 10
81.7932916462182
 20
-144.4914277416551
 30
0.0
 10
81.84839346742908
 20
-144.4914277416551
 30
0.0
 10
81.90353263268902
 20
-144.4914277416551
 30
0.0
 10
81.94830013154692
 20
-144.4466602416659
 30
0.0
 10
81.94830013154692
 20
-144.3908507972354
 30
0.0
  0
SPLINE
  5
8E
330
41
100
AcDbEntity
  8
_U+30EC_U+30A4_U+30E4_U+30FC 1
 62
   179
420
  2234388
370
     9
100
AcDbSpline
210
0.0
220
0.0
230
1.0
 70
    11
 71
     3
 72
    17
 73
    13
 74
     0
 42
0.0000000001
 43
0.0000000001
 12
1.0
 22
0.0
 32
0.0
 13
1.0
 23
0.0
 33
0.0
 40
0.0
 40
0.0
 40
0.0
 40
0.0
 40
1.0
 40
1.0
 40
1.0
 40
2.0
 40
2.0
 40
2.0
 40
3.0
 40
3.0
 40
3.0
 40
4.0
 40
4.0
 40
4.0
 40
4.0
 10
67.94831437760519
 20
-122.3913110805132
 30
0.0
 10
67.94831437760519
 20
-122.3362071916383
 30
0.0
 10
67.90351160097043
 20
-122.2914044138715
 30
0.0
 10
67.84840771348736
 20
-122.2914044138715
 30
0.0
 10
67.79309215934302
 20
-122.2914044138715
 30
0.0
 10
67.74832466048514
 20
-122.3362071916383
 30
0.0
 10
67.74832466048514
 20
-122.3913110805132
 30
0.0
 10
67.74832466048514
 20
-122.4464502471663
 30
0.0
 10
67.79309215934302
 20
-122.4912177471548
 30
0.0
 10
67.84840771348736
 20
-122.4912177471548
 30
0.0
 10
67.90351160097043
 20
-122.4912177471548
 30
0.0
 10
67.94831437760519
 20
-122.4464502471663
 30
0.0
 10
67.94831437760519
 20
-122.3913110805132
 30
0.0
  0
SPLINE
  5
8F
330
41
100
AcDbEntity
  8
_U+30EC_U+30A4_U+30E4_U+30FC 1
 62
   179
420
  2234388
370
     9
100
AcDbSpline
210
0.0
220
0.0
230
1.0
 70
    11
 71
     3
 72
    17
 73
    13
 74
     0
 42
0.0000000001
 43
0.0000000001
 12
1.0
 22
0.0
 32
0.0
 13
1.0
 23
0.0
 33
0.0
 40
0.0
 40
0.0
 40
0.0
 40
0.0
 40
1.0
 40
1.0
 40
1.0
 40
2.0
 40
2.0
 40
2.0
 40
3.0
 40
3.0
 40
3.0
 40
4.0
 40
4.0
 40
4.0
 40
4.0
 10
67.94831437760519
 20
-140.3910916315692
 30
0.0
 10
67.94831437760519
 20
-140.3359524649161
 30
0.0
 10
67.90351160097043
 20
-140.2911849649275
 30
0.0
 10
67.84840771348736
 20
-140.2911849649275
 30
0.0
 10
67.79309215934302
 20
-140.2911849649275
 30
0.0
 10
67.74832466048514
 20
-140.3359524649161
 30
0.0
 10
67.74832466048514
 20
-140.3910916315692
 30
0.0
 10
67.74832466048514
 20
-140.4461955204441
 30
0.0
 10
67.79309215934302
 20
-140.4909982982108
 30
0.0
 10
67.84840771348736
 20
-140.4909982982108
 30
0.0
 10
67.90351160097043
 20
-140.4909982982108
 30
0.0
 10
67.94831437760519
 20
-140.4461955204441
 30
0.0
 10
67.94831437760519
 20
-140.3910916315692
 30
0.0
  0
POLYLINE
  5
90
330
41
100
AcDbEntity
  8
_U+30EC_U+30A4_U+30E4_U+30FC 1
 62
   179
420
  2234388
370
     9
100
AcDb2dPolyline
 66
     1
 10
0.0
 20
0.0
 30
0.0
  0
VERTEX
  5
91
330
90
100
AcDbEntity
  8
_U+30EC_U+30A4_U+30E4_U+30FC 1
 62
   179
420
  2234388
370
     9
100
AcDbVertex
100
AcDb2dVertex
 10
115.8482328777987
 20
-137.3911046878742
 30
0.0
  0
VERTEX
  5
92
330
90
100
AcDbEntity
  8
_U+30EC_U+30A4_U+30E4_U+30FC 1
 62
   179
420
  2234388
370
     9
100
AcDbVertex
100
AcDb2dVertex
 10
115.8482328777987
 20
-140.3910916315692
 30
0.0
  0
SEQEND
  5
93
330
90
100
AcDbEntity
  8
_U+30EC_U+30A4_U+30E4_U+30FC 1
 62
   179
420
  2234388
370
     9
  0
POLYLINE
  5
94
330
41
100
AcDbEntity
  8
_U+30EC_U+30A4_U+30E4_U+30FC 1
 62
   179
420
  2234388
370
     9
100
AcDb2dPolyline
 66
     1
 10
0.0
 20
0.0
 30
0.0
  0
VERTEX
  5
95
330
94
100
AcDbEntity
  8
_U+30EC_U+30A4_U+30E4_U+30FC 1
 62
   179
420
  2234388
370
     9
100
AcDbVertex
100
AcDb2dVertex
 10
84.38811118041326
 20
-137.3911046878742
 30
0.0
  0
VERTEX
  5
96
330
94
100
AcDbEntity
  8
_U+30EC_U+30A4_U+30E4_U+30FC 1
 62
   179
420
  2234388
370
     9
100
AcDbVertex
100
AcDb2dVertex
 10
116.8486753522753
 20
-137.3911046878742
 30
0.0
  0
SEQEND
  5
97
330
94
100
AcDbEntity
  8
_U+30EC_U+30A4_U+30E4_U+30FC 1
 62
   179
420
  2234388
370
     9
  0
POLYLINE
  5
98
330
41
100
AcDbEntity
  8
_U+30EC_U+30A4_U+30E4_U+30FC 1
 62
   179
420
  2234388
370
     9
100
AcDb2dPolyline
 66
     1
 10
0.0
 20
0.0
 30
0.0
  0
VERTEX
  5
99
330
98
100
AcDbEntity
  8
_U+30EC_U+30A4_U+30E4_U+30FC 1
 62
   179
420
  2234388
370
     9
100
AcDbVertex
100
AcDb2dVertex
 10
84.38811118041326
 20
-140.3910916315692
 30
0.0
  0
VERTEX
  5
9A
330
98
100
AcDbEntity
  8
_U+30EC_U+30A4_U+30E4_U+30FC 1
 62
   179
420
  2234388
370
     9
100
AcDbVertex
100
AcDb2dVertex
 10
116.8486753522753
 20
-140.3910916315692
 30
0.0
  0
SEQEND
  5
9B
330
98
100
AcDbEntity
  8
_U+30EC_U+30A4_U+30E4_U+30FC 1
 62
   179
420
  2234388
370
     9
  0
INSERT
  5
9D
330
41
100
AcDbEntity
  8
_U+30EC_U+30A4_U+30E4_U+30FC 1
100
AcDbBlockReference
  2
block 3
 10
0.0
 20
0.0
 30
0.0
  0
POLYLINE
  5
A2
330
41
100
AcDbEntity
  8
_U+30EC_U+30A4_U+30E4_U+30FC 1
 62
   179
420
  2234388
370
     9
100
AcDb2dPolyline
 66
     1
 10
0.0
 20
0.0
 30
0.0
  0
VERTEX
  5
A3
330
A2
100
AcDbEntity
  8
_U+30EC_U+30A4_U+30E4_U+30FC 1
 62
   179
420
  2234388
370
     9
100
AcDbVertex
100
AcDb2dVertex
 10
115.8482328777987
 20
-137.3911046878742
 30
0.0
  0
VERTEX
  5
A4
330
A2
100
AcDbEntity
  8
_U+30EC_U+30A4_U+30E4_U+30FC 1
 62
   179
420
  2234388
370
     9
100
AcDbVertex
100
AcDb2dVertex
 10
115.8482328777987
 20
-130.3913585785136
 30
0.0
  0
SEQEND
  5
A5
330
A2
100
AcDbEntity
  8
_U+30EC_U+30A4_U+30E4_U+30FC 1
 62
   179
420
  2234388
370
     9
  0
POLYLINE
  5
A6
330
41
100
AcDbEntity
  8
_U+30EC_U+30A4_U+30E4_U+30FC 1
 62
   179
420
  2234388
370
     9
100
AcDb2dPolyline
 66
     1
 10
0.0
 20
0.0
 30
0.0
  0
VERTEX
  5
A7
330
A6
100
AcDbEntity
  8
_U+30EC_U+30A4_U+30E4_U+30FC 1
 62
   179
420
  2234388
370
     9
100
AcDbVertex
100
AcDb2dVertex
 10
115.0937499712266
 20
-130.3913585785136
 30
0.0
  0
VERTEX
  5
A8
330
A6
100
AcDbEntity
  8
_U+30EC_U+30A4_U+30E4_U+30FC 1
 62
   179
420
  2234388
370
     9
100
AcDbVertex
100
AcDb2dVertex
 10
116.8486753522753
 20
-130.3913585785136
 30
0.0
  0
SEQEND
  5
A9
330
A6
100
AcDbEntity
  8
_U+30EC_U+30A4_U+30E4_U+30FC 1
 62
   179
420
  2234388
370
     9
  0
INSERT
  5
AB
330
41
100
AcDbEntity
  8
_U+30EC_U+30A4_U+30E4_U+30FC 1
100
AcDbBlockReference
  2
block 4
 10
0.0
 20
0.0
 30
0.0
  0
POLYLINE
  5
B0
330
41
100
AcDbEntity
  8
_U+30EC_U+30A4_U+30E4_U+30FC 1
 62
   179
420
  2234388
370
     9
100
AcDb2dPolyline
 66
     1
 10
0.0
 20
0.0
 30
0.0
  0
VERTEX
  5
B1
330
B0
100
AcDbEntity
  8
_U+30EC_U+30A4_U+30E4_U+30FC 1
 62
   179
420
  2234388
370
     9
100
AcDbVertex
100
AcDb2dVertex
 10
67.84840771348736
 20
-122.3913110805132
 30
0.0
  0
VERTEX
  5
B2
330
B0
100
AcDbEntity
  8
_U+30EC_U+30A4_U+30E4_U+30FC 1
 62
   179
420
  2234388
370
     9
100
AcDbVertex
100
AcDb2dVertex
 10
67.84840771348736
 20
-140.3910916315692
 30
0.0
  0
SEQEND
  5
B3
330
B0
100
AcDbEntity
  8
_U+30EC_U+30A4_U+30E4_U+30FC 1
 62
   179
420
  2234388
370
     9
  0
POLYLINE
  5
B4
330
41
100
AcDbEntity
  8
_U+30EC_U+30A4_U+30E4_U+30FC 1
 62
   179
420
  2234388
370
     9
100
AcDb2dPolyline
 66
     1
 10
0.0
 20
0.0
 30
0.0
  0
VERTEX
  5
B5
330
B4
100
AcDbEntity
  8
_U+30EC_U+30A4_U+30E4_U+30FC 1
 62
   179
420
  2234388
370
     9
100
AcDbVertex
100
AcDb2dVertex
 10
69.30827267624309
 20
-122.3913110805132
 30
0.0
  0
VERTEX
  5
B6
330
B4
100
AcDbEntity
  8
_U+30EC_U+30A4_U+30E4_U+30FC 1
 62
   179
420
  2234388
370
     9
100
AcDbVertex
100
AcDb2dVertex
 10
66.84828273900267
 20
-122.3913110805132
 30
0.0
  0
SEQEND
  5
B7
330
B4
100
AcDbEntity
  8
_U+30EC_U+30A4_U+30E4_U+30FC 1
 62
   179
420
  2234388
370
     9
  0
POLYLINE
  5
B8
330
41
100
AcDbEntity
  8
_U+30EC_U+30A4_U+30E4_U+30FC 1
 62
   179
420
  2234388
370
     9
100
AcDb2dPolyline
 66
     1
 10
0.0
 20
0.0
 30
0.0
  0
VERTEX
  5
B9
330
B8
100
AcDbEntity
  8
_U+30EC_U+30A4_U+30E4_U+30FC 1
 62
   179
420
  2234388
370
     9
100
AcDbVertex
100
AcDb2dVertex
 10
69.30827267624309
 20
-140.3910916315692
 30
0.0
  0
VERTEX
  5
BA
330
B8
100
AcDbEntity
  8
_U+30EC_U+30A4_U+30E4_U+30FC 1
 62
   179
420
  2234388
370
     9
100
AcDbVertex
100
AcDb2dVertex
 10
66.84828273900267
 20
-140.3910916315692
 30
0.0
  0
SEQEND
  5
BB
330
B8
100
AcDbEntity
  8
_U+30EC_U+30A4_U+30E4_U+30FC 1
 62
   179
420
  2234388
370
     9
  0
INSERT
  5
BD
330
41
100
AcDbEntity
  8
_U+30EC_U+30A4_U+30E4_U+30FC 1
100
AcDbBlockReference
  2
block 5
 10
0.0
 20
0.0
 30
0.0
  0
POLYLINE
  5
C6
330
41
100
AcDbEntity
  8
_U+30EC_U+30A4_U+30E4_U+30FC 1
 62
   179
420
  2234388
370
     9
100
AcDb2dPolyline
 66
     1
 10
0.0
 20
0.0
 30
0.0
  0
VERTEX
  5
C7
330
C6
100
AcDbEntity
  8
_U+30EC_U+30A4_U+30E4_U+30FC 1
 62
   179
420
  2234388
370
     9
100
AcDbVertex
100
AcDb2dVertex
 10
71.84834316699606
 20
-118.3915519148466
 30
0.0
  0
VERTEX
  5
C8
330
C6
100
AcDbEntity
  8
_U+30EC_U+30A4_U+30E4_U+30FC 1
 62
   179
420
  2234388
370
     9
100
AcDbVertex
100
AcDb2dVertex
 10
74.84833003490446
 20
-118.3915519148466
 30
0.0
  0
SEQEND
  5
C9
330
C6
100
AcDbEntity
  8
_U+30EC_U+30A4_U+30E4_U+30FC 1
 62
   179
420
  2234388
370
     9
  0
POLYLINE
  5
CA
330
41
100
AcDbEntity
  8
_U+30EC_U+30A4_U+30E4_U+30FC 1
 62
   179
420
  2234388
370
     9
100
AcDb2dPolyline
 66
     1
 10
0.0
 20
0.0
 30
0.0
  0
VERTEX
  5
CB
330
CA
100
AcDbEntity
  8
_U+30EC_U+30A4_U+30E4_U+30FC 1
 62
   179
420
  2234388
370
     9
100
AcDbVertex
100
AcDb2dVertex
 10
71.84834316699606
 20
-119.8515933033703
 30
0.0
  0
VERTEX
  5
CC
330
CA
100
AcDbEntity
  8
_U+30EC_U+30A4_U+30E4_U+30FC 1
 62
   179
420
  2234388
370
     9
100
AcDbVertex
100
AcDb2dVertex
 10
71.84834316699606
 20
-117.3911094150967
 30
0.0
  0
SEQEND
  5
CD
330
CA
100
AcDbEntity
  8
_U+30EC_U+30A4_U+30E4_U+30FC 1
 62
   179
420
  2234388
370
     9
  0
POLYLINE
  5
CE
330
41
100
AcDbEntity
  8
_U+30EC_U+30A4_U+30E4_U+30FC 1
 62
   179
420
  2234388
370
     9
100
AcDb2dPolyline
 66
     1
 10
0.0
 20
0.0
 30
0.0
  0
VERTEX
  5
CF
330
CE
100
AcDbEntity
  8
_U+30EC_U+30A4_U+30E4_U+30FC 1
 62
   179
420
  2234388
370
     9
100
AcDbVertex
100
AcDb2dVertex
 10
74.84833003490446
 20
-119.8515933033703
 30
0.0
  0
VERTEX
  5
D0
330
CE
100
AcDbEntity
  8
_U+30EC_U+30A4_U+30E4_U+30FC 1
 62
   179
420
  2234388
370
     9
100
AcDbVertex
100
AcDb2dVertex
 10
74.84833003490446
 20
-117.3911094150967
 30
0.0
  0
SEQEND
  5
D1
330
CE
100
AcDbEntity
  8
_U+30EC_U+30A4_U+30E4_U+30FC 1
 62
   179
420
  2234388
370
     9
  0
INSERT
  5
D3
330
41
100
AcDbEntity
  8
_U+30EC_U+30A4_U+30E4_U+30FC 1
100
AcDbBlockReference
  2
block 6
 10
0.0
 20
0.0
 30
0.0
  0
POLYLINE
  5
D8
330
41
100
AcDbEntity
  8
_U+30EC_U+30A4_U+30E4_U+30FC 1
 62
   179
420
  2234388
370
     9
100
AcDb2dPolyline
 66
     1
 10
0.0
 20
0.0
 30
0.0
  0
VERTEX
  5
D9
330
D8
100
AcDbEntity
  8
_U+30EC_U+30A4_U+30E4_U+30FC 1
 62
   179
420
  2234388
370
     9
100
AcDbVertex
100
AcDb2dVertex
 10
71.84834316699606
 20
-114.3911224714024
 30
0.0
  0
VERTEX
  5
DA
330
D8
100
AcDbEntity
  8
_U+30EC_U+30A4_U+30E4_U+30FC 1
 62
   179
420
  2234388
370
     9
100
AcDbVertex
100
AcDb2dVertex
 10
111.8484738131744
 20
-114.3911224714024
 30
0.0
  0
SEQEND
  5
DB
330
D8
100
AcDbEntity
  8
_U+30EC_U+30A4_U+30E4_U+30FC 1
 62
   179
420
  2234388
370
     9
  0
POLYLINE
  5
DC
330
41
100
AcDbEntity
  8
_U+30EC_U+30A4_U+30E4_U+30FC 1
 62
   179
420
  2234388
370
     9
100
AcDb2dPolyline
 66
     1
 10
0.0
 20
0.0
 30
0.0
  0
VERTEX
  5
DD
330
DC
100
AcDbEntity
  8
_U+30EC_U+30A4_U+30E4_U+30FC 1
 62
   179
420
  2234388
370
     9
100
AcDbVertex
100
AcDb2dVertex
 10
71.84834316699606
 20
-119.8515933033703
 30
0.0
  0
VERTEX
  5
DE
330
DC
100
AcDbEntity
  8
_U+30EC_U+30A4_U+30E4_U+30FC 1
 62
   179
420
  2234388
370
     9
100
AcDbVertex
100
AcDb2dVertex
 10
71.84834316699606
 20
-113.3913502494298
 30
0.0
  0
SEQEND
  5
DF
330
DC
100
AcDbEntity
  8
_U+30EC_U+30A4_U+30E4_U+30FC 1
 62
   179
420
  2234388
370
     9
  0
POLYLINE
  5
E0
330
41
100
AcDbEntity
  8
_U+30EC_U+30A4_U+30E4_U+30FC 1
 62
   179
420
  2234388
370
     9
100
AcDb2dPolyline
 66
     1
 10
0.0
 20
0.0
 30
0.0
  0
VERTEX
  5
E1
330
E0
100
AcDbEntity
  8
_U+30EC_U+30A4_U+30E4_U+30FC 1
 62
   179
420
  2234388
370
     9
100
AcDbVertex
100
AcDb2dVertex
 10
111.8484738131744
 20
-126.9512460793732
 30
0.0
  0
VERTEX
  5
E2
330
E0
100
AcDbEntity
  8
_U+30EC_U+30A4_U+30E4_U+30FC 1
 62
   179
420
  2234388
370
     9
100
AcDbVertex
100
AcDb2dVertex
 10
111.8484738131744
 20
-113.3913502494298
 30
0.0
  0
SEQEND
  5
E3
330
E0
100
AcDbEntity
  8
_U+30EC_U+30A4_U+30E4_U+30FC 1
 62
   179
420
  2234388
370
     9
  0
INSERT
  5
E5
330
41
100
AcDbEntity
  8
_U+30EC_U+30A4_U+30E4_U+30FC 1
100
AcDbBlockReference
  2
block 7
 10
0.0
 20
0.0
 30
0.0
  0
POLYLINE
  5
100
330
41
100
AcDbEntity
  8
_U+30EC_U+30A4_U+30E4_U+30FC 1
 62
   179
420
  2234388
370
     9
100
AcDb2dPolyline
 66
     1
 10
0.0
 20
0.0
 30
0.0
  0
VERTEX
  5
101
330
100
100
AcDbEntity
  8
_U+30EC_U+30A4_U+30E4_U+30FC 1
 62
   179
420
  2234388
370
     9
100
AcDbVertex
100
AcDb2dVertex
 10
71.84834316699606
 20
-144.3908507972354
 30
0.0
  0
VERTEX
  5
102
330
100
100
AcDbEntity
  8
_U+30EC_U+30A4_U+30E4_U+30FC 1
 62
   179
420
  2234388
370
     9
100
AcDbVertex
100
AcDb2dVertex
 10
81.84839346742908
 20
-144.3908507972354
 30
0.0
  0
SEQEND
  5
103
330
100
100
AcDbEntity
  8
_U+30EC_U+30A4_U+30E4_U+30FC 1
 62
   179
420
  2234388
370
     9
  0
POLYLINE
  5
104
330
41
100
AcDbEntity
  8
_U+30EC_U+30A4_U+30E4_U+30FC 1
 62
   179
420
  2234388
370
     9
100
AcDb2dPolyline
 66
     1
 10
0.0
 20
0.0
 30
0.0
  0
VERTEX
  5
105
330
104
100
AcDbEntity
  8
_U+30EC_U+30A4_U+30E4_U+30FC 1
 62
   179
420
  2234388
370
     9
100
AcDbVertex
100
AcDb2dVertex
 10
71.84834316699606
 20
-142.9308094087117
 30
0.0
  0
VERTEX
  5
106
330
104
100
AcDbEntity
  8
_U+30EC_U+30A4_U+30E4_U+30FC 1
 62
   179
420
  2234388
370
     9
100
AcDbVertex
100
AcDb2dVertex
 10
71.84834316699606
 20
-145.3912932969853
 30
0.0
  0
SEQEND
  5
107
330
104
100
AcDbEntity
  8
_U+30EC_U+30A4_U+30E4_U+30FC 1
 62
   179
420
  2234388
370
     9
  0
POLYLINE
  5
108
330
41
100
AcDbEntity
  8
_U+30EC_U+30A4_U+30E4_U+30FC 1
 62
   179
420
  2234388
370
     9
100
AcDb2dPolyline
 66
     1
 10
0.0
 20
0.0
 30
0.0
  0
VERTEX
  5
109
330
108
100
AcDbEntity
  8
_U+30EC_U+30A4_U+30E4_U+30FC 1
 62
   179
420
  2234388
370
     9
100
AcDbVertex
100
AcDb2dVertex
 10
81.84839346742908
 20
-142.9308094087117
 30
0.0
  0
VERTEX
  5
10A
330
108
100
AcDbEntity
  8
_U+30EC_U+30A4_U+30E4_U+30FC 1
 62
   179
420
  2234388
370
     9
100
AcDbVertex
100
AcDb2dVertex
 10
81.84839346742908
 20
-145.3912932969853
 30
0.0
  0
SEQEND
  5
10B
330
108
100
AcDbEntity
  8
_U+30EC_U+30A4_U+30E4_U+30FC 1
 62
   179
420
  2234388
370
     9
  0
INSERT
  5
10D
330
41
100
AcDbEntity
  8
_U+30EC_U+30A4_U+30E4_U+30FC 1
100
AcDbBlockReference
  2
block 8
 10
0.0
 20
0.0
 30
0.0
  0
ENDBLK
  5
44
330
41
100
AcDbEntity
  8
0
100
AcDbBlockEnd
  0
BLOCK
  5
9E
330
9C
100
AcDbEntity
  8
0
100
AcDbBlockBegin
  2
block 3
 70
     0
 10
0.0
 20
0.0
 30
0.0
  3
block 3
  1

  0
SPLINE
  5
A0
330
9C
100
AcDbEntity
  8
_U+30EC_U+30A4_U+30E4_U+30FC 1
370
     0
100
AcDbSpline
210
0.0
220
0.0
230
1.0
 70
    11
 71
     3
 72
    62
 73
    58
 74
     0
 42
0.0000000001
 43
0.0000000001
 12
1.0
 22
0.0
 32
0.0
 13
1.0
 23
0.0
 33
0.0
 40
0.0
 40
0.0
 40
0.0
 40
0.0
 40
1.0
 40
1.0
 40
1.0
 40
2.0
 40
2.0
 40
2.0
 40
3.0
 40
3.0
 40
3.0
 40
4.0
 40
4.0
 40
4.0
 40
5.0
 40
5.0
 40
5.0
 40
6.0
 40
6.0
 40
6.0
 40
7.0
 40
7.0
 40
7.0
 40
8.0
 40
8.0
 40
8.0
 40
9.0
 40
9.0
 40
9.0
 40
10.0
 40
10.0
 40
10.0
 40
11.0
 40
11.0
 40
11.0
 40
12.0
 40
12.0
 40
12.0
 40
13.0
 40
13.0
 40
13.0
 40
14.0
 40
14.0
 40
14.0
 40
15.0
 40
15.0
 40
15.0
 40
16.0
 40
16.0
 40
16.0
 40
17.0
 40
17.0
 40
17.0
 40
18.0
 40
18.0
 40
18.0
 40
19.0
 40
19.0
 40
19.0
 40
19.0
 10
115.3028672671812
 20
-138.8969482074633
 30
0.0
 10
115.3028672671812
 20
-138.9923773524047
 30
0.0
 10
115.2818521847212
 20
-139.2101073870725
 30
0.0
 10
115.0958170285177
 20
-139.3351643531871
 30
0.0
 10
114.9835069156986
 20
-139.4092339061199
 30
0.0
 10
114.8842881657234
 20
-139.4133680207022
 30
0.0
 10
114.7995388167862
 20
-139.4175021352845
 30
0.0
 10
114.7995388167862
 20
-139.4175021352845
 30
0.0
 10
114.7995388167862
 20
-139.197360533777
 30
0.0
 10
114.7995388167862
 20
-139.197360533777
 30
0.0
 10
114.8736083697191
 20
-139.1952934764859
 30
0.0
 10
115.1082193722646
 20
-139.1849581900302
 30
0.0
 10
115.1082193722646
 20
-138.9014268315941
 30
0.0
 10
115.1082193722646
 20
-138.7639675217326
 30
0.0
 10
115.0386284434626
 20
-138.611349791736
 30
0.0
 10
114.8102186127905
 20
-138.611349791736
 30
0.0
 10
114.6937743853891
 20
-138.611349791736
 30
0.0
 10
114.645198539047
 20
-138.6495903516223
 30
0.0
 10
114.6135036605827
 20
-138.6812852300866
 30
0.0
 10
114.5394341076499
 20
-138.7553547830195
 30
0.0
 10
114.5266872543544
 20
-138.8717990104209
 30
0.0
 10
114.5266872543544
 20
-138.9265760286364
 30
0.0
 10
114.5266872543544
 20
-138.9458685633538
 30
0.0
 10
114.5287543116456
 20
-138.9816975564004
 30
0.0
 10
114.5328884262279
 20
-139.0092583202824
 30
0.0
 10
114.5328884262279
 20
-139.0092583202824
 30
0.0
 10
114.3382405313113
 20
-139.0092583202824
 30
0.0
 10
114.3382405313113
 20
-139.0092583202824
 30
0.0
 10
114.3447862127333
 20
-138.9710177603961
 30
0.0
 10
114.3468532700244
 20
-138.9289875954761
 30
0.0
 10
114.3468532700244
 20
-138.9224419140541
 30
0.0
 10
114.3468532700244
 20
-138.8569850998344
 30
0.0
 10
114.3254936780159
 20
-138.6582030903355
 30
0.0
 10
114.0888156181792
 20
-138.6582030903355
 30
0.0
 10
113.9110486911403
 20
-138.6582030903355
 30
0.0
 10
113.8559271633763
 20
-138.7891167187749
 30
0.0
 10
113.8559271633763
 20
-138.899359774303
 30
0.0
 10
113.8559271633763
 20
-139.1635985980216
 30
0.0
 10
114.0888156181792
 20
-139.1722113367347
 30
0.0
 10
114.1604736042724
 20
-139.176345451317
 30
0.0
 10
114.1604736042724
 20
-139.176345451317
 30
0.0
 10
114.1604736042724
 20
-139.3796060849468
 30
0.0
 10
114.1604736042724
 20
-139.3796060849468
 30
0.0
 10
114.0357611477063
 20
-139.3709933462337
 30
0.0
 10
113.6592122111685
 20
-139.3434325823517
 30
0.0
 10
113.6592122111685
 20
-138.8866129210075
 30
0.0
 10
113.6592122111685
 20
-138.6623372049177
 30
0.0
 10
113.7863362345743
 20
-138.4211805209503
 30
0.0
 10
114.0822699367572
 20
-138.4211805209503
 30
0.0
 10
114.2686496025092
 20
-138.4211805209503
 30
0.0
 10
114.3509873846067
 20
-138.5162651563432
 30
0.0
 10
114.4123100842442
 20
-138.6158284158669
 30
0.0
 10
114.4398708481261
 20
-138.5545057162294
 30
0.0
 10
114.5201415729325
 20
-138.3726046746083
 30
0.0
 10
114.7974717594951
 20
-138.3726046746083
 30
0.0
 10
115.1357801361466
 20
-138.3726046746083
 30
0.0
 10
115.3028672671812
 20
-138.6199625304492
 30
0.0
 10
115.3028672671812
 20
-138.8969482074633
 30
0.0
  0
HATCH
  5
A1
330
9C
100
AcDbEntity
  8
_U+30EC_U+30A4_U+30E4_U+30FC 1
 62
   179
420
  2234388
100
AcDbHatch
 10
0.0
 20
0.0
 30
0.0
210
0.0
220
0.0
230
1.0
  2
SOLID
 70
     1
 71
     0
 91
        1
 92
        1
 93
        1
 72
     4
 94
        3
 73
     0
 74
     1
 95
       62
 96
       58
 40
0.0
 40
0.0
 40
0.0
 40
0.0
 40
1.0
 40
1.0
 40
1.0
 40
2.0
 40
2.0
 40
2.0
 40
3.0
 40
3.0
 40
3.0
 40
4.0
 40
4.0
 40
4.0
 40
5.0
 40
5.0
 40
5.0
 40
6.0
 40
6.0
 40
6.0
 40
7.0
 40
7.0
 40
7.0
 40
8.0
 40
8.0
 40
8.0
 40
9.0
 40
9.0
 40
9.0
 40
10.0
 40
10.0
 40
10.0
 40
11.0
 40
11.0
 40
11.0
 40
12.0
 40
12.0
 40
12.0
 40
13.0
 40
13.0
 40
13.0
 40
14.0
 40
14.0
 40
14.0
 40
15.0
 40
15.0
 40
15.0
 40
16.0
 40
16.0
 40
16.0
 40
17.0
 40
17.0
 40
17.0
 40
18.0
 40
18.0
 40
18.0
 40
19.0
 40
19.0
 40
19.0
 40
19.0
 10
115.3028672671812
 20
-138.8969482074633
 10
115.3028672671812
 20
-138.9923773524047
 10
115.2818521847212
 20
-139.2101073870725
 10
115.0958170285177
 20
-139.3351643531871
 10
114.9835069156986
 20
-139.4092339061199
 10
114.8842881657234
 20
-139.4133680207022
 10
114.7995388167862
 20
-139.4175021352845
 10
114.7995388167862
 20
-139.4175021352845
 10
114.7995388167862
 20
-139.197360533777
 10
114.7995388167862
 20
-139.197360533777
 10
114.8736083697191
 20
-139.1952934764859
 10
115.1082193722646
 20
-139.1849581900302
 10
115.1082193722646
 20
-138.9014268315941
 10
115.1082193722646
 20
-138.7639675217326
 10
115.0386284434626
 20
-138.611349791736
 10
114.8102186127905
 20
-138.611349791736
 10
114.6937743853891
 20
-138.611349791736
 10
114.645198539047
 20
-138.6495903516223
 10
114.6135036605827
 20
-138.6812852300866
 10
114.5394341076499
 20
-138.7553547830195
 10
114.5266872543544
 20
-138.8717990104209
 10
114.5266872543544
 20
-138.9265760286364
 10
114.5266872543544
 20
-138.9458685633538
 10
114.5287543116456
 20
-138.9816975564004
 10
114.5328884262279
 20
-139.0092583202824
 10
114.5328884262279
 20
-139.0092583202824
 10
114.3382405313113
 20
-139.0092583202824
 10
114.3382405313113
 20
-139.0092583202824
 10
114.3447862127333
 20
-138.9710177603961
 10
114.3468532700244
 20
-138.9289875954761
 10
114.3468532700244
 20
-138.9224419140541
 10
114.3468532700244
 20
-138.8569850998344
 10
114.3254936780159
 20
-138.6582030903355
 10
114.0888156181792
 20
-138.6582030903355
 10
113.9110486911403
 20
-138.6582030903355
 10
113.8559271633763
 20
-138.7891167187749
 10
113.8559271633763
 20
-138.899359774303
 10
113.8559271633763
 20
-139.1635985980216
 10
114.0888156181792
 20
-139.1722113367347
 10
114.1604736042724
 20
-139.176345451317
 10
114.1604736042724
 20
-139.176345451317
 10
114.1604736042724
 20
-139.3796060849468
 10
114.1604736042724
 20
-139.3796060849468
 10
114.0357611477063
 20
-139.3709933462337
 10
113.6592122111685
 20
-139.3434325823517
 10
113.6592122111685
 20
-138.8866129210075
 10
113.6592122111685
 20
-138.6623372049177
 10
113.7863362345743
 20
-138.4211805209503
 10
114.0822699367572
 20
-138.4211805209503
 10
114.2686496025092
 20
-138.4211805209503
 10
114.3509873846067
 20
-138.5162651563432
 10
114.4123100842442
 20
-138.6158284158669
 10
114.4398708481261
 20
-138.5545057162294
 10
114.5201415729325
 20
-138.3726046746083
 10
114.7974717594951
 20
-138.3726046746083
 10
115.1357801361466
 20
-138.3726046746083
 10
115.3028672671812
 20
-138.6199625304492
 10
115.3028672671812
 20
-138.8969482074633
 97
        0
 97
        0
 75
     2
 76
     1
 98
        0
  0
ENDBLK
  5
9F
330
9C
100
AcDbEntity
  8
0
100
AcDbBlockEnd
  0
BLOCK
  5
AC
330
AA
100
AcDbEntity
  8
0
100
AcDbBlockBegin
  2
block 4
 70
     0
 10
0.0
 20
0.0
 30
0.0
  3
block 4
  1

  0
SPLINE
  5
AE
330
AA
100
AcDbEntity
  8
_U+30EC_U+30A4_U+30E4_U+30FC 1
370
     0
100
AcDbSpline
210
0.0
220
0.0
230
1.0
 70
    11
 71
     3
 72
    26
 73
    22
 74
     0
 42
0.0000000001
 43
0.0000000001
 12
1.0
 22
0.0
 32
0.0
 13
1.0
 23
0.0
 33
0.0
 40
0.0
 40
0.0
 40
0.0
 40
0.0
 40
1.0
 40
1.0
 40
1.0
 40
2.0
 40
2.0
 40
2.0
 40
3.0
 40
3.0
 40
3.0
 40
4.0
 40
4.0
 40
4.0
 40
5.0
 40
5.0
 40
5.0
 40
6.0
 40
6.0
 40
6.0
 40
7.0
 40
7.0
 40
7.0
 40
7.0
 10
115.2522243635481
 20
-133.9780408736235
 30
0.0
 10
115.2522243635481
 20
-133.9780408736235
 30
0.0
 10
115.2522243635481
 20
-134.2150634430087
 30
0.0
 10
115.2522243635481
 20
-134.2150634430087
 30
0.0
 10
114.9431992985212
 20
-134.1895697364179
 30
0.0
 10
114.4250569375396
 20
-133.9969888987924
 30
0.0
 10
113.9193169203049
 20
-133.5908121410815
 30
0.0
 10
113.9193169203049
 20
-133.5908121410815
 30
0.0
 10
113.9193169203049
 20
-134.4286593630942
 30
0.0
 10
113.9193169203049
 20
-134.4286593630942
 30
0.0
 10
113.9193169203049
 20
-134.4286593630942
 30
0.0
 10
113.7077880575106
 20
-134.4286593630942
 30
0.0
 10
113.7077880575106
 20
-134.4286593630942
 30
0.0
 10
113.7077880575106
 20
-134.4286593630942
 30
0.0
 10
113.7077880575106
 20
-133.3537895716963
 30
0.0
 10
113.7077880575106
 20
-133.3537895716963
 30
0.0
 10
113.7077880575106
 20
-133.3537895716963
 30
0.0
 10
113.9193169203049
 20
-133.3537895716963
 30
0.0
 10
113.9193169203049
 20
-133.3537895716963
 30
0.0
 10
114.2093939601629
 20
-133.6776285473098
 30
0.0
 10
114.8016058740774
 20
-133.9442789378681
 30
0.0
 10
115.2522243635481
 20
-133.9780408736235
 30
0.0
  0
HATCH
  5
AF
330
AA
100
AcDbEntity
  8
_U+30EC_U+30A4_U+30E4_U+30FC 1
 62
   179
420
  2234388
100
AcDbHatch
 10
0.0
 20
0.0
 30
0.0
210
0.0
220
0.0
230
1.0
  2
SOLID
 70
     1
 71
     0
 91
        1
 92
        1
 93
        1
 72
     4
 94
        3
 73
     0
 74
     1
 95
       26
 96
       22
 40
0.0
 40
0.0
 40
0.0
 40
0.0
 40
1.0
 40
1.0
 40
1.0
 40
2.0
 40
2.0
 40
2.0
 40
3.0
 40
3.0
 40
3.0
 40
4.0
 40
4.0
 40
4.0
 40
5.0
 40
5.0
 40
5.0
 40
6.0
 40
6.0
 40
6.0
 40
7.0
 40
7.0
 40
7.0
 40
7.0
 10
115.2522243635481
 20
-133.9780408736235
 10
115.2522243635481
 20
-133.9780408736235
 10
115.2522243635481
 20
-134.2150634430087
 10
115.2522243635481
 20
-134.2150634430087
 10
114.9431992985212
 20
-134.1895697364179
 10
114.4250569375396
 20
-133.9969888987924
 10
113.9193169203049
 20
-133.5908121410815
 10
113.9193169203049
 20
-133.5908121410815
 10
113.9193169203049
 20
-134.4286593630942
 10
113.9193169203049
 20
-134.4286593630942
 10
113.9193169203049
 20
-134.4286593630942
 10
113.7077880575106
 20
-134.4286593630942
 10
113.7077880575106
 20
-134.4286593630942
 10
113.7077880575106
 20
-134.4286593630942
 10
113.7077880575106
 20
-133.3537895716963
 10
113.7077880575106
 20
-133.3537895716963
 10
113.7077880575106
 20
-133.3537895716963
 10
113.9193169203049
 20
-133.3537895716963
 10
113.9193169203049
 20
-133.3537895716963
 10
114.2093939601629
 20
-133.6776285473098
 10
114.8016058740774
 20
-133.9442789378681
 10
115.2522243635481
 20
-133.9780408736235
 97
        0
 97
        0
 75
     2
 76
     1
 98
        0
  0
ENDBLK
  5
AD
330
AA
100
AcDbEntity
  8
0
100
AcDbBlockEnd
  0
BLOCK
  5
BE
330
BC
100
AcDbEntity
  8
0
100
AcDbBlockBegin
  2
block 5
 70
     0
 10
0.0
 20
0.0
 30
0.0
  3
block 5
  1

  0
SPLINE
  5
C0
330
BC
100
AcDbEntity
  8
_U+30EC_U+30A4_U+30E4_U+30FC 1
370
     0
100
AcDbSpline
210
0.0
220
0.0
230
1.0
 70
    11
 71
     3
 72
    26
 73
    22
 74
     0
 42
0.0000000001
 43
0.0000000001
 12
1.0
 22
0.0
 32
0.0
 13
1.0
 23
0.0
 33
0.0
 40
0.0
 40
0.0
 40
0.0
 40
0.0
 40
1.0
 40
1.0
 40
1.0
 40
2.0
 40
2.0
 40
2.0
 40
3.0
 40
3.0
 40
3.0
 40
4.0
 40
4.0
 40
4.0
 40
5.0
 40
5.0
 40
5.0
 40
6.0
 40
6.0
 40
6.0
 40
7.0
 40
7.0
 40
7.0
 40
7.0
 10
67.25170896756208
 20
-132.1045979487447
 30
0.0
 10
67.25170896756208
 20
-132.1045979487447
 30
0.0
 10
66.14738360976524
 20
-132.1045979487447
 30
0.0
 10
66.14738360976524
 20
-132.1045979487447
 30
0.0
 10
66.14738360976524
 20
-132.1045979487447
 30
0.0
 10
66.14738360976524
 20
-132.4346380962316
 30
0.0
 10
66.14738360976524
 20
-132.4346380962316
 30
0.0
 10
66.14738360976524
 20
-132.4346380962316
 30
0.0
 10
65.9992445038995
 20
-132.4346380962316
 30
0.0
 10
65.9992445038995
 20
-132.4346380962316
 30
0.0
 10
65.98460284808719
 20
-132.1025308914535
 30
0.0
 10
65.82164983163487
 20
-132.0560221024027
 30
0.0
 10
65.70744491629884
 20
-132.0263942812295
 30
0.0
 10
65.70744491629884
 20
-132.0263942812295
 30
0.0
 10
65.70744491629884
 20
-131.8803222326549
 30
0.0
 10
65.70744491629884
 20
-131.8803222326549
 30
0.0
 10
65.70744491629884
 20
-131.8803222326549
 30
0.0
 10
67.25170896756208
 20
-131.8803222326549
 30
0.0
 10
67.25170896756208
 20
-131.8803222326549
 30
0.0
 10
67.25170896756208
 20
-131.8803222326549
 30
0.0
 10
67.25170896756208
 20
-132.1045979487447
 30
0.0
 10
67.25170896756208
 20
-132.1045979487447
 30
0.0
  0
HATCH
  5
C1
330
BC
100
AcDbEntity
  8
_U+30EC_U+30A4_U+30E4_U+30FC 1
 62
   179
420
  2234388
100
AcDbHatch
 10
0.0
 20
0.0
 30
0.0
210
0.0
220
0.0
230
1.0
  2
SOLID
 70
     1
 71
     0
 91
        1
 92
        1
 93
        1
 72
     4
 94
        3
 73
     0
 74
     1
 95
       26
 96
       22
 40
0.0
 40
0.0
 40
0.0
 40
0.0
 40
1.0
 40
1.0
 40
1.0
 40
2.0
 40
2.0
 40
2.0
 40
3.0
 40
3.0
 40
3.0
 40
4.0
 40
4.0
 40
4.0
 40
5.0
 40
5.0
 40
5.0
 40
6.0
 40
6.0
 40
6.0
 40
7.0
 40
7.0
 40
7.0
 40
7.0
 10
67.25170896756208
 20
-132.1045979487447
 10
67.25170896756208
 20
-132.1045979487447
 10
66.14738360976524
 20
-132.1045979487447
 10
66.14738360976524
 20
-132.1045979487447
 10
66.14738360976524
 20
-132.1045979487447
 10
66.14738360976524
 20
-132.4346380962316
 10
66.14738360976524
 20
-132.4346380962316
 10
66.14738360976524
 20
-132.4346380962316
 10
65.9992445038995
 20
-132.4346380962316
 10
65.9992445038995
 20
-132.4346380962316
 10
65.98460284808719
 20
-132.1025308914535
 10
65.82164983163487
 20
-132.0560221024027
 10
65.70744491629884
 20
-132.0263942812295
 10
65.70744491629884
 20
-132.0263942812295
 10
65.70744491629884
 20
-131.8803222326549
 10
65.70744491629884
 20
-131.8803222326549
 10
65.70744491629884
 20
-131.8803222326549
 10
67.25170896756208
 20
-131.8803222326549
 10
67.25170896756208
 20
-131.8803222326549
 10
67.25170896756208
 20
-131.8803222326549
 10
67.25170896756208
 20
-132.1045979487447
 10
67.25170896756208
 20
-132.1045979487447
 97
        0
 97
        0
 75
     2
 76
     1
 98
        0
  0
SPLINE
  5
C2
330
BC
100
AcDbEntity
  8
_U+30EC_U+30A4_U+30E4_U+30FC 1
370
     0
100
AcDbSpline
210
0.0
220
0.0
230
1.0
 70
    11
 71
     3
 72
    29
 73
    25
 74
     0
 42
0.0000000001
 43
0.0000000001
 12
1.0
 22
0.0
 32
0.0
 13
1.0
 23
0.0
 33
0.0
 40
0.0
 40
0.0
 40
0.0
 40
0.0
 40
1.0
 40
1.0
 40
1.0
 40
2.0
 40
2.0
 40
2.0
 40
3.0
 40
3.0
 40
3.0
 40
4.0
 40
4.0
 40
4.0
 40
5.0
 40
5.0
 40
5.0
 40
6.0
 40
6.0
 40
6.0
 40
7.0
 40
7.0
 40
7.0
 40
8.0
 40
8.0
 40
8.0
 40
8.0
 10
67.30252412596951
 20
-130.8791774846413
 30
0.0
 10
67.30252412596951
 20
-131.1458278751997
 30
0.0
 10
67.16489256133379
 20
-131.399386902914
 30
0.0
 10
66.81590438867798
 20
-131.399386902914
 30
0.0
 10
66.5599337941239
 20
-131.399386902914
 30
0.0
 10
66.46467690395676
 20
-131.2577934784703
 30
0.0
 10
66.4033542043193
 20
-131.1520290470731
 30
0.0
 10
66.34409856197301
 20
-131.2767415036392
 30
0.0
 10
66.22989364663698
 20
-131.3528781138632
 30
0.0
 10
66.06917994225007
 20
-131.3528781138632
 30
0.0
 10
65.79408906775286
 20
-131.3528781138632
 30
0.0
 10
65.65869681518255
 20
-131.1540961043643
 30
0.0
 10
65.65869681518255
 20
-130.8791774846413
 30
0.0
 10
65.65869681518255
 20
-130.5956461262053
 30
0.0
 10
65.80252955169173
 20
-130.405132345871
 30
0.0
 10
66.06917994225007
 20
-130.405132345871
 30
0.0
 10
66.22989364663698
 20
-130.405132345871
 30
0.0
 10
66.34409856197301
 20
-130.4836805229346
 30
0.0
 10
66.4033542043193
 20
-130.6083929795007
 30
0.0
 10
66.45416936272674
 20
-130.5195095159812
 30
0.0
 10
66.5494262528939
 20
-130.3606906141112
 30
0.0
 10
66.81159801932141
 20
-130.3606906141112
 30
0.0
 10
67.18607989856807
 20
-130.3606906141112
 30
0.0
 10
67.30252412596951
 20
-130.640087857965
 30
0.0
 10
67.30252412596951
 20
-130.8791774846413
 30
0.0
  0
SPLINE
  5
C3
330
BC
100
AcDbEntity
  8
_U+30EC_U+30A4_U+30E4_U+30FC 1
370
     0
100
AcDbSpline
210
0.0
220
0.0
230
1.0
 70
    11
 71
     3
 72
    17
 73
    13
 74
     0
 42
0.0000000001
 43
0.0000000001
 12
1.0
 22
0.0
 32
0.0
 13
1.0
 23
0.0
 33
0.0
 40
0.0
 40
0.0
 40
0.0
 40
0.0
 40
1.0
 40
1.0
 40
1.0
 40
2.0
 40
2.0
 40
2.0
 40
3.0
 40
3.0
 40
3.0
 40
4.0
 40
4.0
 40
4.0
 40
4.0
 10
65.85127765280802
 20
-130.8791774846413
 30
0.0
 10
65.85127765280802
 20
-131.0441975583848
 30
0.0
 10
65.94636228820092
 20
-131.1286023977734
 30
0.0
 10
66.08175454077123
 20
-131.1286023977734
 30
0.0
 10
66.20457219482039
 20
-131.1286023977734
 30
0.0
 10
66.32308347951299
 20
-131.0569444116802
 30
0.0
 10
66.32308347951299
 20
-130.8791774846413
 30
0.0
 10
66.32308347951299
 20
-130.7014105576024
 30
0.0
 10
66.20457219482039
 20
-130.6294080619607
 30
0.0
 10
66.08175454077123
 20
-130.6294080619607
 30
0.0
 10
65.94636228820092
 20
-130.6294080619607
 30
0.0
 10
65.85127765280802
 20
-130.716224468189
 30
0.0
 10
65.85127765280802
 20
-130.8791774846413
 30
0.0
  0
SPLINE
  5
C4
330
BC
100
AcDbEntity
  8
_U+30EC_U+30A4_U+30E4_U+30FC 1
370
     0
100
AcDbSpline
210
0.0
220
0.0
230
1.0
 70
    11
 71
     3
 72
    17
 73
    13
 74
     0
 42
0.0000000001
 43
0.0000000001
 12
1.0
 22
0.0
 32
0.0
 13
1.0
 23
0.0
 33
0.0
 40
0.0
 40
0.0
 40
0.0
 40
0.0
 40
1.0
 40
1.0
 40
1.0
 40
2.0
 40
2.0
 40
2.0
 40
3.0
 40
3.0
 40
3.0
 40
4.0
 40
4.0
 40
4.0
 40
4.0
 10
66.51135794778189
 20
-130.8791774846413
 30
0.0
 10
66.51135794778189
 20
-131.0228379663762
 30
0.0
 10
66.59800209923591
 20
-131.1754556963728
 30
0.0
 10
66.8010904780914
 20
-131.1754556963728
 30
0.0
 10
67.00624591423802
 20
-131.1754556963728
 30
0.0
 10
67.1078762310529
 20
-131.0483316729671
 30
0.0
 10
67.1078762310529
 20
-130.8791774846413
 30
0.0
 10
67.1078762310529
 20
-130.6931423284378
 30
0.0
 10
66.985230831778
 20
-130.5828992729098
 30
0.0
 10
66.80746390473911
 20
-130.5828992729098
 30
0.0
 10
66.5852552459405
 20
-130.5828992729098
 30
0.0
 10
66.51135794778189
 20
-130.7458522893621
 30
0.0
 10
66.51135794778189
 20
-130.8791774846413
 30
0.0
  0
HATCH
  5
C5
330
BC
100
AcDbEntity
  8
_U+30EC_U+30A4_U+30E4_U+30FC 1
 62
   179
420
  2234388
100
AcDbHatch
 10
0.0
 20
0.0
 30
0.0
210
0.0
220
0.0
230
1.0
  2
SOLID
 70
     1
 71
     0
 91
        3
 92
        1
 93
        1
 72
     4
 94
        3
 73
     0
 74
     1
 95
       29
 96
       25
 40
0.0
 40
0.0
 40
0.0
 40
0.0
 40
1.0
 40
1.0
 40
1.0
 40
2.0
 40
2.0
 40
2.0
 40
3.0
 40
3.0
 40
3.0
 40
4.0
 40
4.0
 40
4.0
 40
5.0
 40
5.0
 40
5.0
 40
6.0
 40
6.0
 40
6.0
 40
7.0
 40
7.0
 40
7.0
 40
8.0
 40
8.0
 40
8.0
 40
8.0
 10
67.30252412596951
 20
-130.8791774846413
 10
67.30252412596951
 20
-131.1458278751997
 10
67.16489256133379
 20
-131.399386902914
 10
66.81590438867798
 20
-131.399386902914
 10
66.5599337941239
 20
-131.399386902914
 10
66.46467690395676
 20
-131.2577934784703
 10
66.4033542043193
 20
-131.1520290470731
 10
66.34409856197301
 20
-131.2767415036392
 10
66.22989364663698
 20
-131.3528781138632
 10
66.06917994225007
 20
-131.3528781138632
 10
65.79408906775286
 20
-131.3528781138632
 10
65.65869681518255
 20
-131.1540961043643
 10
65.65869681518255
 20
-130.8791774846413
 10
65.65869681518255
 20
-130.5956461262053
 10
65.80252955169173
 20
-130.405132345871
 10
66.06917994225007
 20
-130.405132345871
 10
66.22989364663698
 20
-130.405132345871
 10
66.34409856197301
 20
-130.4836805229346
 10
66.4033542043193
 20
-130.6083929795007
 10
66.45416936272674
 20
-130.5195095159812
 10
66.5494262528939
 20
-130.3606906141112
 10
66.81159801932141
 20
-130.3606906141112
 10
67.18607989856807
 20
-130.3606906141112
 10
67.30252412596951
 20
-130.640087857965
 10
67.30252412596951
 20
-130.8791774846413
 97
        0
 97
        0
 92
        1
 93
        1
 72
     4
 94
        3
 73
     0
 74
     1
 95
       17
 96
       13
 40
0.0
 40
0.0
 40
0.0
 40
0.0
 40
1.0
 40
1.0
 40
1.0
 40
2.0
 40
2.0
 40
2.0
 40
3.0
 40
3.0
 40
3.0
 40
4.0
 40
4.0
 40
4.0
 40
4.0
 10
65.85127765280802
 20
-130.8791774846413
 10
65.85127765280802
 20
-131.0441975583848
 10
65.94636228820092
 20
-131.1286023977734
 10
66.08175454077123
 20
-131.1286023977734
 10
66.20457219482039
 20
-131.1286023977734
 10
66.32308347951299
 20
-131.0569444116802
 10
66.32308347951299
 20
-130.8791774846413
 10
66.32308347951299
 20
-130.7014105576024
 10
66.20457219482039
 20
-130.6294080619607
 10
66.08175454077123
 20
-130.6294080619607
 10
65.94636228820092
 20
-130.6294080619607
 10
65.85127765280802
 20
-130.716224468189
 10
65.85127765280802
 20
-130.8791774846413
 97
        0
 97
        0
 92
        1
 93
        1
 72
     4
 94
        3
 73
     0
 74
     1
 95
       17
 96
       13
 40
0.0
 40
0.0
 40
0.0
 40
0.0
 40
1.0
 40
1.0
 40
1.0
 40
2.0
 40
2.0
 40
2.0
 40
3.0
 40
3.0
 40
3.0
 40
4.0
 40
4.0
 40
4.0
 40
4.0
 10
66.51135794778189
 20
-130.8791774846413
 10
66.51135794778189
 20
-131.0228379663762
 10
66.59800209923591
 20
-131.1754556963728
 10
66.8010904780914
 20
-131.1754556963728
 10
67.00624591423802
 20
-131.1754556963728
 10
67.1078762310529
 20
-131.0483316729671
 10
67.1078762310529
 20
-130.8791774846413
 10
67.1078762310529
 20
-130.6931423284378
 10
66.985230831778
 20
-130.5828992729098
 10
66.80746390473911
 20
-130.5828992729098
 10
66.5852552459405
 20
-130.5828992729098
 10
66.51135794778189
 20
-130.7458522893621
 10
66.51135794778189
 20
-130.8791774846413
 97
        0
 97
        0
 75
     2
 76
     1
 98
        0
  0
ENDBLK
  5
BF
330
BC
100
AcDbEntity
  8
0
100
AcDbBlockEnd
  0
BLOCK
  5
D4
330
D2
100
AcDbEntity
  8
0
100
AcDbBlockBegin
  2
block 6
 70
     0
 10
0.0
 20
0.0
 30
0.0
  3
block 6
  1

  0
SPLINE
  5
D6
330
D2
100
AcDbEntity
  8
_U+30EC_U+30A4_U+30E4_U+30FC 1
370
     0
100
AcDbSpline
210
0.0
220
0.0
230
1.0
 70
    11
 71
     3
 72
    62
 73
    58
 74
     0
 42
0.0000000001
 43
0.0000000001
 12
1.0
 22
0.0
 32
0.0
 13
1.0
 23
0.0
 33
0.0
 40
0.0
 40
0.0
 40
0.0
 40
0.0
 40
1.0
 40
1.0
 40
1.0
 40
2.0
 40
2.0
 40
2.0
 40
3.0
 40
3.0
 40
3.0
 40
4.0
 40
4.0
 40
4.0
 40
5.0
 40
5.0
 40
5.0
 40
6.0
 40
6.0
 40
6.0
 40
7.0
 40
7.0
 40
7.0
 40
8.0
 40
8.0
 40
8.0
 40
9.0
 40
9.0
 40
9.0
 40
10.0
 40
10.0
 40
10.0
 40
11.0
 40
11.0
 40
11.0
 40
12.0
 40
12.0
 40
12.0
 40
13.0
 40
13.0
 40
13.0
 40
14.0
 40
14.0
 40
14.0
 40
15.0
 40
15.0
 40
15.0
 40
16.0
 40
16.0
 40
16.0
 40
17.0
 40
17.0
 40
17.0
 40
18.0
 40
18.0
 40
18.0
 40
19.0
 40
19.0
 40
19.0
 40
19.0
 10
73.34194876638674
 20
-117.8456922448441
 30
0.0
 10
73.24669187621959
 20
-117.8456922448441
 30
0.0
 10
73.02878958677753
 20
-117.8245049076098
 30
0.0
 10
72.90407713021149
 20
-117.6382974966321
 30
0.0
 10
72.83000757727861
 20
-117.5261596385872
 30
0.0
 10
72.82570120792205
 20
-117.4267686338378
 30
0.0
 10
72.82156709333975
 20
-117.3421915396749
 30
0.0
 10
72.82156709333975
 20
-117.3421915396749
 30
0.0
 10
73.04153644007295
 20
-117.3421915396749
 30
0.0
 10
73.04153644007295
 20
-117.3421915396749
 30
0.0
 10
73.0436034973641
 20
-117.4162610926077
 30
0.0
 10
73.05428329336837
 20
-117.6510443499275
 30
0.0
 10
73.33781465180444
 20
-117.6510443499275
 30
0.0
 10
73.4752739616659
 20
-117.6510443499275
 30
0.0
 10
73.62754718211394
 20
-117.5812811663512
 30
0.0
 10
73.62754718211394
 20
-117.3526990809049
 30
0.0
 10
73.62754718211394
 20
-117.2364271082777
 30
0.0
 10
73.58947887700194
 20
-117.1876790071614
 30
0.0
 10
73.55778399853764
 20
-117.1559841286971
 30
0.0
 10
73.48371444560478
 20
-117.0819145757642
 30
0.0
 10
73.36727021820333
 20
-117.0693399772431
 30
0.0
 10
73.31232094521359
 20
-117.0693399772431
 30
0.0
 10
73.29337292004472
 20
-117.0693399772431
 30
0.0
 10
73.25737167222385
 20
-117.0714070345342
 30
0.0
 10
73.22981090834186
 20
-117.0755411491165
 30
0.0
 10
73.22981090834186
 20
-117.0755411491165
 30
0.0
 10
73.22981090834186
 20
-116.8810655089742
 30
0.0
 10
73.22981090834186
 20
-116.8810655089742
 30
0.0
 10
73.26787921345387
 20
-116.8872666808476
 30
0.0
 10
73.31025388792244
 20
-116.889505992913
 30
0.0
 10
73.31662731457016
 20
-116.889505992913
 30
0.0
 10
73.3820841287899
 20
-116.889505992913
 30
0.0
 10
73.58103839306308
 20
-116.8683186556788
 30
0.0
 10
73.58103839306308
 20
-116.6312960862936
 30
0.0
 10
73.58103839306308
 20
-116.4537014140289
 30
0.0
 10
73.44978025507505
 20
-116.3985798862649
 30
0.0
 10
73.3398817090956
 20
-116.3985798862649
 30
0.0
 10
73.07547063060267
 20
-116.3985798862649
 30
0.0
 10
73.0670301466638
 20
-116.6312960862936
 30
0.0
 10
73.06272377730724
 20
-116.7032985819353
 30
0.0
 10
73.06272377730724
 20
-116.7032985819353
 30
0.0
 10
72.85963539845176
 20
-116.7032985819353
 30
0.0
 10
72.85963539845176
 20
-116.7032985819353
 30
0.0
 10
72.86807588239063
 20
-116.578413870595
 30
0.0
 10
72.89563664627262
 20
-116.2018649340572
 30
0.0
 10
73.35245630761675
 20
-116.2018649340572
 30
0.0
 10
73.57673202370651
 20
-116.2018649340572
 30
0.0
 10
73.817888707674
 20
-116.3288167026886
 30
0.0
 10
73.817888707674
 20
-116.6249226596459
 30
0.0
 10
73.817888707674
 20
-116.8111300706236
 30
0.0
 10
73.72280407228111
 20
-116.8936401074953
 30
0.0
 10
73.62324081275739
 20
-116.9549628071328
 30
0.0
 10
73.6847357671691
 20
-116.9825235710148
 30
0.0
 10
73.86663680879029
 20
-117.0629665505954
 30
0.0
 10
73.86663680879029
 20
-117.3401244823837
 30
0.0
 10
73.86663680879029
 20
-117.6786051138095
 30
0.0
 10
73.61910669817509
 20
-117.8456922448441
 30
0.0
 10
73.34194876638674
 20
-117.8456922448441
 30
0.0
  0
HATCH
  5
D7
330
D2
100
AcDbEntity
  8
_U+30EC_U+30A4_U+30E4_U+30FC 1
 62
   179
420
  2234388
100
AcDbHatch
 10
0.0
 20
0.0
 30
0.0
210
0.0
220
0.0
230
1.0
  2
SOLID
 70
     1
 71
     0
 91
        1
 92
        1
 93
        1
 72
     4
 94
        3
 73
     0
 74
     1
 95
       62
 96
       58
 40
0.0
 40
0.0
 40
0.0
 40
0.0
 40
1.0
 40
1.0
 40
1.0
 40
2.0
 40
2.0
 40
2.0
 40
3.0
 40
3.0
 40
3.0
 40
4.0
 40
4.0
 40
4.0
 40
5.0
 40
5.0
 40
5.0
 40
6.0
 40
6.0
 40
6.0
 40
7.0
 40
7.0
 40
7.0
 40
8.0
 40
8.0
 40
8.0
 40
9.0
 40
9.0
 40
9.0
 40
10.0
 40
10.0
 40
10.0
 40
11.0
 40
11.0
 40
11.0
 40
12.0
 40
12.0
 40
12.0
 40
13.0
 40
13.0
 40
13.0
 40
14.0
 40
14.0
 40
14.0
 40
15.0
 40
15.0
 40
15.0
 40
16.0
 40
16.0
 40
16.0
 40
17.0
 40
17.0
 40
17.0
 40
18.0
 40
18.0
 40
18.0
 40
19.0
 40
19.0
 40
19.0
 40
19.0
 10
73.34194876638674
 20
-117.8456922448441
 10
73.24669187621959
 20
-117.8456922448441
 10
73.02878958677753
 20
-117.8245049076098
 10
72.90407713021149
 20
-117.6382974966321
 10
72.83000757727861
 20
-117.5261596385872
 10
72.82570120792205
 20
-117.4267686338378
 10
72.82156709333975
 20
-117.3421915396749
 10
72.82156709333975
 20
-117.3421915396749
 10
73.04153644007295
 20
-117.3421915396749
 10
73.04153644007295
 20
-117.3421915396749
 10
73.0436034973641
 20
-117.4162610926077
 10
73.05428329336837
 20
-117.6510443499275
 10
73.33781465180444
 20
-117.6510443499275
 10
73.4752739616659
 20
-117.6510443499275
 10
73.62754718211394
 20
-117.5812811663512
 10
73.62754718211394
 20
-117.3526990809049
 10
73.62754718211394
 20
-117.2364271082777
 10
73.58947887700194
 20
-117.1876790071614
 10
73.55778399853764
 20
-117.1559841286971
 10
73.48371444560478
 20
-117.0819145757642
 10
73.36727021820333
 20
-117.0693399772431
 10
73.31232094521359
 20
-117.0693399772431
 10
73.29337292004472
 20
-117.0693399772431
 10
73.25737167222385
 20
-117.0714070345342
 10
73.22981090834186
 20
-117.0755411491165
 10
73.22981090834186
 20
-117.0755411491165
 10
73.22981090834186
 20
-116.8810655089742
 10
73.22981090834186
 20
-116.8810655089742
 10
73.26787921345387
 20
-116.8872666808476
 10
73.31025388792244
 20
-116.889505992913
 10
73.31662731457016
 20
-116.889505992913
 10
73.3820841287899
 20
-116.889505992913
 10
73.58103839306308
 20
-116.8683186556788
 10
73.58103839306308
 20
-116.6312960862936
 10
73.58103839306308
 20
-116.4537014140289
 10
73.44978025507505
 20
-116.3985798862649
 10
73.3398817090956
 20
-116.3985798862649
 10
73.07547063060267
 20
-116.3985798862649
 10
73.0670301466638
 20
-116.6312960862936
 10
73.06272377730724
 20
-116.7032985819353
 10
73.06272377730724
 20
-116.7032985819353
 10
72.85963539845176
 20
-116.7032985819353
 10
72.85963539845176
 20
-116.7032985819353
 10
72.86807588239063
 20
-116.578413870595
 10
72.89563664627262
 20
-116.2018649340572
 10
73.35245630761675
 20
-116.2018649340572
 10
73.57673202370651
 20
-116.2018649340572
 10
73.817888707674
 20
-116.3288167026886
 10
73.817888707674
 20
-116.6249226596459
 10
73.817888707674
 20
-116.8111300706236
 10
73.72280407228111
 20
-116.8936401074953
 10
73.62324081275739
 20
-116.9549628071328
 10
73.6847357671691
 20
-116.9825235710148
 10
73.86663680879029
 20
-117.0629665505954
 10
73.86663680879029
 20
-117.3401244823837
 10
73.86663680879029
 20
-117.6786051138095
 10
73.61910669817509
 20
-117.8456922448441
 10
73.34194876638674
 20
-117.8456922448441
 97
        0
 97
        0
 75
     2
 76
     1
 98
        0
  0
ENDBLK
  5
D5
330
D2
100
AcDbEntity
  8
0
100
AcDbBlockEnd
  0
BLOCK
  5
E6
330
E4
100
AcDbEntity
  8
0
100
AcDbBlockBegin
  2
block 7
 70
     0
 10
0.0
 20
0.0
 30
0.0
  3
block 7
  1

  0
POLYLINE
  5
E8
330
E4
100
AcDbEntity
  8
_U+30EC_U+30A4_U+30E4_U+30FC 1
370
     0
100
AcDb2dPolyline
 66
     1
 10
0.0
 20
0.0
 30
0.0
  0
VERTEX
  5
E9
330
E8
100
AcDbEntity
  8
_U+30EC_U+30A4_U+30E4_U+30FC 1
370
     0
100
AcDbVertex
100
AcDb2dVertex
 10
91.51551647017668
 20
-113.448200112697
 30
0.0
  0
VERTEX
  5
EA
330
E8
100
AcDbEntity
  8
_U+30EC_U+30A4_U+30E4_U+30FC 1
370
     0
100
AcDbVertex
100
AcDb2dVertex
 10
91.51551647017668
 20
-113.7951212280616
 30
0.0
  0
VERTEX
  5
EB
330
E8
100
AcDbEntity
  8
_U+30EC_U+30A4_U+30E4_U+30FC 1
370
     0
100
AcDbVertex
100
AcDb2dVertex
 10
91.29795869028315
 20
-113.7951212280616
 30
0.0
  0
VERTEX
  5
EC
330
E8
100
AcDbEntity
  8
_U+30EC_U+30A4_U+30E4_U+30FC 1
370
     0
100
AcDbVertex
100
AcDb2dVertex
 10
91.29795869028315
 20
-113.448200112697
 30
0.0
  0
VERTEX
  5
ED
330
E8
100
AcDbEntity
  8
_U+30EC_U+30A4_U+30E4_U+30FC 1
370
     0
100
AcDbVertex
100
AcDb2dVertex
 10
90.64201250989159
 20
-113.448200112697
 30
0.0
  0
VERTEX
  5
EE
330
E8
100
AcDbEntity
  8
_U+30EC_U+30A4_U+30E4_U+30FC 1
370
     0
100
AcDbVertex
100
AcDb2dVertex
 10
90.64201250989159
 20
-113.2239243966072
 30
0.0
  0
VERTEX
  5
EF
330
E8
100
AcDbEntity
  8
_U+30EC_U+30A4_U+30E4_U+30FC 1
370
     0
100
AcDbVertex
100
AcDb2dVertex
 10
91.32104083003432
 20
-112.2508571767984
 30
0.0
  0
VERTEX
  5
F0
330
E8
100
AcDbEntity
  8
_U+30EC_U+30A4_U+30E4_U+30FC 1
370
     0
100
AcDbVertex
100
AcDb2dVertex
 10
91.51551647017668
 20
-112.2508571767984
 30
0.0
  0
VERTEX
  5
F1
330
E8
100
AcDbEntity
  8
_U+30EC_U+30A4_U+30E4_U+30FC 1
370
     0
100
AcDbVertex
100
AcDb2dVertex
 10
91.51551647017668
 20
-113.2492458484238
 30
0.0
  0
VERTEX
  5
F2
330
E8
100
AcDbEntity
  8
_U+30EC_U+30A4_U+30E4_U+30FC 1
370
     0
100
AcDbVertex
100
AcDb2dVertex
 10
91.72291121838872
 20
-113.2492458484238
 30
0.0
  0
VERTEX
  5
F3
330
E8
100
AcDbEntity
  8
_U+30EC_U+30A4_U+30E4_U+30FC 1
370
     0
100
AcDbVertex
100
AcDb2dVertex
 10
91.72291121838872
 20
-113.448200112697
 30
0.0
  0
VERTEX
  5
F4
330
E8
100
AcDbEntity
  8
_U+30EC_U+30A4_U+30E4_U+30FC 1
370
     0
100
AcDbVertex
100
AcDb2dVertex
 10
91.51551647017668
 20
-113.448200112697
 30
0.0
  0
SEQEND
  5
F5
330
E8
100
AcDbEntity
  8
_U+30EC_U+30A4_U+30E4_U+30FC 1
370
     0
  0
POLYLINE
  5
F6
330
E4
100
AcDbEntity
  8
_U+30EC_U+30A4_U+30E4_U+30FC 1
370
     0
100
AcDb2dPolyline
 66
     1
 10
0.0
 20
0.0
 30
0.0
  0
VERTEX
  5
F7
330
F6
100
AcDbEntity
  8
_U+30EC_U+30A4_U+30E4_U+30FC 1
370
     0
100
AcDbVertex
100
AcDb2dVertex
 10
91.29795869028315
 20
-112.5934719228065
 30
0.0
  0
VERTEX
  5
F8
330
F6
100
AcDbEntity
  8
_U+30EC_U+30A4_U+30E4_U+30FC 1
370
     0
100
AcDbVertex
100
AcDb2dVertex
 10
90.8407945193905
 20
-113.2492458484238
 30
0.0
  0
VERTEX
  5
F9
330
F6
100
AcDbEntity
  8
_U+30EC_U+30A4_U+30E4_U+30FC 1
370
     0
100
AcDbVertex
100
AcDb2dVertex
 10
91.29795869028315
 20
-113.2492458484238
 30
0.0
  0
VERTEX
  5
FA
330
F6
100
AcDbEntity
  8
_U+30EC_U+30A4_U+30E4_U+30FC 1
370
     0
100
AcDbVertex
100
AcDb2dVertex
 10
91.29795869028315
 20
-112.5934719228065
 30
0.0
  0
SEQEND
  5
FB
330
F6
100
AcDbEntity
  8
_U+30EC_U+30A4_U+30E4_U+30FC 1
370
     0
  0
HATCH
  5
FC
330
E4
100
AcDbEntity
  8
_U+30EC_U+30A4_U+30E4_U+30FC 1
 62
   179
420
  2234388
100
AcDbHatch
 10
0.0
 20
0.0
 30
0.0
210
0.0
220
0.0
230
1.0
  2
SOLID
 70
     1
 71
     0
 91
        2
 92
        1
 93
       11
 72
     1
 10
91.51551647017668
 20
-113.448200112697
 11
91.51551647017668
 21
-113.7951212280616
 72
     1
 10
91.51551647017668
 20
-113.7951212280616
 11
91.29795869028315
 21
-113.7951212280616
 72
     1
 10
91.29795869028315
 20
-113.7951212280616
 11
91.29795869028315
 21
-113.448200112697
 72
     1
 10
91.29795869028315
 20
-113.448200112697
 11
90.64201250989159
 21
-113.448200112697
 72
     1
 10
90.64201250989159
 20
-113.448200112697
 11
90.64201250989159
 21
-113.2239243966072
 72
     1
 10
90.64201250989159
 20
-113.2239243966072
 11
91.32104083003432
 21
-112.2508571767984
 72
     1
 10
91.32104083003432
 20
-112.2508571767984
 11
91.51551647017668
 21
-112.2508571767984
 72
     1
 10
91.51551647017668
 20
-112.2508571767984
 11
91.51551647017668
 21
-113.2492458484238
 72
     1
 10
91.51551647017668
 20
-113.2492458484238
 11
91.72291121838872
 21
-113.2492458484238
 72
     1
 10
91.72291121838872
 20
-113.2492458484238
 11
91.72291121838872
 21
-113.448200112697
 72
     1
 10
91.72291121838872
 20
-113.448200112697
 11
91.51551647017668
 21
-113.448200112697
 97
        0
 92
        1
 93
        3
 72
     1
 10
91.29795869028315
 20
-112.5934719228065
 11
90.8407945193905
 21
-113.2492458484238
 72
     1
 10
90.8407945193905
 20
-113.2492458484238
 11
91.29795869028315
 21
-113.2492458484238
 72
     1
 10
91.29795869028315
 20
-113.2492458484238
 11
91.29795869028315
 21
-112.5934719228065
 97
        0
 75
     2
 76
     1
 98
        0
  0
SPLINE
  5
FD
330
E4
100
AcDbEntity
  8
_U+30EC_U+30A4_U+30E4_U+30FC 1
370
     0
100
AcDbSpline
210
0.0
220
0.0
230
1.0
 70
    11
 71
     3
 72
    29
 73
    25
 74
     0
 42
0.0000000001
 43
0.0000000001
 12
1.0
 22
0.0
 32
0.0
 13
1.0
 23
0.0
 33
0.0
 40
0.0
 40
0.0
 40
0.0
 40
0.0
 40
1.0
 40
1.0
 40
1.0
 40
2.0
 40
2.0
 40
2.0
 40
3.0
 40
3.0
 40
3.0
 40
4.0
 40
4.0
 40
4.0
 40
5.0
 40
5.0
 40
5.0
 40
6.0
 40
6.0
 40
6.0
 40
7.0
 40
7.0
 40
7.0
 40
8.0
 40
8.0
 40
8.0
 40
8.0
 10
92.7581624117063
 20
-113.6173543010227
 30
0.0
 10
92.64998641346945
 20
-113.8268161065259
 30
0.0
 10
92.47669811056139
 20
-113.8459363864691
 30
0.0
 10
92.36025388315994
 20
-113.8459363864691
 30
0.0
 10
92.19936792399878
 20
-113.8459363864691
 30
0.0
 10
92.05777449955501
 20
-113.7994275974182
 30
0.0
 10
91.96268986416212
 20
-113.6173543010227
 30
0.0
 10
91.8589924900561
 20
-113.4228786608804
 30
0.0
 10
91.83969995533869
 20
-113.1858560914952
 30
0.0
 10
91.83969995533869
 20
-113.0229030750429
 30
0.0
 10
91.83969995533869
 20
-112.8790703385337
 30
0.0
 10
91.85692543276494
 20
-112.6274061133362
 30
0.0
 10
91.96268986416212
 20
-112.428451849063
 30
0.0
 10
92.07052135285043
 20
-112.2253634702076
 30
0.0
 10
92.2314073120116
 20
-112.2021090756821
 30
0.0
 10
92.36025388315994
 20
-112.2021090756821
 30
0.0
 10
92.51907278502996
 20
-112.2021090756821
 30
0.0
 10
92.66273326676487
 20
-112.2465508074418
 30
0.0
 10
92.7581624117063
 20
-112.428451849063
 30
0.0
 10
92.85738116168149
 20
-112.6210326866885
 30
0.0
 10
92.8808078109812
 20
-112.8494425173606
 30
0.0
 10
92.8808078109812
 20
-113.0229030750429
 30
0.0
 10
92.8808078109812
 20
-113.1942965754341
 30
0.0
 10
92.85944821897264
 20
-113.4249457181715
 30
0.0
 10
92.7581624117063
 20
-113.6173543010227
 30
0.0
  0
SPLINE
  5
FE
330
E4
100
AcDbEntity
  8
_U+30EC_U+30A4_U+30E4_U+30FC 1
370
     0
100
AcDbSpline
210
0.0
220
0.0
230
1.0
 70
    11
 71
     3
 72
    17
 73
    13
 74
     0
 42
0.0000000001
 43
0.0000000001
 12
1.0
 22
0.0
 32
0.0
 13
1.0
 23
0.0
 33
0.0
 40
0.0
 40
0.0
 40
0.0
 40
0.0
 40
1.0
 40
1.0
 40
1.0
 40
2.0
 40
2.0
 40
2.0
 40
3.0
 40
3.0
 40
3.0
 40
4.0
 40
4.0
 40
4.0
 40
4.0
 10
92.36025388315994
 20
-112.3946899133076
 30
0.0
 10
92.11048446047933
 20
-112.3946899133076
 30
0.0
 10
92.06397567142845
 20
-112.6780490169694
 30
0.0
 10
92.06397567142845
 20
-113.0229030750429
 30
0.0
 10
92.06397567142845
 20
-113.3424356812998
 30
0.0
 10
92.10014917402358
 20
-113.6512884915525
 30
0.0
 10
92.36025388315994
 20
-113.6512884915525
 30
0.0
 10
92.6079562485494
 20
-113.6512884915525
 30
0.0
 10
92.65653209489143
 20
-113.3698241904076
 30
0.0
 10
92.65653209489143
 20
-113.0229030750429
 30
0.0
 10
92.65653209489143
 20
-112.7035427235602
 30
0.0
 10
92.61829153500516
 20
-112.3946899133076
 30
0.0
 10
92.36025388315994
 20
-112.3946899133076
 30
0.0
  0
HATCH
  5
FF
330
E4
100
AcDbEntity
  8
_U+30EC_U+30A4_U+30E4_U+30FC 1
 62
   179
420
  2234388
100
AcDbHatch
 10
0.0
 20
0.0
 30
0.0
210
0.0
220
0.0
230
1.0
  2
SOLID
 70
     1
 71
     0
 91
        2
 92
        1
 93
        1
 72
     4
 94
        3
 73
     0
 74
     1
 95
       29
 96
       25
 40
0.0
 40
0.0
 40
0.0
 40
0.0
 40
1.0
 40
1.0
 40
1.0
 40
2.0
 40
2.0
 40
2.0
 40
3.0
 40
3.0
 40
3.0
 40
4.0
 40
4.0
 40
4.0
 40
5.0
 40
5.0
 40
5.0
 40
6.0
 40
6.0
 40
6.0
 40
7.0
 40
7.0
 40
7.0
 40
8.0
 40
8.0
 40
8.0
 40
8.0
 10
92.7581624117063
 20
-113.6173543010227
 10
92.64998641346945
 20
-113.8268161065259
 10
92.47669811056139
 20
-113.8459363864691
 10
92.36025388315994
 20
-113.8459363864691
 10
92.19936792399878
 20
-113.8459363864691
 10
92.05777449955501
 20
-113.7994275974182
 10
91.96268986416212
 20
-113.6173543010227
 10
91.8589924900561
 20
-113.4228786608804
 10
91.83969995533869
 20
-113.1858560914952
 10
91.83969995533869
 20
-113.0229030750429
 10
91.83969995533869
 20
-112.8790703385337
 10
91.85692543276494
 20
-112.6274061133362
 10
91.96268986416212
 20
-112.428451849063
 10
92.07052135285043
 20
-112.2253634702076
 10
92.2314073120116
 20
-112.2021090756821
 10
92.36025388315994
 20
-112.2021090756821
 10
92.51907278502996
 20
-112.2021090756821
 10
92.66273326676487
 20
-112.2465508074418
 10
92.7581624117063
 20
-112.428451849063
 10
92.85738116168149
 20
-112.6210326866885
 10
92.8808078109812
 20
-112.8494425173606
 10
92.8808078109812
 20
-113.0229030750429
 10
92.8808078109812
 20
-113.1942965754341
 10
92.85944821897264
 20
-113.4249457181715
 10
92.7581624117063
 20
-113.6173543010227
 97
        0
 97
        0
 92
        1
 93
        1
 72
     4
 94
        3
 73
     0
 74
     1
 95
       17
 96
       13
 40
0.0
 40
0.0
 40
0.0
 40
0.0
 40
1.0
 40
1.0
 40
1.0
 40
2.0
 40
2.0
 40
2.0
 40
3.0
 40
3.0
 40
3.0
 40
4.0
 40
4.0
 40
4.0
 40
4.0
 10
92.36025388315994
 20
-112.3946899133076
 10
92.11048446047933
 20
-112.3946899133076
 10
92.06397567142845
 20
-112.6780490169694
 10
92.06397567142845
 20
-113.0229030750429
 10
92.06397567142845
 20
-113.3424356812998
 10
92.10014917402358
 20
-113.6512884915525
 10
92.36025388315994
 20
-113.6512884915525
 10
92.6079562485494
 20
-113.6512884915525
 10
92.65653209489143
 20
-113.3698241904076
 10
92.65653209489143
 20
-113.0229030750429
 10
92.65653209489143
 20
-112.7035427235602
 10
92.61829153500516
 20
-112.3946899133076
 10
92.36025388315994
 20
-112.3946899133076
 97
        0
 97
        0
 75
     2
 76
     1
 98
        0
  0
ENDBLK
  5
E7
330
E4
100
AcDbEntity
  8
0
100
AcDbBlockEnd
  0
BLOCK
  5
10E
330
10C
100
AcDbEntity
  8
0
100
AcDbBlockBegin
  2
block 8
 70
     0
 10
0.0
 20
0.0
 30
0.0
  3
block 8
  1

  0
SPLINE
  5
110
330
10C
100
AcDbEntity
  8
_U+30EC_U+30A4_U+30E4_U+30FC 1
370
     0
100
AcDbSpline
210
0.0
220
0.0
230
1.0
 70
    11
 71
     3
 72
    26
 73
    22
 74
     0
 42
0.0000000001
 43
0.0000000001
 12
1.0
 22
0.0
 32
0.0
 13
1.0
 23
0.0
 33
0.0
 40
0.0
 40
0.0
 40
0.0
 40
0.0
 40
1.0
 40
1.0
 40
1.0
 40
2.0
 40
2.0
 40
2.0
 40
3.0
 40
3.0
 40
3.0
 40
4.0
 40
4.0
 40
4.0
 40
5.0
 40
5.0
 40
5.0
 40
6.0
 40
6.0
 40
6.0
 40
7.0
 40
7.0
 40
7.0
 40
7.0
 10
76.1352321858273
 20
-143.794840458843
 30
0.0
 10
76.1352321858273
 20
-143.794840458843
 30
0.0
 10
76.1352321858273
 20
-142.6906873558204
 30
0.0
 10
76.1352321858273
 20
-142.6906873558204
 30
0.0
 10
76.1352321858273
 20
-142.6906873558204
 30
0.0
 10
75.80519203834037
 20
-142.6906873558204
 30
0.0
 10
75.80519203834037
 20
-142.6906873558204
 30
0.0
 10
75.80519203834037
 20
-142.6906873558204
 30
0.0
 10
75.80519203834037
 20
-142.5425482499546
 30
0.0
 10
75.80519203834037
 20
-142.5425482499546
 30
0.0
 10
76.13729924311846
 20
-142.5277343393681
 30
0.0
 10
76.18380803216932
 20
-142.3647813229157
 30
0.0
 10
76.21343585334247
 20
-142.2504041528055
 30
0.0
 10
76.21343585334247
 20
-142.2504041528055
 30
0.0
 10
76.35950790191707
 20
-142.2504041528055
 30
0.0
 10
76.35950790191707
 20
-142.2504041528055
 30
0.0
 10
76.35950790191707
 20
-142.2504041528055
 30
0.0
 10
76.35950790191707
 20
-143.794840458843
 30
0.0
 10
76.35950790191707
 20
-143.794840458843
 30
0.0
 10
76.35950790191707
 20
-143.794840458843
 30
0.0
 10
76.1352321858273
 20
-143.794840458843
 30
0.0
 10
76.1352321858273
 20
-143.794840458843
 30
0.0
  0
HATCH
  5
111
330
10C
100
AcDbEntity
  8
_U+30EC_U+30A4_U+30E4_U+30FC 1
 62
   179
420
  2234388
100
AcDbHatch
 10
0.0
 20
0.0
 30
0.0
210
0.0
220
0.0
230
1.0
  2
SOLID
 70
     1
 71
     0
 91
        1
 92
        1
 93
        1
 72
     4
 94
        3
 73
     0
 74
     1
 95
       26
 96
       22
 40
0.0
 40
0.0
 40
0.0
 40
0.0
 40
1.0
 40
1.0
 40
1.0
 40
2.0
 40
2.0
 40
2.0
 40
3.0
 40
3.0
 40
3.0
 40
4.0
 40
4.0
 40
4.0
 40
5.0
 40
5.0
 40
5.0
 40
6.0
 40
6.0
 40
6.0
 40
7.0
 40
7.0
 40
7.0
 40
7.0
 10
76.1352321858273
 20
-143.794840458843
 10
76.1352321858273
 20
-143.794840458843
 10
76.1352321858273
 20
-142.6906873558204
 10
76.1352321858273
 20
-142.6906873558204
 10
76.1352321858273
 20
-142.6906873558204
 10
75.80519203834037
 20
-142.6906873558204
 10
75.80519203834037
 20
-142.6906873558204
 10
75.80519203834037
 20
-142.6906873558204
 10
75.80519203834037
 20
-142.5425482499546
 10
75.80519203834037
 20
-142.5425482499546
 10
76.13729924311846
 20
-142.5277343393681
 10
76.18380803216932
 20
-142.3647813229157
 10
76.21343585334247
 20
-142.2504041528055
 10
76.21343585334247
 20
-142.2504041528055
 10
76.35950790191707
 20
-142.2504041528055
 10
76.35950790191707
 20
-142.2504041528055
 10
76.35950790191707
 20
-142.2504041528055
 10
76.35950790191707
 20
-143.794840458843
 10
76.35950790191707
 20
-143.794840458843
 10
76.35950790191707
 20
-143.794840458843
 10
76.1352321858273
 20
-143.794840458843
 10
76.1352321858273
 20
-143.794840458843
 97
        0
 97
        0
 75
     2
 76
     1
 98
        0
  0
SPLINE
  5
112
330
10C
100
AcDbEntity
  8
_U+30EC_U+30A4_U+30E4_U+30FC 1
370
     0
100
AcDbSpline
210
0.0
220
0.0
230
1.0
 70
    11
 71
     3
 72
    29
 73
    25
 74
     0
 42
0.0000000001
 43
0.0000000001
 12
1.0
 22
0.0
 32
0.0
 13
1.0
 23
0.0
 33
0.0
 40
0.0
 40
0.0
 40
0.0
 40
0.0
 40
1.0
 40
1.0
 40
1.0
 40
2.0
 40
2.0
 40
2.0
 40
3.0
 40
3.0
 40
3.0
 40
4.0
 40
4.0
 40
4.0
 40
5.0
 40
5.0
 40
5.0
 40
6.0
 40
6.0
 40
6.0
 40
7.0
 40
7.0
 40
7.0
 40
8.0
 40
8.0
 40
8.0
 40
8.0
 10
77.75838892370277
 20
-143.6170735318041
 30
0.0
 10
77.65055743501445
 20
-143.8265353373073
 30
0.0
 10
77.47709687733212
 20
-143.8454833624761
 30
0.0
 10
77.36065264993067
 20
-143.8454833624761
 30
0.0
 10
77.19993894554376
 20
-143.8454833624761
 30
0.0
 10
77.05817326632574
 20
-143.7989745734253
 30
0.0
 10
76.96291637615857
 20
-143.6170735318041
 30
0.0
 10
76.85939125682683
 20
-143.4224256368875
 30
0.0
 10
76.84027097688369
 20
-143.1857475770508
 30
0.0
 10
76.84027097688369
 20
-143.0227945605985
 30
0.0
 10
76.84027097688369
 20
-142.878789569315
 30
0.0
 10
76.85715194476141
 20
-142.6269530893433
 30
0.0
 10
76.96291637615857
 20
-142.4281710798444
 30
0.0
 10
77.07092011962116
 20
-142.2252549557631
 30
0.0
 10
77.23163382400807
 20
-142.2018283064634
 30
0.0
 10
77.36065264993067
 20
-142.2018283064634
 30
0.0
 10
77.51929929702644
 20
-142.2018283064634
 30
0.0
 10
77.6631320335356
 20
-142.2462700382232
 30
0.0
 10
77.75838892370277
 20
-142.4281710798444
 30
0.0
 10
77.85777992845223
 20
-142.6207519174698
 30
0.0
 10
77.88103432297765
 20
-142.8491617481419
 30
0.0
 10
77.88103432297765
 20
-143.0227945605985
 30
0.0
 10
77.88103432297765
 20
-143.1940158062154
 30
0.0
 10
77.86001924051764
 20
-143.4244926941786
 30
0.0
 10
77.75838892370277
 20
-143.6170735318041
 30
0.0
  0
SPLINE
  5
113
330
10C
100
AcDbEntity
  8
_U+30EC_U+30A4_U+30E4_U+30FC 1
370
     0
100
AcDbSpline
210
0.0
220
0.0
230
1.0
 70
    11
 71
     3
 72
    17
 73
    13
 74
     0
 42
0.0000000001
 43
0.0000000001
 12
1.0
 22
0.0
 32
0.0
 13
1.0
 23
0.0
 33
0.0
 40
0.0
 40
0.0
 40
0.0
 40
0.0
 40
1.0
 40
1.0
 40
1.0
 40
2.0
 40
2.0
 40
2.0
 40
3.0
 40
3.0
 40
3.0
 40
4.0
 40
4.0
 40
4.0
 40
4.0
 10
77.36065264993067
 20
-142.3944091440889
 30
0.0
 10
77.11105548202433
 20
-142.3944091440889
 30
0.0
 10
77.06454669297345
 20
-142.677940502525
 30
0.0
 10
77.06454669297345
 20
-143.0227945605985
 30
0.0
 10
77.06454669297345
 20
-143.3421549120811
 30
0.0
 10
77.10054794079431
 20
-143.6508354675595
 30
0.0
 10
77.36065264993067
 20
-143.6508354675595
 30
0.0
 10
77.60818276054587
 20
-143.6508354675595
 30
0.0
 10
77.65693086166216
 20
-143.3697156759631
 30
0.0
 10
77.65693086166216
 20
-143.0227945605985
 30
0.0
 10
77.65693086166216
 20
-142.7030896995673
 30
0.0
 10
77.61886255655016
 20
-142.3944091440889
 30
0.0
 10
77.36065264993067
 20
-142.3944091440889
 30
0.0
  0
HATCH
  5
114
330
10C
100
AcDbEntity
  8
_U+30EC_U+30A4_U+30E4_U+30FC 1
 62
   179
420
  2234388
100
AcDbHatch
 10
0.0
 20
0.0
 30
0.0
210
0.0
220
0.0
230
1.0
  2
SOLID
 70
     1
 71
     0
 91
        2
 92
        1
 93
        1
 72
     4
 94
        3
 73
     0
 74
     1
 95
       29
 96
       25
 40
0.0
 40
0.0
 40
0.0
 40
0.0
 40
1.0
 40
1.0
 40
1.0
 40
2.0
 40
2.0
 40
2.0
 40
3.0
 40
3.0
 40
3.0
 40
4.0
 40
4.0
 40
4.0
 40
5.0
 40
5.0
 40
5.0
 40
6.0
 40
6.0
 40
6.0
 40
7.0
 40
7.0
 40
7.0
 40
8.0
 40
8.0
 40
8.0
 40
8.0
 10
77.75838892370277
 20
-143.6170735318041
 10
77.65055743501445
 20
-143.8265353373073
 10
77.47709687733212
 20
-143.8454833624761
 10
77.36065264993067
 20
-143.8454833624761
 10
77.19993894554376
 20
-143.8454833624761
 10
77.05817326632574
 20
-143.7989745734253
 10
76.96291637615857
 20
-143.6170735318041
 10
76.85939125682683
 20
-143.4224256368875
 10
76.84027097688369
 20
-143.1857475770508
 10
76.84027097688369
 20
-143.0227945605985
 10
76.84027097688369
 20
-142.878789569315
 10
76.85715194476141
 20
-142.6269530893433
 10
76.96291637615857
 20
-142.4281710798444
 10
77.07092011962116
 20
-142.2252549557631
 10
77.23163382400807
 20
-142.2018283064634
 10
77.36065264993067
 20
-142.2018283064634
 10
77.51929929702644
 20
-142.2018283064634
 10
77.6631320335356
 20
-142.2462700382232
 10
77.75838892370277
 20
-142.4281710798444
 10
77.85777992845223
 20
-142.6207519174698
 10
77.88103432297765
 20
-142.8491617481419
 10
77.88103432297765
 20
-143.0227945605985
 10
77.88103432297765
 20
-143.1940158062154
 10
77.86001924051764
 20
-143.4244926941786
 10
77.75838892370277
 20
-143.6170735318041
 97
        0
 97
        0
 92
        1
 93
        1
 72
     4
 94
        3
 73
     0
 74
     1
 95
       17
 96
       13
 40
0.0
 40
0.0
 40
0.0
 40
0.0
 40
1.0
 40
1.0
 40
1.0
 40
2.0
 40
2.0
 40
2.0
 40
3.0
 40
3.0
 40
3.0
 40
4.0
 40
4.0
 40
4.0
 40
4.0
 10
77.36065264993067
 20
-142.3944091440889
 10
77.11105548202433
 20
-142.3944091440889
 10
77.06454669297345
 20
-142.677940502525
 10
77.06454669297345
 20
-143.0227945605985
 10
77.06454669297345
 20
-143.3421549120811
 10
77.10054794079431
 20
-143.6508354675595
 10
77.36065264993067
 20
-143.6508354675595
 10
77.60818276054587
 20
-143.6508354675595
 10
77.65693086166216
 20
-143.3697156759631
 10
77.65693086166216
 20
-143.0227945605985
 10
77.65693086166216
 20
-142.7030896995673
 10
77.61886255655016
 20
-142.3944091440889
 10
77.36065264993067
 20
-142.3944091440889
 97
        0
 97
        0
 75
     2
 76
     1
 98
        0
  0
ENDBLK
  5
10F
330
10C
100
AcDbEntity
  8
0
100
AcDbBlockEnd
  0
BLOCK
  5
120
330
11E
100
AcDbEntity
  8
0
100
AcDbBlockBegin
  2
block 9
 70
     0
 10
0.0
 20
0.0
 30
0.0
  3
block 9
  1

  0
SPLINE
  5
122
330
11E
100
AcDbEntity
  8
_U+30EC_U+30A4_U+30E4_U+30FC 1
370
     0
100
AcDbSpline
210
0.0
220
0.0
230
1.0
 70
    11
 71
     3
 72
    26
 73
    22
 74
     0
 42
0.0000000001
 43
0.0000000001
 12
1.0
 22
0.0
 32
0.0
 13
1.0
 23
0.0
 33
0.0
 40
0.0
 40
0.0
 40
0.0
 40
0.0
 40
1.0
 40
1.0
 40
1.0
 40
2.0
 40
2.0
 40
2.0
 40
3.0
 40
3.0
 40
3.0
 40
4.0
 40
4.0
 40
4.0
 40
5.0
 40
5.0
 40
5.0
 40
6.0
 40
6.0
 40
6.0
 40
7.0
 40
7.0
 40
7.0
 40
7.0
 10
115.2567029876789
 20
-128.5780259552687
 30
0.0
 10
115.2567029876789
 20
-128.5780259552687
 30
0.0
 10
114.1525498846563
 20
-128.5780259552687
 30
0.0
 10
114.1525498846563
 20
-128.5780259552687
 30
0.0
 10
114.1525498846563
 20
-128.5780259552687
 30
0.0
 10
114.1525498846563
 20
-128.930631478184
 30
0.0
 10
114.1525498846563
 20
-128.930631478184
 30
0.0
 10
114.1525498846563
 20
-128.930631478184
 30
0.0
 10
114.0044107787906
 20
-128.930631478184
 30
0.0
 10
114.0044107787906
 20
-128.930631478184
 30
0.0
 10
113.989596868204
 20
-128.5757866432033
 30
0.0
 10
113.8266438517517
 20
-128.5260050134414
 30
0.0
 10
113.7122666816414
 20
-128.4944823897514
 30
0.0
 10
113.7122666816414
 20
-128.4944823897514
 30
0.0
 10
113.7122666816414
 20
-128.3384195642696
 30
0.0
 10
113.7122666816414
 20
-128.3384195642696
 30
0.0
 10
113.7122666816414
 20
-128.3384195642696
 30
0.0
 10
115.2567029876789
 20
-128.3384195642696
 30
0.0
 10
115.2567029876789
 20
-128.3384195642696
 30
0.0
 10
115.2567029876789
 20
-128.3384195642696
 30
0.0
 10
115.2567029876789
 20
-128.5780259552687
 30
0.0
 10
115.2567029876789
 20
-128.5780259552687
 30
0.0
  0
HATCH
  5
123
330
11E
100
AcDbEntity
  8
_U+30EC_U+30A4_U+30E4_U+30FC 1
 62
     7
420
 16777215
100
AcDbHatch
 10
0.0
 20
0.0
 30
0.0
210
0.0
220
0.0
230
1.0
  2
SOLID
 70
     1
 71
     0
 91
        1
 92
        1
 93
        1
 72
     4
 94
        3
 73
     0
 74
     1
 95
       26
 96
       22
 40
0.0
 40
0.0
 40
0.0
 40
0.0
 40
1.0
 40
1.0
 40
1.0
 40
2.0
 40
2.0
 40
2.0
 40
3.0
 40
3.0
 40
3.0
 40
4.0
 40
4.0
 40
4.0
 40
5.0
 40
5.0
 40
5.0
 40
6.0
 40
6.0
 40
6.0
 40
7.0
 40
7.0
 40
7.0
 40
7.0
 10
115.2567029876789
 20
-128.5780259552687
 10
115.2567029876789
 20
-128.5780259552687
 10
114.1525498846563
 20
-128.5780259552687
 10
114.1525498846563
 20
-128.5780259552687
 10
114.1525498846563
 20
-128.5780259552687
 10
114.1525498846563
 20
-128.930631478184
 10
114.1525498846563
 20
-128.930631478184
 10
114.1525498846563
 20
-128.930631478184
 10
114.0044107787906
 20
-128.930631478184
 10
114.0044107787906
 20
-128.930631478184
 10
113.989596868204
 20
-128.5757866432033
 10
113.8266438517517
 20
-128.5260050134414
 10
113.7122666816414
 20
-128.4944823897514
 10
113.7122666816414
 20
-128.4944823897514
 10
113.7122666816414
 20
-128.3384195642696
 10
113.7122666816414
 20
-128.3384195642696
 10
113.7122666816414
 20
-128.3384195642696
 10
115.2567029876789
 20
-128.3384195642696
 10
115.2567029876789
 20
-128.3384195642696
 10
115.2567029876789
 20
-128.3384195642696
 10
115.2567029876789
 20
-128.5780259552687
 10
115.2567029876789
 20
-128.5780259552687
 97
        0
 97
        0
 75
     2
 76
     1
 98
        0
  0
ENDBLK
  5
121
330
11E
100
AcDbEntity
  8
0
100
AcDbBlockEnd
  0
ENDSEC
  0
SECTION
  2
ENTITIES
  0
INSERT
  5
42
330
1F
100
AcDbEntity
  8
_U+30EC_U+30A4_U+30E4_U+30FC 1
100
AcDbBlockReference
  2
block 2
 10
0.0
 20
0.0
 30
0.0
  0
POLYLINE
  5
115
330
1F
100
AcDbEntity
  8
_U+30EC_U+30A4_U+30E4_U+30FC 1
 62
   179
420
  2234388
370
     9
100
AcDb2dPolyline
 66
     1
 10
0.0
 20
0.0
 30
0.0
  0
VERTEX
  5
116
330
115
100
AcDbEntity
  8
_U+30EC_U+30A4_U+30E4_U+30FC 1
 62
   179
420
  2234388
370
     9
100
AcDbVertex
100
AcDb2dVertex
 10
115.0985801191461
 20
-129.4053799676487
 30
0.0
  0
VERTEX
  5
117
330
115
100
AcDbEntity
  8
_U+30EC_U+30A4_U+30E4_U+30FC 1
 62
   179
420
  2234388
370
     9
100
AcDbVertex
100
AcDb2dVertex
 10
116.8531556299387
 20
-129.4053799676487
 30
0.0
  0
SEQEND
  5
118
330
115
100
AcDbEntity
  8
_U+30EC_U+30A4_U+30E4_U+30FC 1
 62
   179
420
  2234388
370
     9
  0
SPLINE
  5
119
330
1F
100
AcDbEntity
  8
_U+30EC_U+30A4_U+30E4_U+30FC 1
 62
     7
420
 16777215
370
     9
100
AcDbSpline
210
0.0
220
0.0
230
1.0
 70
    11
 71
     3
 72
    17
 73
    13
 74
     0
 42
0.0000000001
 43
0.0000000001
 12
1.0
 22
0.0
 32
0.0
 13
1.0
 23
0.0
 33
0.0
 40
0.0
 40
0.0
 40
0.0
 40
0.0
 40
1.0
 40
1.0
 40
1.0
 40
2.0
 40
2.0
 40
2.0
 40
3.0
 40
3.0
 40
3.0
 40
4.0
 40
4.0
 40
4.0
 40
4.0
 10
115.8527131554622
 20
-129.4914930231827
 30
0.0
 10
115.9078170429452
 20
-129.4914930231827
 30
0.0
 10
115.95261981958
 20
-129.446690245416
 30
0.0
 10
115.95261981958
 20
-129.391586356541
 30
0.0
 10
115.95261981958
 20
-129.336447189888
 30
0.0
 10
115.9078170429452
 20
-129.2916796898994
 30
0.0
 10
115.8527131554622
 20
-129.2916796898994
 30
0.0
 10
115.7975739902022
 20
-129.2916796898994
 30
0.0
 10
115.7528064913443
 20
-129.336447189888
 30
0.0
 10
115.7528064913443
 20
-129.391586356541
 30
0.0
 10
115.7528064913443
 20
-129.446690245416
 30
0.0
 10
115.7975739902022
 20
-129.4914930231827
 30
0.0
 10
115.8527131554622
 20
-129.4914930231827
 30
0.0
  0
POLYLINE
  5
11A
330
1F
100
AcDbEntity
  8
_U+30EC_U+30A4_U+30E4_U+30FC 1
 62
     7
420
 16777215
370
     9
100
AcDb2dPolyline
 66
     1
 10
0.0
 20
0.0
 30
0.0
  0
VERTEX
  5
11B
330
11A
100
AcDbEntity
  8
_U+30EC_U+30A4_U+30E4_U+30FC 1
 62
     7
420
 16777215
370
     9
100
AcDbVertex
100
AcDb2dVertex
 10
115.8533834332228
 20
-127.8969374680256
 30
0.0
  0
VERTEX
  5
11C
330
11A
100
AcDbEntity
  8
_U+30EC_U+30A4_U+30E4_U+30FC 1
 62
     7
420
 16777215
370
     9
100
AcDbVertex
100
AcDb2dVertex
 10
115.8533834332228
 20
-130.3913585785136
 30
0.0
  0
SEQEND
  5
11D
330
11A
100
AcDbEntity
  8
_U+30EC_U+30A4_U+30E4_U+30FC 1
 62
     7
420
 16777215
370
     9
  0
INSERT
  5
11F
330
1F
100
AcDbEntity
  8
_U+30EC_U+30A4_U+30E4_U+30FC 1
100
AcDbBlockReference
  2
block 9
 10
0.0
 20
0.0
 30
0.0
  0
ENDSEC
  0
SECTION
  2
OBJECTS
  0
DICTIONARY
  5
C
330
0
100
AcDbDictionary
281
     1
  3
ACAD_GROUP
350
D
  3
ACAD_LAYOUT
350
1A
  3
ACAD_MATERIAL
350
3B
  3
ACAD_MLEADERSTYLE
350
125
  3
ACAD_MLINESTYLE
350
17
  3
ACAD_PLOTSETTINGS
350
19
  3
ACAD_PLOTSTYLENAME
350
E
  3
ACAD_TABLESTYLE
350
124
  3
ACAD_VISUALSTYLE
350
2A
  0
SUN
  5
3F
330
29
100
AcDbSun
 90
        1
290
     0
 63
     7
421
 16777215
 40
1.0
291
     1
 91
  2455826
 92
 54000000
292
     0
 70
     2
 71
   256
280
     1
  0
DICTIONARY
  5
D
102
{ACAD_REACTORS
330
C
102
}
330
C
100
AcDbDictionary
281
     1
  0
DICTIONARY
  5
1A
102
{ACAD_REACTORS
330
C
102
}
330
C
100
AcDbDictionary
281
     1
  3
Layout1
350
1E
  3
Layout2
350
26
  3
Model
350
22
  0
DICTIONARY
  5
3B
102
{ACAD_REACTORS
330
C
102
}
330
C
100
AcDbDictionary
281
     1
  3
ByBlock
350
3D
  3
ByLayer
350
3C
  3
Global
350
3E
  0
DICTIONARY
  5
125
102
{ACAD_REACTORS
330
C
102
}
330
C
100
AcDbDictionary
281
     1
  0
DICTIONARY
  5
17
102
{ACAD_REACTORS
330
C
102
}
330
C
100
AcDbDictionary
281
     1
  3
Standard
350
18
  0
DICTIONARY
  5
19
102
{ACAD_REACTORS
330
C
102
}
330
C
100
AcDbDictionary
281
     1
  0
ACDBDICTIONARYWDFLT
  5
E
102
{ACAD_REACTORS
330
C
102
}
330
C
100
AcDbDictionary
281
     1
  3
Normal
350
F
100
AcDbDictionaryWithDefault
340
F
  0
DICTIONARY
  5
124
102
{ACAD_REACTORS
330
C
102
}
330
C
100
AcDbDictionary
281
     1
  0
DICTIONARY
  5
2A
102
{ACAD_REACTORS
330
C
102
}
330
C
100
AcDbDictionary
281
     1
  3
2dWireframe
350
2F
  3
3D Hidden
350
31
  3
3dWireframe
350
30
  3
Basic
350
32
  3
Brighten
350
36
  3
ColorChange
350
3A
  3
Conceptual
350
34
  3
Dim
350
35
  3
Facepattern
350
39
  3
Flat
350
2B
  3
FlatWithEdges
350
2C
  3
Gouraud
350
2D
  3
GouraudWithEdges
350
2E
  3
Linepattern
350
38
  3
Realistic
350
33
  3
Thicken
350
37
  0
LAYOUT
  5
1E
102
{ACAD_REACTORS
330
1A
102
}
330
1A
100
AcDbPlotSettings
  1

  2
none_device
  4

  6

 40
0.0
 41
0.0
 42
0.0
 43
0.0
 44
0.0
 45
0.0
 46
0.0
 47
0.0
 48
0.0
 49
0.0
140
0.0
141
0.0
142
1.0
143
1.0
 70
   688
 72
     0
 73
     0
 74
     5
  7

 75
    16
 76
     0
 77
     2
 78
   300
147
1.0
148
0.0
149
0.0
100
AcDbLayout
  1
Layout1
 70
     1
 71
     1
 10
0.0
 20
0.0
 11
12.0
 21
9.0
 12
0.0
 22
0.0
 32
0.0
 14
1.000000000000000E+20
 24
1.000000000000000E+20
 34
1.000000000000000E+20
 15
-1.000000000000000E+20
 25
-1.000000000000000E+20
 35
-1.000000000000000E+20
146
0.0
 13
0.0
 23
0.0
 33
0.0
 16
1.0
 26
0.0
 36
0.0
 17
0.0
 27
1.0
 37
0.0
 76
     0
330
1B
  0
LAYOUT
  5
26
102
{ACAD_REACTORS
330
1A
102
}
330
1A
100
AcDbPlotSettings
  1

  2
none_device
  4

  6

 40
0.0
 41
0.0
 42
0.0
 43
0.0
 44
0.0
 45
0.0
 46
0.0
 47
0.0
 48
0.0
 49
0.0
140
0.0
141
0.0
142
1.0
143
1.0
 70
   688
 72
     0
 73
     0
 74
     5
  7

 75
    16
 76
     0
 77
     2
 78
   300
147
1.0
148
0.0
149
0.0
100
AcDbLayout
  1
Layout2
 70
     1
 71
     2
 10
0.0
 20
0.0
 11
0.0
 21
0.0
 12
0.0
 22
0.0
 32
0.0
 14
0.0
 24
0.0
 34
0.0
 15
0.0
 25
0.0
 35
0.0
146
0.0
 13
0.0
 23
0.0
 33
0.0
 16
1.0
 26
0.0
 36
0.0
 17
0.0
 27
1.0
 37
0.0
 76
     0
330
23
  0
LAYOUT
  5
22
102
{ACAD_REACTORS
330
1A
102
}
330
1A
100
AcDbPlotSettings
  1

  2
none_device
  4

  6

 40
0.0
 41
0.0
 42
0.0
 43
0.0
 44
0.0
 45
0.0
 46
0.0
 47
0.0
 48
0.0
 49
0.0
140
0.0
141
0.0
142
1.0
143
1.0
 70
  1712
 72
     0
 73
     0
 74
     0
  7

 75
     0
 76
     0
 77
     2
 78
   300
147
1.0
148
0.0
149
0.0
100
AcDbLayout
  1
Model
 70
     1
 71
     0
 10
0.0
 20
0.0
 11
12.0
 21
9.0
 12
0.0
 22
0.0
 32
0.0
 14
1.000000000000000E+20
 24
1.000000000000000E+20
 34
1.000000000000000E+20
 15
-1.000000000000000E+20
 25
-1.000000000000000E+20
 35
-1.000000000000000E+20
146
0.0
 13
0.0
 23
0.0
 33
0.0
 16
1.0
 26
0.0
 36
0.0
 17
0.0
 27
1.0
 37
0.0
 76
     0
330
1F
331
29
  0
MATERIAL
  5
3D
102
{ACAD_REACTORS
330
3B
102
}
330
3B
100
AcDbMaterial
  1
ByBlock
 72
     1
 94
      127
  0
MATERIAL
  5
3C
102
{ACAD_REACTORS
330
3B
102
}
330
3B
100
AcDbMaterial
  1
ByLayer
 72
     1
 94
      127
  0
MATERIAL
  5
3E
102
{ACAD_REACTORS
330
3B
102
}
330
3B
100
AcDbMaterial
  1
Global
 72
     1
 94
      127
  0
MLINESTYLE
  5
18
102
{ACAD_REACTORS
330
17
102
}
330
17
100
AcDbMlineStyle
  2
Standard
 70
     0
  3

 62
   256
 51
90.0
 52
90.0
 71
     2
 49
0.5
 62
   256
  6
BYLAYER
 49
-0.5
 62
   256
  6
BYLAYER
  0
ACDBPLACEHOLDER
  5
F
102
{ACAD_REACTORS
330
E
102
}
330
E
  0
VISUALSTYLE
  5
2F
102
{ACAD_REACTORS
330
2A
102
}
330
2A
100
AcDbVisualStyle
  2
2dWireframe
 70
     4
177
     2
291
     0
 71
     0
176
     1
 72
     2
176
     1
 73
     0
176
     1
 90
        0
176
     1
 40
-0.6
176
     1
 41
-30.0
176
     1
 62
     5
 63
     7
421
 16777215
176
     1
 74
     1
176
     1
 91
        4
176
     1
 64
     7
176
     1
 65
   257
176
     1
 75
     1
176
     1
175
     1
176
     1
 42
1.0
176
     1
 92
        0
176
     1
 66
   257
176
     1
 43
1.0
176
     1
 76
     1
176
     1
 77
     6
176
     1
 78
     2
176
     1
 67
     7
176
     1
 79
     5
176
     1
170
     0
176
     1
171
     0
176
     1
290
     0
176
     1
 93
        1
176
     1
 44
0.0
176
     1
173
     0
176
     1
  0
VISUALSTYLE
  5
31
102
{ACAD_REACTORS
330
2A
102
}
330
2A
100
AcDbVisualStyle
  2
3D Hidden
 70
     6
177
     2
291
     0
 71
     1
176
     1
 72
     2
176
     1
 73
     2
176
     1
 90
        0
176
     1
 40
-0.6
176
     1
 41
-30.0
176
     1
 62
     5
 63
     7
421
 16777215
176
     1
 74
     2
176
     1
 91
        2
176
     1
 64
     7
176
     1
 65
   257
176
     1
 75
     2
176
     1
175
     1
176
     1
 42
40.0
176
     1
 92
        0
176
     1
 66
   257
176
     1
 43
1.0
176
     1
 76
     1
176
     1
 77
     6
176
     1
 78
     2
176
     1
 67
     7
176
     1
 79
     3
176
     1
170
     0
176
     1
171
     0
176
     1
290
     0
176
     1
 93
        1
176
     1
 44
0.0
176
     1
173
     0
176
     1
  0
VISUALSTYLE
  5
30
102
{ACAD_REACTORS
330
2A
102
}
330
2A
100
AcDbVisualStyle
  2
3dWireframe
 70
     5
177
     2
291
     0
 71
     0
176
     1
 72
     2
176
     1
 73
     0
176
     1
 90
        0
176
     1
 40
-0.6
176
     1
 41
-30.0
176
     1
 62
     5
 63
     7
421
 16777215
176
     1
 74
     1
176
     1
 91
        4
176
     1
 64
     7
176
     1
 65
   257
176
     1
 75
     1
176
     1
175
     1
176
     1
 42
1.0
176
     1
 92
        0
176
     1
 66
   257
176
     1
 43
1.0
176
     1
 76
     1
176
     1
 77
     6
176
     1
 78
     2
176
     1
 67
     7
176
     1
 79
     5
176
     1
170
     0
176
     1
171
     0
176
     1
290
     0
176
     1
 93
        1
176
     1
 44
0.0
176
     1
173
     0
176
     1
  0
VISUALSTYLE
  5
32
102
{ACAD_REACTORS
330
2A
102
}
330
2A
100
AcDbVisualStyle
  2
Basic
 70
     7
177
     2
291
     1
 71
     1
176
     1
 72
     0
176
     1
 73
     1
176
     1
 90
        0
176
     1
 40
-0.6
176
     1
 41
-30.0
176
     1
 62
     5
 63
     7
421
 16777215
176
     1
 74
     0
176
     1
 91
        4
176
     1
 64
     7
176
     1
 65
   257
176
     1
 75
     1
176
     1
175
     1
176
     1
 42
1.0
176
     1
 92
        8
176
     1
 66
     7
176
     1
 43
1.0
176
     1
 76
     1
176
     1
 77
     6
176
     1
 78
     2
176
     1
 67
     7
176
     1
 79
     5
176
     1
170
     0
176
     1
171
     0
176
     1
290
     0
176
     1
 93
        1
176
     1
 44
0.0
176
     1
173
     0
176
     1
  0
VISUALSTYLE
  5
36
102
{ACAD_REACTORS
330
2A
102
}
330
2A
100
AcDbVisualStyle
  2
Brighten
 70
    12
177
     2
291
     1
 71
     2
176
     1
 72
     2
176
     1
 73
     0
176
     1
 90
        0
176
     1
 40
-0.6
176
     1
 41
-30.0
176
     1
 62
     5
 63
     7
421
 16777215
176
     1
 74
     1
176
     1
 91
        4
176
     1
 64
     7
176
     1
 65
   257
176
     1
 75
     1
176
     1
175
     1
176
     1
 42
1.0
176
     1
 92
        8
176
     1
 66
     7
176
     1
 43
1.0
176
     1
 76
     1
176
     1
 77
     6
176
     1
 78
     2
176
     1
 67
     7
176
     1
 79
     5
176
     1
170
     0
176
     1
171
     0
176
     1
290
     0
176
     1
 93
        1
176
     1
 44
50.0
176
     1
173
     0
176
     1
  0
VISUALSTYLE
  5
3A
102
{ACAD_REACTORS
330
2A
102
}
330
2A
100
AcDbVisualStyle
  2
ColorChange
 70
    16
177
     2
291
     1
 71
     2
176
     1
 72
     2
176
     1
 73
     3
176
     1
 90
        0
176
     1
 40
-0.6
176
     1
 41
-30.0
176
     1
 62
     5
 63
     8
421
  8421504
176
     1
 74
     1
176
     1
 91
        4
176
     1
 64
     7
176
     1
 65
   257
176
     1
 75
     1
176
     1
175
     1
176
     1
 42
1.0
176
     1
 92
        8
176
     1
 66
     8
424
  8421504
176
     1
 43
1.0
176
     1
 76
     1
176
     1
 77
     6
176
     1
 78
     2
176
     1
 67
     7
176
     1
 79
     5
176
     1
170
     0
176
     1
171
     0
176
     1
290
     0
176
     1
 93
        1
176
     1
 44
0.0
176
     1
173
     0
176
     1
  0
VISUALSTYLE
  5
34
102
{ACAD_REACTORS
330
2A
102
}
330
2A
100
AcDbVisualStyle
  2
Conceptual
 70
     9
177
     2
291
     0
 71
     3
176
     1
 72
     2
176
     1
 73
     0
176
     1
 90
        0
176
     1
 40
-0.6
176
     1
 41
-30.0
176
     1
 62
     5
 63
     7
421
 16777215
176
     1
 74
     2
176
     1
 91
        2
176
     1
 64
     7
176
     1
 65
   257
176
     1
 75
     1
176
     1
175
     1
176
     1
 42
40.0
176
     1
 92
        8
176
     1
 66
     7
176
     1
 43
1.0
176
     1
 76
     1
176
     1
 77
     6
176
     1
 78
     2
176
     1
 67
     7
176
     1
 79
     3
176
     1
170
     0
176
     1
171
     0
176
     1
290
     0
176
     1
 93
        1
176
     1
 44
0.0
176
     1
173
     0
176
     1
  0
VISUALSTYLE
  5
35
102
{ACAD_REACTORS
330
2A
102
}
330
2A
100
AcDbVisualStyle
  2
Dim
 70
    11
177
     2
291
     1
 71
     2
176
     1
 72
     2
176
     1
 73
     0
176
     1
 90
        0
176
     1
 40
-0.6
176
     1
 41
-30.0
176
     1
 62
     5
 63
     7
421
 16777215
176
     1
 74
     1
176
     1
 91
        4
176
     1
 64
     7
176
     1
 65
   257
176
     1
 75
     1
176
     1
175
     1
176
     1
 42
1.0
176
     1
 92
        8
176
     1
 66
     7
176
     1
 43
1.0
176
     1
 76
     1
176
     1
 77
     6
176
     1
 78
     2
176
     1
 67
     7
176
     1
 79
     5
176
     1
170
     0
176
     1
171
     0
176
     1
290
     0
176
     1
 93
        1
176
     1
 44
-50.0
176
     1
173
     0
176
     1
  0
VISUALSTYLE
  5
39
102
{ACAD_REACTORS
330
2A
102
}
330
2A
100
AcDbVisualStyle
  2
Facepattern
 70
    15
177
     2
291
     1
 71
     2
176
     1
 72
     2
176
     1
 73
     0
176
     1
 90
        0
176
     1
 40
-0.6
176
     1
 41
-30.0
176
     1
 62
     5
 63
     7
421
 16777215
176
     1
 74
     1
176
     1
 91
        4
176
     1
 64
     7
176
     1
 65
   257
176
     1
 75
     1
176
     1
175
     1
176
     1
 42
1.0
176
     1
 92
        8
176
     1
 66
     7
176
     1
 43
1.0
176
     1
 76
     1
176
     1
 77
     6
176
     1
 78
     2
176
     1
 67
     7
176
     1
 79
     5
176
     1
170
     0
176
     1
171
     0
176
     1
290
     0
176
     1
 93
        1
176
     1
 44
0.0
176
     1
173
     0
176
     1
  0
VISUALSTYLE
  5
2B
102
{ACAD_REACTORS
330
2A
102
}
330
2A
100
AcDbVisualStyle
  2
Flat
 70
     0
177
     2
291
     1
 71
     2
176
     1
 72
     1
176
     1
 73
     1
176
     1
 90
        2
176
     1
 40
-0.6
176
     1
 41
30.0
176
     1
 62
     5
 63
     7
421
 16777215
176
     1
 74
     0
176
     1
 91
        4
176
     1
 64
     7
176
     1
 65
   257
176
     1
 75
     1
176
     1
175
     1
176
     1
 42
1.0
176
     1
 92
        8
176
     1
 66
     7
176
     1
 43
1.0
176
     1
 76
     1
176
     1
 77
     6
176
     1
 78
     2
176
     1
 67
     7
176
     1
 79
     5
176
     1
170
     0
176
     1
171
     0
176
     1
290
     0
176
     1
 93
       13
176
     1
 44
0.0
176
     1
173
     0
176
     1
  0
VISUALSTYLE
  5
2C
102
{ACAD_REACTORS
330
2A
102
}
330
2A
100
AcDbVisualStyle
  2
FlatWithEdges
 70
     1
177
     2
291
     1
 71
     2
176
     1
 72
     1
176
     1
 73
     1
176
     1
 90
        2
176
     1
 40
-0.6
176
     1
 41
30.0
176
     1
 62
     5
 63
     7
421
 16777215
176
     1
 74
     1
176
     1
 91
        4
176
     1
 64
     7
176
     1
 65
   257
176
     1
 75
     1
176
     1
175
     1
176
     1
 42
1.0
176
     1
 92
        0
176
     1
 66
   257
176
     1
 43
1.0
176
     1
 76
     1
176
     1
 77
     6
176
     1
 78
     2
176
     1
 67
     7
176
     1
 79
     5
176
     1
170
     0
176
     1
171
     0
176
     1
290
     0
176
     1
 93
       13
176
     1
 44
0.0
176
     1
173
     0
176
     1
  0
VISUALSTYLE
  5
2D
102
{ACAD_REACTORS
330
2A
102
}
330
2A
100
AcDbVisualStyle
  2
Gouraud
 70
     2
177
     2
291
     1
 71
     2
176
     1
 72
     2
176
     1
 73
     1
176
     1
 90
        2
176
     1
 40
-0.6
176
     1
 41
30.0
176
     1
 62
     5
 63
     7
421
 16777215
176
     1
 74
     0
176
     1
 91
        4
176
     1
 64
     7
176
     1
 65
   257
176
     1
 75
     1
176
     1
175
     1
176
     1
 42
1.0
176
     1
 92
        0
176
     1
 66
     7
176
     1
 43
1.0
176
     1
 76
     1
176
     1
 77
     6
176
     1
 78
     2
176
     1
 67
     7
176
     1
 79
     5
176
     1
170
     0
176
     1
171
     0
176
     1
290
     0
176
     1
 93
       13
176
     1
 44
0.0
176
     1
173
     0
176
     1
  0
VISUALSTYLE
  5
2E
102
{ACAD_REACTORS
330
2A
102
}
330
2A
100
AcDbVisualStyle
  2
GouraudWithEdges
 70
     3
177
     2
291
     1
 71
     2
176
     1
 72
     2
176
     1
 73
     1
176
     1
 90
        2
176
     1
 40
-0.6
176
     1
 41
30.0
176
     1
 62
     5
 63
     7
421
 16777215
176
     1
 74
     1
176
     1
 91
        4
176
     1
 64
     7
176
     1
 65
   257
176
     1
 75
     1
176
     1
175
     1
176
     1
 42
1.0
176
     1
 92
        0
176
     1
 66
   257
176
     1
 43
1.0
176
     1
 76
     1
176
     1
 77
     6
176
     1
 78
     2
176
     1
 67
     7
176
     1
 79
     5
176
     1
170
     0
176
     1
171
     0
176
     1
290
     0
176
     1
 93
       13
176
     1
 44
0.0
176
     1
173
     0
176
     1
  0
VISUALSTYLE
  5
38
102
{ACAD_REACTORS
330
2A
102
}
330
2A
100
AcDbVisualStyle
  2
Linepattern
 70
    14
177
     2
291
     1
 71
     2
176
     1
 72
     2
176
     1
 73
     0
176
     1
 90
        0
176
     1
 40
-0.6
176
     1
 41
-30.0
176
     1
 62
     5
 63
     7
421
 16777215
176
     1
 74
     1
176
     1
 91
        4
176
     1
 64
     7
176
     1
 65
   257
176
     1
 75
     7
176
     1
175
     7
176
     1
 42
1.0
176
     1
 92
        8
176
     1
 66
     7
176
     1
 43
1.0
176
     1
 76
     1
176
     1
 77
     6
176
     1
 78
     2
176
     1
 67
     7
176
     1
 79
     5
176
     1
170
     0
176
     1
171
     0
176
     1
290
     0
176
     1
 93
        1
176
     1
 44
0.0
176
     1
173
     0
176
     1
  0
VISUALSTYLE
  5
33
102
{ACAD_REACTORS
330
2A
102
}
330
2A
100
AcDbVisualStyle
  2
Realistic
 70
     8
177
     2
291
     0
 71
     2
176
     1
 72
     2
176
     1
 73
     0
176
     1
 90
        0
176
     1
 40
-0.6
176
     1
 41
-30.0
176
     1
 62
     5
 63
     7
421
 16777215
176
     1
 74
     1
176
     1
 91
        0
176
     1
 64
     7
176
     1
 65
   257
176
     1
 75
     1
176
     1
175
     1
176
     1
 42
1.0
176
     1
 92
        8
176
     1
 66
     8
424
  7895160
176
     1
 43
1.0
176
     1
 76
     1
176
     1
 77
     6
176
     1
 78
     2
176
     1
 67
     7
176
     1
 79
     5
176
     1
170
     0
176
     1
171
     0
176
     1
290
     0
176
     1
 93
       13
176
     1
 44
0.0
176
     1
173
     0
176
     1
  0
VISUALSTYLE
  5
37
102
{ACAD_REACTORS
330
2A
102
}
330
2A
100
AcDbVisualStyle
  2
Thicken
 70
    13
177
     2
291
     1
 71
     2
176
     1
 72
     2
176
     1
 73
     0
176
     1
 90
        0
176
     1
 40
-0.6
176
     1
 41
-30.0
176
     1
 62
     5
 63
     7
421
 16777215
176
     1
 74
     1
176
     1
 91
        4
176
     1
 64
     7
176
     1
 65
   257
176
     1
 75
     1
176
     1
175
     1
176
     1
 42
1.0
176
     1
 92
       12
176
     1
 66
     7
176
     1
 43
1.0
176
     1
 76
     1
176
     1
 77
     6
176
     1
 78
     2
176
     1
 67
     7
176
     1
 79
     5
176
     1
170
     0
176
     1
171
     0
176
     1
290
     0
176
     1
 93
        1
176
     1
 44
0.0
176
     1
173
     0
176
     1
  0
ENDSEC
  0
EOF
