  0
SECTION
  2
HEADER
  9
$ACADVER
  1
AC1024
  9
$ACADMAINTVER
 70
     6
  9
$DWGCODEPAGE
  3
UNDEFINED
  9
$INSBASE
 10
0.0
 20
0.0
 30
0.0
  9
$EXTMIN
 10
1.000000000000000E+20
 20
1.000000000000000E+20
 30
1.000000000000000E+20
  9
$EXTMAX
 10
-1.000000000000000E+20
 20
-1.000000000000000E+20
 30
-1.000000000000000E+20
  9
$LIMMIN
 10
0.0
 20
0.0
  9
$LIMMAX
 10
12.0
 20
9.0
  9
$ORTHOMODE
 70
     0
  9
$REGENMODE
 70
     1
  9
$FILLMODE
 70
     1
  9
$QTEXTMODE
 70
     0
  9
$MIRRTEXT
 70
     1
  9
$LTSCALE
 40
1.0
  9
$ATTMODE
 70
     1
  9
$TEXTSIZE
 40
0.2
  9
$TRACEWID
 40
0.05
  9
$TEXTSTYLE
  7
Standard
  9
$CLAYER
  8
0
  9
$CELTYPE
  6
ByLayer
  9
$CECOLOR
 62
   256
  9
$CELTSCALE
 40
1.0
  9
$DISPSILH
 70
     0
  9
$DIMSCALE
 40
1.0
  9
$DIMASZ
 40
0.18
  9
$DIMEXO
 40
0.0625
  9
$DIMDLI
 40
0.38
  9
$DIMRND
 40
0.0
  9
$DIMDLE
 40
0.0
  9
$DIMEXE
 40
0.18
  9
$DIMTP
 40
0.0
  9
$DIMTM
 40
0.0
  9
$DIMTXT
 40
0.18
  9
$DIMCEN
 40
0.09
  9
$DIMTSZ
 40
0.0
  9
$DIMTOL
 70
     0
  9
$DIMLIM
 70
     0
  9
$DIMTIH
 70
     1
  9
$DIMTOH
 70
     1
  9
$DIMSE1
 70
     0
  9
$DIMSE2
 70
     0
  9
$DIMTAD
 70
     0
  9
$DIMZIN
 70
     0
  9
$DIMBLK
  1

  9
$DIMASO
 70
     1
  9
$DIMSHO
 70
     1
  9
$DIMPOST
  1

  9
$DIMAPOST
  1

  9
$DIMALT
 70
     0
  9
$DIMALTD
 70
     2
  9
$DIMALTF
 40
25.4
  9
$DIMLFAC
 40
1.0
  9
$DIMTOFL
 70
     0
  9
$DIMTVP
 40
0.0
  9
$DIMTIX
 70
     0
  9
$DIMSOXD
 70
     0
  9
$DIMSAH
 70
     0
  9
$DIMBLK1
  1

  9
$DIMBLK2
  1

  9
$DIMSTYLE
  2
Standard
  9
$DIMCLRD
 70
     0
  9
$DIMCLRE
 70
     0
  9
$DIMCLRT
 70
     0
  9
$DIMTFAC
 40
1.0
  9
$DIMGAP
 40
0.09
  9
$DIMJUST
 70
     0
  9
$DIMSD1
 70
     0
  9
$DIMSD2
 70
     0
  9
$DIMTOLJ
 70
     1
  9
$DIMTZIN
 70
     0
  9
$DIMALTZ
 70
     0
  9
$DIMALTTZ
 70
     0
  9
$DIMUPT
 70
     0
  9
$DIMDEC
 70
     4
  9
$DIMTDEC
 70
     4
  9
$DIMALTU
 70
     2
  9
$DIMALTTD
 70
     2
  9
$DIMTXSTY
  7
Standard
  9
$DIMAUNIT
 70
     0
  9
$DIMADEC
 70
     0
  9
$DIMALTRND
 40
0.0
  9
$DIMAZIN
 70
     0
  9
$DIMDSEP
 70
    46
  9
$DIMATFIT
 70
     3
  9
$DIMFRAC
 70
     0
  9
$DIMLDRBLK
  1

  9
$DIMLUNIT
 70
     2
  9
$DIMLWD
 70
    -2
  9
$DIMLWE
 70
    -2
  9
$DIMTMOVE
 70
     0
  9
$DIMFXL
 40
1.0
  9
$DIMFXLON
 70
     0
  9
$DIMJOGANG
 40
0.7853981633974483
  9
$DIMTFILL
 70
     0
  9
$DIMTFILLCLR
 70
     0
  9
$DIMARCSYM
 70
     0
  9
$DIMLTYPE
  6

  9
$DIMLTEX1
  6

  9
$DIMLTEX2
  6

  9
$DIMTXTDIRECTION
 70
     0
  9
$LUNITS
 70
     2
  9
$LUPREC
 70
     4
  9
$SKETCHINC
 40
0.1
  9
$FILLETRAD
 40
0.5
  9
$AUNITS
 70
     0
  9
$AUPREC
 70
     0
  9
$MENU
  1
.
  9
$ELEVATION
 40
0.0
  9
$PELEVATION
 40
0.0
  9
$THICKNESS
 40
0.0
  9
$LIMCHECK
 70
     0
  9
$CHAMFERA
 40
0.5
  9
$CHAMFERB
 40
0.5
  9
$CHAMFERC
 40
1.0
  9
$CHAMFERD
 40
0.0
  9
$SKPOLY
 70
     0
  9
$TDCREATE
 40
2457917.613877303
  9
$TDUCREATE
 40
2457917.238877315
  9
$TDUPDATE
 40
2457917.613877303
  9
$TDUUPDATE
 40
2457917.238877315
  9
$TDINDWG
 40
0.0000000116
  9
$TDUSRTIMER
 40
0.0000000116
  9
$USRTIMER
 70
     1
  9
$ANGBASE
 50
0.0
  9
$ANGDIR
 70
     0
  9
$PDMODE
 70
     0
  9
$PDSIZE
 40
0.0
  9
$PLINEWID
 40
0.0
  9
$SPLFRAME
 70
     0
  9
$SPLINETYPE
 70
     6
  9
$SPLINESEGS
 70
     8
  9
$HANDSEED
  5
167
  9
$SURFTAB1
 70
     6
  9
$SURFTAB2
 70
     6
  9
$SURFTYPE
 70
     6
  9
$SURFU
 70
     6
  9
$SURFV
 70
     6
  9
$UCSBASE
  2

  9
$UCSNAME
  2

  9
$UCSORG
 10
0.0
 20
0.0
 30
0.0
  9
$UCSXDIR
 10
1.0
 20
0.0
 30
0.0
  9
$UCSYDIR
 10
0.0
 20
1.0
 30
0.0
  9
$UCSORTHOREF
  2

  9
$UCSORTHOVIEW
 70
     0
  9
$UCSORGTOP
 10
0.0
 20
0.0
 30
0.0
  9
$UCSORGBOTTOM
 10
0.0
 20
0.0
 30
0.0
  9
$UCSORGLEFT
 10
0.0
 20
0.0
 30
0.0
  9
$UCSORGRIGHT
 10
0.0
 20
0.0
 30
0.0
  9
$UCSORGFRONT
 10
0.0
 20
0.0
 30
0.0
  9
$UCSORGBACK
 10
0.0
 20
0.0
 30
0.0
  9
$PUCSBASE
  2

  9
$PUCSNAME
  2

  9
$PUCSORG
 10
0.0
 20
0.0
 30
0.0
  9
$PUCSXDIR
 10
1.0
 20
0.0
 30
0.0
  9
$PUCSYDIR
 10
0.0
 20
1.0
 30
0.0
  9
$PUCSORTHOREF
  2

  9
$PUCSORTHOVIEW
 70
     0
  9
$PUCSORGTOP
 10
0.0
 20
0.0
 30
0.0
  9
$PUCSORGBOTTOM
 10
0.0
 20
0.0
 30
0.0
  9
$PUCSORGLEFT
 10
0.0
 20
0.0
 30
0.0
  9
$PUCSORGRIGHT
 10
0.0
 20
0.0
 30
0.0
  9
$PUCSORGFRONT
 10
0.0
 20
0.0
 30
0.0
  9
$PUCSORGBACK
 10
0.0
 20
0.0
 30
0.0
  9
$USERI1
 70
     0
  9
$USERI2
 70
     0
  9
$USERI3
 70
     0
  9
$USERI4
 70
     0
  9
$USERI5
 70
     0
  9
$USERR1
 40
0.0
  9
$USERR2
 40
0.0
  9
$USERR3
 40
0.0
  9
$USERR4
 40
0.0
  9
$USERR5
 40
0.0
  9
$WORLDVIEW
 70
     1
  9
$SHADEDGE
 70
     3
  9
$SHADEDIF
 70
    70
  9
$TILEMODE
 70
     1
  9
$MAXACTVP
 70
    64
  9
$PINSBASE
 10
0.0
 20
0.0
 30
0.0
  9
$PLIMCHECK
 70
     0
  9
$PEXTMIN
 10
1.000000000000000E+20
 20
1.000000000000000E+20
 30
1.000000000000000E+20
  9
$PEXTMAX
 10
-1.000000000000000E+20
 20
-1.000000000000000E+20
 30
-1.000000000000000E+20
  9
$PLIMMIN
 10
0.0
 20
0.0
  9
$PLIMMAX
 10
12.0
 20
9.0
  9
$UNITMODE
 70
     0
  9
$VISRETAIN
 70
     1
  9
$PLINEGEN
 70
     0
  9
$PSLTSCALE
 70
     1
  9
$TREEDEPTH
 70
  3020
  9
$CMLSTYLE
  2
Standard
  9
$CMLJUST
 70
     0
  9
$CMLSCALE
 40
1.0
  9
$PROXYGRAPHICS
 70
     1
  9
$MEASUREMENT
 70
     0
  9
$CELWEIGHT
370
    -1
  9
$ENDCAPS
280
     0
  9
$JOINSTYLE
280
     0
  9
$LWDISPLAY
290
     1
  9
$INSUNITS
 70
     1
  9
$HYPERLINKBASE
  1

  9
$STYLESHEET
  1

  9
$XEDIT
290
     1
  9
$CEPSNTYPE
380
     0
  9
$PSTYLEMODE
290
     1
  9
$FINGERPRINTGUID
  2
{FBF469FB-6C93-0F73-9C85-E02FB81D63B3}
  9
$VERSIONGUID
  2
{FAEB1C32-E019-11D5-929B-00C0DF256EC4}
  9
$EXTNAMES
290
     1
  9
$PSVPSCALE
 40
0.0
  9
$OLESTARTUP
290
     0
  9
$SORTENTS
280
   127
  9
$INDEXCTL
280
     0
  9
$HIDETEXT
280
     1
  9
$XCLIPFRAME
280
     2
  9
$HALOGAP
280
     0
  9
$OBSCOLOR
 70
   257
  9
$OBSLTYPE
280
     0
  9
$INTERSECTIONDISPLAY
280
     0
  9
$INTERSECTIONCOLOR
 70
   257
  9
$DIMASSOC
280
     2
  9
$PROJECTNAME
  1

  9
$CAMERADISPLAY
290
     0
  9
$LENSLENGTH
 40
50.0
  9
$CAMERAHEIGHT
 40
0.0
  9
$STEPSPERSEC
 40
2.0
  9
$STEPSIZE
 40
6.0
  9
$3DDWFPREC
 40
2.0
  9
$PSOLWIDTH
 40
0.25
  9
$PSOLHEIGHT
 40
4.0
  9
$LOFTANG1
 40
1.570796326794897
  9
$LOFTANG2
 40
1.570796326794897
  9
$LOFTMAG1
 40
0.0
  9
$LOFTMAG2
 40
0.0
  9
$LOFTPARAM
 70
     7
  9
$LOFTNORMALS
280
     1
  9
$LATITUDE
 40
37.795
  9
$LONGITUDE
 40
-122.394
  9
$NORTHDIRECTION
 40
0.0
  9
$TIMEZONE
 70
 -8000
  9
$LIGHTGLYPHDISPLAY
280
     1
  9
$TILEMODELIGHTSYNCH
280
     1
  9
$CMATERIAL
347
3C
  9
$SOLIDHIST
280
     1
  9
$SHOWHIST
280
     1
  9
$DWFFRAME
280
     2
  9
$DGNFRAME
280
     2
  9
$REALWORLDSCALE
290
     1
  9
$INTERFERECOLOR
 62
   256
  9
$CSHADOW
280
     0
  9
$SHADOWPLANELOCATION
 40
0.0
  0
ENDSEC
  0
SECTION
  2
CLASSES
  0
CLASS
  1
ACDBDICTIONARYWDFLT
  2
AcDbDictionaryWithDefault
  3
ObjectDBX Classes
 90
        0
 91
        4
280
     0
281
     0
  0
CLASS
  1
VISUALSTYLE
  2
AcDbVisualStyle
  3
ObjectDBX Classes
 90
     4095
 91
        4
280
     0
281
     0
  0
CLASS
  1
MATERIAL
  2
AcDbMaterial
  3
ObjectDBX Classes
 90
     1153
 91
        4
280
     0
281
     0
  0
CLASS
  1
SUN
  2
AcDbSun
  3
SCENEOE
 90
     1024
 91
        4
280
     0
281
     0
  0
ENDSEC
  0
SECTION
  2
TABLES
  0
TABLE
  2
VPORT
  5
8
330
0
100
AcDbSymbolTable
 70
     1
  0
VPORT
  5
29
330
8
100
AcDbSymbolTableRecord
100
AcDbViewportTableRecord
  2
*Active
 70
     0
 10
0.0
 20
0.0
 11
1.0
 21
1.0
 12
0.0
 22
0.0
 13
0.0
 23
0.0
 14
0.5
 24
0.5
 15
0.5
 25
0.5
 16
0.0
 26
0.0
 36
1.0
 17
91.00082462281999
 27
-128.4993055234307
 37
0.0
 40
256.9986110468615
 41
0.7081814508812795
 42
50.0
 43
0.0
 44
0.0
 50
0.0
 51
0.0
 71
     0
 72
   100
 73
     1
 74
     3
 75
     0
 76
     0
 77
     0
 78
     0
281
     0
 65
     1
110
0.0
120
0.0
130
0.0
111
1.0
121
0.0
131
0.0
112
0.0
122
1.0
132
0.0
 79
     0
146
0.0
 60
     3
 61
     5
292
     1
282
     1
141
0.0
142
0.0
 63
   250
361
3F
  0
ENDTAB
  0
TABLE
  2
LTYPE
  5
5
330
0
100
AcDbSymbolTable
 70
     1
  0
LTYPE
  5
14
330
5
100
AcDbSymbolTableRecord
100
AcDbLinetypeTableRecord
  2
ByBlock
 70
     0
  3

 72
    65
 73
     0
 40
0.0
  0
LTYPE
  5
15
330
5
100
AcDbSymbolTableRecord
100
AcDbLinetypeTableRecord
  2
ByLayer
 70
     0
  3

 72
    65
 73
     0
 40
0.0
  0
LTYPE
  5
16
330
5
100
AcDbSymbolTableRecord
100
AcDbLinetypeTableRecord
  2
Continuous
 70
     0
  3
Solid line
 72
    65
 73
     0
 40
0.0
  0
ENDTAB
  0
TABLE
  2
LAYER
  5
2
330
0
100
AcDbSymbolTable
 70
     2
  0
LAYER
  5
10
330
2
100
AcDbSymbolTableRecord
100
AcDbLayerTableRecord
  2
0
 70
     0
 62
     7
  6
Continuous
370
    -3
390
F
347
3E
  0
LAYER
  5
40
330
2
100
AcDbSymbolTableRecord
100
AcDbLayerTableRecord
  2
_U+30EC_U+30A4_U+30E4_U+30FC 1
 70
     0
 62
     7
  6
Continuous
370
    -3
390
F
347
3E
  0
ENDTAB
  0
TABLE
  2
STYLE
  5
3
330
0
100
AcDbSymbolTable
 70
     1
  0
STYLE
  5
11
330
3
100
AcDbSymbolTableRecord
100
AcDbTextStyleTableRecord
  2
Standard
 70
     0
 40
0.0
 41
1.0
 50
0.0
 71
     0
 42
0.2
  3
txt
  4

  0
ENDTAB
  0
TABLE
  2
VIEW
  5
6
330
0
100
AcDbSymbolTable
 70
     0
  0
ENDTAB
  0
TABLE
  2
UCS
  5
7
330
0
100
AcDbSymbolTable
 70
     0
  0
ENDTAB
  0
TABLE
  2
APPID
  5
9
330
0
100
AcDbSymbolTable
 70
     1
  0
APPID
  5
12
330
9
100
AcDbSymbolTableRecord
100
AcDbRegAppTableRecord
  2
ACAD
 70
     0
  0
ENDTAB
  0
TABLE
  2
DIMSTYLE
  5
A
330
0
100
AcDbSymbolTable
 70
     1
100
AcDbDimStyleTable
  0
DIMSTYLE
105
27
330
A
100
AcDbSymbolTableRecord
100
AcDbDimStyleTableRecord
  2
Standard
 70
     0
178
     0
340
11
  0
ENDTAB
  0
TABLE
  2
BLOCK_RECORD
  5
1
330
0
100
AcDbSymbolTable
 70
    15
  0
BLOCK_RECORD
  5
1F
330
1
100
AcDbSymbolTableRecord
100
AcDbBlockTableRecord
  2
*Model_Space
340
22
 70
     0
280
     1
281
     0
  0
BLOCK_RECORD
  5
1B
330
1
100
AcDbSymbolTableRecord
100
AcDbBlockTableRecord
  2
*Paper_Space
340
1E
 70
     0
280
     1
281
     0
  0
BLOCK_RECORD
  5
23
330
1
100
AcDbSymbolTableRecord
100
AcDbBlockTableRecord
  2
*Paper_Space0
340
26
 70
     0
280
     1
281
     0
  0
BLOCK_RECORD
  5
55
330
1
100
AcDbSymbolTableRecord
100
AcDbBlockTableRecord
  2
block 2
340
0
102
{BLKREFS
331
56
102
}
 70
     0
280
     1
281
     0
  0
BLOCK_RECORD
  5
A4
330
1
100
AcDbSymbolTableRecord
100
AcDbBlockTableRecord
  2
block 3
340
0
102
{BLKREFS
331
A5
102
}
 70
     0
280
     1
281
     0
  0
BLOCK_RECORD
  5
B4
330
1
100
AcDbSymbolTableRecord
100
AcDbBlockTableRecord
  2
block 4
340
0
102
{BLKREFS
331
B5
102
}
 70
     0
280
     1
281
     0
  0
BLOCK_RECORD
  5
BA
330
1
100
AcDbSymbolTableRecord
100
AcDbBlockTableRecord
  2
block 5
340
0
102
{BLKREFS
331
BB
102
}
 70
     0
280
     1
281
     0
  0
BLOCK_RECORD
  5
CA
330
1
100
AcDbSymbolTableRecord
100
AcDbBlockTableRecord
  2
block 6
340
0
102
{BLKREFS
331
CB
102
}
 70
     0
280
     1
281
     0
  0
BLOCK_RECORD
  5
D0
330
1
100
AcDbSymbolTableRecord
100
AcDbBlockTableRecord
  2
block 7
340
0
102
{BLKREFS
331
D1
102
}
 70
     0
280
     1
281
     0
  0
BLOCK_RECORD
  5
E0
330
1
100
AcDbSymbolTableRecord
100
AcDbBlockTableRecord
  2
block 8
340
0
102
{BLKREFS
331
E1
102
}
 70
     0
280
     1
281
     0
  0
BLOCK_RECORD
  5
FC
330
1
100
AcDbSymbolTableRecord
100
AcDbBlockTableRecord
  2
block 9
340
0
102
{BLKREFS
331
FD
102
}
 70
     0
280
     1
281
     0
  0
BLOCK_RECORD
  5
10C
330
1
100
AcDbSymbolTableRecord
100
AcDbBlockTableRecord
  2
block 10
340
0
102
{BLKREFS
331
10D
102
}
 70
     0
280
     1
281
     0
  0
BLOCK_RECORD
  5
115
330
1
100
AcDbSymbolTableRecord
100
AcDbBlockTableRecord
  2
block 11
340
0
102
{BLKREFS
331
116
102
}
 70
     0
280
     1
281
     0
  0
BLOCK_RECORD
  5
125
330
1
100
AcDbSymbolTableRecord
100
AcDbBlockTableRecord
  2
block 12
340
0
102
{BLKREFS
331
126
102
}
 70
     0
280
     1
281
     0
  0
BLOCK_RECORD
  5
138
330
1
100
AcDbSymbolTableRecord
100
AcDbBlockTableRecord
  2
block 13
340
0
102
{BLKREFS
331
139
102
}
 70
     0
280
     1
281
     0
  0
BLOCK_RECORD
  5
144
330
1
100
AcDbSymbolTableRecord
100
AcDbBlockTableRecord
  2
block 14
340
0
102
{BLKREFS
331
145
102
}
 70
     0
280
     1
281
     0
  0
BLOCK_RECORD
  5
15F
330
1
100
AcDbSymbolTableRecord
100
AcDbBlockTableRecord
  2
block 15
340
0
102
{BLKREFS
331
160
102
}
 70
     0
280
     1
281
     0
  0
ENDTAB
  0
ENDSEC
  0
SECTION
  2
BLOCKS
  0
BLOCK
  5
20
330
1F
100
AcDbEntity
  8
0
100
AcDbBlockBegin
  2
*Model_Space
 70
     0
 10
0.0
 20
0.0
 30
0.0
  3
*Model_Space
  1

  0
ENDBLK
  5
21
330
1F
100
AcDbEntity
  8
0
100
AcDbBlockEnd
  0
BLOCK
  5
1C
330
1B
100
AcDbEntity
 67
     1
  8
0
100
AcDbBlockBegin
  2
*Paper_Space
 70
     0
 10
0.0
 20
0.0
 30
0.0
  3
*Paper_Space
  1

  0
ENDBLK
  5
1D
330
1B
100
AcDbEntity
 67
     1
  8
0
100
AcDbBlockEnd
  0
BLOCK
  5
24
330
23
100
AcDbEntity
  8
0
100
AcDbBlockBegin
  2
*Paper_Space0
 70
     0
 10
0.0
 20
0.0
 30
0.0
  3
*Paper_Space0
  1

  0
ENDBLK
  5
25
330
23
100
AcDbEntity
  8
0
100
AcDbBlockEnd
  0
BLOCK
  5
57
330
55
100
AcDbEntity
  8
0
100
AcDbBlockBegin
  2
block 2
 70
     0
 10
0.0
 20
0.0
 30
0.0
  3
block 2
  1

  0
POLYLINE
  5
59
330
55
100
AcDbEntity
  8
_U+30EC_U+30A4_U+30E4_U+30FC 1
 62
   179
420
  2234388
370
    25
100
AcDb2dPolyline
 66
     1
 10
0.0
 20
0.0
 30
0.0
  0
VERTEX
  5
5A
330
59
100
AcDbEntity
  8
_U+30EC_U+30A4_U+30E4_U+30FC 1
 62
   179
420
  2234388
370
    25
100
AcDbVertex
100
AcDb2dVertex
 10
73.66493887047277
 20
-129.928337745296
 30
0.0
  0
VERTEX
  5
5B
330
59
100
AcDbEntity
  8
_U+30EC_U+30A4_U+30E4_U+30FC 1
 62
   179
420
  2234388
370
    25
100
AcDbVertex
100
AcDb2dVertex
 10
112.7648493453512
 20
-129.928337745296
 30
0.0
  0
SEQEND
  5
5C
330
59
100
AcDbEntity
  8
_U+30EC_U+30A4_U+30E4_U+30FC 1
 62
   179
420
  2234388
370
    25
  0
POLYLINE
  5
5D
330
55
100
AcDbEntity
  8
_U+30EC_U+30A4_U+30E4_U+30FC 1
 62
   179
420
  2234388
370
    25
100
AcDb2dPolyline
 66
     1
 10
0.0
 20
0.0
 30
0.0
  0
VERTEX
  5
5E
330
5D
100
AcDbEntity
  8
_U+30EC_U+30A4_U+30E4_U+30FC 1
 62
   179
420
  2234388
370
    25
100
AcDbVertex
100
AcDb2dVertex
 10
79.76517220228085
 20
-138.4287652431709
 30
0.0
  0
VERTEX
  5
5F
330
5D
100
AcDbEntity
  8
_U+30EC_U+30A4_U+30E4_U+30FC 1
 62
   179
420
  2234388
370
    25
100
AcDbVertex
100
AcDb2dVertex
 10
82.7651570551516
 20
-138.4287652431709
 30
0.0
  0
SEQEND
  5
60
330
5D
100
AcDbEntity
  8
_U+30EC_U+30A4_U+30E4_U+30FC 1
 62
   179
420
  2234388
370
    25
  0
POLYLINE
  5
61
330
55
100
AcDbEntity
  8
_U+30EC_U+30A4_U+30E4_U+30FC 1
 62
   179
420
  2234388
370
    25
100
AcDb2dPolyline
 66
     1
 10
0.0
 20
0.0
 30
0.0
  0
VERTEX
  5
62
330
61
100
AcDbEntity
  8
_U+30EC_U+30A4_U+30E4_U+30FC 1
 62
   179
420
  2234388
370
    25
100
AcDbVertex
100
AcDb2dVertex
 10
72.76471869917293
 20
-141.4287521868652
 30
0.0
  0
VERTEX
  5
63
330
61
100
AcDbEntity
  8
_U+30EC_U+30A4_U+30E4_U+30FC 1
 62
   179
420
  2234388
370
    25
100
AcDbVertex
100
AcDb2dVertex
 10
82.7651570551516
 20
-141.4287521868652
 30
0.0
  0
SEQEND
  5
64
330
61
100
AcDbEntity
  8
_U+30EC_U+30A4_U+30E4_U+30FC 1
 62
   179
420
  2234388
370
    25
  0
POLYLINE
  5
65
330
55
100
AcDbEntity
  8
_U+30EC_U+30A4_U+30E4_U+30FC 1
 62
   179
420
  2234388
370
    25
100
AcDb2dPolyline
 66
     1
 10
0.0
 20
0.0
 30
0.0
  0
VERTEX
  5
66
330
65
100
AcDbEntity
  8
_U+30EC_U+30A4_U+30E4_U+30FC 1
 62
   179
420
  2234388
370
    25
100
AcDbVertex
100
AcDb2dVertex
 10
72.76471869917293
 20
-121.9286430250734
 30
0.0
  0
VERTEX
  5
67
330
65
100
AcDbEntity
  8
_U+30EC_U+30A4_U+30E4_U+30FC 1
 62
   179
420
  2234388
370
    25
100
AcDbVertex
100
AcDb2dVertex
 10
72.76471869917293
 20
-141.4287521868652
 30
0.0
  0
SEQEND
  5
68
330
65
100
AcDbEntity
  8
_U+30EC_U+30A4_U+30E4_U+30FC 1
 62
   179
420
  2234388
370
    25
  0
POLYLINE
  5
69
330
55
100
AcDbEntity
  8
_U+30EC_U+30A4_U+30E4_U+30FC 1
 62
   179
420
  2234388
370
    25
100
AcDb2dPolyline
 66
     1
 10
0.0
 20
0.0
 30
0.0
  0
VERTEX
  5
6A
330
69
100
AcDbEntity
  8
_U+30EC_U+30A4_U+30E4_U+30FC 1
 62
   179
420
  2234388
370
    25
100
AcDbVertex
100
AcDb2dVertex
 10
112.7648493453512
 20
-129.0284721899651
 30
0.0
  0
VERTEX
  5
6B
330
69
100
AcDbEntity
  8
_U+30EC_U+30A4_U+30E4_U+30FC 1
 62
   179
420
  2234388
370
    25
100
AcDbVertex
100
AcDb2dVertex
 10
112.7648493453512
 20
-129.928337745296
 30
0.0
  0
SEQEND
  5
6C
330
69
100
AcDbEntity
  8
_U+30EC_U+30A4_U+30E4_U+30FC 1
 62
   179
420
  2234388
370
    25
  0
POLYLINE
  5
6D
330
55
100
AcDbEntity
  8
_U+30EC_U+30A4_U+30E4_U+30FC 1
 62
   179
420
  2234388
370
    25
100
AcDb2dPolyline
 66
     1
 10
0.0
 20
0.0
 30
0.0
  0
VERTEX
  5
6E
330
6D
100
AcDbEntity
  8
_U+30EC_U+30A4_U+30E4_U+30FC 1
 62
   179
420
  2234388
370
    25
100
AcDbVertex
100
AcDb2dVertex
 10
72.76471869917293
 20
-121.9286430250734
 30
0.0
  0
VERTEX
  5
6F
330
6D
100
AcDbEntity
  8
_U+30EC_U+30A4_U+30E4_U+30FC 1
 62
   179
420
  2234388
370
    25
100
AcDbVertex
100
AcDb2dVertex
 10
75.76470556708132
 20
-121.9286430250734
 30
0.0
  0
SEQEND
  5
70
330
6D
100
AcDbEntity
  8
_U+30EC_U+30A4_U+30E4_U+30FC 1
 62
   179
420
  2234388
370
    25
  0
POLYLINE
  5
71
330
55
100
AcDbEntity
  8
_U+30EC_U+30A4_U+30E4_U+30FC 1
 62
   179
420
  2234388
370
    25
100
AcDb2dPolyline
 66
     1
 10
0.0
 20
0.0
 30
0.0
  0
VERTEX
  5
72
330
71
100
AcDbEntity
  8
_U+30EC_U+30A4_U+30E4_U+30FC 1
 62
   179
420
  2234388
370
    25
100
AcDbVertex
100
AcDb2dVertex
 10
75.76470556708132
 20
-121.9286430250734
 30
0.0
  0
VERTEX
  5
73
330
71
100
AcDbEntity
  8
_U+30EC_U+30A4_U+30E4_U+30FC 1
 62
   179
420
  2234388
370
    25
100
AcDbVertex
100
AcDb2dVertex
 10
75.76470556708132
 20
-122.9284152470456
 30
0.0
  0
SEQEND
  5
74
330
71
100
AcDbEntity
  8
_U+30EC_U+30A4_U+30E4_U+30FC 1
 62
   179
420
  2234388
370
    25
  0
POLYLINE
  5
75
330
55
100
AcDbEntity
  8
_U+30EC_U+30A4_U+30E4_U+30FC 1
 62
   179
420
  2234388
370
    25
100
AcDb2dPolyline
 66
     1
 10
0.0
 20
0.0
 30
0.0
  0
VERTEX
  5
76
330
75
100
AcDbEntity
  8
_U+30EC_U+30A4_U+30E4_U+30FC 1
 62
   179
420
  2234388
370
    25
100
AcDbVertex
100
AcDb2dVertex
 10
73.66493887047277
 20
-122.9284152470456
 30
0.0
  0
VERTEX
  5
77
330
75
100
AcDbEntity
  8
_U+30EC_U+30A4_U+30E4_U+30FC 1
 62
   179
420
  2234388
370
    25
100
AcDbVertex
100
AcDb2dVertex
 10
75.76470556708132
 20
-122.9284152470456
 30
0.0
  0
SEQEND
  5
78
330
75
100
AcDbEntity
  8
_U+30EC_U+30A4_U+30E4_U+30FC 1
 62
   179
420
  2234388
370
    25
  0
POLYLINE
  5
79
330
55
100
AcDbEntity
  8
_U+30EC_U+30A4_U+30E4_U+30FC 1
 62
   179
420
  2234388
370
    25
100
AcDb2dPolyline
 66
     1
 10
0.0
 20
0.0
 30
0.0
  0
VERTEX
  5
7A
330
79
100
AcDbEntity
  8
_U+30EC_U+30A4_U+30E4_U+30FC 1
 62
   179
420
  2234388
370
    25
100
AcDbVertex
100
AcDb2dVertex
 10
82.7651570551516
 20
-138.4287652431709
 30
0.0
  0
VERTEX
  5
7B
330
79
100
AcDbEntity
  8
_U+30EC_U+30A4_U+30E4_U+30FC 1
 62
   179
420
  2234388
370
    25
100
AcDbVertex
100
AcDb2dVertex
 10
82.7651570551516
 20
-141.4287521868652
 30
0.0
  0
SEQEND
  5
7C
330
79
100
AcDbEntity
  8
_U+30EC_U+30A4_U+30E4_U+30FC 1
 62
   179
420
  2234388
370
    25
  0
POLYLINE
  5
7D
330
55
100
AcDbEntity
  8
_U+30EC_U+30A4_U+30E4_U+30FC 1
 62
   179
420
  2234388
370
    25
100
AcDb2dPolyline
 66
     1
 10
0.0
 20
0.0
 30
0.0
  0
VERTEX
  5
7E
330
7D
100
AcDbEntity
  8
_U+30EC_U+30A4_U+30E4_U+30FC 1
 62
   179
420
  2234388
370
    25
100
AcDbVertex
100
AcDb2dVertex
 10
79.76517220228085
 20
-138.4287652431709
 30
0.0
  0
VERTEX
  5
7F
330
7D
100
AcDbEntity
  8
_U+30EC_U+30A4_U+30E4_U+30FC 1
 62
   179
420
  2234388
370
    25
100
AcDbVertex
100
AcDb2dVertex
 10
79.76517220228085
 20
-139.4285374651428
 30
0.0
  0
SEQEND
  5
80
330
7D
100
AcDbEntity
  8
_U+30EC_U+30A4_U+30E4_U+30FC 1
 62
   179
420
  2234388
370
    25
  0
POLYLINE
  5
81
330
55
100
AcDbEntity
  8
_U+30EC_U+30A4_U+30E4_U+30FC 1
 62
   179
420
  2234388
370
    25
100
AcDb2dPolyline
 66
     1
 10
0.0
 20
0.0
 30
0.0
  0
VERTEX
  5
82
330
81
100
AcDbEntity
  8
_U+30EC_U+30A4_U+30E4_U+30FC 1
 62
   179
420
  2234388
370
    25
100
AcDbVertex
100
AcDb2dVertex
 10
79.76517220228085
 20
-139.4285374651428
 30
0.0
  0
VERTEX
  5
83
330
81
100
AcDbEntity
  8
_U+30EC_U+30A4_U+30E4_U+30FC 1
 62
   179
420
  2234388
370
    25
100
AcDbVertex
100
AcDb2dVertex
 10
81.76467930289813
 20
-139.4285374651428
 30
0.0
  0
SEQEND
  5
84
330
81
100
AcDbEntity
  8
_U+30EC_U+30A4_U+30E4_U+30FC 1
 62
   179
420
  2234388
370
    25
  0
POLYLINE
  5
85
330
55
100
AcDbEntity
  8
_U+30EC_U+30A4_U+30E4_U+30FC 1
 62
   179
420
  2234388
370
    25
100
AcDb2dPolyline
 66
     1
 10
0.0
 20
0.0
 30
0.0
  0
VERTEX
  5
86
330
85
100
AcDbEntity
  8
_U+30EC_U+30A4_U+30E4_U+30FC 1
 62
   179
420
  2234388
370
    25
100
AcDbVertex
100
AcDb2dVertex
 10
73.66493887047277
 20
-140.4283096871153
 30
0.0
  0
VERTEX
  5
87
330
85
100
AcDbEntity
  8
_U+30EC_U+30A4_U+30E4_U+30FC 1
 62
   179
420
  2234388
370
    25
100
AcDbVertex
100
AcDb2dVertex
 10
81.76467930289813
 20
-140.4283096871153
 30
0.0
  0
SEQEND
  5
88
330
85
100
AcDbEntity
  8
_U+30EC_U+30A4_U+30E4_U+30FC 1
 62
   179
420
  2234388
370
    25
  0
POLYLINE
  5
89
330
55
100
AcDbEntity
  8
_U+30EC_U+30A4_U+30E4_U+30FC 1
 62
   179
420
  2234388
370
    25
100
AcDb2dPolyline
 66
     1
 10
0.0
 20
0.0
 30
0.0
  0
VERTEX
  5
8A
330
89
100
AcDbEntity
  8
_U+30EC_U+30A4_U+30E4_U+30FC 1
 62
   179
420
  2234388
370
    25
100
AcDbVertex
100
AcDb2dVertex
 10
81.76467930289813
 20
-139.4285374651428
 30
0.0
  0
VERTEX
  5
8B
330
89
100
AcDbEntity
  8
_U+30EC_U+30A4_U+30E4_U+30FC 1
 62
   179
420
  2234388
370
    25
100
AcDbVertex
100
AcDb2dVertex
 10
81.76467930289813
 20
-140.4283096871153
 30
0.0
  0
SEQEND
  5
8C
330
89
100
AcDbEntity
  8
_U+30EC_U+30A4_U+30E4_U+30FC 1
 62
   179
420
  2234388
370
    25
  0
POLYLINE
  5
8D
330
55
100
AcDbEntity
  8
_U+30EC_U+30A4_U+30E4_U+30FC 1
 62
   179
420
  2234388
370
    25
100
AcDb2dPolyline
 66
     1
 10
0.0
 20
0.0
 30
0.0
  0
VERTEX
  5
8E
330
8D
100
AcDbEntity
  8
_U+30EC_U+30A4_U+30E4_U+30FC 1
 62
   179
420
  2234388
370
    25
100
AcDbVertex
100
AcDb2dVertex
 10
73.66493887047277
 20
-129.0284721899651
 30
0.0
  0
VERTEX
  5
8F
330
8D
100
AcDbEntity
  8
_U+30EC_U+30A4_U+30E4_U+30FC 1
 62
   179
420
  2234388
370
    25
100
AcDbVertex
100
AcDb2dVertex
 10
112.7648493453512
 20
-129.0284721899651
 30
0.0
  0
SEQEND
  5
90
330
8D
100
AcDbEntity
  8
_U+30EC_U+30A4_U+30E4_U+30FC 1
 62
   179
420
  2234388
370
    25
  0
POLYLINE
  5
91
330
55
100
AcDbEntity
  8
_U+30EC_U+30A4_U+30E4_U+30FC 1
 62
   179
420
  2234388
370
    25
100
AcDb2dPolyline
 66
     1
 10
0.0
 20
0.0
 30
0.0
  0
VERTEX
  5
92
330
91
100
AcDbEntity
  8
_U+30EC_U+30A4_U+30E4_U+30FC 1
 62
   179
420
  2234388
370
    25
100
AcDbVertex
100
AcDb2dVertex
 10
73.66493887047277
 20
-122.9284152470456
 30
0.0
  0
VERTEX
  5
93
330
91
100
AcDbEntity
  8
_U+30EC_U+30A4_U+30E4_U+30FC 1
 62
   179
420
  2234388
370
    25
100
AcDbVertex
100
AcDb2dVertex
 10
73.66493887047277
 20
-129.0284721899651
 30
0.0
  0
SEQEND
  5
94
330
91
100
AcDbEntity
  8
_U+30EC_U+30A4_U+30E4_U+30FC 1
 62
   179
420
  2234388
370
    25
  0
POLYLINE
  5
95
330
55
100
AcDbEntity
  8
_U+30EC_U+30A4_U+30E4_U+30FC 1
 62
   179
420
  2234388
370
    25
100
AcDb2dPolyline
 66
     1
 10
0.0
 20
0.0
 30
0.0
  0
VERTEX
  5
96
330
95
100
AcDbEntity
  8
_U+30EC_U+30A4_U+30E4_U+30FC 1
 62
   179
420
  2234388
370
    25
100
AcDbVertex
100
AcDb2dVertex
 10
73.66493887047277
 20
-129.928337745296
 30
0.0
  0
VERTEX
  5
97
330
95
100
AcDbEntity
  8
_U+30EC_U+30A4_U+30E4_U+30FC 1
 62
   179
420
  2234388
370
    25
100
AcDbVertex
100
AcDb2dVertex
 10
73.66493887047277
 20
-140.4283096871153
 30
0.0
  0
SEQEND
  5
98
330
95
100
AcDbEntity
  8
_U+30EC_U+30A4_U+30E4_U+30FC 1
 62
   179
420
  2234388
370
    25
  0
SPLINE
  5
99
330
55
100
AcDbEntity
  8
_U+30EC_U+30A4_U+30E4_U+30FC 1
 62
   179
420
  2234388
370
     9
100
AcDbSpline
210
0.0
220
0.0
230
1.0
 70
    11
 71
     3
 72
    17
 73
    13
 74
     0
 42
0.0000000001
 43
0.0000000001
 12
1.0
 22
0.0
 32
0.0
 13
1.0
 23
0.0
 33
0.0
 40
0.0
 40
0.0
 40
0.0
 40
0.0
 40
1.0
 40
1.0
 40
1.0
 40
2.0
 40
2.0
 40
2.0
 40
3.0
 40
3.0
 40
3.0
 40
4.0
 40
4.0
 40
4.0
 40
4.0
 10
72.86497814105954
 20
-113.9284544159622
 30
0.0
 10
72.86497814105954
 20
-113.8731388604206
 30
0.0
 10
72.82017536442477
 20
-113.8283713604317
 30
0.0
 10
72.76471869917293
 20
-113.8283713604317
 30
0.0
 10
72.70961664848919
 20
-113.8283713604317
 30
0.0
 10
72.66481387072278
 20
-113.8731388604206
 30
0.0
 10
72.66481387072278
 20
-113.9284544159622
 30
0.0
 10
72.66481387072278
 20
-113.9837346937263
 30
0.0
 10
72.70961664848919
 20
-114.0283610826039
 30
0.0
 10
72.76471869917293
 20
-114.0283610826039
 30
0.0
 10
72.82017536442477
 20
-114.0283610826039
 30
0.0
 10
72.86497814105954
 20
-113.9837346937263
 30
0.0
 10
72.86497814105954
 20
-113.9284544159622
 30
0.0
  0
SPLINE
  5
9A
330
55
100
AcDbEntity
  8
_U+30EC_U+30A4_U+30E4_U+30FC 1
 62
   179
420
  2234388
370
     9
100
AcDbSpline
210
0.0
220
0.0
230
1.0
 70
    11
 71
     3
 72
    17
 73
    13
 74
     0
 42
0.0000000001
 43
0.0000000001
 12
1.0
 22
0.0
 32
0.0
 13
1.0
 23
0.0
 33
0.0
 40
0.0
 40
0.0
 40
0.0
 40
0.0
 40
1.0
 40
1.0
 40
1.0
 40
2.0
 40
2.0
 40
2.0
 40
3.0
 40
3.0
 40
3.0
 40
4.0
 40
4.0
 40
4.0
 40
4.0
 10
72.86497814105954
 20
-117.9282135816291
 30
0.0
 10
72.86497814105954
 20
-117.873074414976
 30
0.0
 10
72.82017536442477
 20
-117.8283069149875
 30
0.0
 10
72.76471869917293
 20
-117.8283069149875
 30
0.0
 10
72.70961664848919
 20
-117.8283069149875
 30
0.0
 10
72.66481387072278
 20
-117.873074414976
 30
0.0
 10
72.66481387072278
 20
-117.9282135816291
 30
0.0
 10
72.66481387072278
 20
-117.9836702482818
 30
0.0
 10
72.70961664848919
 20
-118.0284377482707
 30
0.0
 10
72.76471869917293
 20
-118.0284377482707
 30
0.0
 10
72.82017536442477
 20
-118.0284377482707
 30
0.0
 10
72.86497814105954
 20
-117.9836702482818
 30
0.0
 10
72.86497814105954
 20
-117.9282135816291
 30
0.0
  0
SPLINE
  5
9B
330
55
100
AcDbEntity
  8
_U+30EC_U+30A4_U+30E4_U+30FC 1
 62
   179
420
  2234388
370
     9
100
AcDbSpline
210
0.0
220
0.0
230
1.0
 70
    11
 71
     3
 72
    17
 73
    13
 74
     0
 42
0.0000000001
 43
0.0000000001
 12
1.0
 22
0.0
 32
0.0
 13
1.0
 23
0.0
 33
0.0
 40
0.0
 40
0.0
 40
0.0
 40
0.0
 40
1.0
 40
1.0
 40
1.0
 40
2.0
 40
2.0
 40
2.0
 40
3.0
 40
3.0
 40
3.0
 40
4.0
 40
4.0
 40
4.0
 40
4.0
 10
75.86496500896794
 20
-117.9282135816291
 30
0.0
 10
75.86496500896794
 20
-117.873074414976
 30
0.0
 10
75.82016223233317
 20
-117.8283069149875
 30
0.0
 10
75.76470556708132
 20
-117.8283069149875
 30
0.0
 10
75.70960167959825
 20
-117.8283069149875
 30
0.0
 10
75.6647989029635
 20
-117.873074414976
 30
0.0
 10
75.6647989029635
 20
-117.9282135816291
 30
0.0
 10
75.6647989029635
 20
-117.9836702482818
 30
0.0
 10
75.70960167959825
 20
-118.0284377482707
 30
0.0
 10
75.76470556708132
 20
-118.0284377482707
 30
0.0
 10
75.82016223233317
 20
-118.0284377482707
 30
0.0
 10
75.86496500896794
 20
-117.9836702482818
 30
0.0
 10
75.86496500896794
 20
-117.9282135816291
 30
0.0
  0
SPLINE
  5
9C
330
55
100
AcDbEntity
  8
_U+30EC_U+30A4_U+30E4_U+30FC 1
 62
   179
420
  2234388
370
     9
100
AcDbSpline
210
0.0
220
0.0
230
1.0
 70
    11
 71
     3
 72
    17
 73
    13
 74
     0
 42
0.0000000001
 43
0.0000000001
 12
1.0
 22
0.0
 32
0.0
 13
1.0
 23
0.0
 33
0.0
 40
0.0
 40
0.0
 40
0.0
 40
0.0
 40
1.0
 40
1.0
 40
1.0
 40
2.0
 40
2.0
 40
2.0
 40
3.0
 40
3.0
 40
3.0
 40
4.0
 40
4.0
 40
4.0
 40
4.0
 10
112.8647560094691
 20
-113.9284544159622
 30
0.0
 10
112.8647560094691
 20
-113.8731388604206
 30
0.0
 10
112.8199885106112
 20
-113.8283713604317
 30
0.0
 10
112.7648493453512
 20
-113.8283713604317
 30
0.0
 10
112.7097454578682
 20
-113.8283713604317
 30
0.0
 10
112.6649426812334
 20
-113.8731388604206
 30
0.0
 10
112.6649426812334
 20
-113.9284544159622
 30
0.0
 10
112.6649426812334
 20
-113.9837346937263
 30
0.0
 10
112.7097454578682
 20
-114.0283610826039
 30
0.0
 10
112.7648493453512
 20
-114.0283610826039
 30
0.0
 10
112.8199885106112
 20
-114.0283610826039
 30
0.0
 10
112.8647560094691
 20
-113.9837346937263
 30
0.0
 10
112.8647560094691
 20
-113.9284544159622
 30
0.0
  0
SPLINE
  5
9D
330
55
100
AcDbEntity
  8
_U+30EC_U+30A4_U+30E4_U+30FC 1
 62
   179
420
  2234388
370
     9
100
AcDbSpline
210
0.0
220
0.0
230
1.0
 70
    11
 71
     3
 72
    17
 73
    13
 74
     0
 42
0.0000000001
 43
0.0000000001
 12
1.0
 22
0.0
 32
0.0
 13
1.0
 23
0.0
 33
0.0
 40
0.0
 40
0.0
 40
0.0
 40
0.0
 40
1.0
 40
1.0
 40
1.0
 40
2.0
 40
2.0
 40
2.0
 40
3.0
 40
3.0
 40
3.0
 40
4.0
 40
4.0
 40
4.0
 40
4.0
 10
116.8645150740934
 20
-129.928337745296
 30
0.0
 10
116.8645150740934
 20
-129.8731985786429
 30
0.0
 10
116.8197475752355
 20
-129.8284310786537
 30
0.0
 10
116.7646084099756
 20
-129.8284310786537
 30
0.0
 10
116.7095045224925
 20
-129.8284310786537
 30
0.0
 10
116.6647017458577
 20
-129.8731985786429
 30
0.0
 10
116.6647017458577
 20
-129.928337745296
 30
0.0
 10
116.6647017458577
 20
-129.9834416341709
 30
0.0
 10
116.7095045224925
 20
-130.0282444119377
 30
0.0
 10
116.7646084099756
 20
-130.0282444119377
 30
0.0
 10
116.8197475752355
 20
-130.0282444119377
 30
0.0
 10
116.8645150740934
 20
-129.9834416341709
 30
0.0
 10
116.8645150740934
 20
-129.928337745296
 30
0.0
  0
SPLINE
  5
9E
330
55
100
AcDbEntity
  8
_U+30EC_U+30A4_U+30E4_U+30FC 1
 62
   179
420
  2234388
370
     9
100
AcDbSpline
210
0.0
220
0.0
230
1.0
 70
    11
 71
     3
 72
    17
 73
    13
 74
     0
 42
0.0000000001
 43
0.0000000001
 12
1.0
 22
0.0
 32
0.0
 13
1.0
 23
0.0
 33
0.0
 40
0.0
 40
0.0
 40
0.0
 40
0.0
 40
1.0
 40
1.0
 40
1.0
 40
2.0
 40
2.0
 40
2.0
 40
3.0
 40
3.0
 40
3.0
 40
4.0
 40
4.0
 40
4.0
 40
4.0
 10
116.8645150740934
 20
-138.4287652431709
 30
0.0
 10
116.8645150740934
 20
-138.3729557987404
 30
0.0
 10
116.8197475752355
 20
-138.3281530209737
 30
0.0
 10
116.7646084099756
 20
-138.3281530209737
 30
0.0
 10
116.7095045224925
 20
-138.3281530209737
 30
0.0
 10
116.6647017458577
 20
-138.3729557987404
 30
0.0
 10
116.6647017458577
 20
-138.4287652431709
 30
0.0
 10
116.6647017458577
 20
-138.4838691320458
 30
0.0
 10
116.7095045224925
 20
-138.5286719098125
 30
0.0
 10
116.7646084099756
 20
-138.5286719098125
 30
0.0
 10
116.8197475752355
 20
-138.5286719098125
 30
0.0
 10
116.8645150740934
 20
-138.4838691320458
 30
0.0
 10
116.8645150740934
 20
-138.4287652431709
 30
0.0
  0
SPLINE
  5
9F
330
55
100
AcDbEntity
  8
_U+30EC_U+30A4_U+30E4_U+30FC 1
 62
   179
420
  2234388
370
     9
100
AcDbSpline
210
0.0
220
0.0
230
1.0
 70
    11
 71
     3
 72
    17
 73
    13
 74
     0
 42
0.0000000001
 43
0.0000000001
 12
1.0
 22
0.0
 32
0.0
 13
1.0
 23
0.0
 33
0.0
 40
0.0
 40
0.0
 40
0.0
 40
0.0
 40
1.0
 40
1.0
 40
1.0
 40
2.0
 40
2.0
 40
2.0
 40
3.0
 40
3.0
 40
3.0
 40
4.0
 40
4.0
 40
4.0
 40
4.0
 10
116.8645150740934
 20
-141.4287521868652
 30
0.0
 10
116.8645150740934
 20
-141.3729427424348
 30
0.0
 10
116.8197475752355
 20
-141.328139964668
 30
0.0
 10
116.7646084099756
 20
-141.328139964668
 30
0.0
 10
116.7095045224925
 20
-141.328139964668
 30
0.0
 10
116.6647017458577
 20
-141.3729427424348
 30
0.0
 10
116.6647017458577
 20
-141.4287521868652
 30
0.0
 10
116.6647017458577
 20
-141.4838560757401
 30
0.0
 10
116.7095045224925
 20
-141.5286588535068
 30
0.0
 10
116.7646084099756
 20
-141.5286588535068
 30
0.0
 10
116.8197475752355
 20
-141.5286588535068
 30
0.0
 10
116.8645150740934
 20
-141.4838560757401
 30
0.0
 10
116.8645150740934
 20
-141.4287521868652
 30
0.0
  0
SPLINE
  5
A0
330
55
100
AcDbEntity
  8
_U+30EC_U+30A4_U+30E4_U+30FC 1
 62
   179
420
  2234388
370
     9
100
AcDbSpline
210
0.0
220
0.0
230
1.0
 70
    11
 71
     3
 72
    17
 73
    13
 74
     0
 42
0.0000000001
 43
0.0000000001
 12
1.0
 22
0.0
 32
0.0
 13
1.0
 23
0.0
 33
0.0
 40
0.0
 40
0.0
 40
0.0
 40
0.0
 40
1.0
 40
1.0
 40
1.0
 40
2.0
 40
2.0
 40
2.0
 40
3.0
 40
3.0
 40
3.0
 40
4.0
 40
4.0
 40
4.0
 40
4.0
 10
72.86497814105954
 20
-145.4285113525321
 30
0.0
 10
72.86497814105954
 20
-145.373372185879
 30
0.0
 10
72.82017536442477
 20
-145.3286046858898
 30
0.0
 10
72.76471869917293
 20
-145.3286046858898
 30
0.0
 10
72.70961664848919
 20
-145.3286046858898
 30
0.0
 10
72.66481387072278
 20
-145.373372185879
 30
0.0
 10
72.66481387072278
 20
-145.4285113525321
 30
0.0
 10
72.66481387072278
 20
-145.483615241407
 30
0.0
 10
72.70961664848919
 20
-145.5284180191737
 30
0.0
 10
72.76471869917293
 20
-145.5284180191737
 30
0.0
 10
72.82017536442477
 20
-145.5284180191737
 30
0.0
 10
72.86497814105954
 20
-145.483615241407
 30
0.0
 10
72.86497814105954
 20
-145.4285113525321
 30
0.0
  0
SPLINE
  5
A1
330
55
100
AcDbEntity
  8
_U+30EC_U+30A4_U+30E4_U+30FC 1
 62
   179
420
  2234388
370
     9
100
AcDbSpline
210
0.0
220
0.0
230
1.0
 70
    11
 71
     3
 72
    17
 73
    13
 74
     0
 42
0.0000000001
 43
0.0000000001
 12
1.0
 22
0.0
 32
0.0
 13
1.0
 23
0.0
 33
0.0
 40
0.0
 40
0.0
 40
0.0
 40
0.0
 40
1.0
 40
1.0
 40
1.0
 40
2.0
 40
2.0
 40
2.0
 40
3.0
 40
3.0
 40
3.0
 40
4.0
 40
4.0
 40
4.0
 40
4.0
 10
82.86506371926943
 20
-145.4285113525321
 30
0.0
 10
82.86506371926943
 20
-145.373372185879
 30
0.0
 10
82.82026094263468
 20
-145.3286046858898
 30
0.0
 10
82.7651570551516
 20
-145.3286046858898
 30
0.0
 10
82.71001788989165
 20
-145.3286046858898
 30
0.0
 10
82.66525039103377
 20
-145.373372185879
 30
0.0
 10
82.66525039103377
 20
-145.4285113525321
 30
0.0
 10
82.66525039103377
 20
-145.483615241407
 30
0.0
 10
82.71001788989165
 20
-145.5284180191737
 30
0.0
 10
82.7651570551516
 20
-145.5284180191737
 30
0.0
 10
82.82026094263468
 20
-145.5284180191737
 30
0.0
 10
82.86506371926943
 20
-145.483615241407
 30
0.0
 10
82.86506371926943
 20
-145.4285113525321
 30
0.0
  0
SPLINE
  5
A2
330
55
100
AcDbEntity
  8
_U+30EC_U+30A4_U+30E4_U+30FC 1
 62
   179
420
  2234388
370
     9
100
AcDbSpline
210
0.0
220
0.0
230
1.0
 70
    11
 71
     3
 72
    17
 73
    13
 74
     0
 42
0.0000000001
 43
0.0000000001
 12
1.0
 22
0.0
 32
0.0
 13
1.0
 23
0.0
 33
0.0
 40
0.0
 40
0.0
 40
0.0
 40
0.0
 40
1.0
 40
1.0
 40
1.0
 40
2.0
 40
2.0
 40
2.0
 40
3.0
 40
3.0
 40
3.0
 40
4.0
 40
4.0
 40
4.0
 40
4.0
 10
68.14537776074131
 20
-121.9286430250734
 30
0.0
 10
68.14537776074131
 20
-121.8731863584207
 30
0.0
 10
68.10057498297492
 20
-121.828383580654
 30
0.0
 10
68.04546937512656
 20
-121.828383580654
 30
0.0
 10
67.99033020986661
 20
-121.828383580654
 30
0.0
 10
67.94556271100872
 20
-121.8731863584207
 30
0.0
 10
67.94556271100872
 20
-121.9286430250734
 30
0.0
 10
67.94556271100872
 20
-121.9837821917264
 30
0.0
 10
67.99033020986661
 20
-122.028549691715
 30
0.0
 10
68.04546937512656
 20
-122.028549691715
 30
0.0
 10
68.10057498297492
 20
-122.028549691715
 30
0.0
 10
68.14537776074131
 20
-121.9837821917264
 30
0.0
 10
68.14537776074131
 20
-121.9286430250734
 30
0.0
  0
SPLINE
  5
A3
330
55
100
AcDbEntity
  8
_U+30EC_U+30A4_U+30E4_U+30FC 1
 62
   179
420
  2234388
370
     9
100
AcDbSpline
210
0.0
220
0.0
230
1.0
 70
    11
 71
     3
 72
    17
 73
    13
 74
     0
 42
0.0000000001
 43
0.0000000001
 12
1.0
 22
0.0
 32
0.0
 13
1.0
 23
0.0
 33
0.0
 40
0.0
 40
0.0
 40
0.0
 40
0.0
 40
1.0
 40
1.0
 40
1.0
 40
2.0
 40
2.0
 40
2.0
 40
3.0
 40
3.0
 40
3.0
 40
4.0
 40
4.0
 40
4.0
 40
4.0
 10
68.14537776074131
 20
-141.4287521868652
 30
0.0
 10
68.14537776074131
 20
-141.3729427424348
 30
0.0
 10
68.10057498297492
 20
-141.328139964668
 30
0.0
 10
68.04546937512656
 20
-141.328139964668
 30
0.0
 10
67.99033020986661
 20
-141.328139964668
 30
0.0
 10
67.94556271100872
 20
-141.3729427424348
 30
0.0
 10
67.94556271100872
 20
-141.4287521868652
 30
0.0
 10
67.94556271100872
 20
-141.4838560757401
 30
0.0
 10
67.99033020986661
 20
-141.5286588535068
 30
0.0
 10
68.04546937512656
 20
-141.5286588535068
 30
0.0
 10
68.10057498297492
 20
-141.5286588535068
 30
0.0
 10
68.14537776074131
 20
-141.4838560757401
 30
0.0
 10
68.14537776074131
 20
-141.4287521868652
 30
0.0
  0
INSERT
  5
A5
330
55
100
AcDbEntity
  8
_U+30EC_U+30A4_U+30E4_U+30FC 1
100
AcDbBlockReference
  2
block 3
 10
0.0
 20
0.0
 30
0.0
  0
INSERT
  5
BB
330
55
100
AcDbEntity
  8
_U+30EC_U+30A4_U+30E4_U+30FC 1
100
AcDbBlockReference
  2
block 5
 10
0.0
 20
0.0
 30
0.0
  0
INSERT
  5
D1
330
55
100
AcDbEntity
  8
_U+30EC_U+30A4_U+30E4_U+30FC 1
100
AcDbBlockReference
  2
block 7
 10
0.0
 20
0.0
 30
0.0
  0
INSERT
  5
FD
330
55
100
AcDbEntity
  8
_U+30EC_U+30A4_U+30E4_U+30FC 1
100
AcDbBlockReference
  2
block 9
 10
0.0
 20
0.0
 30
0.0
  0
INSERT
  5
116
330
55
100
AcDbEntity
  8
_U+30EC_U+30A4_U+30E4_U+30FC 1
100
AcDbBlockReference
  2
block 11
 10
0.0
 20
0.0
 30
0.0
  0
INSERT
  5
139
330
55
100
AcDbEntity
  8
_U+30EC_U+30A4_U+30E4_U+30FC 1
100
AcDbBlockReference
  2
block 13
 10
0.0
 20
0.0
 30
0.0
  0
ENDBLK
  5
58
330
55
100
AcDbEntity
  8
0
100
AcDbBlockEnd
  0
BLOCK
  5
A6
330
A4
100
AcDbEntity
  8
0
100
AcDbBlockBegin
  2
block 3
 70
     0
 10
0.0
 20
0.0
 30
0.0
  3
block 3
  1

  0
POLYLINE
  5
A8
330
A4
100
AcDbEntity
  8
_U+30EC_U+30A4_U+30E4_U+30FC 1
 62
   179
420
  2234388
370
     9
100
AcDb2dPolyline
 66
     1
 10
0.0
 20
0.0
 30
0.0
  0
VERTEX
  5
A9
330
A8
100
AcDbEntity
  8
_U+30EC_U+30A4_U+30E4_U+30FC 1
 62
   179
420
  2234388
370
     9
100
AcDbVertex
100
AcDb2dVertex
 10
116.7646084099756
 20
-138.4287652431709
 30
0.0
  0
VERTEX
  5
AA
330
A8
100
AcDbEntity
  8
_U+30EC_U+30A4_U+30E4_U+30FC 1
 62
   179
420
  2234388
370
     9
100
AcDbVertex
100
AcDb2dVertex
 10
116.7646084099756
 20
-141.4287521868652
 30
0.0
  0
SEQEND
  5
AB
330
A8
100
AcDbEntity
  8
_U+30EC_U+30A4_U+30E4_U+30FC 1
 62
   179
420
  2234388
370
     9
  0
POLYLINE
  5
AC
330
A4
100
AcDbEntity
  8
_U+30EC_U+30A4_U+30E4_U+30FC 1
 62
   179
420
  2234388
370
     9
100
AcDb2dPolyline
 66
     1
 10
0.0
 20
0.0
 30
0.0
  0
VERTEX
  5
AD
330
AC
100
AcDbEntity
  8
_U+30EC_U+30A4_U+30E4_U+30FC 1
 62
   179
420
  2234388
370
     9
100
AcDbVertex
100
AcDb2dVertex
 10
85.30487476813578
 20
-138.4287652431709
 30
0.0
  0
VERTEX
  5
AE
330
AC
100
AcDbEntity
  8
_U+30EC_U+30A4_U+30E4_U+30FC 1
 62
   179
420
  2234388
370
     9
100
AcDbVertex
100
AcDb2dVertex
 10
117.765086162229
 20
-138.4287652431709
 30
0.0
  0
SEQEND
  5
AF
330
AC
100
AcDbEntity
  8
_U+30EC_U+30A4_U+30E4_U+30FC 1
 62
   179
420
  2234388
370
     9
  0
POLYLINE
  5
B0
330
A4
100
AcDbEntity
  8
_U+30EC_U+30A4_U+30E4_U+30FC 1
 62
   179
420
  2234388
370
     9
100
AcDb2dPolyline
 66
     1
 10
0.0
 20
0.0
 30
0.0
  0
VERTEX
  5
B1
330
B0
100
AcDbEntity
  8
_U+30EC_U+30A4_U+30E4_U+30FC 1
 62
   179
420
  2234388
370
     9
100
AcDbVertex
100
AcDb2dVertex
 10
85.30487476813578
 20
-141.4287521868652
 30
0.0
  0
VERTEX
  5
B2
330
B0
100
AcDbEntity
  8
_U+30EC_U+30A4_U+30E4_U+30FC 1
 62
   179
420
  2234388
370
     9
100
AcDbVertex
100
AcDb2dVertex
 10
117.765086162229
 20
-141.4287521868652
 30
0.0
  0
SEQEND
  5
B3
330
B0
100
AcDbEntity
  8
_U+30EC_U+30A4_U+30E4_U+30FC 1
 62
   179
420
  2234388
370
     9
  0
INSERT
  5
B5
330
A4
100
AcDbEntity
  8
_U+30EC_U+30A4_U+30E4_U+30FC 1
100
AcDbBlockReference
  2
block 4
 10
0.0
 20
0.0
 30
0.0
  0
ENDBLK
  5
A7
330
A4
100
AcDbEntity
  8
0
100
AcDbBlockEnd
  0
BLOCK
  5
B6
330
B4
100
AcDbEntity
  8
0
100
AcDbBlockBegin
  2
block 4
 70
     0
 10
0.0
 20
0.0
 30
0.0
  3
block 4
  1

  0
SPLINE
  5
B8
330
B4
100
AcDbEntity
  8
_U+30EC_U+30A4_U+30E4_U+30FC 1
370
     0
100
AcDbSpline
210
0.0
220
0.0
230
1.0
 70
    11
 71
     3
 72
    62
 73
    58
 74
     0
 42
0.0000000001
 43
0.0000000001
 12
1.0
 22
0.0
 32
0.0
 13
1.0
 23
0.0
 33
0.0
 40
0.0
 40
0.0
 40
0.0
 40
0.0
 40
1.0
 40
1.0
 40
1.0
 40
2.0
 40
2.0
 40
2.0
 40
3.0
 40
3.0
 40
3.0
 40
4.0
 40
4.0
 40
4.0
 40
5.0
 40
5.0
 40
5.0
 40
6.0
 40
6.0
 40
6.0
 40
7.0
 40
7.0
 40
7.0
 40
8.0
 40
8.0
 40
8.0
 40
9.0
 40
9.0
 40
9.0
 40
10.0
 40
10.0
 40
10.0
 40
11.0
 40
11.0
 40
11.0
 40
12.0
 40
12.0
 40
12.0
 40
13.0
 40
13.0
 40
13.0
 40
14.0
 40
14.0
 40
14.0
 40
15.0
 40
15.0
 40
15.0
 40
16.0
 40
16.0
 40
16.0
 40
17.0
 40
17.0
 40
17.0
 40
18.0
 40
18.0
 40
18.0
 40
19.0
 40
19.0
 40
19.0
 40
19.0
 10
116.1693087817216
 20
-139.9380560631058
 30
0.0
 10
116.1693087817216
 20
-140.0396863799207
 30
0.0
 10
116.1482936992615
 20
-140.2725748347235
 30
0.0
 10
115.9622585430581
 20
-140.4059000300027
 30
0.0
 10
115.8499484302389
 20
-140.4851372261634
 30
0.0
 10
115.7507296802637
 20
-140.4896158502943
 30
0.0
 10
115.6659803313266
 20
-140.4940944744251
 30
0.0
 10
115.6659803313266
 20
-140.4940944744251
 30
0.0
 10
115.6659803313266
 20
-140.2591389623311
 30
0.0
 10
115.6659803313266
 20
-140.2591389623311
 30
0.0
 10
115.7400498842594
 20
-140.2567273954914
 30
0.0
 10
115.974660886805
 20
-140.24535858039
 30
0.0
 10
115.974660886805
 20
-139.9425346872366
 30
0.0
 10
115.974660886805
 20
-139.7954291100164
 30
0.0
 10
115.9050699580029
 20
-139.6328206031126
 30
0.0
 10
115.6766601273308
 20
-139.6328206031126
 30
0.0
 10
115.5602158999294
 20
-139.6328206031126
 30
0.0
 10
115.5116400535874
 20
-139.6734727298386
 30
0.0
 10
115.4799451751231
 20
-139.7075791751426
 30
0.0
 10
115.4058756221902
 20
-139.7864718617548
 30
0.0
 10
115.3931287688948
 20
-139.9108398087723
 30
0.0
 10
115.3931287688948
 20
-139.9697509415701
 30
0.0
 10
115.3931287688948
 20
-139.9900770049331
 30
0.0
 10
115.3951958261859
 20
-140.0283175648193
 30
0.0
 10
115.3993299407682
 20
-140.0579453859925
 30
0.0
 10
115.3993299407682
 20
-140.0579453859925
 30
0.0
 10
115.2046820458516
 20
-140.0579453859925
 30
0.0
 10
115.2046820458516
 20
-140.0579453859925
 30
0.0
 10
115.2112277272736
 20
-140.0172932592665
 30
0.0
 10
115.2132947845647
 20
-139.9718179988612
 30
0.0
 10
115.2132947845647
 20
-139.9652723174393
 30
0.0
 10
115.2132947845647
 20
-139.8949923695401
 30
0.0
 10
115.1919351925562
 20
-139.6824299781002
 30
0.0
 10
114.9552571327195
 20
-139.6824299781002
 30
0.0
 10
114.7774902056806
 20
-139.6824299781002
 30
0.0
 10
114.7223686779166
 20
-139.8226453643499
 30
0.0
 10
114.7223686779166
 20
-139.9401231203969
 30
0.0
 10
114.7223686779166
 20
-140.2229654597359
 30
0.0
 10
114.9552571327195
 20
-140.2319227079976
 30
0.0
 10
115.0269151188127
 20
-140.2364013321284
 30
0.0
 10
115.0269151188127
 20
-140.2364013321284
 30
0.0
 10
115.0269151188127
 20
-140.4534423476991
 30
0.0
 10
115.0269151188127
 20
-140.4534423476991
 30
0.0
 10
114.9022026622467
 20
-140.4444850994375
 30
0.0
 10
114.5256537257089
 20
-140.4152017878129
 30
0.0
 10
114.5256537257089
 20
-139.9266872480044
 30
0.0
 10
114.5256537257089
 20
-139.6869086022311
 30
0.0
 10
114.6527777491146
 20
-139.4292154599344
 30
0.0
 10
114.9487114512976
 20
-139.4292154599344
 30
0.0
 10
115.1350911170496
 20
-139.4292154599344
 30
0.0
 10
115.217428899147
 20
-139.5311902862978
 30
0.0
 10
115.2787515987845
 20
-139.6372992272435
 30
0.0
 10
115.3063123626665
 20
-139.5718424130237
 30
0.0
 10
115.3865830874728
 20
-139.3771945181071
 30
0.0
 10
115.6639132740354
 20
-139.3771945181071
 30
0.0
 10
116.0022216506869
 20
-139.3771945181071
 30
0.0
 10
116.1693087817216
 20
-139.6417778513743
 30
0.0
 10
116.1693087817216
 20
-139.9380560631058
 30
0.0
  0
HATCH
  5
B9
330
B4
100
AcDbEntity
  8
_U+30EC_U+30A4_U+30E4_U+30FC 1
 62
   179
420
  2234388
100
AcDbHatch
 10
0.0
 20
0.0
 30
0.0
210
0.0
220
0.0
230
1.0
  2
SOLID
 70
     1
 71
     0
 91
        1
 92
        1
 93
        1
 72
     4
 94
        3
 73
     0
 74
     1
 95
       62
 96
       58
 40
0.0
 40
0.0
 40
0.0
 40
0.0
 40
1.0
 40
1.0
 40
1.0
 40
2.0
 40
2.0
 40
2.0
 40
3.0
 40
3.0
 40
3.0
 40
4.0
 40
4.0
 40
4.0
 40
5.0
 40
5.0
 40
5.0
 40
6.0
 40
6.0
 40
6.0
 40
7.0
 40
7.0
 40
7.0
 40
8.0
 40
8.0
 40
8.0
 40
9.0
 40
9.0
 40
9.0
 40
10.0
 40
10.0
 40
10.0
 40
11.0
 40
11.0
 40
11.0
 40
12.0
 40
12.0
 40
12.0
 40
13.0
 40
13.0
 40
13.0
 40
14.0
 40
14.0
 40
14.0
 40
15.0
 40
15.0
 40
15.0
 40
16.0
 40
16.0
 40
16.0
 40
17.0
 40
17.0
 40
17.0
 40
18.0
 40
18.0
 40
18.0
 40
19.0
 40
19.0
 40
19.0
 40
19.0
 10
116.1693087817216
 20
-139.9380560631058
 10
116.1693087817216
 20
-140.0396863799207
 10
116.1482936992615
 20
-140.2725748347235
 10
115.9622585430581
 20
-140.4059000300027
 10
115.8499484302389
 20
-140.4851372261634
 10
115.7507296802637
 20
-140.4896158502943
 10
115.6659803313266
 20
-140.4940944744251
 10
115.6659803313266
 20
-140.4940944744251
 10
115.6659803313266
 20
-140.2591389623311
 10
115.6659803313266
 20
-140.2591389623311
 10
115.7400498842594
 20
-140.2567273954914
 10
115.974660886805
 20
-140.24535858039
 10
115.974660886805
 20
-139.9425346872366
 10
115.974660886805
 20
-139.7954291100164
 10
115.9050699580029
 20
-139.6328206031126
 10
115.6766601273308
 20
-139.6328206031126
 10
115.5602158999294
 20
-139.6328206031126
 10
115.5116400535874
 20
-139.6734727298386
 10
115.4799451751231
 20
-139.7075791751426
 10
115.4058756221902
 20
-139.7864718617548
 10
115.3931287688948
 20
-139.9108398087723
 10
115.3931287688948
 20
-139.9697509415701
 10
115.3931287688948
 20
-139.9900770049331
 10
115.3951958261859
 20
-140.0283175648193
 10
115.3993299407682
 20
-140.0579453859925
 10
115.3993299407682
 20
-140.0579453859925
 10
115.2046820458516
 20
-140.0579453859925
 10
115.2046820458516
 20
-140.0579453859925
 10
115.2112277272736
 20
-140.0172932592665
 10
115.2132947845647
 20
-139.9718179988612
 10
115.2132947845647
 20
-139.9652723174393
 10
115.2132947845647
 20
-139.8949923695401
 10
115.1919351925562
 20
-139.6824299781002
 10
114.9552571327195
 20
-139.6824299781002
 10
114.7774902056806
 20
-139.6824299781002
 10
114.7223686779166
 20
-139.8226453643499
 10
114.7223686779166
 20
-139.9401231203969
 10
114.7223686779166
 20
-140.2229654597359
 10
114.9552571327195
 20
-140.2319227079976
 10
115.0269151188127
 20
-140.2364013321284
 10
115.0269151188127
 20
-140.2364013321284
 10
115.0269151188127
 20
-140.4534423476991
 10
115.0269151188127
 20
-140.4534423476991
 10
114.9022026622467
 20
-140.4444850994375
 10
114.5256537257089
 20
-140.4152017878129
 10
114.5256537257089
 20
-139.9266872480044
 10
114.5256537257089
 20
-139.6869086022311
 10
114.6527777491146
 20
-139.4292154599344
 10
114.9487114512976
 20
-139.4292154599344
 10
115.1350911170496
 20
-139.4292154599344
 10
115.217428899147
 20
-139.5311902862978
 10
115.2787515987845
 20
-139.6372992272435
 10
115.3063123626665
 20
-139.5718424130237
 10
115.3865830874728
 20
-139.3771945181071
 10
115.6639132740354
 20
-139.3771945181071
 10
116.0022216506869
 20
-139.3771945181071
 10
116.1693087817216
 20
-139.6417778513743
 10
116.1693087817216
 20
-139.9380560631058
 97
        0
 97
        0
 75
     2
 76
     1
 98
        0
  0
ENDBLK
  5
B7
330
B4
100
AcDbEntity
  8
0
100
AcDbBlockEnd
  0
BLOCK
  5
BC
330
BA
100
AcDbEntity
  8
0
100
AcDbBlockBegin
  2
block 5
 70
     0
 10
0.0
 20
0.0
 30
0.0
  3
block 5
  1

  0
POLYLINE
  5
BE
330
BA
100
AcDbEntity
  8
_U+30EC_U+30A4_U+30E4_U+30FC 1
 62
   179
420
  2234388
370
     9
100
AcDb2dPolyline
 66
     1
 10
0.0
 20
0.0
 30
0.0
  0
VERTEX
  5
BF
330
BE
100
AcDbEntity
  8
_U+30EC_U+30A4_U+30E4_U+30FC 1
 62
   179
420
  2234388
370
     9
100
AcDbVertex
100
AcDb2dVertex
 10
72.76471869917293
 20
-117.9282135816291
 30
0.0
  0
VERTEX
  5
C0
330
BE
100
AcDbEntity
  8
_U+30EC_U+30A4_U+30E4_U+30FC 1
 62
   179
420
  2234388
370
     9
100
AcDbVertex
100
AcDb2dVertex
 10
75.76470556708132
 20
-117.9282135816291
 30
0.0
  0
SEQEND
  5
C1
330
BE
100
AcDbEntity
  8
_U+30EC_U+30A4_U+30E4_U+30FC 1
 62
   179
420
  2234388
370
     9
  0
POLYLINE
  5
C2
330
BA
100
AcDbEntity
  8
_U+30EC_U+30A4_U+30E4_U+30FC 1
 62
   179
420
  2234388
370
     9
100
AcDb2dPolyline
 66
     1
 10
0.0
 20
0.0
 30
0.0
  0
VERTEX
  5
C3
330
C2
100
AcDbEntity
  8
_U+30EC_U+30A4_U+30E4_U+30FC 1
 62
   179
420
  2234388
370
     9
100
AcDbVertex
100
AcDb2dVertex
 10
72.76471869917293
 20
-119.3882196923753
 30
0.0
  0
VERTEX
  5
C4
330
C2
100
AcDbEntity
  8
_U+30EC_U+30A4_U+30E4_U+30FC 1
 62
   179
420
  2234388
370
     9
100
AcDbVertex
100
AcDb2dVertex
 10
72.76471869917293
 20
-116.9284413596569
 30
0.0
  0
SEQEND
  5
C5
330
C2
100
AcDbEntity
  8
_U+30EC_U+30A4_U+30E4_U+30FC 1
 62
   179
420
  2234388
370
     9
  0
POLYLINE
  5
C6
330
BA
100
AcDbEntity
  8
_U+30EC_U+30A4_U+30E4_U+30FC 1
 62
   179
420
  2234388
370
     9
100
AcDb2dPolyline
 66
     1
 10
0.0
 20
0.0
 30
0.0
  0
VERTEX
  5
C7
330
C6
100
AcDbEntity
  8
_U+30EC_U+30A4_U+30E4_U+30FC 1
 62
   179
420
  2234388
370
     9
100
AcDbVertex
100
AcDb2dVertex
 10
75.76470556708132
 20
-119.3882196923753
 30
0.0
  0
VERTEX
  5
C8
330
C6
100
AcDbEntity
  8
_U+30EC_U+30A4_U+30E4_U+30FC 1
 62
   179
420
  2234388
370
     9
100
AcDbVertex
100
AcDb2dVertex
 10
75.76470556708132
 20
-116.9284413596569
 30
0.0
  0
SEQEND
  5
C9
330
C6
100
AcDbEntity
  8
_U+30EC_U+30A4_U+30E4_U+30FC 1
 62
   179
420
  2234388
370
     9
  0
INSERT
  5
CB
330
BA
100
AcDbEntity
  8
_U+30EC_U+30A4_U+30E4_U+30FC 1
100
AcDbBlockReference
  2
block 6
 10
0.0
 20
0.0
 30
0.0
  0
ENDBLK
  5
BD
330
BA
100
AcDbEntity
  8
0
100
AcDbBlockEnd
  0
BLOCK
  5
CC
330
CA
100
AcDbEntity
  8
0
100
AcDbBlockBegin
  2
block 6
 70
     0
 10
0.0
 20
0.0
 30
0.0
  3
block 6
  1

  0
SPLINE
  5
CE
330
CA
100
AcDbEntity
  8
_U+30EC_U+30A4_U+30E4_U+30FC 1
370
     0
100
AcDbSpline
210
0.0
220
0.0
230
1.0
 70
    11
 71
     3
 72
    62
 73
    58
 74
     0
 42
0.0000000001
 43
0.0000000001
 12
1.0
 22
0.0
 32
0.0
 13
1.0
 23
0.0
 33
0.0
 40
0.0
 40
0.0
 40
0.0
 40
0.0
 40
1.0
 40
1.0
 40
1.0
 40
2.0
 40
2.0
 40
2.0
 40
3.0
 40
3.0
 40
3.0
 40
4.0
 40
4.0
 40
4.0
 40
5.0
 40
5.0
 40
5.0
 40
6.0
 40
6.0
 40
6.0
 40
7.0
 40
7.0
 40
7.0
 40
8.0
 40
8.0
 40
8.0
 40
9.0
 40
9.0
 40
9.0
 40
10.0
 40
10.0
 40
10.0
 40
11.0
 40
11.0
 40
11.0
 40
12.0
 40
12.0
 40
12.0
 40
13.0
 40
13.0
 40
13.0
 40
14.0
 40
14.0
 40
14.0
 40
15.0
 40
15.0
 40
15.0
 40
16.0
 40
16.0
 40
16.0
 40
17.0
 40
17.0
 40
17.0
 40
18.0
 40
18.0
 40
18.0
 40
19.0
 40
19.0
 40
19.0
 40
19.0
 10
74.25558808907499
 20
-117.3334065461875
 30
0.0
 10
74.15395777226013
 20
-117.3334065461875
 30
0.0
 10
73.92106931745724
 20
-117.3122192089532
 30
0.0
 10
73.7875718674038
 20
-117.1260117979755
 30
0.0
 10
73.70850692601732
 20
-117.0138739399306
 30
0.0
 10
73.7040283018865
 20
-116.9144829351811
 30
0.0
 10
73.69954967775567
 20
-116.8299058410182
 30
0.0
 10
73.69954967775567
 20
-116.8299058410182
 30
0.0
 10
73.93450518984972
 20
-116.8299058410182
 30
0.0
 10
73.93450518984972
 20
-116.8299058410182
 30
0.0
 10
73.93691675668939
 20
-116.9039753939511
 30
0.0
 10
73.94811331701645
 20
-117.1387586512709
 30
0.0
 10
74.25110946494416
 20
-117.1387586512709
 30
0.0
 10
74.39804278739008
 20
-117.1387586512709
 30
0.0
 10
74.56082354906813
 20
-117.0689954676946
 30
0.0
 10
74.56082354906813
 20
-116.8404133822482
 30
0.0
 10
74.56082354906813
 20
-116.7241414096211
 30
0.0
 10
74.52017142234219
 20
-116.6753933085048
 30
0.0
 10
74.48623723181247
 20
-116.6436984300405
 30
0.0
 10
74.40717229042599
 20
-116.5696288771076
 30
0.0
 10
74.28280434340847
 20
-116.5570542785864
 30
0.0
 10
74.2238932106107
 20
-116.5570542785864
 30
0.0
 10
74.20356714724772
 20
-116.5570542785864
 30
0.0
 10
74.16515433258719
 20
-116.5591213358776
 30
0.0
 10
74.13587102096257
 20
-116.5632554504599
 30
0.0
 10
74.13587102096257
 20
-116.5632554504599
 30
0.0
 10
74.13587102096257
 20
-116.3686075555433
 30
0.0
 10
74.13587102096257
 20
-116.3686075555433
 30
0.0
 10
74.17652314768851
 20
-116.374980982191
 30
0.0
 10
74.22165389854528
 20
-116.3772202942564
 30
0.0
 10
74.22854408951578
 20
-116.3772202942564
 30
0.0
 10
74.29865178264062
 20
-116.3772202942564
 30
0.0
 10
74.51104191930627
 20
-116.3560329570221
 30
0.0
 10
74.51104191930627
 20
-116.1190103876369
 30
0.0
 10
74.51104191930627
 20
-115.9414157153723
 30
0.0
 10
74.37099878783087
 20
-115.8862941876083
 30
0.0
 10
74.25334877700958
 20
-115.8862941876083
 30
0.0
 10
73.97067869244484
 20
-115.8862941876083
 30
0.0
 10
73.96172144418318
 20
-116.1190103876369
 30
0.0
 10
73.95724282005236
 20
-116.1910128832786
 30
0.0
 10
73.95724282005236
 20
-116.1910128832786
 30
0.0
 10
73.74020180448161
 20
-116.1910128832786
 30
0.0
 10
73.74020180448161
 20
-116.1910128832786
 30
0.0
 10
73.74915905274327
 20
-116.0661281719383
 30
0.0
 10
73.77861461914216
 20
-115.6895792354005
 30
0.0
 10
74.26695690417633
 20
-115.6895792354005
 30
0.0
 10
74.50656329517544
 20
-115.6895792354005
 30
0.0
 10
74.76425643747213
 20
-115.816531004032
 30
0.0
 10
74.76425643747213
 20
-116.1126369609892
 30
0.0
 10
74.76425643747213
 20
-116.298844371967
 30
0.0
 10
74.66262612065727
 20
-116.3813544088387
 30
0.0
 10
74.5563449249373
 20
-116.4426771084761
 30
0.0
 10
74.62180173915705
 20
-116.4702378723581
 30
0.0
 10
74.81627737929941
 20
-116.5506808519387
 30
0.0
 10
74.81627737929941
 20
-116.8278387837271
 30
0.0
 10
74.81627737929941
 20
-117.1663194151529
 30
0.0
 10
74.55186630080648
 20
-117.3334065461875
 30
0.0
 10
74.25558808907499
 20
-117.3334065461875
 30
0.0
  0
HATCH
  5
CF
330
CA
100
AcDbEntity
  8
_U+30EC_U+30A4_U+30E4_U+30FC 1
 62
   179
420
  2234388
100
AcDbHatch
 10
0.0
 20
0.0
 30
0.0
210
0.0
220
0.0
230
1.0
  2
SOLID
 70
     1
 71
     0
 91
        1
 92
        1
 93
        1
 72
     4
 94
        3
 73
     0
 74
     1
 95
       62
 96
       58
 40
0.0
 40
0.0
 40
0.0
 40
0.0
 40
1.0
 40
1.0
 40
1.0
 40
2.0
 40
2.0
 40
2.0
 40
3.0
 40
3.0
 40
3.0
 40
4.0
 40
4.0
 40
4.0
 40
5.0
 40
5.0
 40
5.0
 40
6.0
 40
6.0
 40
6.0
 40
7.0
 40
7.0
 40
7.0
 40
8.0
 40
8.0
 40
8.0
 40
9.0
 40
9.0
 40
9.0
 40
10.0
 40
10.0
 40
10.0
 40
11.0
 40
11.0
 40
11.0
 40
12.0
 40
12.0
 40
12.0
 40
13.0
 40
13.0
 40
13.0
 40
14.0
 40
14.0
 40
14.0
 40
15.0
 40
15.0
 40
15.0
 40
16.0
 40
16.0
 40
16.0
 40
17.0
 40
17.0
 40
17.0
 40
18.0
 40
18.0
 40
18.0
 40
19.0
 40
19.0
 40
19.0
 40
19.0
 10
74.25558808907499
 20
-117.3334065461875
 10
74.15395777226013
 20
-117.3334065461875
 10
73.92106931745724
 20
-117.3122192089532
 10
73.7875718674038
 20
-117.1260117979755
 10
73.70850692601732
 20
-117.0138739399306
 10
73.7040283018865
 20
-116.9144829351811
 10
73.69954967775567
 20
-116.8299058410182
 10
73.69954967775567
 20
-116.8299058410182
 10
73.93450518984972
 20
-116.8299058410182
 10
73.93450518984972
 20
-116.8299058410182
 10
73.93691675668939
 20
-116.9039753939511
 10
73.94811331701645
 20
-117.1387586512709
 10
74.25110946494416
 20
-117.1387586512709
 10
74.39804278739008
 20
-117.1387586512709
 10
74.56082354906813
 20
-117.0689954676946
 10
74.56082354906813
 20
-116.8404133822482
 10
74.56082354906813
 20
-116.7241414096211
 10
74.52017142234219
 20
-116.6753933085048
 10
74.48623723181247
 20
-116.6436984300405
 10
74.40717229042599
 20
-116.5696288771076
 10
74.28280434340847
 20
-116.5570542785864
 10
74.2238932106107
 20
-116.5570542785864
 10
74.20356714724772
 20
-116.5570542785864
 10
74.16515433258719
 20
-116.5591213358776
 10
74.13587102096257
 20
-116.5632554504599
 10
74.13587102096257
 20
-116.5632554504599
 10
74.13587102096257
 20
-116.3686075555433
 10
74.13587102096257
 20
-116.3686075555433
 10
74.17652314768851
 20
-116.374980982191
 10
74.22165389854528
 20
-116.3772202942564
 10
74.22854408951578
 20
-116.3772202942564
 10
74.29865178264062
 20
-116.3772202942564
 10
74.51104191930627
 20
-116.3560329570221
 10
74.51104191930627
 20
-116.1190103876369
 10
74.51104191930627
 20
-115.9414157153723
 10
74.37099878783087
 20
-115.8862941876083
 10
74.25334877700958
 20
-115.8862941876083
 10
73.97067869244484
 20
-115.8862941876083
 10
73.96172144418318
 20
-116.1190103876369
 10
73.95724282005236
 20
-116.1910128832786
 10
73.95724282005236
 20
-116.1910128832786
 10
73.74020180448161
 20
-116.1910128832786
 10
73.74020180448161
 20
-116.1910128832786
 10
73.74915905274327
 20
-116.0661281719383
 10
73.77861461914216
 20
-115.6895792354005
 10
74.26695690417633
 20
-115.6895792354005
 10
74.50656329517544
 20
-115.6895792354005
 10
74.76425643747213
 20
-115.816531004032
 10
74.76425643747213
 20
-116.1126369609892
 10
74.76425643747213
 20
-116.298844371967
 10
74.66262612065727
 20
-116.3813544088387
 10
74.5563449249373
 20
-116.4426771084761
 10
74.62180173915705
 20
-116.4702378723581
 10
74.81627737929941
 20
-116.5506808519387
 10
74.81627737929941
 20
-116.8278387837271
 10
74.81627737929941
 20
-117.1663194151529
 10
74.55186630080648
 20
-117.3334065461875
 10
74.25558808907499
 20
-117.3334065461875
 97
        0
 97
        0
 75
     2
 76
     1
 98
        0
  0
ENDBLK
  5
CD
330
CA
100
AcDbEntity
  8
0
100
AcDbBlockEnd
  0
BLOCK
  5
D2
330
D0
100
AcDbEntity
  8
0
100
AcDbBlockBegin
  2
block 7
 70
     0
 10
0.0
 20
0.0
 30
0.0
  3
block 7
  1

  0
POLYLINE
  5
D4
330
D0
100
AcDbEntity
  8
_U+30EC_U+30A4_U+30E4_U+30FC 1
 62
   179
420
  2234388
370
     9
100
AcDb2dPolyline
 66
     1
 10
0.0
 20
0.0
 30
0.0
  0
VERTEX
  5
D5
330
D4
100
AcDbEntity
  8
_U+30EC_U+30A4_U+30E4_U+30FC 1
 62
   179
420
  2234388
370
     9
100
AcDbVertex
100
AcDb2dVertex
 10
72.76471869917293
 20
-113.9284544159622
 30
0.0
  0
VERTEX
  5
D6
330
D4
100
AcDbEntity
  8
_U+30EC_U+30A4_U+30E4_U+30FC 1
 62
   179
420
  2234388
370
     9
100
AcDbVertex
100
AcDb2dVertex
 10
112.7648493453512
 20
-113.9284544159622
 30
0.0
  0
SEQEND
  5
D7
330
D4
100
AcDbEntity
  8
_U+30EC_U+30A4_U+30E4_U+30FC 1
 62
   179
420
  2234388
370
     9
  0
POLYLINE
  5
D8
330
D0
100
AcDbEntity
  8
_U+30EC_U+30A4_U+30E4_U+30FC 1
 62
   179
420
  2234388
370
     9
100
AcDb2dPolyline
 66
     1
 10
0.0
 20
0.0
 30
0.0
  0
VERTEX
  5
D9
330
D8
100
AcDbEntity
  8
_U+30EC_U+30A4_U+30E4_U+30FC 1
 62
   179
420
  2234388
370
     9
100
AcDbVertex
100
AcDb2dVertex
 10
72.76471869917293
 20
-119.3882196923753
 30
0.0
  0
VERTEX
  5
DA
330
D8
100
AcDbEntity
  8
_U+30EC_U+30A4_U+30E4_U+30FC 1
 62
   179
420
  2234388
370
     9
100
AcDbVertex
100
AcDb2dVertex
 10
72.76471869917293
 20
-112.9285058051011
 30
0.0
  0
SEQEND
  5
DB
330
D8
100
AcDbEntity
  8
_U+30EC_U+30A4_U+30E4_U+30FC 1
 62
   179
420
  2234388
370
     9
  0
POLYLINE
  5
DC
330
D0
100
AcDbEntity
  8
_U+30EC_U+30A4_U+30E4_U+30FC 1
 62
   179
420
  2234388
370
     9
100
AcDb2dPolyline
 66
     1
 10
0.0
 20
0.0
 30
0.0
  0
VERTEX
  5
DD
330
DC
100
AcDbEntity
  8
_U+30EC_U+30A4_U+30E4_U+30FC 1
 62
   179
420
  2234388
370
     9
100
AcDbVertex
100
AcDb2dVertex
 10
112.7648493453512
 20
-126.4885780239334
 30
0.0
  0
VERTEX
  5
DE
330
DC
100
AcDbEntity
  8
_U+30EC_U+30A4_U+30E4_U+30FC 1
 62
   179
420
  2234388
370
     9
100
AcDbVertex
100
AcDb2dVertex
 10
112.7648493453512
 20
-112.9285058051011
 30
0.0
  0
SEQEND
  5
DF
330
DC
100
AcDbEntity
  8
_U+30EC_U+30A4_U+30E4_U+30FC 1
 62
   179
420
  2234388
370
     9
  0
INSERT
  5
E1
330
D0
100
AcDbEntity
  8
_U+30EC_U+30A4_U+30E4_U+30FC 1
100
AcDbBlockReference
  2
block 8
 10
0.0
 20
0.0
 30
0.0
  0
ENDBLK
  5
D3
330
D0
100
AcDbEntity
  8
0
100
AcDbBlockEnd
  0
BLOCK
  5
E2
330
E0
100
AcDbEntity
  8
0
100
AcDbBlockBegin
  2
block 8
 70
     0
 10
0.0
 20
0.0
 30
0.0
  3
block 8
  1

  0
POLYLINE
  5
E4
330
E0
100
AcDbEntity
  8
_U+30EC_U+30A4_U+30E4_U+30FC 1
370
     0
100
AcDb2dPolyline
 66
     1
 10
0.0
 20
0.0
 30
0.0
  0
VERTEX
  5
E5
330
E4
100
AcDbEntity
  8
_U+30EC_U+30A4_U+30E4_U+30FC 1
370
     0
100
AcDbVertex
100
AcDb2dVertex
 10
92.49047849250239
 20
-112.9355699044918
 30
0.0
  0
VERTEX
  5
E6
330
E4
100
AcDbEntity
  8
_U+30EC_U+30A4_U+30E4_U+30FC 1
370
     0
100
AcDbVertex
100
AcDb2dVertex
 10
92.49047849250239
 20
-113.2824910198565
 30
0.0
  0
VERTEX
  5
E7
330
E4
100
AcDbEntity
  8
_U+30EC_U+30A4_U+30E4_U+30FC 1
370
     0
100
AcDbVertex
100
AcDb2dVertex
 10
92.2575900376995
 20
-113.2824910198565
 30
0.0
  0
VERTEX
  5
E8
330
E4
100
AcDbEntity
  8
_U+30EC_U+30A4_U+30E4_U+30FC 1
370
     0
100
AcDbVertex
100
AcDb2dVertex
 10
92.2575900376995
 20
-112.9355699044918
 30
0.0
  0
VERTEX
  5
E9
330
E4
100
AcDbEntity
  8
_U+30EC_U+30A4_U+30E4_U+30FC 1
370
     0
100
AcDbVertex
100
AcDb2dVertex
 10
91.55685761599968
 20
-112.9355699044918
 30
0.0
  0
VERTEX
  5
EA
330
E4
100
AcDbEntity
  8
_U+30EC_U+30A4_U+30E4_U+30FC 1
370
     0
100
AcDbVertex
100
AcDb2dVertex
 10
91.55685761599968
 20
-112.711294188402
 30
0.0
  0
VERTEX
  5
EB
330
E4
100
AcDbEntity
  8
_U+30EC_U+30A4_U+30E4_U+30FC 1
370
     0
100
AcDbVertex
100
AcDb2dVertex
 10
92.28273923474183
 20
-111.7382269685932
 30
0.0
  0
VERTEX
  5
EC
330
E4
100
AcDbEntity
  8
_U+30EC_U+30A4_U+30E4_U+30FC 1
370
     0
100
AcDbVertex
100
AcDb2dVertex
 10
92.49047849250239
 20
-111.7382269685932
 30
0.0
  0
VERTEX
  5
ED
330
E4
100
AcDbEntity
  8
_U+30EC_U+30A4_U+30E4_U+30FC 1
370
     0
100
AcDbVertex
100
AcDb2dVertex
 10
92.49047849250239
 20
-112.7366156402186
 30
0.0
  0
VERTEX
  5
EE
330
E4
100
AcDbEntity
  8
_U+30EC_U+30A4_U+30E4_U+30FC 1
370
     0
100
AcDbVertex
100
AcDb2dVertex
 10
92.71234264175247
 20
-112.7366156402186
 30
0.0
  0
VERTEX
  5
EF
330
E4
100
AcDbEntity
  8
_U+30EC_U+30A4_U+30E4_U+30FC 1
370
     0
100
AcDbVertex
100
AcDb2dVertex
 10
92.71234264175247
 20
-112.9355699044918
 30
0.0
  0
VERTEX
  5
F0
330
E4
100
AcDbEntity
  8
_U+30EC_U+30A4_U+30E4_U+30FC 1
370
     0
100
AcDbVertex
100
AcDb2dVertex
 10
92.49047849250239
 20
-112.9355699044918
 30
0.0
  0
SEQEND
  5
F1
330
E4
100
AcDbEntity
  8
_U+30EC_U+30A4_U+30E4_U+30FC 1
370
     0
  0
POLYLINE
  5
F2
330
E0
100
AcDbEntity
  8
_U+30EC_U+30A4_U+30E4_U+30FC 1
370
     0
100
AcDb2dPolyline
 66
     1
 10
0.0
 20
0.0
 30
0.0
  0
VERTEX
  5
F3
330
F2
100
AcDbEntity
  8
_U+30EC_U+30A4_U+30E4_U+30FC 1
370
     0
100
AcDbVertex
100
AcDb2dVertex
 10
92.2575900376995
 20
-112.0808417146013
 30
0.0
  0
VERTEX
  5
F4
330
F2
100
AcDbEntity
  8
_U+30EC_U+30A4_U+30E4_U+30FC 1
370
     0
100
AcDbVertex
100
AcDb2dVertex
 10
91.76942000743959
 20
-112.7366156402186
 30
0.0
  0
VERTEX
  5
F5
330
F2
100
AcDbEntity
  8
_U+30EC_U+30A4_U+30E4_U+30FC 1
370
     0
100
AcDbVertex
100
AcDb2dVertex
 10
92.2575900376995
 20
-112.7366156402186
 30
0.0
  0
VERTEX
  5
F6
330
F2
100
AcDbEntity
  8
_U+30EC_U+30A4_U+30E4_U+30FC 1
370
     0
100
AcDbVertex
100
AcDb2dVertex
 10
92.2575900376995
 20
-112.0808417146013
 30
0.0
  0
SEQEND
  5
F7
330
F2
100
AcDbEntity
  8
_U+30EC_U+30A4_U+30E4_U+30FC 1
370
     0
  0
HATCH
  5
F8
330
E0
100
AcDbEntity
  8
_U+30EC_U+30A4_U+30E4_U+30FC 1
 62
   179
420
  2234388
100
AcDbHatch
 10
0.0
 20
0.0
 30
0.0
210
0.0
220
0.0
230
1.0
  2
SOLID
 70
     1
 71
     0
 91
        2
 92
        1
 93
       11
 72
     1
 10
92.49047849250239
 20
-112.9355699044918
 11
92.49047849250239
 21
-113.2824910198565
 72
     1
 10
92.49047849250239
 20
-113.2824910198565
 11
92.2575900376995
 21
-113.2824910198565
 72
     1
 10
92.2575900376995
 20
-113.2824910198565
 11
92.2575900376995
 21
-112.9355699044918
 72
     1
 10
92.2575900376995
 20
-112.9355699044918
 11
91.55685761599968
 21
-112.9355699044918
 72
     1
 10
91.55685761599968
 20
-112.9355699044918
 11
91.55685761599968
 21
-112.711294188402
 72
     1
 10
91.55685761599968
 20
-112.711294188402
 11
92.28273923474183
 21
-111.7382269685932
 72
     1
 10
92.28273923474183
 20
-111.7382269685932
 11
92.49047849250239
 21
-111.7382269685932
 72
     1
 10
92.49047849250239
 20
-111.7382269685932
 11
92.49047849250239
 21
-112.7366156402186
 72
     1
 10
92.49047849250239
 20
-112.7366156402186
 11
92.71234264175247
 21
-112.7366156402186
 72
     1
 10
92.71234264175247
 20
-112.7366156402186
 11
92.71234264175247
 21
-112.9355699044918
 72
     1
 10
92.71234264175247
 20
-112.9355699044918
 11
92.49047849250239
 21
-112.9355699044918
 97
        0
 92
        1
 93
        3
 72
     1
 10
92.2575900376995
 20
-112.0808417146013
 11
91.76942000743959
 21
-112.7366156402186
 72
     1
 10
91.76942000743959
 20
-112.7366156402186
 11
92.2575900376995
 21
-112.7366156402186
 72
     1
 10
92.2575900376995
 20
-112.7366156402186
 11
92.2575900376995
 21
-112.0808417146013
 97
        0
 75
     2
 76
     1
 98
        0
  0
SPLINE
  5
F9
330
E0
100
AcDbEntity
  8
_U+30EC_U+30A4_U+30E4_U+30FC 1
370
     0
100
AcDbSpline
210
0.0
220
0.0
230
1.0
 70
    11
 71
     3
 72
    29
 73
    25
 74
     0
 42
0.0000000001
 43
0.0000000001
 12
1.0
 22
0.0
 32
0.0
 13
1.0
 23
0.0
 33
0.0
 40
0.0
 40
0.0
 40
0.0
 40
0.0
 40
1.0
 40
1.0
 40
1.0
 40
2.0
 40
2.0
 40
2.0
 40
3.0
 40
3.0
 40
3.0
 40
4.0
 40
4.0
 40
4.0
 40
5.0
 40
5.0
 40
5.0
 40
6.0
 40
6.0
 40
6.0
 40
7.0
 40
7.0
 40
7.0
 40
8.0
 40
8.0
 40
8.0
 40
8.0
 10
93.8185628020662
 20
-113.1047240928176
 30
0.0
 10
93.70315210331033
 20
-113.3141858983208
 30
0.0
 10
93.51780596620388
 20
-113.3333061782639
 30
0.0
 10
93.39343801918636
 20
-113.3333061782639
 30
0.0
 10
93.2215277544724
 20
-113.3333061782639
 30
0.0
 10
93.07028806266993
 20
-113.286797389213
 30
0.0
 10
92.96831323630654
 20
-113.1047240928176
 30
0.0
 10
92.85772567123001
 20
-112.910076197901
 30
0.0
 10
92.83739960786704
 20
-112.67322588329
 30
0.0
 10
92.83739960786704
 20
-112.5102728668377
 30
0.0
 10
92.83739960786704
 20
-112.3664401303285
 30
0.0
 10
92.85531410439035
 20
-112.114775905131
 30
0.0
 10
92.96831323630654
 20
-111.9158216408579
 30
0.0
 10
93.08372393506241
 20
-111.7127332620024
 30
0.0
 10
93.25563419977637
 20
-111.6894788674769
 30
0.0
 10
93.39343801918636
 20
-111.6894788674769
 30
0.0
 10
93.56293671706067
 20
-111.6894788674769
 30
0.0
 10
93.71658797570281
 20
-111.7339205992367
 30
0.0
 10
93.8185628020662
 20
-111.9158216408579
 30
0.0
 10
93.92467174301188
 20
-112.1084024784833
 30
0.0
 10
93.9494764305057
 20
-112.3368123091554
 30
0.0
 10
93.9494764305057
 20
-112.5102728668377
 30
0.0
 10
93.9494764305057
 20
-112.6816663672289
 30
0.0
 10
93.92708330985157
 20
-112.9123155099664
 30
0.0
 10
93.8185628020662
 20
-113.1047240928176
 30
0.0
  0
SPLINE
  5
FA
330
E0
100
AcDbEntity
  8
_U+30EC_U+30A4_U+30E4_U+30FC 1
370
     0
100
AcDbSpline
210
0.0
220
0.0
230
1.0
 70
    11
 71
     3
 72
    17
 73
    13
 74
     0
 42
0.0000000001
 43
0.0000000001
 12
1.0
 22
0.0
 32
0.0
 13
1.0
 23
0.0
 33
0.0
 40
0.0
 40
0.0
 40
0.0
 40
0.0
 40
1.0
 40
1.0
 40
1.0
 40
2.0
 40
2.0
 40
2.0
 40
3.0
 40
3.0
 40
3.0
 40
4.0
 40
4.0
 40
4.0
 40
4.0
 10
93.39343801918636
 20
-111.8820597051024
 30
0.0
 10
93.12678762862802
 20
-111.8820597051024
 30
0.0
 10
93.07683374409191
 20
-112.1655910635385
 30
0.0
 10
93.07683374409191
 20
-112.5102728668377
 30
0.0
 10
93.07683374409191
 20
-112.8298054730946
 30
0.0
 10
93.1154188135267
 20
-113.1386582833473
 30
0.0
 10
93.39343801918636
 20
-113.1386582833473
 30
0.0
 10
93.65802135245356
 20
-113.1386582833473
 30
0.0
 10
93.71004229428083
 20
-112.8571939822024
 30
0.0
 10
93.71004229428083
 20
-112.5102728668377
 30
0.0
 10
93.71004229428083
 20
-112.1909125153551
 30
0.0
 10
93.66939016755488
 20
-111.8820597051024
 30
0.0
 10
93.39343801918636
 20
-111.8820597051024
 30
0.0
  0
HATCH
  5
FB
330
E0
100
AcDbEntity
  8
_U+30EC_U+30A4_U+30E4_U+30FC 1
 62
   179
420
  2234388
100
AcDbHatch
 10
0.0
 20
0.0
 30
0.0
210
0.0
220
0.0
230
1.0
  2
SOLID
 70
     1
 71
     0
 91
        2
 92
        1
 93
        1
 72
     4
 94
        3
 73
     0
 74
     1
 95
       29
 96
       25
 40
0.0
 40
0.0
 40
0.0
 40
0.0
 40
1.0
 40
1.0
 40
1.0
 40
2.0
 40
2.0
 40
2.0
 40
3.0
 40
3.0
 40
3.0
 40
4.0
 40
4.0
 40
4.0
 40
5.0
 40
5.0
 40
5.0
 40
6.0
 40
6.0
 40
6.0
 40
7.0
 40
7.0
 40
7.0
 40
8.0
 40
8.0
 40
8.0
 40
8.0
 10
93.8185628020662
 20
-113.1047240928176
 10
93.70315210331033
 20
-113.3141858983208
 10
93.51780596620388
 20
-113.3333061782639
 10
93.39343801918636
 20
-113.3333061782639
 10
93.2215277544724
 20
-113.3333061782639
 10
93.07028806266993
 20
-113.286797389213
 10
92.96831323630654
 20
-113.1047240928176
 10
92.85772567123001
 20
-112.910076197901
 10
92.83739960786704
 20
-112.67322588329
 10
92.83739960786704
 20
-112.5102728668377
 10
92.83739960786704
 20
-112.3664401303285
 10
92.85531410439035
 20
-112.114775905131
 10
92.96831323630654
 20
-111.9158216408579
 10
93.08372393506241
 20
-111.7127332620024
 10
93.25563419977637
 20
-111.6894788674769
 10
93.39343801918636
 20
-111.6894788674769
 10
93.56293671706067
 20
-111.6894788674769
 10
93.71658797570281
 20
-111.7339205992367
 10
93.8185628020662
 20
-111.9158216408579
 10
93.92467174301188
 20
-112.1084024784833
 10
93.9494764305057
 20
-112.3368123091554
 10
93.9494764305057
 20
-112.5102728668377
 10
93.9494764305057
 20
-112.6816663672289
 10
93.92708330985157
 20
-112.9123155099664
 10
93.8185628020662
 20
-113.1047240928176
 97
        0
 97
        0
 92
        1
 93
        1
 72
     4
 94
        3
 73
     0
 74
     1
 95
       17
 96
       13
 40
0.0
 40
0.0
 40
0.0
 40
0.0
 40
1.0
 40
1.0
 40
1.0
 40
2.0
 40
2.0
 40
2.0
 40
3.0
 40
3.0
 40
3.0
 40
4.0
 40
4.0
 40
4.0
 40
4.0
 10
93.39343801918636
 20
-111.8820597051024
 10
93.12678762862802
 20
-111.8820597051024
 10
93.07683374409191
 20
-112.1655910635385
 10
93.07683374409191
 20
-112.5102728668377
 10
93.07683374409191
 20
-112.8298054730946
 10
93.1154188135267
 20
-113.1386582833473
 10
93.39343801918636
 20
-113.1386582833473
 10
93.65802135245356
 20
-113.1386582833473
 10
93.71004229428083
 20
-112.8571939822024
 10
93.71004229428083
 20
-112.5102728668377
 10
93.71004229428083
 20
-112.1909125153551
 10
93.66939016755488
 20
-111.8820597051024
 10
93.39343801918636
 20
-111.8820597051024
 97
        0
 97
        0
 75
     2
 76
     1
 98
        0
  0
ENDBLK
  5
E3
330
E0
100
AcDbEntity
  8
0
100
AcDbBlockEnd
  0
BLOCK
  5
FE
330
FC
100
AcDbEntity
  8
0
100
AcDbBlockBegin
  2
block 9
 70
     0
 10
0.0
 20
0.0
 30
0.0
  3
block 9
  1

  0
POLYLINE
  5
100
330
FC
100
AcDbEntity
  8
_U+30EC_U+30A4_U+30E4_U+30FC 1
 62
   179
420
  2234388
370
     9
100
AcDb2dPolyline
 66
     1
 10
0.0
 20
0.0
 30
0.0
  0
VERTEX
  5
101
330
100
100
AcDbEntity
  8
_U+30EC_U+30A4_U+30E4_U+30FC 1
 62
   179
420
  2234388
370
     9
100
AcDbVertex
100
AcDb2dVertex
 10
72.76471869917293
 20
-145.4285113525321
 30
0.0
  0
VERTEX
  5
102
330
100
100
AcDbEntity
  8
_U+30EC_U+30A4_U+30E4_U+30FC 1
 62
   179
420
  2234388
370
     9
100
AcDbVertex
100
AcDb2dVertex
 10
82.7651570551516
 20
-145.4285113525321
 30
0.0
  0
SEQEND
  5
103
330
100
100
AcDbEntity
  8
_U+30EC_U+30A4_U+30E4_U+30FC 1
 62
   179
420
  2234388
370
     9
  0
POLYLINE
  5
104
330
FC
100
AcDbEntity
  8
_U+30EC_U+30A4_U+30E4_U+30FC 1
 62
   179
420
  2234388
370
     9
100
AcDb2dPolyline
 66
     1
 10
0.0
 20
0.0
 30
0.0
  0
VERTEX
  5
105
330
104
100
AcDbEntity
  8
_U+30EC_U+30A4_U+30E4_U+30FC 1
 62
   179
420
  2234388
370
     9
100
AcDbVertex
100
AcDb2dVertex
 10
72.76471869917293
 20
-143.9684699640077
 30
0.0
  0
VERTEX
  5
106
330
104
100
AcDbEntity
  8
_U+30EC_U+30A4_U+30E4_U+30FC 1
 62
   179
420
  2234388
370
     9
100
AcDbVertex
100
AcDb2dVertex
 10
72.76471869917293
 20
-146.428283574504
 30
0.0
  0
SEQEND
  5
107
330
104
100
AcDbEntity
  8
_U+30EC_U+30A4_U+30E4_U+30FC 1
 62
   179
420
  2234388
370
     9
  0
POLYLINE
  5
108
330
FC
100
AcDbEntity
  8
_U+30EC_U+30A4_U+30E4_U+30FC 1
 62
   179
420
  2234388
370
     9
100
AcDb2dPolyline
 66
     1
 10
0.0
 20
0.0
 30
0.0
  0
VERTEX
  5
109
330
108
100
AcDbEntity
  8
_U+30EC_U+30A4_U+30E4_U+30FC 1
 62
   179
420
  2234388
370
     9
100
AcDbVertex
100
AcDb2dVertex
 10
82.7651570551516
 20
-143.9684699640077
 30
0.0
  0
VERTEX
  5
10A
330
108
100
AcDbEntity
  8
_U+30EC_U+30A4_U+30E4_U+30FC 1
 62
   179
420
  2234388
370
     9
100
AcDbVertex
100
AcDb2dVertex
 10
82.7651570551516
 20
-146.428283574504
 30
0.0
  0
SEQEND
  5
10B
330
108
100
AcDbEntity
  8
_U+30EC_U+30A4_U+30E4_U+30FC 1
 62
   179
420
  2234388
370
     9
  0
INSERT
  5
10D
330
FC
100
AcDbEntity
  8
_U+30EC_U+30A4_U+30E4_U+30FC 1
100
AcDbBlockReference
  2
block 10
 10
0.0
 20
0.0
 30
0.0
  0
ENDBLK
  5
FF
330
FC
100
AcDbEntity
  8
0
100
AcDbBlockEnd
  0
BLOCK
  5
10E
330
10C
100
AcDbEntity
  8
0
100
AcDbBlockBegin
  2
block 10
 70
     0
 10
0.0
 20
0.0
 30
0.0
  3
block 10
  1

  0
SPLINE
  5
110
330
10C
100
AcDbEntity
  8
_U+30EC_U+30A4_U+30E4_U+30FC 1
370
     0
100
AcDbSpline
210
0.0
220
0.0
230
1.0
 70
    11
 71
     3
 72
    26
 73
    22
 74
     0
 42
0.0000000001
 43
0.0000000001
 12
1.0
 22
0.0
 32
0.0
 13
1.0
 23
0.0
 33
0.0
 40
0.0
 40
0.0
 40
0.0
 40
0.0
 40
1.0
 40
1.0
 40
1.0
 40
2.0
 40
2.0
 40
2.0
 40
3.0
 40
3.0
 40
3.0
 40
4.0
 40
4.0
 40
4.0
 40
5.0
 40
5.0
 40
5.0
 40
6.0
 40
6.0
 40
6.0
 40
7.0
 40
7.0
 40
7.0
 40
7.0
 10
77.08366697291659
 20
-144.7822048249156
 30
0.0
 10
77.08366697291659
 20
-144.7822048249156
 30
0.0
 10
77.08366697291659
 20
-143.678051721893
 30
0.0
 10
77.08366697291659
 20
-143.678051721893
 30
0.0
 10
77.08366697291659
 20
-143.678051721893
 30
0.0
 10
76.73088919522701
 20
-143.678051721893
 30
0.0
 10
76.73088919522701
 20
-143.678051721893
 30
0.0
 10
76.73088919522701
 20
-143.678051721893
 30
0.0
 10
76.73088919522701
 20
-143.5299126160272
 30
0.0
 10
76.73088919522701
 20
-143.5299126160272
 30
0.0
 10
77.085906284982
 20
-143.5150987054407
 30
0.0
 10
77.13568791474385
 20
-143.3521456889884
 30
0.0
 10
77.16738279320816
 20
-143.2377685188781
 30
0.0
 10
77.16738279320816
 20
-143.2377685188781
 30
0.0
 10
77.32327336391572
 20
-143.2377685188781
 30
0.0
 10
77.32327336391572
 20
-143.2377685188781
 30
0.0
 10
77.32327336391572
 20
-143.2377685188781
 30
0.0
 10
77.32327336391572
 20
-144.7822048249156
 30
0.0
 10
77.32327336391572
 20
-144.7822048249156
 30
0.0
 10
77.32327336391572
 20
-144.7822048249156
 30
0.0
 10
77.08366697291659
 20
-144.7822048249156
 30
0.0
 10
77.08366697291659
 20
-144.7822048249156
 30
0.0
  0
HATCH
  5
111
330
10C
100
AcDbEntity
  8
_U+30EC_U+30A4_U+30E4_U+30FC 1
 62
   179
420
  2234388
100
AcDbHatch
 10
0.0
 20
0.0
 30
0.0
210
0.0
220
0.0
230
1.0
  2
SOLID
 70
     1
 71
     0
 91
        1
 92
        1
 93
        1
 72
     4
 94
        3
 73
     0
 74
     1
 95
       26
 96
       22
 40
0.0
 40
0.0
 40
0.0
 40
0.0
 40
1.0
 40
1.0
 40
1.0
 40
2.0
 40
2.0
 40
2.0
 40
3.0
 40
3.0
 40
3.0
 40
4.0
 40
4.0
 40
4.0
 40
5.0
 40
5.0
 40
5.0
 40
6.0
 40
6.0
 40
6.0
 40
7.0
 40
7.0
 40
7.0
 40
7.0
 10
77.08366697291659
 20
-144.7822048249156
 10
77.08366697291659
 20
-144.7822048249156
 10
77.08366697291659
 20
-143.678051721893
 10
77.08366697291659
 20
-143.678051721893
 10
77.08366697291659
 20
-143.678051721893
 10
76.73088919522701
 20
-143.678051721893
 10
76.73088919522701
 20
-143.678051721893
 10
76.73088919522701
 20
-143.678051721893
 10
76.73088919522701
 20
-143.5299126160272
 10
76.73088919522701
 20
-143.5299126160272
 10
77.085906284982
 20
-143.5150987054407
 10
77.13568791474385
 20
-143.3521456889884
 10
77.16738279320816
 20
-143.2377685188781
 10
77.16738279320816
 20
-143.2377685188781
 10
77.32327336391572
 20
-143.2377685188781
 10
77.32327336391572
 20
-143.2377685188781
 10
77.32327336391572
 20
-143.2377685188781
 10
77.32327336391572
 20
-144.7822048249156
 10
77.32327336391572
 20
-144.7822048249156
 10
77.32327336391572
 20
-144.7822048249156
 10
77.08366697291659
 20
-144.7822048249156
 10
77.08366697291659
 20
-144.7822048249156
 97
        0
 97
        0
 75
     2
 76
     1
 98
        0
  0
SPLINE
  5
112
330
10C
100
AcDbEntity
  8
_U+30EC_U+30A4_U+30E4_U+30FC 1
370
     0
100
AcDbSpline
210
0.0
220
0.0
230
1.0
 70
    11
 71
     3
 72
    29
 73
    25
 74
     0
 42
0.0000000001
 43
0.0000000001
 12
1.0
 22
0.0
 32
0.0
 13
1.0
 23
0.0
 33
0.0
 40
0.0
 40
0.0
 40
0.0
 40
0.0
 40
1.0
 40
1.0
 40
1.0
 40
2.0
 40
2.0
 40
2.0
 40
3.0
 40
3.0
 40
3.0
 40
4.0
 40
4.0
 40
4.0
 40
5.0
 40
5.0
 40
5.0
 40
6.0
 40
6.0
 40
6.0
 40
7.0
 40
7.0
 40
7.0
 40
8.0
 40
8.0
 40
8.0
 40
8.0
 10
78.81844480451414
 20
-144.6044378978767
 30
0.0
 10
78.70320636053253
 20
-144.8138997033799
 30
0.0
 10
78.5178602234261
 20
-144.8328477285487
 30
0.0
 10
78.39349227640858
 20
-144.8328477285487
 30
0.0
 10
78.22158201169461
 20
-144.8328477285487
 30
0.0
 10
78.07017006511788
 20
-144.7863389394979
 30
0.0
 10
77.96836749352875
 20
-144.6044378978767
 30
0.0
 10
77.85760767367796
 20
-144.4097900029601
 30
0.0
 10
77.83728161031499
 20
-144.1731119431234
 30
0.0
 10
77.83728161031499
 20
-144.0101589266711
 30
0.0
 10
77.83728161031499
 20
-143.8661539353876
 30
0.0
 10
77.85536836161255
 20
-143.6143174554159
 30
0.0
 10
77.96836749352875
 20
-143.415535445917
 30
0.0
 10
78.08377819228461
 20
-143.2126193218357
 30
0.0
 10
78.25551620222431
 20
-143.1891926725361
 30
0.0
 10
78.39349227640858
 20
-143.1891926725361
 30
0.0
 10
78.56299097428287
 20
-143.1891926725361
 30
0.0
 10
78.71681448769927
 20
-143.2336344042958
 30
0.0
 10
78.81844480451414
 20
-143.415535445917
 30
0.0
 10
78.9247260002341
 20
-143.6081162835424
 30
0.0
 10
78.9495306877279
 20
-143.8365261142145
 30
0.0
 10
78.9495306877279
 20
-144.0101589266711
 30
0.0
 10
78.9495306877279
 20
-144.181380172288
 30
0.0
 10
78.92696531229952
 20
-144.4118570602512
 30
0.0
 10
78.81844480451414
 20
-144.6044378978767
 30
0.0
  0
SPLINE
  5
113
330
10C
100
AcDbEntity
  8
_U+30EC_U+30A4_U+30E4_U+30FC 1
370
     0
100
AcDbSpline
210
0.0
220
0.0
230
1.0
 70
    11
 71
     3
 72
    17
 73
    13
 74
     0
 42
0.0000000001
 43
0.0000000001
 12
1.0
 22
0.0
 32
0.0
 13
1.0
 23
0.0
 33
0.0
 40
0.0
 40
0.0
 40
0.0
 40
0.0
 40
1.0
 40
1.0
 40
1.0
 40
2.0
 40
2.0
 40
2.0
 40
3.0
 40
3.0
 40
3.0
 40
4.0
 40
4.0
 40
4.0
 40
4.0
 10
78.39349227640858
 20
-143.3817735101615
 30
0.0
 10
78.12666963107597
 20
-143.3817735101615
 30
0.0
 10
78.07688800131412
 20
-143.6653048685976
 30
0.0
 10
78.07688800131412
 20
-144.0101589266711
 30
0.0
 10
78.07688800131412
 20
-144.3295192781537
 30
0.0
 10
78.11530081597465
 20
-144.6381998336321
 30
0.0
 10
78.39349227640858
 20
-144.6381998336321
 30
0.0
 10
78.6579033549015
 20
-144.6381998336321
 30
0.0
 10
78.70992429672877
 20
-144.3570800420357
 30
0.0
 10
78.70992429672877
 20
-144.0101589266711
 30
0.0
 10
78.70992429672877
 20
-143.6904540656399
 30
0.0
 10
78.66927217000283
 20
-143.3817735101615
 30
0.0
 10
78.39349227640858
 20
-143.3817735101615
 30
0.0
  0
HATCH
  5
114
330
10C
100
AcDbEntity
  8
_U+30EC_U+30A4_U+30E4_U+30FC 1
 62
   179
420
  2234388
100
AcDbHatch
 10
0.0
 20
0.0
 30
0.0
210
0.0
220
0.0
230
1.0
  2
SOLID
 70
     1
 71
     0
 91
        2
 92
        1
 93
        1
 72
     4
 94
        3
 73
     0
 74
     1
 95
       29
 96
       25
 40
0.0
 40
0.0
 40
0.0
 40
0.0
 40
1.0
 40
1.0
 40
1.0
 40
2.0
 40
2.0
 40
2.0
 40
3.0
 40
3.0
 40
3.0
 40
4.0
 40
4.0
 40
4.0
 40
5.0
 40
5.0
 40
5.0
 40
6.0
 40
6.0
 40
6.0
 40
7.0
 40
7.0
 40
7.0
 40
8.0
 40
8.0
 40
8.0
 40
8.0
 10
78.81844480451414
 20
-144.6044378978767
 10
78.70320636053253
 20
-144.8138997033799
 10
78.5178602234261
 20
-144.8328477285487
 10
78.39349227640858
 20
-144.8328477285487
 10
78.22158201169461
 20
-144.8328477285487
 10
78.07017006511788
 20
-144.7863389394979
 10
77.96836749352875
 20
-144.6044378978767
 10
77.85760767367796
 20
-144.4097900029601
 10
77.83728161031499
 20
-144.1731119431234
 10
77.83728161031499
 20
-144.0101589266711
 10
77.83728161031499
 20
-143.8661539353876
 10
77.85536836161255
 20
-143.6143174554159
 10
77.96836749352875
 20
-143.415535445917
 10
78.08377819228461
 20
-143.2126193218357
 10
78.25551620222431
 20
-143.1891926725361
 10
78.39349227640858
 20
-143.1891926725361
 10
78.56299097428287
 20
-143.1891926725361
 10
78.71681448769927
 20
-143.2336344042958
 10
78.81844480451414
 20
-143.415535445917
 10
78.9247260002341
 20
-143.6081162835424
 10
78.9495306877279
 20
-143.8365261142145
 10
78.9495306877279
 20
-144.0101589266711
 10
78.9495306877279
 20
-144.181380172288
 10
78.92696531229952
 20
-144.4118570602512
 10
78.81844480451414
 20
-144.6044378978767
 97
        0
 97
        0
 92
        1
 93
        1
 72
     4
 94
        3
 73
     0
 74
     1
 95
       17
 96
       13
 40
0.0
 40
0.0
 40
0.0
 40
0.0
 40
1.0
 40
1.0
 40
1.0
 40
2.0
 40
2.0
 40
2.0
 40
3.0
 40
3.0
 40
3.0
 40
4.0
 40
4.0
 40
4.0
 40
4.0
 10
78.39349227640858
 20
-143.3817735101615
 10
78.12666963107597
 20
-143.3817735101615
 10
78.07688800131412
 20
-143.6653048685976
 10
78.07688800131412
 20
-144.0101589266711
 10
78.07688800131412
 20
-144.3295192781537
 10
78.11530081597465
 20
-144.6381998336321
 10
78.39349227640858
 20
-144.6381998336321
 10
78.6579033549015
 20
-144.6381998336321
 10
78.70992429672877
 20
-144.3570800420357
 10
78.70992429672877
 20
-144.0101589266711
 10
78.70992429672877
 20
-143.6904540656399
 10
78.66927217000283
 20
-143.3817735101615
 10
78.39349227640858
 20
-143.3817735101615
 97
        0
 97
        0
 75
     2
 76
     1
 98
        0
  0
ENDBLK
  5
10F
330
10C
100
AcDbEntity
  8
0
100
AcDbBlockEnd
  0
BLOCK
  5
117
330
115
100
AcDbEntity
  8
0
100
AcDbBlockBegin
  2
block 11
 70
     0
 10
0.0
 20
0.0
 30
0.0
  3
block 11
  1

  0
POLYLINE
  5
119
330
115
100
AcDbEntity
  8
_U+30EC_U+30A4_U+30E4_U+30FC 1
 62
   179
420
  2234388
370
     9
100
AcDb2dPolyline
 66
     1
 10
0.0
 20
0.0
 30
0.0
  0
VERTEX
  5
11A
330
119
100
AcDbEntity
  8
_U+30EC_U+30A4_U+30E4_U+30FC 1
 62
   179
420
  2234388
370
     9
100
AcDbVertex
100
AcDb2dVertex
 10
68.04546937512656
 20
-121.9286430250734
 30
0.0
  0
VERTEX
  5
11B
330
119
100
AcDbEntity
  8
_U+30EC_U+30A4_U+30E4_U+30FC 1
 62
   179
420
  2234388
370
     9
100
AcDbVertex
100
AcDb2dVertex
 10
68.04546937512656
 20
-141.4287521868652
 30
0.0
  0
SEQEND
  5
11C
330
119
100
AcDbEntity
  8
_U+30EC_U+30A4_U+30E4_U+30FC 1
 62
   179
420
  2234388
370
     9
  0
POLYLINE
  5
11D
330
115
100
AcDbEntity
  8
_U+30EC_U+30A4_U+30E4_U+30FC 1
 62
   179
420
  2234388
370
     9
100
AcDb2dPolyline
 66
     1
 10
0.0
 20
0.0
 30
0.0
  0
VERTEX
  5
11E
330
11D
100
AcDbEntity
  8
_U+30EC_U+30A4_U+30E4_U+30FC 1
 62
   179
420
  2234388
370
     9
100
AcDbVertex
100
AcDb2dVertex
 10
69.50547544898981
 20
-121.9286430250734
 30
0.0
  0
VERTEX
  5
11F
330
11D
100
AcDbEntity
  8
_U+30EC_U+30A4_U+30E4_U+30FC 1
 62
   179
420
  2234388
370
     9
100
AcDbVertex
100
AcDb2dVertex
 10
67.04534440064188
 20
-121.9286430250734
 30
0.0
  0
SEQEND
  5
120
330
11D
100
AcDbEntity
  8
_U+30EC_U+30A4_U+30E4_U+30FC 1
 62
   179
420
  2234388
370
     9
  0
POLYLINE
  5
121
330
115
100
AcDbEntity
  8
_U+30EC_U+30A4_U+30E4_U+30FC 1
 62
   179
420
  2234388
370
     9
100
AcDb2dPolyline
 66
     1
 10
0.0
 20
0.0
 30
0.0
  0
VERTEX
  5
122
330
121
100
AcDbEntity
  8
_U+30EC_U+30A4_U+30E4_U+30FC 1
 62
   179
420
  2234388
370
     9
100
AcDbVertex
100
AcDb2dVertex
 10
69.50547544898981
 20
-141.4287521868652
 30
0.0
  0
VERTEX
  5
123
330
121
100
AcDbEntity
  8
_U+30EC_U+30A4_U+30E4_U+30FC 1
 62
   179
420
  2234388
370
     9
100
AcDbVertex
100
AcDb2dVertex
 10
67.04534440064188
 20
-141.4287521868652
 30
0.0
  0
SEQEND
  5
124
330
121
100
AcDbEntity
  8
_U+30EC_U+30A4_U+30E4_U+30FC 1
 62
   179
420
  2234388
370
     9
  0
INSERT
  5
126
330
115
100
AcDbEntity
  8
_U+30EC_U+30A4_U+30E4_U+30FC 1
100
AcDbBlockReference
  2
block 12
 10
0.0
 20
0.0
 30
0.0
  0
ENDBLK
  5
118
330
115
100
AcDbEntity
  8
0
100
AcDbBlockEnd
  0
BLOCK
  5
127
330
125
100
AcDbEntity
  8
0
100
AcDbBlockBegin
  2
block 12
 70
     0
 10
0.0
 20
0.0
 30
0.0
  3
block 12
  1

  0
SPLINE
  5
129
330
125
100
AcDbEntity
  8
_U+30EC_U+30A4_U+30E4_U+30FC 1
370
     0
100
AcDbSpline
210
0.0
220
0.0
230
1.0
 70
    11
 71
     3
 72
    26
 73
    22
 74
     0
 42
0.0000000001
 43
0.0000000001
 12
1.0
 22
0.0
 32
0.0
 13
1.0
 23
0.0
 33
0.0
 40
0.0
 40
0.0
 40
0.0
 40
0.0
 40
1.0
 40
1.0
 40
1.0
 40
2.0
 40
2.0
 40
2.0
 40
3.0
 40
3.0
 40
3.0
 40
4.0
 40
4.0
 40
4.0
 40
5.0
 40
5.0
 40
5.0
 40
6.0
 40
6.0
 40
6.0
 40
7.0
 40
7.0
 40
7.0
 40
7.0
 10
67.39915905433077
 20
-133.2821315856031
 30
0.0
 10
67.39915905433077
 20
-133.2821315856031
 30
0.0
 10
66.2950059513082
 20
-133.2821315856031
 30
0.0
 10
66.2950059513082
 20
-133.2821315856031
 30
0.0
 10
66.2950059513082
 20
-133.2821315856031
 30
0.0
 10
66.2950059513082
 20
-133.6345648537441
 30
0.0
 10
66.2950059513082
 20
-133.6345648537441
 30
0.0
 10
66.2950059513082
 20
-133.6345648537441
 30
0.0
 10
66.14686684544245
 20
-133.6345648537441
 30
0.0
 10
66.14686684544245
 20
-133.6345648537441
 30
0.0
 10
66.13205293485588
 20
-133.2797200187634
 30
0.0
 10
65.96909991840356
 20
-133.2301106437758
 30
0.0
 10
65.85472274829327
 20
-133.1984157653115
 30
0.0
 10
65.85472274829327
 20
-133.1984157653115
 30
0.0
 10
65.85472274829327
 20
-133.0423529398297
 30
0.0
 10
65.85472274829327
 20
-133.0423529398297
 30
0.0
 10
65.85472274829327
 20
-133.0423529398297
 30
0.0
 10
67.39915905433077
 20
-133.0423529398297
 30
0.0
 10
67.39915905433077
 20
-133.0423529398297
 30
0.0
 10
67.39915905433077
 20
-133.0423529398297
 30
0.0
 10
67.39915905433077
 20
-133.2821315856031
 30
0.0
 10
67.39915905433077
 20
-133.2821315856031
 30
0.0
  0
HATCH
  5
12A
330
125
100
AcDbEntity
  8
_U+30EC_U+30A4_U+30E4_U+30FC 1
 62
   179
420
  2234388
100
AcDbHatch
 10
0.0
 20
0.0
 30
0.0
210
0.0
220
0.0
230
1.0
  2
SOLID
 70
     1
 71
     0
 91
        1
 92
        1
 93
        1
 72
     4
 94
        3
 73
     0
 74
     1
 95
       26
 96
       22
 40
0.0
 40
0.0
 40
0.0
 40
0.0
 40
1.0
 40
1.0
 40
1.0
 40
2.0
 40
2.0
 40
2.0
 40
3.0
 40
3.0
 40
3.0
 40
4.0
 40
4.0
 40
4.0
 40
5.0
 40
5.0
 40
5.0
 40
6.0
 40
6.0
 40
6.0
 40
7.0
 40
7.0
 40
7.0
 40
7.0
 10
67.39915905433077
 20
-133.2821315856031
 10
67.39915905433077
 20
-133.2821315856031
 10
66.2950059513082
 20
-133.2821315856031
 10
66.2950059513082
 20
-133.2821315856031
 10
66.2950059513082
 20
-133.2821315856031
 10
66.2950059513082
 20
-133.6345648537441
 10
66.2950059513082
 20
-133.6345648537441
 10
66.2950059513082
 20
-133.6345648537441
 10
66.14686684544245
 20
-133.6345648537441
 10
66.14686684544245
 20
-133.6345648537441
 10
66.13205293485588
 20
-133.2797200187634
 10
65.96909991840356
 20
-133.2301106437758
 10
65.85472274829327
 20
-133.1984157653115
 10
65.85472274829327
 20
-133.1984157653115
 10
65.85472274829327
 20
-133.0423529398297
 10
65.85472274829327
 20
-133.0423529398297
 10
65.85472274829327
 20
-133.0423529398297
 10
67.39915905433077
 20
-133.0423529398297
 10
67.39915905433077
 20
-133.0423529398297
 10
67.39915905433077
 20
-133.0423529398297
 10
67.39915905433077
 20
-133.2821315856031
 10
67.39915905433077
 20
-133.2821315856031
 97
        0
 97
        0
 75
     2
 76
     1
 98
        0
  0
SPLINE
  5
12B
330
125
100
AcDbEntity
  8
_U+30EC_U+30A4_U+30E4_U+30FC 1
370
     0
100
AcDbSpline
210
0.0
220
0.0
230
1.0
 70
    11
 71
     3
 72
    32
 73
    28
 74
     0
 42
0.0000000001
 43
0.0000000001
 12
1.0
 22
0.0
 32
0.0
 13
1.0
 23
0.0
 33
0.0
 40
0.0
 40
0.0
 40
0.0
 40
0.0
 40
1.0
 40
1.0
 40
1.0
 40
2.0
 40
2.0
 40
2.0
 40
3.0
 40
3.0
 40
3.0
 40
4.0
 40
4.0
 40
4.0
 40
5.0
 40
5.0
 40
5.0
 40
6.0
 40
6.0
 40
6.0
 40
7.0
 40
7.0
 40
7.0
 40
8.0
 40
8.0
 40
8.0
 40
9.0
 40
9.0
 40
9.0
 40
9.0
 10
67.44980195796394
 20
-132.0174370329679
 30
0.0
 10
67.44980195796394
 20
-132.2027831700743
 30
0.0
 10
67.3802110291619
 20
-132.4649549365018
 30
0.0
 10
67.04810382438382
 20
-132.5056070632278
 30
0.0
 10
67.04810382438382
 20
-132.5056070632278
 30
0.0
 10
67.04810382438382
 20
-132.2775417421042
 30
0.0
 10
67.04810382438382
 20
-132.2775417421042
 30
0.0
 10
67.1073594667301
 20
-132.2661729270029
 30
0.0
 10
67.25515406304733
 20
-132.2320664816989
 30
0.0
 10
67.25515406304733
 20
-132.0150254661282
 30
0.0
 10
67.25515406304733
 20
-131.7032443247131
 30
0.0
 10
66.92511391556039
 20
-131.6625921979871
 30
0.0
 10
66.72013073418803
 20
-131.6488118160461
 30
0.0
 10
66.80040145899434
 20
-131.7459635087302
 30
0.0
 10
66.85759004404949
 20
-131.8183105139204
 30
0.0
 10
66.85759004404949
 20
-132.0129584088371
 30
0.0
 10
66.85759004404949
 20
-132.205194736914
 30
0.0
 10
66.75182561265233
 20
-132.5283446934304
 30
0.0
 10
66.34564885494137
 20
-132.5283446934304
 30
0.0
 10
66.02628850345872
 20
-132.5283446934304
 30
0.0
 10
65.80614690195124
 20
-132.3157823019905
 30
0.0
 10
65.80614690195124
 20
-131.9767849062419
 30
0.0
 10
65.80614690195124
 20
-131.4272921763446
 30
0.0
 10
66.36046276552794
 20
-131.4159233612432
 30
0.0
 10
66.57405868561344
 20
-131.4159233612432
 30
0.0
 10
66.80453557357664
 20
-131.4159233612432
 30
0.0
 10
67.44980195796394
 20
-131.4362494246062
 30
0.0
 10
67.44980195796394
 20
-132.0174370329679
 30
0.0
  0
SPLINE
  5
12C
330
125
100
AcDbEntity
  8
_U+30EC_U+30A4_U+30E4_U+30FC 1
370
     0
100
AcDbSpline
210
0.0
220
0.0
230
1.0
 70
    11
 71
     3
 72
    17
 73
    13
 74
     0
 42
0.0000000001
 43
0.0000000001
 12
1.0
 22
0.0
 32
0.0
 13
1.0
 23
0.0
 33
0.0
 40
0.0
 40
0.0
 40
0.0
 40
0.0
 40
1.0
 40
1.0
 40
1.0
 40
2.0
 40
2.0
 40
2.0
 40
3.0
 40
3.0
 40
3.0
 40
4.0
 40
4.0
 40
4.0
 40
4.0
 10
65.99872773957671
 20
-131.9743733394022
 30
0.0
 10
65.99872773957671
 20
-132.1011528532594
 30
0.0
 10
66.05591632463185
 20
-132.288566047657
 30
0.0
 10
66.34151474035907
 20
-132.288566047657
 30
0.0
 10
66.56785751373998
 20
-132.288566047657
 30
0.0
 10
66.66294214913287
 20
-132.1393934131457
 30
0.0
 10
66.66294214913287
 20
-131.9946994027652
 30
0.0
 10
66.66294214913287
 20
-131.7142686302659
 30
0.0
 10
66.45348034362969
 20
-131.6736165035399
 30
0.0
 10
66.33703611622825
 20
-131.6736165035399
 30
0.0
 10
66.16168075602903
 20
-131.6736165035399
 30
0.0
 10
65.99872773957671
 20
-131.7755913299033
 30
0.0
 10
65.99872773957671
 20
-131.9743733394022
 30
0.0
  0
HATCH
  5
12D
330
125
100
AcDbEntity
  8
_U+30EC_U+30A4_U+30E4_U+30FC 1
 62
   179
420
  2234388
100
AcDbHatch
 10
0.0
 20
0.0
 30
0.0
210
0.0
220
0.0
230
1.0
  2
SOLID
 70
     1
 71
     0
 91
        2
 92
        1
 93
        1
 72
     4
 94
        3
 73
     0
 74
     1
 95
       32
 96
       28
 40
0.0
 40
0.0
 40
0.0
 40
0.0
 40
1.0
 40
1.0
 40
1.0
 40
2.0
 40
2.0
 40
2.0
 40
3.0
 40
3.0
 40
3.0
 40
4.0
 40
4.0
 40
4.0
 40
5.0
 40
5.0
 40
5.0
 40
6.0
 40
6.0
 40
6.0
 40
7.0
 40
7.0
 40
7.0
 40
8.0
 40
8.0
 40
8.0
 40
9.0
 40
9.0
 40
9.0
 40
9.0
 10
67.44980195796394
 20
-132.0174370329679
 10
67.44980195796394
 20
-132.2027831700743
 10
67.3802110291619
 20
-132.4649549365018
 10
67.04810382438382
 20
-132.5056070632278
 10
67.04810382438382
 20
-132.5056070632278
 10
67.04810382438382
 20
-132.2775417421042
 10
67.04810382438382
 20
-132.2775417421042
 10
67.1073594667301
 20
-132.2661729270029
 10
67.25515406304733
 20
-132.2320664816989
 10
67.25515406304733
 20
-132.0150254661282
 10
67.25515406304733
 20
-131.7032443247131
 10
66.92511391556039
 20
-131.6625921979871
 10
66.72013073418803
 20
-131.6488118160461
 10
66.80040145899434
 20
-131.7459635087302
 10
66.85759004404949
 20
-131.8183105139204
 10
66.85759004404949
 20
-132.0129584088371
 10
66.85759004404949
 20
-132.205194736914
 10
66.75182561265233
 20
-132.5283446934304
 10
66.34564885494137
 20
-132.5283446934304
 10
66.02628850345872
 20
-132.5283446934304
 10
65.80614690195124
 20
-132.3157823019905
 10
65.80614690195124
 20
-131.9767849062419
 10
65.80614690195124
 20
-131.4272921763446
 10
66.36046276552794
 20
-131.4159233612432
 10
66.57405868561344
 20
-131.4159233612432
 10
66.80453557357664
 20
-131.4159233612432
 10
67.44980195796394
 20
-131.4362494246062
 10
67.44980195796394
 20
-132.0174370329679
 97
        0
 97
        0
 92
        1
 93
        1
 72
     4
 94
        3
 73
     0
 74
     1
 95
       17
 96
       13
 40
0.0
 40
0.0
 40
0.0
 40
0.0
 40
1.0
 40
1.0
 40
1.0
 40
2.0
 40
2.0
 40
2.0
 40
3.0
 40
3.0
 40
3.0
 40
4.0
 40
4.0
 40
4.0
 40
4.0
 10
65.99872773957671
 20
-131.9743733394022
 10
65.99872773957671
 20
-132.1011528532594
 10
66.05591632463185
 20
-132.288566047657
 10
66.34151474035907
 20
-132.288566047657
 10
66.56785751373998
 20
-132.288566047657
 10
66.66294214913287
 20
-132.1393934131457
 10
66.66294214913287
 20
-131.9946994027652
 10
66.66294214913287
 20
-131.7142686302659
 10
66.45348034362969
 20
-131.6736165035399
 10
66.33703611622825
 20
-131.6736165035399
 10
66.16168075602903
 20
-131.6736165035399
 10
65.99872773957671
 20
-131.7755913299033
 10
65.99872773957671
 20
-131.9743733394022
 97
        0
 97
        0
 75
     2
 76
     1
 98
        0
  0
POLYLINE
  5
12E
330
125
100
AcDbEntity
  8
_U+30EC_U+30A4_U+30E4_U+30FC 1
370
     0
100
AcDb2dPolyline
 66
     1
 10
0.0
 20
0.0
 30
0.0
  0
VERTEX
  5
12F
330
12E
100
AcDbEntity
  8
_U+30EC_U+30A4_U+30E4_U+30FC 1
370
     0
100
AcDbVertex
100
AcDb2dVertex
 10
67.39915905433077
 20
-131.184757454183
 30
0.0
  0
VERTEX
  5
130
330
12E
100
AcDbEntity
  8
_U+30EC_U+30A4_U+30E4_U+30FC 1
370
     0
100
AcDbVertex
100
AcDb2dVertex
 10
67.14732257435901
 20
-131.184757454183
 30
0.0
  0
VERTEX
  5
131
330
12E
100
AcDbEntity
  8
_U+30EC_U+30A4_U+30E4_U+30FC 1
370
     0
100
AcDbVertex
100
AcDb2dVertex
 10
67.14732257435901
 20
-130.915695496785
 30
0.0
  0
VERTEX
  5
132
330
12E
100
AcDbEntity
  8
_U+30EC_U+30A4_U+30E4_U+30FC 1
370
     0
100
AcDbVertex
100
AcDb2dVertex
 10
67.39915905433077
 20
-130.915695496785
 30
0.0
  0
VERTEX
  5
133
330
12E
100
AcDbEntity
  8
_U+30EC_U+30A4_U+30E4_U+30FC 1
370
     0
100
AcDbVertex
100
AcDb2dVertex
 10
67.39915905433077
 20
-131.184757454183
 30
0.0
  0
SEQEND
  5
134
330
12E
100
AcDbEntity
  8
_U+30EC_U+30A4_U+30E4_U+30FC 1
370
     0
  0
HATCH
  5
135
330
125
100
AcDbEntity
  8
_U+30EC_U+30A4_U+30E4_U+30FC 1
 62
   179
420
  2234388
100
AcDbHatch
 10
0.0
 20
0.0
 30
0.0
210
0.0
220
0.0
230
1.0
  2
SOLID
 70
     1
 71
     0
 91
        1
 92
        1
 93
        4
 72
     1
 10
67.39915905433077
 20
-131.184757454183
 11
67.14732257435901
 21
-131.184757454183
 72
     1
 10
67.14732257435901
 20
-131.184757454183
 11
67.14732257435901
 21
-130.915695496785
 72
     1
 10
67.14732257435901
 20
-130.915695496785
 11
67.39915905433077
 21
-130.915695496785
 72
     1
 10
67.39915905433077
 20
-130.915695496785
 11
67.39915905433077
 21
-131.184757454183
 97
        0
 75
     2
 76
     1
 98
        0
  0
SPLINE
  5
136
330
125
100
AcDbEntity
  8
_U+30EC_U+30A4_U+30E4_U+30FC 1
370
     0
100
AcDbSpline
210
0.0
220
0.0
230
1.0
 70
    11
 71
     3
 72
    53
 73
    49
 74
     0
 42
0.0000000001
 43
0.0000000001
 12
1.0
 22
0.0
 32
0.0
 13
1.0
 23
0.0
 33
0.0
 40
0.0
 40
0.0
 40
0.0
 40
0.0
 40
1.0
 40
1.0
 40
1.0
 40
2.0
 40
2.0
 40
2.0
 40
3.0
 40
3.0
 40
3.0
 40
4.0
 40
4.0
 40
4.0
 40
5.0
 40
5.0
 40
5.0
 40
6.0
 40
6.0
 40
6.0
 40
7.0
 40
7.0
 40
7.0
 40
8.0
 40
8.0
 40
8.0
 40
9.0
 40
9.0
 40
9.0
 40
10.0
 40
10.0
 40
10.0
 40
11.0
 40
11.0
 40
11.0
 40
12.0
 40
12.0
 40
12.0
 40
13.0
 40
13.0
 40
13.0
 40
14.0
 40
14.0
 40
14.0
 40
15.0
 40
15.0
 40
15.0
 40
16.0
 40
16.0
 40
16.0
 40
16.0
 10
67.44980195796394
 20
-130.1488172417684
 30
0.0
 10
67.44980195796394
 20
-130.2321885525114
 30
0.0
 10
67.43292099008622
 20
-130.3410535698453
 30
0.0
 10
67.36953123315762
 20
-130.4492295680821
 30
0.0
 10
67.25963268717815
 20
-130.6349202147371
 30
0.0
 10
67.12837454919013
 20
-130.6573133353912
 30
0.0
 10
67.02054306050181
 20
-130.6776393987542
 30
0.0
 10
67.02054306050181
 20
-130.6776393987542
 30
0.0
 10
67.02054306050181
 20
-130.4402723198205
 30
0.0
 10
67.02054306050181
 20
-130.4402723198205
 30
0.0
 10
67.21932507000072
 20
-130.3817056965713
 30
0.0
 10
67.24895289117387
 20
-130.2459689344524
 30
0.0
 10
67.24895289117387
 20
-130.1464056749287
 30
0.0
 10
67.24895289117387
 20
-129.9972330404174
 30
0.0
 10
67.14938963165015
 20
-129.8346245335136
 30
0.0
 10
66.91684568639579
 20
-129.8346245335136
 30
0.0
 10
66.66087509184173
 20
-129.8346245335136
 30
0.0
 10
66.59093965349116
 20
-130.026516352042
 30
0.0
 10
66.59093965349116
 20
-130.1553629231903
 30
0.0
 10
66.59093965349116
 20
-130.1894693684943
 30
0.0
 10
66.59093965349116
 20
-130.3410535698453
 30
0.0
 10
66.72013073418803
 20
-130.4357936956897
 30
0.0
 10
66.72013073418803
 20
-130.4357936956897
 30
0.0
 10
66.70118270901915
 20
-130.6235513996358
 30
0.0
 10
66.70118270901915
 20
-130.6235513996358
 30
0.0
 10
66.70118270901915
 20
-130.6235513996358
 30
0.0
 10
65.85472274829327
 20
-130.4947048284874
 30
0.0
 10
65.85472274829327
 20
-130.4947048284874
 30
0.0
 10
65.85472274829327
 20
-130.4947048284874
 30
0.0
 10
65.85472274829327
 20
-129.6627142687996
 30
0.0
 10
65.85472274829327
 20
-129.6627142687996
 30
0.0
 10
65.85472274829327
 20
-129.6627142687996
 30
0.0
 10
66.04937064320988
 20
-129.6627142687996
 30
0.0
 10
66.04937064320988
 20
-129.6627142687996
 30
0.0
 10
66.04937064320988
 20
-129.6627142687996
 30
0.0
 10
66.04937064320988
 20
-130.3203829969338
 30
0.0
 10
66.04937064320988
 20
-130.3203829969338
 30
0.0
 10
66.04937064320988
 20
-130.3203829969338
 30
0.0
 10
66.47242836879856
 20
-130.3906629448329
 30
0.0
 10
66.47242836879856
 20
-130.3906629448329
 30
0.0
 10
66.43866643304311
 20
-130.3252061306131
 30
0.0
 10
66.39835881586569
 20
-130.2370116861908
 30
0.0
 10
66.39835881586569
 20
-130.1102321723336
 30
0.0
 10
66.39835881586569
 20
-129.8391031576444
 30
0.0
 10
66.5847384816177
 20
-129.5858886394785
 30
0.0
 10
66.89789766122692
 20
-129.5858886394785
 30
0.0
 10
67.21519095541842
 20
-129.5858886394785
 30
0.0
 10
67.44980195796394
 20
-129.8253227757034
 30
0.0
 10
67.44980195796394
 20
-130.1488172417684
 30
0.0
  0
HATCH
  5
137
330
125
100
AcDbEntity
  8
_U+30EC_U+30A4_U+30E4_U+30FC 1
 62
   179
420
  2234388
100
AcDbHatch
 10
0.0
 20
0.0
 30
0.0
210
0.0
220
0.0
230
1.0
  2
SOLID
 70
     1
 71
     0
 91
        1
 92
        1
 93
        1
 72
     4
 94
        3
 73
     0
 74
     1
 95
       53
 96
       49
 40
0.0
 40
0.0
 40
0.0
 40
0.0
 40
1.0
 40
1.0
 40
1.0
 40
2.0
 40
2.0
 40
2.0
 40
3.0
 40
3.0
 40
3.0
 40
4.0
 40
4.0
 40
4.0
 40
5.0
 40
5.0
 40
5.0
 40
6.0
 40
6.0
 40
6.0
 40
7.0
 40
7.0
 40
7.0
 40
8.0
 40
8.0
 40
8.0
 40
9.0
 40
9.0
 40
9.0
 40
10.0
 40
10.0
 40
10.0
 40
11.0
 40
11.0
 40
11.0
 40
12.0
 40
12.0
 40
12.0
 40
13.0
 40
13.0
 40
13.0
 40
14.0
 40
14.0
 40
14.0
 40
15.0
 40
15.0
 40
15.0
 40
16.0
 40
16.0
 40
16.0
 40
16.0
 10
67.44980195796394
 20
-130.1488172417684
 10
67.44980195796394
 20
-130.2321885525114
 10
67.43292099008622
 20
-130.3410535698453
 10
67.36953123315762
 20
-130.4492295680821
 10
67.25963268717815
 20
-130.6349202147371
 10
67.12837454919013
 20
-130.6573133353912
 10
67.02054306050181
 20
-130.6776393987542
 10
67.02054306050181
 20
-130.6776393987542
 10
67.02054306050181
 20
-130.4402723198205
 10
67.02054306050181
 20
-130.4402723198205
 10
67.21932507000072
 20
-130.3817056965713
 10
67.24895289117387
 20
-130.2459689344524
 10
67.24895289117387
 20
-130.1464056749287
 10
67.24895289117387
 20
-129.9972330404174
 10
67.14938963165015
 20
-129.8346245335136
 10
66.91684568639579
 20
-129.8346245335136
 10
66.66087509184173
 20
-129.8346245335136
 10
66.59093965349116
 20
-130.026516352042
 10
66.59093965349116
 20
-130.1553629231903
 10
66.59093965349116
 20
-130.1894693684943
 10
66.59093965349116
 20
-130.3410535698453
 10
66.72013073418803
 20
-130.4357936956897
 10
66.72013073418803
 20
-130.4357936956897
 10
66.70118270901915
 20
-130.6235513996358
 10
66.70118270901915
 20
-130.6235513996358
 10
66.70118270901915
 20
-130.6235513996358
 10
65.85472274829327
 20
-130.4947048284874
 10
65.85472274829327
 20
-130.4947048284874
 10
65.85472274829327
 20
-130.4947048284874
 10
65.85472274829327
 20
-129.6627142687996
 10
65.85472274829327
 20
-129.6627142687996
 10
65.85472274829327
 20
-129.6627142687996
 10
66.04937064320988
 20
-129.6627142687996
 10
66.04937064320988
 20
-129.6627142687996
 10
66.04937064320988
 20
-129.6627142687996
 10
66.04937064320988
 20
-130.3203829969338
 10
66.04937064320988
 20
-130.3203829969338
 10
66.04937064320988
 20
-130.3203829969338
 10
66.47242836879856
 20
-130.3906629448329
 10
66.47242836879856
 20
-130.3906629448329
 10
66.43866643304311
 20
-130.3252061306131
 10
66.39835881586569
 20
-130.2370116861908
 10
66.39835881586569
 20
-130.1102321723336
 10
66.39835881586569
 20
-129.8391031576444
 10
66.5847384816177
 20
-129.5858886394785
 10
66.89789766122692
 20
-129.5858886394785
 10
67.21519095541842
 20
-129.5858886394785
 10
67.44980195796394
 20
-129.8253227757034
 10
67.44980195796394
 20
-130.1488172417684
 97
        0
 97
        0
 75
     2
 76
     1
 98
        0
  0
ENDBLK
  5
128
330
125
100
AcDbEntity
  8
0
100
AcDbBlockEnd
  0
BLOCK
  5
13A
330
138
100
AcDbEntity
  8
0
100
AcDbBlockBegin
  2
block 13
 70
     0
 10
0.0
 20
0.0
 30
0.0
  3
block 13
  1

  0
POLYLINE
  5
13C
330
138
100
AcDbEntity
  8
_U+30EC_U+30A4_U+30E4_U+30FC 1
 62
   179
420
  2234388
370
     9
100
AcDb2dPolyline
 66
     1
 10
0.0
 20
0.0
 30
0.0
  0
VERTEX
  5
13D
330
13C
100
AcDbEntity
  8
_U+30EC_U+30A4_U+30E4_U+30FC 1
 62
   179
420
  2234388
370
     9
100
AcDbVertex
100
AcDb2dVertex
 10
116.7646084099756
 20
-138.4287652431709
 30
0.0
  0
VERTEX
  5
13E
330
13C
100
AcDbEntity
  8
_U+30EC_U+30A4_U+30E4_U+30FC 1
 62
   179
420
  2234388
370
     9
100
AcDbVertex
100
AcDb2dVertex
 10
116.7646084099756
 20
-129.928337745296
 30
0.0
  0
SEQEND
  5
13F
330
13C
100
AcDbEntity
  8
_U+30EC_U+30A4_U+30E4_U+30FC 1
 62
   179
420
  2234388
370
     9
  0
POLYLINE
  5
140
330
138
100
AcDbEntity
  8
_U+30EC_U+30A4_U+30E4_U+30FC 1
 62
   179
420
  2234388
370
     9
100
AcDb2dPolyline
 66
     1
 10
0.0
 20
0.0
 30
0.0
  0
VERTEX
  5
141
330
140
100
AcDbEntity
  8
_U+30EC_U+30A4_U+30E4_U+30FC 1
 62
   179
420
  2234388
370
     9
100
AcDbVertex
100
AcDb2dVertex
 10
115.65738010489
 20
-129.928337745296
 30
0.0
  0
VERTEX
  5
142
330
140
100
AcDbEntity
  8
_U+30EC_U+30A4_U+30E4_U+30FC 1
 62
   179
420
  2234388
370
     9
100
AcDbVertex
100
AcDb2dVertex
 10
117.765086162229
 20
-129.928337745296
 30
0.0
  0
SEQEND
  5
143
330
140
100
AcDbEntity
  8
_U+30EC_U+30A4_U+30E4_U+30FC 1
 62
   179
420
  2234388
370
     9
  0
INSERT
  5
145
330
138
100
AcDbEntity
  8
_U+30EC_U+30A4_U+30E4_U+30FC 1
100
AcDbBlockReference
  2
block 14
 10
0.0
 20
0.0
 30
0.0
  0
ENDBLK
  5
13B
330
138
100
AcDbEntity
  8
0
100
AcDbBlockEnd
  0
BLOCK
  5
146
330
144
100
AcDbEntity
  8
0
100
AcDbBlockBegin
  2
block 14
 70
     0
 10
0.0
 20
0.0
 30
0.0
  3
block 14
  1

  0
SPLINE
  5
148
330
144
100
AcDbEntity
  8
_U+30EC_U+30A4_U+30E4_U+30FC 1
370
     0
100
AcDbSpline
210
0.0
220
0.0
230
1.0
 70
    11
 71
     3
 72
    29
 73
    25
 74
     0
 42
0.0000000001
 43
0.0000000001
 12
1.0
 22
0.0
 32
0.0
 13
1.0
 23
0.0
 33
0.0
 40
0.0
 40
0.0
 40
0.0
 40
0.0
 40
1.0
 40
1.0
 40
1.0
 40
2.0
 40
2.0
 40
2.0
 40
3.0
 40
3.0
 40
3.0
 40
4.0
 40
4.0
 40
4.0
 40
5.0
 40
5.0
 40
5.0
 40
6.0
 40
6.0
 40
6.0
 40
7.0
 40
7.0
 40
7.0
 40
8.0
 40
8.0
 40
8.0
 40
8.0
 10
116.1693087817216
 20
-135.1014865113635
 30
0.0
 10
116.1693087817216
 20
-135.3860513984451
 30
0.0
 10
116.0318494718601
 20
-135.6575249226829
 30
0.0
 10
115.6828612992043
 20
-135.6575249226829
 30
0.0
 10
115.4268907046502
 20
-135.6575249226829
 30
0.0
 10
115.3318060692573
 20
-135.5059407213319
 30
0.0
 10
115.2704833696199
 20
-135.3929415894157
 30
0.0
 10
115.2112277272736
 20
-135.5262667846948
 30
0.0
 10
115.0968505571633
 20
-135.6079155476953
 30
0.0
 10
114.9359645980021
 20
-135.6079155476953
 30
0.0
 10
114.6610459782792
 20
-135.6079155476953
 30
0.0
 10
114.5256537257089
 20
-135.3953531562553
 30
0.0
 10
114.5256537257089
 20
-135.1014865113635
 30
0.0
 10
114.5256537257089
 20
-134.7983181086615
 30
0.0
 10
114.6696587169923
 20
-134.5950574750318
 30
0.0
 10
114.9359645980021
 20
-134.5950574750318
 30
0.0
 10
115.0968505571633
 20
-134.5950574750318
 30
0.0
 10
115.2112277272736
 20
-134.6784287857749
 30
0.0
 10
115.2704833696199
 20
-134.8120984906026
 30
0.0
 10
115.3211262732531
 20
-134.7170138552096
 30
0.0
 10
115.416210908646
 20
-134.5475151573353
 30
0.0
 10
115.678727184622
 20
-134.5475151573353
 30
0.0
 10
116.0532090638686
 20
-134.5475151573353
 30
0.0
 10
116.1693087817216
 20
-134.845860426358
 30
0.0
 10
116.1693087817216
 20
-135.1014865113635
 30
0.0
  0
SPLINE
  5
149
330
144
100
AcDbEntity
  8
_U+30EC_U+30A4_U+30E4_U+30FC 1
370
     0
100
AcDbSpline
210
0.0
220
0.0
230
1.0
 70
    11
 71
     3
 72
    17
 73
    13
 74
     0
 42
0.0000000001
 43
0.0000000001
 12
1.0
 22
0.0
 32
0.0
 13
1.0
 23
0.0
 33
0.0
 40
0.0
 40
0.0
 40
0.0
 40
0.0
 40
1.0
 40
1.0
 40
1.0
 40
2.0
 40
2.0
 40
2.0
 40
3.0
 40
3.0
 40
3.0
 40
4.0
 40
4.0
 40
4.0
 40
4.0
 10
114.7182345633343
 20
-135.1014865113635
 30
0.0
 10
114.7182345633343
 20
-135.2778754002083
 30
0.0
 10
114.8133191987272
 20
-135.3681369019219
 30
0.0
 10
114.9487114512976
 20
-135.3681369019219
 30
0.0
 10
115.0713568505724
 20
-135.3681369019219
 30
0.0
 10
115.189868135265
 20
-135.2913112726008
 30
0.0
 10
115.189868135265
 20
-135.1014865113635
 30
0.0
 10
115.189868135265
 20
-134.9113172405777
 30
0.0
 10
115.0713568505724
 20
-134.8344916112567
 30
0.0
 10
114.9487114512976
 20
-134.8344916112567
 30
0.0
 10
114.8133191987272
 20
-134.8344916112567
 30
0.0
 10
114.7182345633343
 20
-134.9271646798099
 30
0.0
 10
114.7182345633343
 20
-135.1014865113635
 30
0.0
  0
SPLINE
  5
14A
330
144
100
AcDbEntity
  8
_U+30EC_U+30A4_U+30E4_U+30FC 1
370
     0
100
AcDbSpline
210
0.0
220
0.0
230
1.0
 70
    11
 71
     3
 72
    17
 73
    13
 74
     0
 42
0.0000000001
 43
0.0000000001
 12
1.0
 22
0.0
 32
0.0
 13
1.0
 23
0.0
 33
0.0
 40
0.0
 40
0.0
 40
0.0
 40
0.0
 40
1.0
 40
1.0
 40
1.0
 40
2.0
 40
2.0
 40
2.0
 40
3.0
 40
3.0
 40
3.0
 40
4.0
 40
4.0
 40
4.0
 40
4.0
 10
115.3783148583082
 20
-135.1014865113635
 30
0.0
 10
115.3783148583082
 20
-135.2551377700057
 30
0.0
 10
115.4651312645365
 20
-135.4177462769095
 30
0.0
 10
115.6680473886177
 20
-135.4177462769095
 30
0.0
 10
115.8733750795386
 20
-135.4177462769095
 30
0.0
 10
115.974660886805
 20
-135.2823540243391
 30
0.0
 10
115.974660886805
 20
-135.1014865113635
 30
0.0
 10
115.974660886805
 20
-134.9023599923161
 30
0.0
 10
115.8520154875301
 20
-134.7848822362691
 30
0.0
 10
115.6742485604912
 20
-134.7848822362691
 30
0.0
 10
115.4523844112411
 20
-134.7848822362691
 30
0.0
 10
115.3783148583082
 20
-134.9588595582742
 30
0.0
 10
115.3783148583082
 20
-135.1014865113635
 30
0.0
  0
HATCH
  5
14B
330
144
100
AcDbEntity
  8
_U+30EC_U+30A4_U+30E4_U+30FC 1
 62
   179
420
  2234388
100
AcDbHatch
 10
0.0
 20
0.0
 30
0.0
210
0.0
220
0.0
230
1.0
  2
SOLID
 70
     1
 71
     0
 91
        3
 92
        1
 93
        1
 72
     4
 94
        3
 73
     0
 74
     1
 95
       29
 96
       25
 40
0.0
 40
0.0
 40
0.0
 40
0.0
 40
1.0
 40
1.0
 40
1.0
 40
2.0
 40
2.0
 40
2.0
 40
3.0
 40
3.0
 40
3.0
 40
4.0
 40
4.0
 40
4.0
 40
5.0
 40
5.0
 40
5.0
 40
6.0
 40
6.0
 40
6.0
 40
7.0
 40
7.0
 40
7.0
 40
8.0
 40
8.0
 40
8.0
 40
8.0
 10
116.1693087817216
 20
-135.1014865113635
 10
116.1693087817216
 20
-135.3860513984451
 10
116.0318494718601
 20
-135.6575249226829
 10
115.6828612992043
 20
-135.6575249226829
 10
115.4268907046502
 20
-135.6575249226829
 10
115.3318060692573
 20
-135.5059407213319
 10
115.2704833696199
 20
-135.3929415894157
 10
115.2112277272736
 20
-135.5262667846948
 10
115.0968505571633
 20
-135.6079155476953
 10
114.9359645980021
 20
-135.6079155476953
 10
114.6610459782792
 20
-135.6079155476953
 10
114.5256537257089
 20
-135.3953531562553
 10
114.5256537257089
 20
-135.1014865113635
 10
114.5256537257089
 20
-134.7983181086615
 10
114.6696587169923
 20
-134.5950574750318
 10
114.9359645980021
 20
-134.5950574750318
 10
115.0968505571633
 20
-134.5950574750318
 10
115.2112277272736
 20
-134.6784287857749
 10
115.2704833696199
 20
-134.8120984906026
 10
115.3211262732531
 20
-134.7170138552096
 10
115.416210908646
 20
-134.5475151573353
 10
115.678727184622
 20
-134.5475151573353
 10
116.0532090638686
 20
-134.5475151573353
 10
116.1693087817216
 20
-134.845860426358
 10
116.1693087817216
 20
-135.1014865113635
 97
        0
 97
        0
 92
        1
 93
        1
 72
     4
 94
        3
 73
     0
 74
     1
 95
       17
 96
       13
 40
0.0
 40
0.0
 40
0.0
 40
0.0
 40
1.0
 40
1.0
 40
1.0
 40
2.0
 40
2.0
 40
2.0
 40
3.0
 40
3.0
 40
3.0
 40
4.0
 40
4.0
 40
4.0
 40
4.0
 10
114.7182345633343
 20
-135.1014865113635
 10
114.7182345633343
 20
-135.2778754002083
 10
114.8133191987272
 20
-135.3681369019219
 10
114.9487114512976
 20
-135.3681369019219
 10
115.0713568505724
 20
-135.3681369019219
 10
115.189868135265
 20
-135.2913112726008
 10
115.189868135265
 20
-135.1014865113635
 10
115.189868135265
 20
-134.9113172405777
 10
115.0713568505724
 20
-134.8344916112567
 10
114.9487114512976
 20
-134.8344916112567
 10
114.8133191987272
 20
-134.8344916112567
 10
114.7182345633343
 20
-134.9271646798099
 10
114.7182345633343
 20
-135.1014865113635
 97
        0
 97
        0
 92
        1
 93
        1
 72
     4
 94
        3
 73
     0
 74
     1
 95
       17
 96
       13
 40
0.0
 40
0.0
 40
0.0
 40
0.0
 40
1.0
 40
1.0
 40
1.0
 40
2.0
 40
2.0
 40
2.0
 40
3.0
 40
3.0
 40
3.0
 40
4.0
 40
4.0
 40
4.0
 40
4.0
 10
115.3783148583082
 20
-135.1014865113635
 10
115.3783148583082
 20
-135.2551377700057
 10
115.4651312645365
 20
-135.4177462769095
 10
115.6680473886177
 20
-135.4177462769095
 10
115.8733750795386
 20
-135.4177462769095
 10
115.974660886805
 20
-135.2823540243391
 10
115.974660886805
 20
-135.1014865113635
 10
115.974660886805
 20
-134.9023599923161
 10
115.8520154875301
 20
-134.7848822362691
 10
115.6742485604912
 20
-134.7848822362691
 10
115.4523844112411
 20
-134.7848822362691
 10
115.3783148583082
 20
-134.9588595582742
 10
115.3783148583082
 20
-135.1014865113635
 97
        0
 97
        0
 75
     2
 76
     1
 98
        0
  0
POLYLINE
  5
14C
330
144
100
AcDbEntity
  8
_U+30EC_U+30A4_U+30E4_U+30FC 1
370
     0
100
AcDb2dPolyline
 66
     1
 10
0.0
 20
0.0
 30
0.0
  0
VERTEX
  5
14D
330
14C
100
AcDbEntity
  8
_U+30EC_U+30A4_U+30E4_U+30FC 1
370
     0
100
AcDbVertex
100
AcDb2dVertex
 10
116.1186658780884
 20
-134.3139376834354
 30
0.0
  0
VERTEX
  5
14E
330
14C
100
AcDbEntity
  8
_U+30EC_U+30A4_U+30E4_U+30FC 1
370
     0
100
AcDbVertex
100
AcDb2dVertex
 10
115.8668293981166
 20
-134.3139376834354
 30
0.0
  0
VERTEX
  5
14F
330
14C
100
AcDbEntity
  8
_U+30EC_U+30A4_U+30E4_U+30FC 1
370
     0
100
AcDbVertex
100
AcDb2dVertex
 10
115.8668293981166
 20
-134.0448757260374
 30
0.0
  0
VERTEX
  5
150
330
14C
100
AcDbEntity
  8
_U+30EC_U+30A4_U+30E4_U+30FC 1
370
     0
100
AcDbVertex
100
AcDb2dVertex
 10
116.1186658780884
 20
-134.0448757260374
 30
0.0
  0
VERTEX
  5
151
330
14C
100
AcDbEntity
  8
_U+30EC_U+30A4_U+30E4_U+30FC 1
370
     0
100
AcDbVertex
100
AcDb2dVertex
 10
116.1186658780884
 20
-134.3139376834354
 30
0.0
  0
SEQEND
  5
152
330
14C
100
AcDbEntity
  8
_U+30EC_U+30A4_U+30E4_U+30FC 1
370
     0
  0
HATCH
  5
153
330
144
100
AcDbEntity
  8
_U+30EC_U+30A4_U+30E4_U+30FC 1
 62
   179
420
  2234388
100
AcDbHatch
 10
0.0
 20
0.0
 30
0.0
210
0.0
220
0.0
230
1.0
  2
SOLID
 70
     1
 71
     0
 91
        1
 92
        1
 93
        4
 72
     1
 10
116.1186658780884
 20
-134.3139376834354
 11
115.8668293981166
 21
-134.3139376834354
 72
     1
 10
115.8668293981166
 20
-134.3139376834354
 11
115.8668293981166
 21
-134.0448757260374
 72
     1
 10
115.8668293981166
 20
-134.0448757260374
 11
116.1186658780884
 21
-134.0448757260374
 72
     1
 10
116.1186658780884
 20
-134.0448757260374
 11
116.1186658780884
 21
-134.3139376834354
 97
        0
 75
     2
 76
     1
 98
        0
  0
SPLINE
  5
154
330
144
100
AcDbEntity
  8
_U+30EC_U+30A4_U+30E4_U+30FC 1
370
     0
100
AcDbSpline
210
0.0
220
0.0
230
1.0
 70
    11
 71
     3
 72
    53
 73
    49
 74
     0
 42
0.0000000001
 43
0.0000000001
 12
1.0
 22
0.0
 32
0.0
 13
1.0
 23
0.0
 33
0.0
 40
0.0
 40
0.0
 40
0.0
 40
0.0
 40
1.0
 40
1.0
 40
1.0
 40
2.0
 40
2.0
 40
2.0
 40
3.0
 40
3.0
 40
3.0
 40
4.0
 40
4.0
 40
4.0
 40
5.0
 40
5.0
 40
5.0
 40
6.0
 40
6.0
 40
6.0
 40
7.0
 40
7.0
 40
7.0
 40
8.0
 40
8.0
 40
8.0
 40
9.0
 40
9.0
 40
9.0
 40
10.0
 40
10.0
 40
10.0
 40
11.0
 40
11.0
 40
11.0
 40
12.0
 40
12.0
 40
12.0
 40
13.0
 40
13.0
 40
13.0
 40
14.0
 40
14.0
 40
14.0
 40
15.0
 40
15.0
 40
15.0
 40
16.0
 40
16.0
 40
16.0
 40
16.0
 10
116.1693087817216
 20
-133.2779974710208
 30
0.0
 10
116.1693087817216
 20
-133.3617132913124
 30
0.0
 10
116.1524278138438
 20
-133.4698892895492
 30
0.0
 10
116.0890380569152
 20
-133.5787543068831
 30
0.0
 10
115.9791395109358
 20
-133.7641004439895
 30
0.0
 10
115.8478813729478
 20
-133.7864935646436
 30
0.0
 10
115.7400498842594
 20
-133.8068196280066
 30
0.0
 10
115.7400498842594
 20
-133.8068196280066
 30
0.0
 10
115.7400498842594
 20
-133.5694525490729
 30
0.0
 10
115.7400498842594
 20
-133.5694525490729
 30
0.0
 10
115.9388318937583
 20
-133.5108859258237
 30
0.0
 10
115.9684597149315
 20
-133.3751491637048
 30
0.0
 10
115.9684597149315
 20
-133.2755859041811
 30
0.0
 10
115.9684597149315
 20
-133.1264132696698
 30
0.0
 10
115.8688964554078
 20
-132.9634602532175
 30
0.0
 10
115.6363525101534
 20
-132.9634602532175
 30
0.0
 10
115.3803819155994
 20
-132.9634602532175
 30
0.0
 10
115.3104464772488
 20
-133.1556965812944
 30
0.0
 10
115.3104464772488
 20
-133.2845431524428
 30
0.0
 10
115.3104464772488
 20
-133.3186495977467
 30
0.0
 10
115.3104464772488
 20
-133.4698892895492
 30
0.0
 10
115.4396375579456
 20
-133.5649739249421
 30
0.0
 10
115.4396375579456
 20
-133.5649739249421
 30
0.0
 10
115.4206895327768
 20
-133.7527316288882
 30
0.0
 10
115.4206895327768
 20
-133.7527316288882
 30
0.0
 10
115.4206895327768
 20
-133.7527316288882
 30
0.0
 10
114.5742295720509
 20
-133.6238850577399
 30
0.0
 10
114.5742295720509
 20
-133.6238850577399
 30
0.0
 10
114.5742295720509
 20
-133.6238850577399
 30
0.0
 10
114.5742295720509
 20
-132.791894498052
 30
0.0
 10
114.5742295720509
 20
-132.791894498052
 30
0.0
 10
114.5742295720509
 20
-132.791894498052
 30
0.0
 10
114.7688774669675
 20
-132.791894498052
 30
0.0
 10
114.7688774669675
 20
-132.791894498052
 30
0.0
 10
114.7688774669675
 20
-132.791894498052
 30
0.0
 10
114.7688774669675
 20
-133.4495632261862
 30
0.0
 10
114.7688774669675
 20
-133.4495632261862
 30
0.0
 10
114.7688774669675
 20
-133.4495632261862
 30
0.0
 10
115.1919351925562
 20
-133.5198431740853
 30
0.0
 10
115.1919351925562
 20
-133.5198431740853
 30
0.0
 10
115.1581732568007
 20
-133.4543863598656
 30
0.0
 10
115.1178656396233
 20
-133.3661919154432
 30
0.0
 10
115.1178656396233
 20
-133.239412401586
 30
0.0
 10
115.1178656396233
 20
-132.9682833868968
 30
0.0
 10
115.3042453053753
 20
-132.715068868731
 30
0.0
 10
115.6174044849845
 20
-132.715068868731
 30
0.0
 10
115.934697779176
 20
-132.715068868731
 30
0.0
 10
116.1693087817216
 20
-132.9545030049558
 30
0.0
 10
116.1693087817216
 20
-133.2779974710208
 30
0.0
  0
HATCH
  5
155
330
144
100
AcDbEntity
  8
_U+30EC_U+30A4_U+30E4_U+30FC 1
 62
   179
420
  2234388
100
AcDbHatch
 10
0.0
 20
0.0
 30
0.0
210
0.0
220
0.0
230
1.0
  2
SOLID
 70
     1
 71
     0
 91
        1
 92
        1
 93
        1
 72
     4
 94
        3
 73
     0
 74
     1
 95
       53
 96
       49
 40
0.0
 40
0.0
 40
0.0
 40
0.0
 40
1.0
 40
1.0
 40
1.0
 40
2.0
 40
2.0
 40
2.0
 40
3.0
 40
3.0
 40
3.0
 40
4.0
 40
4.0
 40
4.0
 40
5.0
 40
5.0
 40
5.0
 40
6.0
 40
6.0
 40
6.0
 40
7.0
 40
7.0
 40
7.0
 40
8.0
 40
8.0
 40
8.0
 40
9.0
 40
9.0
 40
9.0
 40
10.0
 40
10.0
 40
10.0
 40
11.0
 40
11.0
 40
11.0
 40
12.0
 40
12.0
 40
12.0
 40
13.0
 40
13.0
 40
13.0
 40
14.0
 40
14.0
 40
14.0
 40
15.0
 40
15.0
 40
15.0
 40
16.0
 40
16.0
 40
16.0
 40
16.0
 10
116.1693087817216
 20
-133.2779974710208
 10
116.1693087817216
 20
-133.3617132913124
 10
116.1524278138438
 20
-133.4698892895492
 10
116.0890380569152
 20
-133.5787543068831
 10
115.9791395109358
 20
-133.7641004439895
 10
115.8478813729478
 20
-133.7864935646436
 10
115.7400498842594
 20
-133.8068196280066
 10
115.7400498842594
 20
-133.8068196280066
 10
115.7400498842594
 20
-133.5694525490729
 10
115.7400498842594
 20
-133.5694525490729
 10
115.9388318937583
 20
-133.5108859258237
 10
115.9684597149315
 20
-133.3751491637048
 10
115.9684597149315
 20
-133.2755859041811
 10
115.9684597149315
 20
-133.1264132696698
 10
115.8688964554078
 20
-132.9634602532175
 10
115.6363525101534
 20
-132.9634602532175
 10
115.3803819155994
 20
-132.9634602532175
 10
115.3104464772488
 20
-133.1556965812944
 10
115.3104464772488
 20
-133.2845431524428
 10
115.3104464772488
 20
-133.3186495977467
 10
115.3104464772488
 20
-133.4698892895492
 10
115.4396375579456
 20
-133.5649739249421
 10
115.4396375579456
 20
-133.5649739249421
 10
115.4206895327768
 20
-133.7527316288882
 10
115.4206895327768
 20
-133.7527316288882
 10
115.4206895327768
 20
-133.7527316288882
 10
114.5742295720509
 20
-133.6238850577399
 10
114.5742295720509
 20
-133.6238850577399
 10
114.5742295720509
 20
-133.6238850577399
 10
114.5742295720509
 20
-132.791894498052
 10
114.5742295720509
 20
-132.791894498052
 10
114.5742295720509
 20
-132.791894498052
 10
114.7688774669675
 20
-132.791894498052
 10
114.7688774669675
 20
-132.791894498052
 10
114.7688774669675
 20
-132.791894498052
 10
114.7688774669675
 20
-133.4495632261862
 10
114.7688774669675
 20
-133.4495632261862
 10
114.7688774669675
 20
-133.4495632261862
 10
115.1919351925562
 20
-133.5198431740853
 10
115.1919351925562
 20
-133.5198431740853
 10
115.1581732568007
 20
-133.4543863598656
 10
115.1178656396233
 20
-133.3661919154432
 10
115.1178656396233
 20
-133.239412401586
 10
115.1178656396233
 20
-132.9682833868968
 10
115.3042453053753
 20
-132.715068868731
 10
115.6174044849845
 20
-132.715068868731
 10
115.934697779176
 20
-132.715068868731
 10
116.1693087817216
 20
-132.9545030049558
 10
116.1693087817216
 20
-133.2779974710208
 97
        0
 97
        0
 75
     2
 76
     1
 98
        0
  0
ENDBLK
  5
147
330
144
100
AcDbEntity
  8
0
100
AcDbBlockEnd
  0
BLOCK
  5
161
330
15F
100
AcDbEntity
  8
0
100
AcDbBlockBegin
  2
block 15
 70
     0
 10
0.0
 20
0.0
 30
0.0
  3
block 15
  1

  0
SPLINE
  5
163
330
15F
100
AcDbEntity
  8
_U+30EC_U+30A4_U+30E4_U+30FC 1
370
     0
100
AcDbSpline
210
0.0
220
0.0
230
1.0
 70
    11
 71
     3
 72
    26
 73
    22
 74
     0
 42
0.0000000001
 43
0.0000000001
 12
1.0
 22
0.0
 32
0.0
 13
1.0
 23
0.0
 33
0.0
 40
0.0
 40
0.0
 40
0.0
 40
0.0
 40
1.0
 40
1.0
 40
1.0
 40
2.0
 40
2.0
 40
2.0
 40
3.0
 40
3.0
 40
3.0
 40
4.0
 40
4.0
 40
4.0
 40
5.0
 40
5.0
 40
5.0
 40
6.0
 40
6.0
 40
6.0
 40
7.0
 40
7.0
 40
7.0
 40
7.0
 10
116.0583767070965
 20
-128.040763314344
 30
0.0
 10
116.0583767070965
 20
-128.040763314344
 30
0.0
 10
114.9542236040739
 20
-128.040763314344
 30
0.0
 10
114.9542236040739
 20
-128.040763314344
 30
0.0
 10
114.9542236040739
 20
-128.040763314344
 30
0.0
 10
114.9542236040739
 20
-128.3935410920336
 30
0.0
 10
114.9542236040739
 20
-128.3935410920336
 30
0.0
 10
114.9542236040739
 20
-128.3935410920336
 30
0.0
 10
114.8060844982082
 20
-128.3935410920336
 30
0.0
 10
114.8060844982082
 20
-128.3935410920336
 30
0.0
 10
114.7912705876216
 20
-128.0385240022786
 30
0.0
 10
114.6283175711693
 20
-127.9887423725167
 30
0.0
 10
114.513940401059
 20
-127.9570474940524
 30
0.0
 10
114.513940401059
 20
-127.9570474940524
 30
0.0
 10
114.513940401059
 20
-127.8011569233449
 30
0.0
 10
114.513940401059
 20
-127.8011569233449
 30
0.0
 10
114.513940401059
 20
-127.8011569233449
 30
0.0
 10
116.0583767070965
 20
-127.8011569233449
 30
0.0
 10
116.0583767070965
 20
-127.8011569233449
 30
0.0
 10
116.0583767070965
 20
-127.8011569233449
 30
0.0
 10
116.0583767070965
 20
-128.040763314344
 30
0.0
 10
116.0583767070965
 20
-128.040763314344
 30
0.0
  0
HATCH
  5
164
330
15F
100
AcDbEntity
  8
_U+30EC_U+30A4_U+30E4_U+30FC 1
 62
     7
420
 16777215
100
AcDbHatch
 10
0.0
 20
0.0
 30
0.0
210
0.0
220
0.0
230
1.0
  2
SOLID
 70
     1
 71
     0
 91
        1
 92
        1
 93
        1
 72
     4
 94
        3
 73
     0
 74
     1
 95
       26
 96
       22
 40
0.0
 40
0.0
 40
0.0
 40
0.0
 40
1.0
 40
1.0
 40
1.0
 40
2.0
 40
2.0
 40
2.0
 40
3.0
 40
3.0
 40
3.0
 40
4.0
 40
4.0
 40
4.0
 40
5.0
 40
5.0
 40
5.0
 40
6.0
 40
6.0
 40
6.0
 40
7.0
 40
7.0
 40
7.0
 40
7.0
 10
116.0583767070965
 20
-128.040763314344
 10
116.0583767070965
 20
-128.040763314344
 10
114.9542236040739
 20
-128.040763314344
 10
114.9542236040739
 20
-128.040763314344
 10
114.9542236040739
 20
-128.040763314344
 10
114.9542236040739
 20
-128.3935410920336
 10
114.9542236040739
 20
-128.3935410920336
 10
114.9542236040739
 20
-128.3935410920336
 10
114.8060844982082
 20
-128.3935410920336
 10
114.8060844982082
 20
-128.3935410920336
 10
114.7912705876216
 20
-128.0385240022786
 10
114.6283175711693
 20
-127.9887423725167
 10
114.513940401059
 20
-127.9570474940524
 10
114.513940401059
 20
-127.9570474940524
 10
114.513940401059
 20
-127.8011569233449
 10
114.513940401059
 20
-127.8011569233449
 10
114.513940401059
 20
-127.8011569233449
 10
116.0583767070965
 20
-127.8011569233449
 10
116.0583767070965
 20
-127.8011569233449
 10
116.0583767070965
 20
-127.8011569233449
 10
116.0583767070965
 20
-128.040763314344
 10
116.0583767070965
 20
-128.040763314344
 97
        0
 97
        0
 75
     2
 76
     1
 98
        0
  0
ENDBLK
  5
162
330
15F
100
AcDbEntity
  8
0
100
AcDbBlockEnd
  0
ENDSEC
  0
SECTION
  2
ENTITIES
  0
POLYLINE
  5
41
330
1F
100
AcDbEntity
  8
_U+30EC_U+30A4_U+30E4_U+30FC 1
370
     0
100
AcDb2dPolyline
 66
     1
 10
0.0
 20
0.0
 30
0.0
  0
VERTEX
  5
42
330
41
100
AcDbEntity
  8
_U+30EC_U+30A4_U+30E4_U+30FC 1
370
     0
100
AcDbVertex
100
AcDb2dVertex
 10
73.66493887047277
 20
-122.9284152470456
 30
0.0
  0
VERTEX
  5
43
330
41
100
AcDbEntity
  8
_U+30EC_U+30A4_U+30E4_U+30FC 1
370
     0
100
AcDbVertex
100
AcDb2dVertex
 10
75.76470556708132
 20
-122.9284152470456
 30
0.0
  0
VERTEX
  5
44
330
41
100
AcDbEntity
  8
_U+30EC_U+30A4_U+30E4_U+30FC 1
370
     0
100
AcDbVertex
100
AcDb2dVertex
 10
75.76470556708132
 20
-121.9286430250734
 30
0.0
  0
VERTEX
  5
45
330
41
100
AcDbEntity
  8
_U+30EC_U+30A4_U+30E4_U+30FC 1
370
     0
100
AcDbVertex
100
AcDb2dVertex
 10
72.76471869917293
 20
-121.9286430250734
 30
0.0
  0
VERTEX
  5
46
330
41
100
AcDbEntity
  8
_U+30EC_U+30A4_U+30E4_U+30FC 1
370
     0
100
AcDbVertex
100
AcDb2dVertex
 10
72.76471869917293
 20
-141.4287521868652
 30
0.0
  0
VERTEX
  5
47
330
41
100
AcDbEntity
  8
_U+30EC_U+30A4_U+30E4_U+30FC 1
370
     0
100
AcDbVertex
100
AcDb2dVertex
 10
82.7651570551516
 20
-141.4287521868652
 30
0.0
  0
VERTEX
  5
48
330
41
100
AcDbEntity
  8
_U+30EC_U+30A4_U+30E4_U+30FC 1
370
     0
100
AcDbVertex
100
AcDb2dVertex
 10
82.7651570551516
 20
-138.4287652431709
 30
0.0
  0
VERTEX
  5
49
330
41
100
AcDbEntity
  8
_U+30EC_U+30A4_U+30E4_U+30FC 1
370
     0
100
AcDbVertex
100
AcDb2dVertex
 10
79.76517220228085
 20
-138.4287652431709
 30
0.0
  0
VERTEX
  5
4A
330
41
100
AcDbEntity
  8
_U+30EC_U+30A4_U+30E4_U+30FC 1
370
     0
100
AcDbVertex
100
AcDb2dVertex
 10
79.76517220228085
 20
-139.4285374651428
 30
0.0
  0
VERTEX
  5
4B
330
41
100
AcDbEntity
  8
_U+30EC_U+30A4_U+30E4_U+30FC 1
370
     0
100
AcDbVertex
100
AcDb2dVertex
 10
81.76467930289813
 20
-139.4285374651428
 30
0.0
  0
VERTEX
  5
4C
330
41
100
AcDbEntity
  8
_U+30EC_U+30A4_U+30E4_U+30FC 1
370
     0
100
AcDbVertex
100
AcDb2dVertex
 10
81.76467930289813
 20
-140.4283096871153
 30
0.0
  0
VERTEX
  5
4D
330
41
100
AcDbEntity
  8
_U+30EC_U+30A4_U+30E4_U+30FC 1
370
     0
100
AcDbVertex
100
AcDb2dVertex
 10
73.66493887047277
 20
-140.4283096871153
 30
0.0
  0
VERTEX
  5
4E
330
41
100
AcDbEntity
  8
_U+30EC_U+30A4_U+30E4_U+30FC 1
370
     0
100
AcDbVertex
100
AcDb2dVertex
 10
73.66493887047277
 20
-129.928337745296
 30
0.0
  0
VERTEX
  5
4F
330
41
100
AcDbEntity
  8
_U+30EC_U+30A4_U+30E4_U+30FC 1
370
     0
100
AcDbVertex
100
AcDb2dVertex
 10
112.7648493453512
 20
-129.928337745296
 30
0.0
  0
VERTEX
  5
50
330
41
100
AcDbEntity
  8
_U+30EC_U+30A4_U+30E4_U+30FC 1
370
     0
100
AcDbVertex
100
AcDb2dVertex
 10
112.7648493453512
 20
-129.0284721899651
 30
0.0
  0
VERTEX
  5
51
330
41
100
AcDbEntity
  8
_U+30EC_U+30A4_U+30E4_U+30FC 1
370
     0
100
AcDbVertex
100
AcDb2dVertex
 10
73.66493887047277
 20
-129.0284721899651
 30
0.0
  0
VERTEX
  5
52
330
41
100
AcDbEntity
  8
_U+30EC_U+30A4_U+30E4_U+30FC 1
370
     0
100
AcDbVertex
100
AcDb2dVertex
 10
73.66493887047277
 20
-122.9284152470456
 30
0.0
  0
SEQEND
  5
54
330
41
100
AcDbEntity
  8
_U+30EC_U+30A4_U+30E4_U+30FC 1
370
     0
  0
HATCH
  5
53
330
1F
100
AcDbEntity
  8
_U+30EC_U+30A4_U+30E4_U+30FC 1
 62
   253
420
 11711154
100
AcDbHatch
 10
0.0
 20
0.0
 30
0.0
210
0.0
220
0.0
230
1.0
  2
SOLID
 70
     1
 71
     0
 91
        1
 92
        1
 93
       16
 72
     1
 10
73.66493887047277
 20
-122.9284152470456
 11
75.76470556708132
 21
-122.9284152470456
 72
     1
 10
75.76470556708132
 20
-122.9284152470456
 11
75.76470556708132
 21
-121.9286430250734
 72
     1
 10
75.76470556708132
 20
-121.9286430250734
 11
72.76471869917293
 21
-121.9286430250734
 72
     1
 10
72.76471869917293
 20
-121.9286430250734
 11
72.76471869917293
 21
-141.4287521868652
 72
     1
 10
72.76471869917293
 20
-141.4287521868652
 11
82.7651570551516
 21
-141.4287521868652
 72
     1
 10
82.7651570551516
 20
-141.4287521868652
 11
82.7651570551516
 21
-138.4287652431709
 72
     1
 10
82.7651570551516
 20
-138.4287652431709
 11
79.76517220228085
 21
-138.4287652431709
 72
     1
 10
79.76517220228085
 20
-138.4287652431709
 11
79.76517220228085
 21
-139.4285374651428
 72
     1
 10
79.76517220228085
 20
-139.4285374651428
 11
81.76467930289813
 21
-139.4285374651428
 72
     1
 10
81.76467930289813
 20
-139.4285374651428
 11
81.76467930289813
 21
-140.4283096871153
 72
     1
 10
81.76467930289813
 20
-140.4283096871153
 11
73.66493887047277
 21
-140.4283096871153
 72
     1
 10
73.66493887047277
 20
-140.4283096871153
 11
73.66493887047277
 21
-129.928337745296
 72
     1
 10
73.66493887047277
 20
-129.928337745296
 11
112.7648493453512
 21
-129.928337745296
 72
     1
 10
112.7648493453512
 20
-129.928337745296
 11
112.7648493453512
 21
-129.0284721899651
 72
     1
 10
112.7648493453512
 20
-129.0284721899651
 11
73.66493887047277
 21
-129.0284721899651
 72
     1
 10
73.66493887047277
 20
-129.0284721899651
 11
73.66493887047277
 21
-122.9284152470456
 97
        0
 75
     2
 76
     1
 98
        0
  0
INSERT
  5
56
330
1F
100
AcDbEntity
  8
_U+30EC_U+30A4_U+30E4_U+30FC 1
100
AcDbBlockReference
  2
block 2
 10
0.0
 20
0.0
 30
0.0
  0
POLYLINE
  5
156
330
1F
100
AcDbEntity
  8
_U+30EC_U+30A4_U+30E4_U+30FC 1
 62
   179
420
  2234388
370
     9
100
AcDb2dPolyline
 66
     1
 10
0.0
 20
0.0
 30
0.0
  0
VERTEX
  5
157
330
156
100
AcDbEntity
  8
_U+30EC_U+30A4_U+30E4_U+30FC 1
 62
   179
420
  2234388
370
     9
100
AcDbVertex
100
AcDb2dVertex
 10
115.65738010489
 20
-129.0284721899651
 30
0.0
  0
VERTEX
  5
158
330
156
100
AcDbEntity
  8
_U+30EC_U+30A4_U+30E4_U+30FC 1
 62
   179
420
  2234388
370
     9
100
AcDbVertex
100
AcDb2dVertex
 10
117.765086162229
 20
-129.0284721899651
 30
0.0
  0
SEQEND
  5
159
330
156
100
AcDbEntity
  8
_U+30EC_U+30A4_U+30E4_U+30FC 1
 62
   179
420
  2234388
370
     9
  0
SPLINE
  5
15A
330
1F
100
AcDbEntity
  8
_U+30EC_U+30A4_U+30E4_U+30FC 1
 62
     7
420
 16777215
370
     9
100
AcDbSpline
210
0.0
220
0.0
230
1.0
 70
    11
 71
     3
 72
    17
 73
    13
 74
     0
 42
0.0000000001
 43
0.0000000001
 12
1.0
 22
0.0
 32
0.0
 13
1.0
 23
0.0
 33
0.0
 40
0.0
 40
0.0
 40
0.0
 40
0.0
 40
1.0
 40
1.0
 40
1.0
 40
2.0
 40
2.0
 40
2.0
 40
3.0
 40
3.0
 40
3.0
 40
4.0
 40
4.0
 40
4.0
 40
4.0
 10
116.7646084099756
 20
-129.1142677454995
 30
0.0
 10
116.8197475752355
 20
-129.1142677454995
 30
0.0
 10
116.8645150740934
 20
-129.0694649677328
 30
0.0
 10
116.8645150740934
 20
-129.0143610788572
 30
0.0
 10
116.8645150740934
 20
-128.958869134427
 30
0.0
 10
116.8197475752355
 20
-128.9141016344385
 30
0.0
 10
116.7646084099756
 20
-128.9141016344385
 30
0.0
 10
116.7095045224925
 20
-128.9141016344385
 30
0.0
 10
116.6647017458577
 20
-128.958869134427
 30
0.0
 10
116.6647017458577
 20
-129.0143610788572
 30
0.0
 10
116.6647017458577
 20
-129.0694649677328
 30
0.0
 10
116.7095045224925
 20
-129.1142677454995
 30
0.0
 10
116.7646084099756
 20
-129.1142677454995
 30
0.0
  0
POLYLINE
  5
15B
330
1F
100
AcDbEntity
  8
_U+30EC_U+30A4_U+30E4_U+30FC 1
 62
     7
420
 16777215
370
     9
100
AcDb2dPolyline
 66
     1
 10
0.0
 20
0.0
 30
0.0
  0
VERTEX
  5
15C
330
15B
100
AcDbEntity
  8
_U+30EC_U+30A4_U+30E4_U+30FC 1
 62
     7
420
 16777215
370
     9
100
AcDbVertex
100
AcDb2dVertex
 10
116.7653139655131
 20
-127.3594805237158
 30
0.0
  0
VERTEX
  5
15D
330
15B
100
AcDbEntity
  8
_U+30EC_U+30A4_U+30E4_U+30FC 1
 62
     7
420
 16777215
370
     9
100
AcDbVertex
100
AcDb2dVertex
 10
116.7653139655131
 20
-130.013780523052
 30
0.0
  0
SEQEND
  5
15E
330
15B
100
AcDbEntity
  8
_U+30EC_U+30A4_U+30E4_U+30FC 1
 62
     7
420
 16777215
370
     9
  0
INSERT
  5
160
330
1F
100
AcDbEntity
  8
_U+30EC_U+30A4_U+30E4_U+30FC 1
100
AcDbBlockReference
  2
block 15
 10
0.0
 20
0.0
 30
0.0
  0
ENDSEC
  0
SECTION
  2
OBJECTS
  0
DICTIONARY
  5
C
330
0
100
AcDbDictionary
281
     1
  3
ACAD_GROUP
350
D
  3
ACAD_LAYOUT
350
1A
  3
ACAD_MATERIAL
350
3B
  3
ACAD_MLEADERSTYLE
350
166
  3
ACAD_MLINESTYLE
350
17
  3
ACAD_PLOTSETTINGS
350
19
  3
ACAD_PLOTSTYLENAME
350
E
  3
ACAD_TABLESTYLE
350
165
  3
ACAD_VISUALSTYLE
350
2A
  0
SUN
  5
3F
330
29
100
AcDbSun
 90
        1
290
     0
 63
     7
421
 16777215
 40
1.0
291
     1
 91
  2455826
 92
 54000000
292
     0
 70
     2
 71
   256
280
     1
  0
DICTIONARY
  5
D
102
{ACAD_REACTORS
330
C
102
}
330
C
100
AcDbDictionary
281
     1
  0
DICTIONARY
  5
1A
102
{ACAD_REACTORS
330
C
102
}
330
C
100
AcDbDictionary
281
     1
  3
Layout1
350
1E
  3
Layout2
350
26
  3
Model
350
22
  0
DICTIONARY
  5
3B
102
{ACAD_REACTORS
330
C
102
}
330
C
100
AcDbDictionary
281
     1
  3
ByBlock
350
3D
  3
ByLayer
350
3C
  3
Global
350
3E
  0
DICTIONARY
  5
166
102
{ACAD_REACTORS
330
C
102
}
330
C
100
AcDbDictionary
281
     1
  0
DICTIONARY
  5
17
102
{ACAD_REACTORS
330
C
102
}
330
C
100
AcDbDictionary
281
     1
  3
Standard
350
18
  0
DICTIONARY
  5
19
102
{ACAD_REACTORS
330
C
102
}
330
C
100
AcDbDictionary
281
     1
  0
ACDBDICTIONARYWDFLT
  5
E
102
{ACAD_REACTORS
330
C
102
}
330
C
100
AcDbDictionary
281
     1
  3
Normal
350
F
100
AcDbDictionaryWithDefault
340
F
  0
DICTIONARY
  5
165
102
{ACAD_REACTORS
330
C
102
}
330
C
100
AcDbDictionary
281
     1
  0
DICTIONARY
  5
2A
102
{ACAD_REACTORS
330
C
102
}
330
C
100
AcDbDictionary
281
     1
  3
2dWireframe
350
2F
  3
3D Hidden
350
31
  3
3dWireframe
350
30
  3
Basic
350
32
  3
Brighten
350
36
  3
ColorChange
350
3A
  3
Conceptual
350
34
  3
Dim
350
35
  3
Facepattern
350
39
  3
Flat
350
2B
  3
FlatWithEdges
350
2C
  3
Gouraud
350
2D
  3
GouraudWithEdges
350
2E
  3
Linepattern
350
38
  3
Realistic
350
33
  3
Thicken
350
37
  0
LAYOUT
  5
1E
102
{ACAD_REACTORS
330
1A
102
}
330
1A
100
AcDbPlotSettings
  1

  2
none_device
  4

  6

 40
0.0
 41
0.0
 42
0.0
 43
0.0
 44
0.0
 45
0.0
 46
0.0
 47
0.0
 48
0.0
 49
0.0
140
0.0
141
0.0
142
1.0
143
1.0
 70
   688
 72
     0
 73
     0
 74
     5
  7

 75
    16
 76
     0
 77
     2
 78
   300
147
1.0
148
0.0
149
0.0
100
AcDbLayout
  1
Layout1
 70
     1
 71
     1
 10
0.0
 20
0.0
 11
12.0
 21
9.0
 12
0.0
 22
0.0
 32
0.0
 14
1.000000000000000E+20
 24
1.000000000000000E+20
 34
1.000000000000000E+20
 15
-1.000000000000000E+20
 25
-1.000000000000000E+20
 35
-1.000000000000000E+20
146
0.0
 13
0.0
 23
0.0
 33
0.0
 16
1.0
 26
0.0
 36
0.0
 17
0.0
 27
1.0
 37
0.0
 76
     0
330
1B
  0
LAYOUT
  5
26
102
{ACAD_REACTORS
330
1A
102
}
330
1A
100
AcDbPlotSettings
  1

  2
none_device
  4

  6

 40
0.0
 41
0.0
 42
0.0
 43
0.0
 44
0.0
 45
0.0
 46
0.0
 47
0.0
 48
0.0
 49
0.0
140
0.0
141
0.0
142
1.0
143
1.0
 70
   688
 72
     0
 73
     0
 74
     5
  7

 75
    16
 76
     0
 77
     2
 78
   300
147
1.0
148
0.0
149
0.0
100
AcDbLayout
  1
Layout2
 70
     1
 71
     2
 10
0.0
 20
0.0
 11
0.0
 21
0.0
 12
0.0
 22
0.0
 32
0.0
 14
0.0
 24
0.0
 34
0.0
 15
0.0
 25
0.0
 35
0.0
146
0.0
 13
0.0
 23
0.0
 33
0.0
 16
1.0
 26
0.0
 36
0.0
 17
0.0
 27
1.0
 37
0.0
 76
     0
330
23
  0
LAYOUT
  5
22
102
{ACAD_REACTORS
330
1A
102
}
330
1A
100
AcDbPlotSettings
  1

  2
none_device
  4

  6

 40
0.0
 41
0.0
 42
0.0
 43
0.0
 44
0.0
 45
0.0
 46
0.0
 47
0.0
 48
0.0
 49
0.0
140
0.0
141
0.0
142
1.0
143
1.0
 70
  1712
 72
     0
 73
     0
 74
     0
  7

 75
     0
 76
     0
 77
     2
 78
   300
147
1.0
148
0.0
149
0.0
100
AcDbLayout
  1
Model
 70
     1
 71
     0
 10
0.0
 20
0.0
 11
12.0
 21
9.0
 12
0.0
 22
0.0
 32
0.0
 14
1.000000000000000E+20
 24
1.000000000000000E+20
 34
1.000000000000000E+20
 15
-1.000000000000000E+20
 25
-1.000000000000000E+20
 35
-1.000000000000000E+20
146
0.0
 13
0.0
 23
0.0
 33
0.0
 16
1.0
 26
0.0
 36
0.0
 17
0.0
 27
1.0
 37
0.0
 76
     0
330
1F
331
29
  0
MATERIAL
  5
3D
102
{ACAD_REACTORS
330
3B
102
}
330
3B
100
AcDbMaterial
  1
ByBlock
 72
     1
 94
      127
  0
MATERIAL
  5
3C
102
{ACAD_REACTORS
330
3B
102
}
330
3B
100
AcDbMaterial
  1
ByLayer
 72
     1
 94
      127
  0
MATERIAL
  5
3E
102
{ACAD_REACTORS
330
3B
102
}
330
3B
100
AcDbMaterial
  1
Global
 72
     1
 94
      127
  0
MLINESTYLE
  5
18
102
{ACAD_REACTORS
330
17
102
}
330
17
100
AcDbMlineStyle
  2
Standard
 70
     0
  3

 62
   256
 51
90.0
 52
90.0
 71
     2
 49
0.5
 62
   256
  6
BYLAYER
 49
-0.5
 62
   256
  6
BYLAYER
  0
ACDBPLACEHOLDER
  5
F
102
{ACAD_REACTORS
330
E
102
}
330
E
  0
VISUALSTYLE
  5
2F
102
{ACAD_REACTORS
330
2A
102
}
330
2A
100
AcDbVisualStyle
  2
2dWireframe
 70
     4
177
     2
291
     0
 71
     0
176
     1
 72
     2
176
     1
 73
     0
176
     1
 90
        0
176
     1
 40
-0.6
176
     1
 41
-30.0
176
     1
 62
     5
 63
     7
421
 16777215
176
     1
 74
     1
176
     1
 91
        4
176
     1
 64
     7
176
     1
 65
   257
176
     1
 75
     1
176
     1
175
     1
176
     1
 42
1.0
176
     1
 92
        0
176
     1
 66
   257
176
     1
 43
1.0
176
     1
 76
     1
176
     1
 77
     6
176
     1
 78
     2
176
     1
 67
     7
176
     1
 79
     5
176
     1
170
     0
176
     1
171
     0
176
     1
290
     0
176
     1
 93
        1
176
     1
 44
0.0
176
     1
173
     0
176
     1
  0
VISUALSTYLE
  5
31
102
{ACAD_REACTORS
330
2A
102
}
330
2A
100
AcDbVisualStyle
  2
3D Hidden
 70
     6
177
     2
291
     0
 71
     1
176
     1
 72
     2
176
     1
 73
     2
176
     1
 90
        0
176
     1
 40
-0.6
176
     1
 41
-30.0
176
     1
 62
     5
 63
     7
421
 16777215
176
     1
 74
     2
176
     1
 91
        2
176
     1
 64
     7
176
     1
 65
   257
176
     1
 75
     2
176
     1
175
     1
176
     1
 42
40.0
176
     1
 92
        0
176
     1
 66
   257
176
     1
 43
1.0
176
     1
 76
     1
176
     1
 77
     6
176
     1
 78
     2
176
     1
 67
     7
176
     1
 79
     3
176
     1
170
     0
176
     1
171
     0
176
     1
290
     0
176
     1
 93
        1
176
     1
 44
0.0
176
     1
173
     0
176
     1
  0
VISUALSTYLE
  5
30
102
{ACAD_REACTORS
330
2A
102
}
330
2A
100
AcDbVisualStyle
  2
3dWireframe
 70
     5
177
     2
291
     0
 71
     0
176
     1
 72
     2
176
     1
 73
     0
176
     1
 90
        0
176
     1
 40
-0.6
176
     1
 41
-30.0
176
     1
 62
     5
 63
     7
421
 16777215
176
     1
 74
     1
176
     1
 91
        4
176
     1
 64
     7
176
     1
 65
   257
176
     1
 75
     1
176
     1
175
     1
176
     1
 42
1.0
176
     1
 92
        0
176
     1
 66
   257
176
     1
 43
1.0
176
     1
 76
     1
176
     1
 77
     6
176
     1
 78
     2
176
     1
 67
     7
176
     1
 79
     5
176
     1
170
     0
176
     1
171
     0
176
     1
290
     0
176
     1
 93
        1
176
     1
 44
0.0
176
     1
173
     0
176
     1
  0
VISUALSTYLE
  5
32
102
{ACAD_REACTORS
330
2A
102
}
330
2A
100
AcDbVisualStyle
  2
Basic
 70
     7
177
     2
291
     1
 71
     1
176
     1
 72
     0
176
     1
 73
     1
176
     1
 90
        0
176
     1
 40
-0.6
176
     1
 41
-30.0
176
     1
 62
     5
 63
     7
421
 16777215
176
     1
 74
     0
176
     1
 91
        4
176
     1
 64
     7
176
     1
 65
   257
176
     1
 75
     1
176
     1
175
     1
176
     1
 42
1.0
176
     1
 92
        8
176
     1
 66
     7
176
     1
 43
1.0
176
     1
 76
     1
176
     1
 77
     6
176
     1
 78
     2
176
     1
 67
     7
176
     1
 79
     5
176
     1
170
     0
176
     1
171
     0
176
     1
290
     0
176
     1
 93
        1
176
     1
 44
0.0
176
     1
173
     0
176
     1
  0
VISUALSTYLE
  5
36
102
{ACAD_REACTORS
330
2A
102
}
330
2A
100
AcDbVisualStyle
  2
Brighten
 70
    12
177
     2
291
     1
 71
     2
176
     1
 72
     2
176
     1
 73
     0
176
     1
 90
        0
176
     1
 40
-0.6
176
     1
 41
-30.0
176
     1
 62
     5
 63
     7
421
 16777215
176
     1
 74
     1
176
     1
 91
        4
176
     1
 64
     7
176
     1
 65
   257
176
     1
 75
     1
176
     1
175
     1
176
     1
 42
1.0
176
     1
 92
        8
176
     1
 66
     7
176
     1
 43
1.0
176
     1
 76
     1
176
     1
 77
     6
176
     1
 78
     2
176
     1
 67
     7
176
     1
 79
     5
176
     1
170
     0
176
     1
171
     0
176
     1
290
     0
176
     1
 93
        1
176
     1
 44
50.0
176
     1
173
     0
176
     1
  0
VISUALSTYLE
  5
3A
102
{ACAD_REACTORS
330
2A
102
}
330
2A
100
AcDbVisualStyle
  2
ColorChange
 70
    16
177
     2
291
     1
 71
     2
176
     1
 72
     2
176
     1
 73
     3
176
     1
 90
        0
176
     1
 40
-0.6
176
     1
 41
-30.0
176
     1
 62
     5
 63
     8
421
  8421504
176
     1
 74
     1
176
     1
 91
        4
176
     1
 64
     7
176
     1
 65
   257
176
     1
 75
     1
176
     1
175
     1
176
     1
 42
1.0
176
     1
 92
        8
176
     1
 66
     8
424
  8421504
176
     1
 43
1.0
176
     1
 76
     1
176
     1
 77
     6
176
     1
 78
     2
176
     1
 67
     7
176
     1
 79
     5
176
     1
170
     0
176
     1
171
     0
176
     1
290
     0
176
     1
 93
        1
176
     1
 44
0.0
176
     1
173
     0
176
     1
  0
VISUALSTYLE
  5
34
102
{ACAD_REACTORS
330
2A
102
}
330
2A
100
AcDbVisualStyle
  2
Conceptual
 70
     9
177
     2
291
     0
 71
     3
176
     1
 72
     2
176
     1
 73
     0
176
     1
 90
        0
176
     1
 40
-0.6
176
     1
 41
-30.0
176
     1
 62
     5
 63
     7
421
 16777215
176
     1
 74
     2
176
     1
 91
        2
176
     1
 64
     7
176
     1
 65
   257
176
     1
 75
     1
176
     1
175
     1
176
     1
 42
40.0
176
     1
 92
        8
176
     1
 66
     7
176
     1
 43
1.0
176
     1
 76
     1
176
     1
 77
     6
176
     1
 78
     2
176
     1
 67
     7
176
     1
 79
     3
176
     1
170
     0
176
     1
171
     0
176
     1
290
     0
176
     1
 93
        1
176
     1
 44
0.0
176
     1
173
     0
176
     1
  0
VISUALSTYLE
  5
35
102
{ACAD_REACTORS
330
2A
102
}
330
2A
100
AcDbVisualStyle
  2
Dim
 70
    11
177
     2
291
     1
 71
     2
176
     1
 72
     2
176
     1
 73
     0
176
     1
 90
        0
176
     1
 40
-0.6
176
     1
 41
-30.0
176
     1
 62
     5
 63
     7
421
 16777215
176
     1
 74
     1
176
     1
 91
        4
176
     1
 64
     7
176
     1
 65
   257
176
     1
 75
     1
176
     1
175
     1
176
     1
 42
1.0
176
     1
 92
        8
176
     1
 66
     7
176
     1
 43
1.0
176
     1
 76
     1
176
     1
 77
     6
176
     1
 78
     2
176
     1
 67
     7
176
     1
 79
     5
176
     1
170
     0
176
     1
171
     0
176
     1
290
     0
176
     1
 93
        1
176
     1
 44
-50.0
176
     1
173
     0
176
     1
  0
VISUALSTYLE
  5
39
102
{ACAD_REACTORS
330
2A
102
}
330
2A
100
AcDbVisualStyle
  2
Facepattern
 70
    15
177
     2
291
     1
 71
     2
176
     1
 72
     2
176
     1
 73
     0
176
     1
 90
        0
176
     1
 40
-0.6
176
     1
 41
-30.0
176
     1
 62
     5
 63
     7
421
 16777215
176
     1
 74
     1
176
     1
 91
        4
176
     1
 64
     7
176
     1
 65
   257
176
     1
 75
     1
176
     1
175
     1
176
     1
 42
1.0
176
     1
 92
        8
176
     1
 66
     7
176
     1
 43
1.0
176
     1
 76
     1
176
     1
 77
     6
176
     1
 78
     2
176
     1
 67
     7
176
     1
 79
     5
176
     1
170
     0
176
     1
171
     0
176
     1
290
     0
176
     1
 93
        1
176
     1
 44
0.0
176
     1
173
     0
176
     1
  0
VISUALSTYLE
  5
2B
102
{ACAD_REACTORS
330
2A
102
}
330
2A
100
AcDbVisualStyle
  2
Flat
 70
     0
177
     2
291
     1
 71
     2
176
     1
 72
     1
176
     1
 73
     1
176
     1
 90
        2
176
     1
 40
-0.6
176
     1
 41
30.0
176
     1
 62
     5
 63
     7
421
 16777215
176
     1
 74
     0
176
     1
 91
        4
176
     1
 64
     7
176
     1
 65
   257
176
     1
 75
     1
176
     1
175
     1
176
     1
 42
1.0
176
     1
 92
        8
176
     1
 66
     7
176
     1
 43
1.0
176
     1
 76
     1
176
     1
 77
     6
176
     1
 78
     2
176
     1
 67
     7
176
     1
 79
     5
176
     1
170
     0
176
     1
171
     0
176
     1
290
     0
176
     1
 93
       13
176
     1
 44
0.0
176
     1
173
     0
176
     1
  0
VISUALSTYLE
  5
2C
102
{ACAD_REACTORS
330
2A
102
}
330
2A
100
AcDbVisualStyle
  2
FlatWithEdges
 70
     1
177
     2
291
     1
 71
     2
176
     1
 72
     1
176
     1
 73
     1
176
     1
 90
        2
176
     1
 40
-0.6
176
     1
 41
30.0
176
     1
 62
     5
 63
     7
421
 16777215
176
     1
 74
     1
176
     1
 91
        4
176
     1
 64
     7
176
     1
 65
   257
176
     1
 75
     1
176
     1
175
     1
176
     1
 42
1.0
176
     1
 92
        0
176
     1
 66
   257
176
     1
 43
1.0
176
     1
 76
     1
176
     1
 77
     6
176
     1
 78
     2
176
     1
 67
     7
176
     1
 79
     5
176
     1
170
     0
176
     1
171
     0
176
     1
290
     0
176
     1
 93
       13
176
     1
 44
0.0
176
     1
173
     0
176
     1
  0
VISUALSTYLE
  5
2D
102
{ACAD_REACTORS
330
2A
102
}
330
2A
100
AcDbVisualStyle
  2
Gouraud
 70
     2
177
     2
291
     1
 71
     2
176
     1
 72
     2
176
     1
 73
     1
176
     1
 90
        2
176
     1
 40
-0.6
176
     1
 41
30.0
176
     1
 62
     5
 63
     7
421
 16777215
176
     1
 74
     0
176
     1
 91
        4
176
     1
 64
     7
176
     1
 65
   257
176
     1
 75
     1
176
     1
175
     1
176
     1
 42
1.0
176
     1
 92
        0
176
     1
 66
     7
176
     1
 43
1.0
176
     1
 76
     1
176
     1
 77
     6
176
     1
 78
     2
176
     1
 67
     7
176
     1
 79
     5
176
     1
170
     0
176
     1
171
     0
176
     1
290
     0
176
     1
 93
       13
176
     1
 44
0.0
176
     1
173
     0
176
     1
  0
VISUALSTYLE
  5
2E
102
{ACAD_REACTORS
330
2A
102
}
330
2A
100
AcDbVisualStyle
  2
GouraudWithEdges
 70
     3
177
     2
291
     1
 71
     2
176
     1
 72
     2
176
     1
 73
     1
176
     1
 90
        2
176
     1
 40
-0.6
176
     1
 41
30.0
176
     1
 62
     5
 63
     7
421
 16777215
176
     1
 74
     1
176
     1
 91
        4
176
     1
 64
     7
176
     1
 65
   257
176
     1
 75
     1
176
     1
175
     1
176
     1
 42
1.0
176
     1
 92
        0
176
     1
 66
   257
176
     1
 43
1.0
176
     1
 76
     1
176
     1
 77
     6
176
     1
 78
     2
176
     1
 67
     7
176
     1
 79
     5
176
     1
170
     0
176
     1
171
     0
176
     1
290
     0
176
     1
 93
       13
176
     1
 44
0.0
176
     1
173
     0
176
     1
  0
VISUALSTYLE
  5
38
102
{ACAD_REACTORS
330
2A
102
}
330
2A
100
AcDbVisualStyle
  2
Linepattern
 70
    14
177
     2
291
     1
 71
     2
176
     1
 72
     2
176
     1
 73
     0
176
     1
 90
        0
176
     1
 40
-0.6
176
     1
 41
-30.0
176
     1
 62
     5
 63
     7
421
 16777215
176
     1
 74
     1
176
     1
 91
        4
176
     1
 64
     7
176
     1
 65
   257
176
     1
 75
     7
176
     1
175
     7
176
     1
 42
1.0
176
     1
 92
        8
176
     1
 66
     7
176
     1
 43
1.0
176
     1
 76
     1
176
     1
 77
     6
176
     1
 78
     2
176
     1
 67
     7
176
     1
 79
     5
176
     1
170
     0
176
     1
171
     0
176
     1
290
     0
176
     1
 93
        1
176
     1
 44
0.0
176
     1
173
     0
176
     1
  0
VISUALSTYLE
  5
33
102
{ACAD_REACTORS
330
2A
102
}
330
2A
100
AcDbVisualStyle
  2
Realistic
 70
     8
177
     2
291
     0
 71
     2
176
     1
 72
     2
176
     1
 73
     0
176
     1
 90
        0
176
     1
 40
-0.6
176
     1
 41
-30.0
176
     1
 62
     5
 63
     7
421
 16777215
176
     1
 74
     1
176
     1
 91
        0
176
     1
 64
     7
176
     1
 65
   257
176
     1
 75
     1
176
     1
175
     1
176
     1
 42
1.0
176
     1
 92
        8
176
     1
 66
     8
424
  7895160
176
     1
 43
1.0
176
     1
 76
     1
176
     1
 77
     6
176
     1
 78
     2
176
     1
 67
     7
176
     1
 79
     5
176
     1
170
     0
176
     1
171
     0
176
     1
290
     0
176
     1
 93
       13
176
     1
 44
0.0
176
     1
173
     0
176
     1
  0
VISUALSTYLE
  5
37
102
{ACAD_REACTORS
330
2A
102
}
330
2A
100
AcDbVisualStyle
  2
Thicken
 70
    13
177
     2
291
     1
 71
     2
176
     1
 72
     2
176
     1
 73
     0
176
     1
 90
        0
176
     1
 40
-0.6
176
     1
 41
-30.0
176
     1
 62
     5
 63
     7
421
 16777215
176
     1
 74
     1
176
     1
 91
        4
176
     1
 64
     7
176
     1
 65
   257
176
     1
 75
     1
176
     1
175
     1
176
     1
 42
1.0
176
     1
 92
       12
176
     1
 66
     7
176
     1
 43
1.0
176
     1
 76
     1
176
     1
 77
     6
176
     1
 78
     2
176
     1
 67
     7
176
     1
 79
     5
176
     1
170
     0
176
     1
171
     0
176
     1
290
     0
176
     1
 93
        1
176
     1
 44
0.0
176
     1
173
     0
176
     1
  0
ENDSEC
  0
EOF
