  0
SECTION
  2
HEADER
  9
$ACADVER
  1
AC1024
  9
$ACADMAINTVER
 70
     6
  9
$DWGCODEPAGE
  3
UNDEFINED
  9
$INSBASE
 10
0.0
 20
0.0
 30
0.0
  9
$EXTMIN
 10
1.000000000000000E+20
 20
1.000000000000000E+20
 30
1.000000000000000E+20
  9
$EXTMAX
 10
-1.000000000000000E+20
 20
-1.000000000000000E+20
 30
-1.000000000000000E+20
  9
$LIMMIN
 10
0.0
 20
0.0
  9
$LIMMAX
 10
12.0
 20
9.0
  9
$ORTHOMODE
 70
     0
  9
$REGENMODE
 70
     1
  9
$FILLMODE
 70
     1
  9
$QTEXTMODE
 70
     0
  9
$MIRRTEXT
 70
     1
  9
$LTSCALE
 40
1.0
  9
$ATTMODE
 70
     1
  9
$TEXTSIZE
 40
0.2
  9
$TRACEWID
 40
0.05
  9
$TEXTSTYLE
  7
Standard
  9
$CLAYER
  8
0
  9
$CELTYPE
  6
ByLayer
  9
$CECOLOR
 62
   256
  9
$CELTSCALE
 40
1.0
  9
$DISPSILH
 70
     0
  9
$DIMSCALE
 40
1.0
  9
$DIMASZ
 40
0.18
  9
$DIMEXO
 40
0.0625
  9
$DIMDLI
 40
0.38
  9
$DIMRND
 40
0.0
  9
$DIMDLE
 40
0.0
  9
$DIMEXE
 40
0.18
  9
$DIMTP
 40
0.0
  9
$DIMTM
 40
0.0
  9
$DIMTXT
 40
0.18
  9
$DIMCEN
 40
0.09
  9
$DIMTSZ
 40
0.0
  9
$DIMTOL
 70
     0
  9
$DIMLIM
 70
     0
  9
$DIMTIH
 70
     1
  9
$DIMTOH
 70
     1
  9
$DIMSE1
 70
     0
  9
$DIMSE2
 70
     0
  9
$DIMTAD
 70
     0
  9
$DIMZIN
 70
     0
  9
$DIMBLK
  1

  9
$DIMASO
 70
     1
  9
$DIMSHO
 70
     1
  9
$DIMPOST
  1

  9
$DIMAPOST
  1

  9
$DIMALT
 70
     0
  9
$DIMALTD
 70
     2
  9
$DIMALTF
 40
25.4
  9
$DIMLFAC
 40
1.0
  9
$DIMTOFL
 70
     0
  9
$DIMTVP
 40
0.0
  9
$DIMTIX
 70
     0
  9
$DIMSOXD
 70
     0
  9
$DIMSAH
 70
     0
  9
$DIMBLK1
  1

  9
$DIMBLK2
  1

  9
$DIMSTYLE
  2
Standard
  9
$DIMCLRD
 70
     0
  9
$DIMCLRE
 70
     0
  9
$DIMCLRT
 70
     0
  9
$DIMTFAC
 40
1.0
  9
$DIMGAP
 40
0.09
  9
$DIMJUST
 70
     0
  9
$DIMSD1
 70
     0
  9
$DIMSD2
 70
     0
  9
$DIMTOLJ
 70
     1
  9
$DIMTZIN
 70
     0
  9
$DIMALTZ
 70
     0
  9
$DIMALTTZ
 70
     0
  9
$DIMUPT
 70
     0
  9
$DIMDEC
 70
     4
  9
$DIMTDEC
 70
     4
  9
$DIMALTU
 70
     2
  9
$DIMALTTD
 70
     2
  9
$DIMTXSTY
  7
Standard
  9
$DIMAUNIT
 70
     0
  9
$DIMADEC
 70
     0
  9
$DIMALTRND
 40
0.0
  9
$DIMAZIN
 70
     0
  9
$DIMDSEP
 70
    46
  9
$DIMATFIT
 70
     3
  9
$DIMFRAC
 70
     0
  9
$DIMLDRBLK
  1

  9
$DIMLUNIT
 70
     2
  9
$DIMLWD
 70
    -2
  9
$DIMLWE
 70
    -2
  9
$DIMTMOVE
 70
     0
  9
$DIMFXL
 40
1.0
  9
$DIMFXLON
 70
     0
  9
$DIMJOGANG
 40
0.7853981633974483
  9
$DIMTFILL
 70
     0
  9
$DIMTFILLCLR
 70
     0
  9
$DIMARCSYM
 70
     0
  9
$DIMLTYPE
  6

  9
$DIMLTEX1
  6

  9
$DIMLTEX2
  6

  9
$DIMTXTDIRECTION
 70
     0
  9
$LUNITS
 70
     2
  9
$LUPREC
 70
     4
  9
$SKETCHINC
 40
0.1
  9
$FILLETRAD
 40
0.5
  9
$AUNITS
 70
     0
  9
$AUPREC
 70
     0
  9
$MENU
  1
.
  9
$ELEVATION
 40
0.0
  9
$PELEVATION
 40
0.0
  9
$THICKNESS
 40
0.0
  9
$LIMCHECK
 70
     0
  9
$CHAMFERA
 40
0.5
  9
$CHAMFERB
 40
0.5
  9
$CHAMFERC
 40
1.0
  9
$CHAMFERD
 40
0.0
  9
$SKPOLY
 70
     0
  9
$TDCREATE
 40
2457917.613854155
  9
$TDUCREATE
 40
2457917.238854167
  9
$TDUPDATE
 40
2457917.613854155
  9
$TDUUPDATE
 40
2457917.238854167
  9
$TDINDWG
 40
0.0000000116
  9
$TDUSRTIMER
 40
0.0000000116
  9
$USRTIMER
 70
     1
  9
$ANGBASE
 50
0.0
  9
$ANGDIR
 70
     0
  9
$PDMODE
 70
     0
  9
$PDSIZE
 40
0.0
  9
$PLINEWID
 40
0.0
  9
$SPLFRAME
 70
     0
  9
$SPLINETYPE
 70
     6
  9
$SPLINESEGS
 70
     8
  9
$HANDSEED
  5
149
  9
$SURFTAB1
 70
     6
  9
$SURFTAB2
 70
     6
  9
$SURFTYPE
 70
     6
  9
$SURFU
 70
     6
  9
$SURFV
 70
     6
  9
$UCSBASE
  2

  9
$UCSNAME
  2

  9
$UCSORG
 10
0.0
 20
0.0
 30
0.0
  9
$UCSXDIR
 10
1.0
 20
0.0
 30
0.0
  9
$UCSYDIR
 10
0.0
 20
1.0
 30
0.0
  9
$UCSORTHOREF
  2

  9
$UCSORTHOVIEW
 70
     0
  9
$UCSORGTOP
 10
0.0
 20
0.0
 30
0.0
  9
$UCSORGBOTTOM
 10
0.0
 20
0.0
 30
0.0
  9
$UCSORGLEFT
 10
0.0
 20
0.0
 30
0.0
  9
$UCSORGRIGHT
 10
0.0
 20
0.0
 30
0.0
  9
$UCSORGFRONT
 10
0.0
 20
0.0
 30
0.0
  9
$UCSORGBACK
 10
0.0
 20
0.0
 30
0.0
  9
$PUCSBASE
  2

  9
$PUCSNAME
  2

  9
$PUCSORG
 10
0.0
 20
0.0
 30
0.0
  9
$PUCSXDIR
 10
1.0
 20
0.0
 30
0.0
  9
$PUCSYDIR
 10
0.0
 20
1.0
 30
0.0
  9
$PUCSORTHOREF
  2

  9
$PUCSORTHOVIEW
 70
     0
  9
$PUCSORGTOP
 10
0.0
 20
0.0
 30
0.0
  9
$PUCSORGBOTTOM
 10
0.0
 20
0.0
 30
0.0
  9
$PUCSORGLEFT
 10
0.0
 20
0.0
 30
0.0
  9
$PUCSORGRIGHT
 10
0.0
 20
0.0
 30
0.0
  9
$PUCSORGFRONT
 10
0.0
 20
0.0
 30
0.0
  9
$PUCSORGBACK
 10
0.0
 20
0.0
 30
0.0
  9
$USERI1
 70
     0
  9
$USERI2
 70
     0
  9
$USERI3
 70
     0
  9
$USERI4
 70
     0
  9
$USERI5
 70
     0
  9
$USERR1
 40
0.0
  9
$USERR2
 40
0.0
  9
$USERR3
 40
0.0
  9
$USERR4
 40
0.0
  9
$USERR5
 40
0.0
  9
$WORLDVIEW
 70
     1
  9
$SHADEDGE
 70
     3
  9
$SHADEDIF
 70
    70
  9
$TILEMODE
 70
     1
  9
$MAXACTVP
 70
    64
  9
$PINSBASE
 10
0.0
 20
0.0
 30
0.0
  9
$PLIMCHECK
 70
     0
  9
$PEXTMIN
 10
1.000000000000000E+20
 20
1.000000000000000E+20
 30
1.000000000000000E+20
  9
$PEXTMAX
 10
-1.000000000000000E+20
 20
-1.000000000000000E+20
 30
-1.000000000000000E+20
  9
$PLIMMIN
 10
0.0
 20
0.0
  9
$PLIMMAX
 10
12.0
 20
9.0
  9
$UNITMODE
 70
     0
  9
$VISRETAIN
 70
     1
  9
$PLINEGEN
 70
     0
  9
$PSLTSCALE
 70
     1
  9
$TREEDEPTH
 70
  3020
  9
$CMLSTYLE
  2
Standard
  9
$CMLJUST
 70
     0
  9
$CMLSCALE
 40
1.0
  9
$PROXYGRAPHICS
 70
     1
  9
$MEASUREMENT
 70
     0
  9
$CELWEIGHT
370
    -1
  9
$ENDCAPS
280
     0
  9
$JOINSTYLE
280
     0
  9
$LWDISPLAY
290
     1
  9
$INSUNITS
 70
     1
  9
$HYPERLINKBASE
  1

  9
$STYLESHEET
  1

  9
$XEDIT
290
     1
  9
$CEPSNTYPE
380
     0
  9
$PSTYLEMODE
290
     1
  9
$FINGERPRINTGUID
  2
{BEDB8729-9629-BABF-F1B0-670E88779AD6}
  9
$VERSIONGUID
  2
{FAEB1C32-E019-11D5-929B-00C0DF256EC4}
  9
$EXTNAMES
290
     1
  9
$PSVPSCALE
 40
0.0
  9
$OLESTARTUP
290
     0
  9
$SORTENTS
280
   127
  9
$INDEXCTL
280
     0
  9
$HIDETEXT
280
     1
  9
$XCLIPFRAME
280
     2
  9
$HALOGAP
280
     0
  9
$OBSCOLOR
 70
   257
  9
$OBSLTYPE
280
     0
  9
$INTERSECTIONDISPLAY
280
     0
  9
$INTERSECTIONCOLOR
 70
   257
  9
$DIMASSOC
280
     2
  9
$PROJECTNAME
  1

  9
$CAMERADISPLAY
290
     0
  9
$LENSLENGTH
 40
50.0
  9
$CAMERAHEIGHT
 40
0.0
  9
$STEPSPERSEC
 40
2.0
  9
$STEPSIZE
 40
6.0
  9
$3DDWFPREC
 40
2.0
  9
$PSOLWIDTH
 40
0.25
  9
$PSOLHEIGHT
 40
4.0
  9
$LOFTANG1
 40
1.570796326794897
  9
$LOFTANG2
 40
1.570796326794897
  9
$LOFTMAG1
 40
0.0
  9
$LOFTMAG2
 40
0.0
  9
$LOFTPARAM
 70
     7
  9
$LOFTNORMALS
280
     1
  9
$LATITUDE
 40
37.795
  9
$LONGITUDE
 40
-122.394
  9
$NORTHDIRECTION
 40
0.0
  9
$TIMEZONE
 70
 -8000
  9
$LIGHTGLYPHDISPLAY
280
     1
  9
$TILEMODELIGHTSYNCH
280
     1
  9
$CMATERIAL
347
3C
  9
$SOLIDHIST
280
     1
  9
$SHOWHIST
280
     1
  9
$DWFFRAME
280
     2
  9
$DGNFRAME
280
     2
  9
$REALWORLDSCALE
290
     1
  9
$INTERFERECOLOR
 62
   256
  9
$CSHADOW
280
     0
  9
$SHADOWPLANELOCATION
 40
0.0
  0
ENDSEC
  0
SECTION
  2
CLASSES
  0
CLASS
  1
ACDBDICTIONARYWDFLT
  2
AcDbDictionaryWithDefault
  3
ObjectDBX Classes
 90
        0
 91
        4
280
     0
281
     0
  0
CLASS
  1
VISUALSTYLE
  2
AcDbVisualStyle
  3
ObjectDBX Classes
 90
     4095
 91
        4
280
     0
281
     0
  0
CLASS
  1
MATERIAL
  2
AcDbMaterial
  3
ObjectDBX Classes
 90
     1153
 91
        4
280
     0
281
     0
  0
CLASS
  1
SUN
  2
AcDbSun
  3
SCENEOE
 90
     1024
 91
        4
280
     0
281
     0
  0
ENDSEC
  0
SECTION
  2
TABLES
  0
TABLE
  2
VPORT
  5
8
330
0
100
AcDbSymbolTable
 70
     1
  0
VPORT
  5
29
330
8
100
AcDbSymbolTableRecord
100
AcDbViewportTableRecord
  2
*Active
 70
     0
 10
0.0
 20
0.0
 11
1.0
 21
1.0
 12
0.0
 22
0.0
 13
0.0
 23
0.0
 14
0.5
 24
0.5
 15
0.5
 25
0.5
 16
0.0
 26
0.0
 36
1.0
 17
91.00082462281999
 27
-128.4993055234307
 37
0.0
 40
256.9986110468615
 41
0.7081814508812795
 42
50.0
 43
0.0
 44
0.0
 50
0.0
 51
0.0
 71
     0
 72
   100
 73
     1
 74
     3
 75
     0
 76
     0
 77
     0
 78
     0
281
     0
 65
     1
110
0.0
120
0.0
130
0.0
111
1.0
121
0.0
131
0.0
112
0.0
122
1.0
132
0.0
 79
     0
146
0.0
 60
     3
 61
     5
292
     1
282
     1
141
0.0
142
0.0
 63
   250
361
3F
  0
ENDTAB
  0
TABLE
  2
LTYPE
  5
5
330
0
100
AcDbSymbolTable
 70
     1
  0
LTYPE
  5
14
330
5
100
AcDbSymbolTableRecord
100
AcDbLinetypeTableRecord
  2
ByBlock
 70
     0
  3

 72
    65
 73
     0
 40
0.0
  0
LTYPE
  5
15
330
5
100
AcDbSymbolTableRecord
100
AcDbLinetypeTableRecord
  2
ByLayer
 70
     0
  3

 72
    65
 73
     0
 40
0.0
  0
LTYPE
  5
16
330
5
100
AcDbSymbolTableRecord
100
AcDbLinetypeTableRecord
  2
Continuous
 70
     0
  3
Solid line
 72
    65
 73
     0
 40
0.0
  0
ENDTAB
  0
TABLE
  2
LAYER
  5
2
330
0
100
AcDbSymbolTable
 70
     2
  0
LAYER
  5
10
330
2
100
AcDbSymbolTableRecord
100
AcDbLayerTableRecord
  2
0
 70
     0
 62
     7
  6
Continuous
370
    -3
390
F
347
3E
  0
LAYER
  5
40
330
2
100
AcDbSymbolTableRecord
100
AcDbLayerTableRecord
  2
_U+30EC_U+30A4_U+30E4_U+30FC 1
 70
     0
 62
     7
  6
Continuous
370
    -3
390
F
347
3E
  0
ENDTAB
  0
TABLE
  2
STYLE
  5
3
330
0
100
AcDbSymbolTable
 70
     1
  0
STYLE
  5
11
330
3
100
AcDbSymbolTableRecord
100
AcDbTextStyleTableRecord
  2
Standard
 70
     0
 40
0.0
 41
1.0
 50
0.0
 71
     0
 42
0.2
  3
txt
  4

  0
ENDTAB
  0
TABLE
  2
VIEW
  5
6
330
0
100
AcDbSymbolTable
 70
     0
  0
ENDTAB
  0
TABLE
  2
UCS
  5
7
330
0
100
AcDbSymbolTable
 70
     0
  0
ENDTAB
  0
TABLE
  2
APPID
  5
9
330
0
100
AcDbSymbolTable
 70
     1
  0
APPID
  5
12
330
9
100
AcDbSymbolTableRecord
100
AcDbRegAppTableRecord
  2
ACAD
 70
     0
  0
ENDTAB
  0
TABLE
  2
DIMSTYLE
  5
A
330
0
100
AcDbSymbolTable
 70
     1
100
AcDbDimStyleTable
  0
DIMSTYLE
105
27
330
A
100
AcDbSymbolTableRecord
100
AcDbDimStyleTableRecord
  2
Standard
 70
     0
178
     0
340
11
  0
ENDTAB
  0
TABLE
  2
BLOCK_RECORD
  5
1
330
0
100
AcDbSymbolTable
 70
     8
  0
BLOCK_RECORD
  5
1F
330
1
100
AcDbSymbolTableRecord
100
AcDbBlockTableRecord
  2
*Model_Space
340
22
 70
     0
280
     1
281
     0
  0
BLOCK_RECORD
  5
1B
330
1
100
AcDbSymbolTableRecord
100
AcDbBlockTableRecord
  2
*Paper_Space
340
1E
 70
     0
280
     1
281
     0
  0
BLOCK_RECORD
  5
23
330
1
100
AcDbSymbolTableRecord
100
AcDbBlockTableRecord
  2
*Paper_Space0
340
26
 70
     0
280
     1
281
     0
  0
BLOCK_RECORD
  5
AC
330
1
100
AcDbSymbolTableRecord
100
AcDbBlockTableRecord
  2
block 2
340
0
102
{BLKREFS
331
AD
102
}
 70
     0
280
     1
281
     0
  0
BLOCK_RECORD
  5
BE
330
1
100
AcDbSymbolTableRecord
100
AcDbBlockTableRecord
  2
block 3
340
0
102
{BLKREFS
331
BF
102
}
 70
     0
280
     1
281
     0
  0
BLOCK_RECORD
  5
D0
330
1
100
AcDbSymbolTableRecord
100
AcDbBlockTableRecord
  2
block 4
340
0
102
{BLKREFS
331
D1
102
}
 70
     0
280
     1
281
     0
  0
BLOCK_RECORD
  5
F8
330
1
100
AcDbSymbolTableRecord
100
AcDbBlockTableRecord
  2
block 5
340
0
102
{BLKREFS
331
F9
102
}
 70
     0
280
     1
281
     0
  0
BLOCK_RECORD
  5
10D
330
1
100
AcDbSymbolTableRecord
100
AcDbBlockTableRecord
  2
block 6
340
0
102
{BLKREFS
331
10E
102
}
 70
     0
280
     1
281
     0
  0
BLOCK_RECORD
  5
130
330
1
100
AcDbSymbolTableRecord
100
AcDbBlockTableRecord
  2
block 7
340
0
102
{BLKREFS
331
131
102
}
 70
     0
280
     1
281
     0
  0
BLOCK_RECORD
  5
141
330
1
100
AcDbSymbolTableRecord
100
AcDbBlockTableRecord
  2
block 8
340
0
102
{BLKREFS
331
142
102
}
 70
     0
280
     1
281
     0
  0
ENDTAB
  0
ENDSEC
  0
SECTION
  2
BLOCKS
  0
BLOCK
  5
20
330
1F
100
AcDbEntity
  8
0
100
AcDbBlockBegin
  2
*Model_Space
 70
     0
 10
0.0
 20
0.0
 30
0.0
  3
*Model_Space
  1

  0
ENDBLK
  5
21
330
1F
100
AcDbEntity
  8
0
100
AcDbBlockEnd
  0
BLOCK
  5
1C
330
1B
100
AcDbEntity
 67
     1
  8
0
100
AcDbBlockBegin
  2
*Paper_Space
 70
     0
 10
0.0
 20
0.0
 30
0.0
  3
*Paper_Space
  1

  0
ENDBLK
  5
1D
330
1B
100
AcDbEntity
 67
     1
  8
0
100
AcDbBlockEnd
  0
BLOCK
  5
24
330
23
100
AcDbEntity
  8
0
100
AcDbBlockBegin
  2
*Paper_Space0
 70
     0
 10
0.0
 20
0.0
 30
0.0
  3
*Paper_Space0
  1

  0
ENDBLK
  5
25
330
23
100
AcDbEntity
  8
0
100
AcDbBlockEnd
  0
BLOCK
  5
AE
330
AC
100
AcDbEntity
  8
0
100
AcDbBlockBegin
  2
block 2
 70
     0
 10
0.0
 20
0.0
 30
0.0
  3
block 2
  1

  0
SPLINE
  5
B0
330
AC
100
AcDbEntity
  8
_U+30EC_U+30A4_U+30E4_U+30FC 1
370
     0
100
AcDbSpline
210
0.0
220
0.0
230
1.0
 70
    11
 71
     3
 72
    62
 73
    58
 74
     0
 42
0.0000000001
 43
0.0000000001
 12
1.0
 22
0.0
 32
0.0
 13
1.0
 23
0.0
 33
0.0
 40
0.0
 40
0.0
 40
0.0
 40
0.0
 40
1.0
 40
1.0
 40
1.0
 40
2.0
 40
2.0
 40
2.0
 40
3.0
 40
3.0
 40
3.0
 40
4.0
 40
4.0
 40
4.0
 40
5.0
 40
5.0
 40
5.0
 40
6.0
 40
6.0
 40
6.0
 40
7.0
 40
7.0
 40
7.0
 40
8.0
 40
8.0
 40
8.0
 40
9.0
 40
9.0
 40
9.0
 40
10.0
 40
10.0
 40
10.0
 40
11.0
 40
11.0
 40
11.0
 40
12.0
 40
12.0
 40
12.0
 40
13.0
 40
13.0
 40
13.0
 40
14.0
 40
14.0
 40
14.0
 40
15.0
 40
15.0
 40
15.0
 40
16.0
 40
16.0
 40
16.0
 40
17.0
 40
17.0
 40
17.0
 40
18.0
 40
18.0
 40
18.0
 40
19.0
 40
19.0
 40
19.0
 40
19.0
 10
116.1651746671393
 20
-142.2820990312698
 30
0.0
 10
116.1651746671393
 20
-142.3837293480846
 30
0.0
 10
116.1441595846792
 20
-142.6166178028875
 30
0.0
 10
115.9581244284758
 20
-142.7499429981667
 30
0.0
 10
115.8458143156566
 20
-142.8291801943274
 30
0.0
 10
115.7465955656814
 20
-142.8336588184582
 30
0.0
 10
115.6618462167443
 20
-142.8381374425891
 30
0.0
 10
115.6618462167443
 20
-142.8381374425891
 30
0.0
 10
115.6618462167443
 20
-142.6031819304951
 30
0.0
 10
115.6618462167443
 20
-142.6031819304951
 30
0.0
 10
115.7359157696771
 20
-142.6007703636554
 30
0.0
 10
115.9705267722227
 20
-142.589401548554
 30
0.0
 10
115.9705267722227
 20
-142.2865776554006
 30
0.0
 10
115.9705267722227
 20
-142.1394720781804
 30
0.0
 10
115.9009358434206
 20
-141.9768635712766
 30
0.0
 10
115.6725260127485
 20
-141.9768635712766
 30
0.0
 10
115.5560817853471
 20
-141.9768635712766
 30
0.0
 10
115.5075059390051
 20
-142.0175156980026
 30
0.0
 10
115.4758110605408
 20
-142.0516221433066
 30
0.0
 10
115.4017415076079
 20
-142.1305148299188
 30
0.0
 10
115.3889946543125
 20
-142.2548827769363
 30
0.0
 10
115.3889946543125
 20
-142.313793909734
 30
0.0
 10
115.3889946543125
 20
-142.334119973097
 30
0.0
 10
115.3910617116036
 20
-142.3723605329833
 30
0.0
 10
115.3951958261859
 20
-142.4019883541565
 30
0.0
 10
115.3951958261859
 20
-142.4019883541565
 30
0.0
 10
115.2005479312693
 20
-142.4019883541565
 30
0.0
 10
115.2005479312693
 20
-142.4019883541565
 30
0.0
 10
115.2070936126913
 20
-142.3613362274305
 30
0.0
 10
115.2091606699824
 20
-142.3158609670252
 30
0.0
 10
115.2091606699824
 20
-142.3093152856032
 30
0.0
 10
115.2091606699824
 20
-142.2390353377041
 30
0.0
 10
115.1878010779739
 20
-142.0264729462642
 30
0.0
 10
114.9511230181372
 20
-142.0264729462642
 30
0.0
 10
114.7733560910983
 20
-142.0264729462642
 30
0.0
 10
114.7182345633343
 20
-142.1666883325139
 30
0.0
 10
114.7182345633343
 20
-142.2841660885609
 30
0.0
 10
114.7182345633343
 20
-142.5670084278999
 30
0.0
 10
114.9511230181372
 20
-142.5759656761616
 30
0.0
 10
115.0227810042304
 20
-142.5804443002924
 30
0.0
 10
115.0227810042304
 20
-142.5804443002924
 30
0.0
 10
115.0227810042304
 20
-142.7974853158631
 30
0.0
 10
115.0227810042304
 20
-142.7974853158631
 30
0.0
 10
114.8980685476644
 20
-142.7885280676015
 30
0.0
 10
114.5215196111266
 20
-142.7592447559769
 30
0.0
 10
114.5215196111266
 20
-142.2707302161684
 30
0.0
 10
114.5215196111266
 20
-142.030951570395
 30
0.0
 10
114.6486436345323
 20
-141.7732584280984
 30
0.0
 10
114.9445773367153
 20
-141.7732584280984
 30
0.0
 10
115.1309570024673
 20
-141.7732584280984
 30
0.0
 10
115.2132947845647
 20
-141.8752332544618
 30
0.0
 10
115.2746174842022
 20
-141.9813421954074
 30
0.0
 10
115.3021782480842
 20
-141.9158853811877
 30
0.0
 10
115.3824489728905
 20
-141.7212374862711
 30
0.0
 10
115.6597791594531
 20
-141.7212374862711
 30
0.0
 10
115.9980875361046
 20
-141.7212374862711
 30
0.0
 10
116.1651746671393
 20
-141.9858208195383
 30
0.0
 10
116.1651746671393
 20
-142.2820990312698
 30
0.0
  0
HATCH
  5
B1
330
AC
100
AcDbEntity
  8
_U+30EC_U+30A4_U+30E4_U+30FC 1
 62
   179
420
  2234388
100
AcDbHatch
 10
0.0
 20
0.0
 30
0.0
210
0.0
220
0.0
230
1.0
  2
SOLID
 70
     1
 71
     0
 91
        1
 92
        1
 93
        1
 72
     4
 94
        3
 73
     0
 74
     1
 95
       62
 96
       58
 40
0.0
 40
0.0
 40
0.0
 40
0.0
 40
1.0
 40
1.0
 40
1.0
 40
2.0
 40
2.0
 40
2.0
 40
3.0
 40
3.0
 40
3.0
 40
4.0
 40
4.0
 40
4.0
 40
5.0
 40
5.0
 40
5.0
 40
6.0
 40
6.0
 40
6.0
 40
7.0
 40
7.0
 40
7.0
 40
8.0
 40
8.0
 40
8.0
 40
9.0
 40
9.0
 40
9.0
 40
10.0
 40
10.0
 40
10.0
 40
11.0
 40
11.0
 40
11.0
 40
12.0
 40
12.0
 40
12.0
 40
13.0
 40
13.0
 40
13.0
 40
14.0
 40
14.0
 40
14.0
 40
15.0
 40
15.0
 40
15.0
 40
16.0
 40
16.0
 40
16.0
 40
17.0
 40
17.0
 40
17.0
 40
18.0
 40
18.0
 40
18.0
 40
19.0
 40
19.0
 40
19.0
 40
19.0
 10
116.1651746671393
 20
-142.2820990312698
 10
116.1651746671393
 20
-142.3837293480846
 10
116.1441595846792
 20
-142.6166178028875
 10
115.9581244284758
 20
-142.7499429981667
 10
115.8458143156566
 20
-142.8291801943274
 10
115.7465955656814
 20
-142.8336588184582
 10
115.6618462167443
 20
-142.8381374425891
 10
115.6618462167443
 20
-142.8381374425891
 10
115.6618462167443
 20
-142.6031819304951
 10
115.6618462167443
 20
-142.6031819304951
 10
115.7359157696771
 20
-142.6007703636554
 10
115.9705267722227
 20
-142.589401548554
 10
115.9705267722227
 20
-142.2865776554006
 10
115.9705267722227
 20
-142.1394720781804
 10
115.9009358434206
 20
-141.9768635712766
 10
115.6725260127485
 20
-141.9768635712766
 10
115.5560817853471
 20
-141.9768635712766
 10
115.5075059390051
 20
-142.0175156980026
 10
115.4758110605408
 20
-142.0516221433066
 10
115.4017415076079
 20
-142.1305148299188
 10
115.3889946543125
 20
-142.2548827769363
 10
115.3889946543125
 20
-142.313793909734
 10
115.3889946543125
 20
-142.334119973097
 10
115.3910617116036
 20
-142.3723605329833
 10
115.3951958261859
 20
-142.4019883541565
 10
115.3951958261859
 20
-142.4019883541565
 10
115.2005479312693
 20
-142.4019883541565
 10
115.2005479312693
 20
-142.4019883541565
 10
115.2070936126913
 20
-142.3613362274305
 10
115.2091606699824
 20
-142.3158609670252
 10
115.2091606699824
 20
-142.3093152856032
 10
115.2091606699824
 20
-142.2390353377041
 10
115.1878010779739
 20
-142.0264729462642
 10
114.9511230181372
 20
-142.0264729462642
 10
114.7733560910983
 20
-142.0264729462642
 10
114.7182345633343
 20
-142.1666883325139
 10
114.7182345633343
 20
-142.2841660885609
 10
114.7182345633343
 20
-142.5670084278999
 10
114.9511230181372
 20
-142.5759656761616
 10
115.0227810042304
 20
-142.5804443002924
 10
115.0227810042304
 20
-142.5804443002924
 10
115.0227810042304
 20
-142.7974853158631
 10
115.0227810042304
 20
-142.7974853158631
 10
114.8980685476644
 20
-142.7885280676015
 10
114.5215196111266
 20
-142.7592447559769
 10
114.5215196111266
 20
-142.2707302161684
 10
114.5215196111266
 20
-142.030951570395
 10
114.6486436345323
 20
-141.7732584280984
 10
114.9445773367153
 20
-141.7732584280984
 10
115.1309570024673
 20
-141.7732584280984
 10
115.2132947845647
 20
-141.8752332544618
 10
115.2746174842022
 20
-141.9813421954074
 10
115.3021782480842
 20
-141.9158853811877
 10
115.3824489728905
 20
-141.7212374862711
 10
115.6597791594531
 20
-141.7212374862711
 10
115.9980875361046
 20
-141.7212374862711
 10
116.1651746671393
 20
-141.9858208195383
 10
116.1651746671393
 20
-142.2820990312698
 97
        0
 97
        0
 75
     2
 76
     1
 98
        0
  0
ENDBLK
  5
AF
330
AC
100
AcDbEntity
  8
0
100
AcDbBlockEnd
  0
BLOCK
  5
C0
330
BE
100
AcDbEntity
  8
0
100
AcDbBlockBegin
  2
block 3
 70
     0
 10
0.0
 20
0.0
 30
0.0
  3
block 3
  1

  0
SPLINE
  5
C2
330
BE
100
AcDbEntity
  8
_U+30EC_U+30A4_U+30E4_U+30FC 1
370
     0
100
AcDbSpline
210
0.0
220
0.0
230
1.0
 70
    11
 71
     3
 72
    62
 73
    58
 74
     0
 42
0.0000000001
 43
0.0000000001
 12
1.0
 22
0.0
 32
0.0
 13
1.0
 23
0.0
 33
0.0
 40
0.0
 40
0.0
 40
0.0
 40
0.0
 40
1.0
 40
1.0
 40
1.0
 40
2.0
 40
2.0
 40
2.0
 40
3.0
 40
3.0
 40
3.0
 40
4.0
 40
4.0
 40
4.0
 40
5.0
 40
5.0
 40
5.0
 40
6.0
 40
6.0
 40
6.0
 40
7.0
 40
7.0
 40
7.0
 40
8.0
 40
8.0
 40
8.0
 40
9.0
 40
9.0
 40
9.0
 40
10.0
 40
10.0
 40
10.0
 40
11.0
 40
11.0
 40
11.0
 40
12.0
 40
12.0
 40
12.0
 40
13.0
 40
13.0
 40
13.0
 40
14.0
 40
14.0
 40
14.0
 40
15.0
 40
15.0
 40
15.0
 40
16.0
 40
16.0
 40
16.0
 40
17.0
 40
17.0
 40
17.0
 40
18.0
 40
18.0
 40
18.0
 40
19.0
 40
19.0
 40
19.0
 40
19.0
 10
74.25128171971843
 20
-115.1764322628726
 30
0.0
 10
74.14965140290356
 20
-115.1764322628726
 30
0.0
 10
73.91676294810067
 20
-115.1552449256383
 30
0.0
 10
73.78326549804724
 20
-114.9690375146605
 30
0.0
 10
73.70420055666077
 20
-114.8568996566156
 30
0.0
 10
73.69972193252994
 20
-114.7575086518662
 30
0.0
 10
73.69524330839911
 20
-114.6729315577033
 30
0.0
 10
73.69524330839911
 20
-114.6729315577033
 30
0.0
 10
73.93019882049315
 20
-114.6729315577033
 30
0.0
 10
73.93019882049315
 20
-114.6729315577033
 30
0.0
 10
73.93261038733283
 20
-114.7470011106362
 30
0.0
 10
73.94380694765988
 20
-114.981784367956
 30
0.0
 10
74.24680309558761
 20
-114.981784367956
 30
0.0
 10
74.39373641803351
 20
-114.981784367956
 30
0.0
 10
74.55651717971156
 20
-114.9120211843796
 30
0.0
 10
74.55651717971156
 20
-114.6834390989333
 30
0.0
 10
74.55651717971156
 20
-114.5671671263061
 30
0.0
 10
74.51586505298562
 20
-114.5184190251898
 30
0.0
 10
74.48193086245591
 20
-114.4867241467255
 30
0.0
 10
74.40286592106942
 20
-114.4126545937927
 30
0.0
 10
74.2784979740519
 20
-114.4000799952715
 30
0.0
 10
74.21958684125414
 20
-114.4000799952715
 30
0.0
 10
74.19926077789115
 20
-114.4000799952715
 30
0.0
 10
74.16084796323062
 20
-114.4021470525627
 30
0.0
 10
74.131564651606
 20
-114.406281167145
 30
0.0
 10
74.131564651606
 20
-114.406281167145
 30
0.0
 10
74.131564651606
 20
-114.2116332722283
 30
0.0
 10
74.131564651606
 20
-114.2116332722283
 30
0.0
 10
74.17221677833194
 20
-114.2180066988761
 30
0.0
 10
74.21734752918873
 20
-114.2202460109415
 30
0.0
 10
74.22423772015922
 20
-114.2202460109415
 30
0.0
 10
74.29434541328406
 20
-114.2202460109415
 30
0.0
 10
74.50673554994971
 20
-114.1990586737072
 30
0.0
 10
74.50673554994971
 20
-113.962036104322
 30
0.0
 10
74.50673554994971
 20
-113.7844414320574
 30
0.0
 10
74.3666924184743
 20
-113.7293199042934
 30
0.0
 10
74.24904240765302
 20
-113.7293199042934
 30
0.0
 10
73.96637232308827
 20
-113.7293199042934
 30
0.0
 10
73.95741507482663
 20
-113.962036104322
 30
0.0
 10
73.9529364506958
 20
-114.0340385999637
 30
0.0
 10
73.9529364506958
 20
-114.0340385999637
 30
0.0
 10
73.73589543512506
 20
-114.0340385999637
 30
0.0
 10
73.73589543512506
 20
-114.0340385999637
 30
0.0
 10
73.74485268338671
 20
-113.9091538886234
 30
0.0
 10
73.77430824978559
 20
-113.5326049520856
 30
0.0
 10
74.26265053481976
 20
-113.5326049520856
 30
0.0
 10
74.50225692581888
 20
-113.5326049520856
 30
0.0
 10
74.75995006811557
 20
-113.6595567207171
 30
0.0
 10
74.75995006811557
 20
-113.9556626776743
 30
0.0
 10
74.75995006811557
 20
-114.141870088652
 30
0.0
 10
74.6583197513007
 20
-114.2243801255238
 30
0.0
 10
74.55203855558075
 20
-114.2857028251612
 30
0.0
 10
74.6174953698005
 20
-114.3132635890432
 30
0.0
 10
74.81197100994284
 20
-114.3937065686238
 30
0.0
 10
74.81197100994284
 20
-114.6708645004122
 30
0.0
 10
74.81197100994284
 20
-115.0093451318379
 30
0.0
 10
74.54755993144992
 20
-115.1764322628726
 30
0.0
 10
74.25128171971843
 20
-115.1764322628726
 30
0.0
  0
HATCH
  5
C3
330
BE
100
AcDbEntity
  8
_U+30EC_U+30A4_U+30E4_U+30FC 1
 62
   179
420
  2234388
100
AcDbHatch
 10
0.0
 20
0.0
 30
0.0
210
0.0
220
0.0
230
1.0
  2
SOLID
 70
     1
 71
     0
 91
        1
 92
        1
 93
        1
 72
     4
 94
        3
 73
     0
 74
     1
 95
       62
 96
       58
 40
0.0
 40
0.0
 40
0.0
 40
0.0
 40
1.0
 40
1.0
 40
1.0
 40
2.0
 40
2.0
 40
2.0
 40
3.0
 40
3.0
 40
3.0
 40
4.0
 40
4.0
 40
4.0
 40
5.0
 40
5.0
 40
5.0
 40
6.0
 40
6.0
 40
6.0
 40
7.0
 40
7.0
 40
7.0
 40
8.0
 40
8.0
 40
8.0
 40
9.0
 40
9.0
 40
9.0
 40
10.0
 40
10.0
 40
10.0
 40
11.0
 40
11.0
 40
11.0
 40
12.0
 40
12.0
 40
12.0
 40
13.0
 40
13.0
 40
13.0
 40
14.0
 40
14.0
 40
14.0
 40
15.0
 40
15.0
 40
15.0
 40
16.0
 40
16.0
 40
16.0
 40
17.0
 40
17.0
 40
17.0
 40
18.0
 40
18.0
 40
18.0
 40
19.0
 40
19.0
 40
19.0
 40
19.0
 10
74.25128171971843
 20
-115.1764322628726
 10
74.14965140290356
 20
-115.1764322628726
 10
73.91676294810067
 20
-115.1552449256383
 10
73.78326549804724
 20
-114.9690375146605
 10
73.70420055666077
 20
-114.8568996566156
 10
73.69972193252994
 20
-114.7575086518662
 10
73.69524330839911
 20
-114.6729315577033
 10
73.69524330839911
 20
-114.6729315577033
 10
73.93019882049315
 20
-114.6729315577033
 10
73.93019882049315
 20
-114.6729315577033
 10
73.93261038733283
 20
-114.7470011106362
 10
73.94380694765988
 20
-114.981784367956
 10
74.24680309558761
 20
-114.981784367956
 10
74.39373641803351
 20
-114.981784367956
 10
74.55651717971156
 20
-114.9120211843796
 10
74.55651717971156
 20
-114.6834390989333
 10
74.55651717971156
 20
-114.5671671263061
 10
74.51586505298562
 20
-114.5184190251898
 10
74.48193086245591
 20
-114.4867241467255
 10
74.40286592106942
 20
-114.4126545937927
 10
74.2784979740519
 20
-114.4000799952715
 10
74.21958684125414
 20
-114.4000799952715
 10
74.19926077789115
 20
-114.4000799952715
 10
74.16084796323062
 20
-114.4021470525627
 10
74.131564651606
 20
-114.406281167145
 10
74.131564651606
 20
-114.406281167145
 10
74.131564651606
 20
-114.2116332722283
 10
74.131564651606
 20
-114.2116332722283
 10
74.17221677833194
 20
-114.2180066988761
 10
74.21734752918873
 20
-114.2202460109415
 10
74.22423772015922
 20
-114.2202460109415
 10
74.29434541328406
 20
-114.2202460109415
 10
74.50673554994971
 20
-114.1990586737072
 10
74.50673554994971
 20
-113.962036104322
 10
74.50673554994971
 20
-113.7844414320574
 10
74.3666924184743
 20
-113.7293199042934
 10
74.24904240765302
 20
-113.7293199042934
 10
73.96637232308827
 20
-113.7293199042934
 10
73.95741507482663
 20
-113.962036104322
 10
73.9529364506958
 20
-114.0340385999637
 10
73.9529364506958
 20
-114.0340385999637
 10
73.73589543512506
 20
-114.0340385999637
 10
73.73589543512506
 20
-114.0340385999637
 10
73.74485268338671
 20
-113.9091538886234
 10
73.77430824978559
 20
-113.5326049520856
 10
74.26265053481976
 20
-113.5326049520856
 10
74.50225692581888
 20
-113.5326049520856
 10
74.75995006811557
 20
-113.6595567207171
 10
74.75995006811557
 20
-113.9556626776743
 10
74.75995006811557
 20
-114.141870088652
 10
74.6583197513007
 20
-114.2243801255238
 10
74.55203855558075
 20
-114.2857028251612
 10
74.6174953698005
 20
-114.3132635890432
 10
74.81197100994284
 20
-114.3937065686238
 10
74.81197100994284
 20
-114.6708645004122
 10
74.81197100994284
 20
-115.0093451318379
 10
74.54755993144992
 20
-115.1764322628726
 10
74.25128171971843
 20
-115.1764322628726
 97
        0
 97
        0
 75
     2
 76
     1
 98
        0
  0
ENDBLK
  5
C1
330
BE
100
AcDbEntity
  8
0
100
AcDbBlockEnd
  0
BLOCK
  5
D2
330
D0
100
AcDbEntity
  8
0
100
AcDbBlockBegin
  2
block 4
 70
     0
 10
0.0
 20
0.0
 30
0.0
  3
block 4
  1

  0
POLYLINE
  5
D4
330
D0
100
AcDbEntity
  8
_U+30EC_U+30A4_U+30E4_U+30FC 1
370
     0
100
AcDb2dPolyline
 66
     1
 10
0.0
 20
0.0
 30
0.0
  0
VERTEX
  5
D5
330
D4
100
AcDbEntity
  8
_U+30EC_U+30A4_U+30E4_U+30FC 1
370
     0
100
AcDbVertex
100
AcDb2dVertex
 10
92.48599986837156
 20
-110.7796291498225
 30
0.0
  0
VERTEX
  5
D6
330
D4
100
AcDbEntity
  8
_U+30EC_U+30A4_U+30E4_U+30FC 1
370
     0
100
AcDbVertex
100
AcDb2dVertex
 10
92.48599986837156
 20
-111.1265502651871
 30
0.0
  0
VERTEX
  5
D7
330
D4
100
AcDbEntity
  8
_U+30EC_U+30A4_U+30E4_U+30FC 1
370
     0
100
AcDbVertex
100
AcDb2dVertex
 10
92.25311141356867
 20
-111.1265502651871
 30
0.0
  0
VERTEX
  5
D8
330
D4
100
AcDbEntity
  8
_U+30EC_U+30A4_U+30E4_U+30FC 1
370
     0
100
AcDbVertex
100
AcDb2dVertex
 10
92.25311141356867
 20
-110.7796291498225
 30
0.0
  0
VERTEX
  5
D9
330
D4
100
AcDbEntity
  8
_U+30EC_U+30A4_U+30E4_U+30FC 1
370
     0
100
AcDbVertex
100
AcDb2dVertex
 10
91.55237899186885
 20
-110.7796291498225
 30
0.0
  0
VERTEX
  5
DA
330
D4
100
AcDbEntity
  8
_U+30EC_U+30A4_U+30E4_U+30FC 1
370
     0
100
AcDbVertex
100
AcDb2dVertex
 10
91.55237899186885
 20
-110.5553534337327
 30
0.0
  0
VERTEX
  5
DB
330
D4
100
AcDbEntity
  8
_U+30EC_U+30A4_U+30E4_U+30FC 1
370
     0
100
AcDbVertex
100
AcDb2dVertex
 10
92.278260610611
 20
-109.5822862139239
 30
0.0
  0
VERTEX
  5
DC
330
D4
100
AcDbEntity
  8
_U+30EC_U+30A4_U+30E4_U+30FC 1
370
     0
100
AcDbVertex
100
AcDb2dVertex
 10
92.48599986837156
 20
-109.5822862139239
 30
0.0
  0
VERTEX
  5
DD
330
D4
100
AcDbEntity
  8
_U+30EC_U+30A4_U+30E4_U+30FC 1
370
     0
100
AcDbVertex
100
AcDb2dVertex
 10
92.48599986837156
 20
-110.5806748855493
 30
0.0
  0
VERTEX
  5
DE
330
D4
100
AcDbEntity
  8
_U+30EC_U+30A4_U+30E4_U+30FC 1
370
     0
100
AcDbVertex
100
AcDb2dVertex
 10
92.70786401762165
 20
-110.5806748855493
 30
0.0
  0
VERTEX
  5
DF
330
D4
100
AcDbEntity
  8
_U+30EC_U+30A4_U+30E4_U+30FC 1
370
     0
100
AcDbVertex
100
AcDb2dVertex
 10
92.70786401762165
 20
-110.7796291498225
 30
0.0
  0
VERTEX
  5
E0
330
D4
100
AcDbEntity
  8
_U+30EC_U+30A4_U+30E4_U+30FC 1
370
     0
100
AcDbVertex
100
AcDb2dVertex
 10
92.48599986837156
 20
-110.7796291498225
 30
0.0
  0
SEQEND
  5
E1
330
D4
100
AcDbEntity
  8
_U+30EC_U+30A4_U+30E4_U+30FC 1
370
     0
  0
POLYLINE
  5
E2
330
D0
100
AcDbEntity
  8
_U+30EC_U+30A4_U+30E4_U+30FC 1
370
     0
100
AcDb2dPolyline
 66
     1
 10
0.0
 20
0.0
 30
0.0
  0
VERTEX
  5
E3
330
E2
100
AcDbEntity
  8
_U+30EC_U+30A4_U+30E4_U+30FC 1
370
     0
100
AcDbVertex
100
AcDb2dVertex
 10
92.25311141356867
 20
-109.924900959932
 30
0.0
  0
VERTEX
  5
E4
330
E2
100
AcDbEntity
  8
_U+30EC_U+30A4_U+30E4_U+30FC 1
370
     0
100
AcDbVertex
100
AcDb2dVertex
 10
91.76494138330877
 20
-110.5806748855493
 30
0.0
  0
VERTEX
  5
E5
330
E2
100
AcDbEntity
  8
_U+30EC_U+30A4_U+30E4_U+30FC 1
370
     0
100
AcDbVertex
100
AcDb2dVertex
 10
92.25311141356867
 20
-110.5806748855493
 30
0.0
  0
VERTEX
  5
E6
330
E2
100
AcDbEntity
  8
_U+30EC_U+30A4_U+30E4_U+30FC 1
370
     0
100
AcDbVertex
100
AcDb2dVertex
 10
92.25311141356867
 20
-109.924900959932
 30
0.0
  0
SEQEND
  5
E7
330
E2
100
AcDbEntity
  8
_U+30EC_U+30A4_U+30E4_U+30FC 1
370
     0
  0
HATCH
  5
E8
330
D0
100
AcDbEntity
  8
_U+30EC_U+30A4_U+30E4_U+30FC 1
 62
   179
420
  2234388
100
AcDbHatch
 10
0.0
 20
0.0
 30
0.0
210
0.0
220
0.0
230
1.0
  2
SOLID
 70
     1
 71
     0
 91
        2
 92
        1
 93
       11
 72
     1
 10
92.48599986837156
 20
-110.7796291498225
 11
92.48599986837156
 21
-111.1265502651871
 72
     1
 10
92.48599986837156
 20
-111.1265502651871
 11
92.25311141356867
 21
-111.1265502651871
 72
     1
 10
92.25311141356867
 20
-111.1265502651871
 11
92.25311141356867
 21
-110.7796291498225
 72
     1
 10
92.25311141356867
 20
-110.7796291498225
 11
91.55237899186885
 21
-110.7796291498225
 72
     1
 10
91.55237899186885
 20
-110.7796291498225
 11
91.55237899186885
 21
-110.5553534337327
 72
     1
 10
91.55237899186885
 20
-110.5553534337327
 11
92.278260610611
 21
-109.5822862139239
 72
     1
 10
92.278260610611
 20
-109.5822862139239
 11
92.48599986837156
 21
-109.5822862139239
 72
     1
 10
92.48599986837156
 20
-109.5822862139239
 11
92.48599986837156
 21
-110.5806748855493
 72
     1
 10
92.48599986837156
 20
-110.5806748855493
 11
92.70786401762165
 21
-110.5806748855493
 72
     1
 10
92.70786401762165
 20
-110.5806748855493
 11
92.70786401762165
 21
-110.7796291498225
 72
     1
 10
92.70786401762165
 20
-110.7796291498225
 11
92.48599986837156
 21
-110.7796291498225
 97
        0
 92
        1
 93
        3
 72
     1
 10
92.25311141356867
 20
-109.924900959932
 11
91.76494138330877
 21
-110.5806748855493
 72
     1
 10
91.76494138330877
 20
-110.5806748855493
 11
92.25311141356867
 21
-110.5806748855493
 72
     1
 10
92.25311141356867
 20
-110.5806748855493
 11
92.25311141356867
 21
-109.924900959932
 97
        0
 75
     2
 76
     1
 98
        0
  0
SPLINE
  5
E9
330
D0
100
AcDbEntity
  8
_U+30EC_U+30A4_U+30E4_U+30FC 1
370
     0
100
AcDbSpline
210
0.0
220
0.0
230
1.0
 70
    11
 71
     3
 72
    29
 73
    25
 74
     0
 42
0.0000000001
 43
0.0000000001
 12
1.0
 22
0.0
 32
0.0
 13
1.0
 23
0.0
 33
0.0
 40
0.0
 40
0.0
 40
0.0
 40
0.0
 40
1.0
 40
1.0
 40
1.0
 40
2.0
 40
2.0
 40
2.0
 40
3.0
 40
3.0
 40
3.0
 40
4.0
 40
4.0
 40
4.0
 40
5.0
 40
5.0
 40
5.0
 40
6.0
 40
6.0
 40
6.0
 40
7.0
 40
7.0
 40
7.0
 40
8.0
 40
8.0
 40
8.0
 40
8.0
 10
93.81408417793537
 20
-110.9487833381482
 30
0.0
 10
93.6986734791795
 20
-111.1582451436514
 30
0.0
 10
93.51332734207305
 20
-111.1773654235946
 30
0.0
 10
93.38895939505554
 20
-111.1773654235946
 30
0.0
 10
93.21704913034158
 20
-111.1773654235946
 30
0.0
 10
93.0658094385391
 20
-111.1308566345437
 30
0.0
 10
92.96383461217572
 20
-110.9487833381482
 30
0.0
 10
92.85324704709919
 20
-110.7541354432316
 30
0.0
 10
92.83292098373622
 20
-110.5172851286207
 30
0.0
 10
92.83292098373622
 20
-110.3543321121684
 30
0.0
 10
92.83292098373622
 20
-110.2104993756592
 30
0.0
 10
92.85083548025952
 20
-109.9588351504617
 30
0.0
 10
92.96383461217572
 20
-109.7598808861885
 30
0.0
 10
93.07924531093158
 20
-109.556792507333
 30
0.0
 10
93.25115557564556
 20
-109.5335381128076
 30
0.0
 10
93.38895939505554
 20
-109.5335381128076
 30
0.0
 10
93.55845809292984
 20
-109.5335381128076
 30
0.0
 10
93.71210935157198
 20
-109.5779798445673
 30
0.0
 10
93.81408417793537
 20
-109.7598808861885
 30
0.0
 10
93.92019311888107
 20
-109.952461723814
 30
0.0
 10
93.94499780637487
 20
-110.180871554486
 30
0.0
 10
93.94499780637487
 20
-110.3543321121684
 30
0.0
 10
93.94499780637487
 20
-110.5257256125595
 30
0.0
 10
93.92260468572074
 20
-110.756374755297
 30
0.0
 10
93.81408417793537
 20
-110.9487833381482
 30
0.0
  0
SPLINE
  5
EA
330
D0
100
AcDbEntity
  8
_U+30EC_U+30A4_U+30E4_U+30FC 1
370
     0
100
AcDbSpline
210
0.0
220
0.0
230
1.0
 70
    11
 71
     3
 72
    17
 73
    13
 74
     0
 42
0.0000000001
 43
0.0000000001
 12
1.0
 22
0.0
 32
0.0
 13
1.0
 23
0.0
 33
0.0
 40
0.0
 40
0.0
 40
0.0
 40
0.0
 40
1.0
 40
1.0
 40
1.0
 40
2.0
 40
2.0
 40
2.0
 40
3.0
 40
3.0
 40
3.0
 40
4.0
 40
4.0
 40
4.0
 40
4.0
 10
93.38895939505554
 20
-109.7261189504331
 30
0.0
 10
93.12230900449721
 20
-109.7261189504331
 30
0.0
 10
93.07235511996109
 20
-110.0096503088691
 30
0.0
 10
93.07235511996109
 20
-110.3543321121684
 30
0.0
 10
93.07235511996109
 20
-110.6738647184253
 30
0.0
 10
93.11094018939588
 20
-110.9827175286779
 30
0.0
 10
93.38895939505554
 20
-110.9827175286779
 30
0.0
 10
93.65354272832273
 20
-110.9827175286779
 30
0.0
 10
93.70556367015
 20
-110.701253227533
 30
0.0
 10
93.70556367015
 20
-110.3543321121684
 30
0.0
 10
93.70556367015
 20
-110.0349717606857
 30
0.0
 10
93.66491154342405
 20
-109.7261189504331
 30
0.0
 10
93.38895939505554
 20
-109.7261189504331
 30
0.0
  0
HATCH
  5
EB
330
D0
100
AcDbEntity
  8
_U+30EC_U+30A4_U+30E4_U+30FC 1
 62
   179
420
  2234388
100
AcDbHatch
 10
0.0
 20
0.0
 30
0.0
210
0.0
220
0.0
230
1.0
  2
SOLID
 70
     1
 71
     0
 91
        2
 92
        1
 93
        1
 72
     4
 94
        3
 73
     0
 74
     1
 95
       29
 96
       25
 40
0.0
 40
0.0
 40
0.0
 40
0.0
 40
1.0
 40
1.0
 40
1.0
 40
2.0
 40
2.0
 40
2.0
 40
3.0
 40
3.0
 40
3.0
 40
4.0
 40
4.0
 40
4.0
 40
5.0
 40
5.0
 40
5.0
 40
6.0
 40
6.0
 40
6.0
 40
7.0
 40
7.0
 40
7.0
 40
8.0
 40
8.0
 40
8.0
 40
8.0
 10
93.81408417793537
 20
-110.9487833381482
 10
93.6986734791795
 20
-111.1582451436514
 10
93.51332734207305
 20
-111.1773654235946
 10
93.38895939505554
 20
-111.1773654235946
 10
93.21704913034158
 20
-111.1773654235946
 10
93.0658094385391
 20
-111.1308566345437
 10
92.96383461217572
 20
-110.9487833381482
 10
92.85324704709919
 20
-110.7541354432316
 10
92.83292098373622
 20
-110.5172851286207
 10
92.83292098373622
 20
-110.3543321121684
 10
92.83292098373622
 20
-110.2104993756592
 10
92.85083548025952
 20
-109.9588351504617
 10
92.96383461217572
 20
-109.7598808861885
 10
93.07924531093158
 20
-109.556792507333
 10
93.25115557564556
 20
-109.5335381128076
 10
93.38895939505554
 20
-109.5335381128076
 10
93.55845809292984
 20
-109.5335381128076
 10
93.71210935157198
 20
-109.5779798445673
 10
93.81408417793537
 20
-109.7598808861885
 10
93.92019311888107
 20
-109.952461723814
 10
93.94499780637487
 20
-110.180871554486
 10
93.94499780637487
 20
-110.3543321121684
 10
93.94499780637487
 20
-110.5257256125595
 10
93.92260468572074
 20
-110.756374755297
 10
93.81408417793537
 20
-110.9487833381482
 97
        0
 97
        0
 92
        1
 93
        1
 72
     4
 94
        3
 73
     0
 74
     1
 95
       17
 96
       13
 40
0.0
 40
0.0
 40
0.0
 40
0.0
 40
1.0
 40
1.0
 40
1.0
 40
2.0
 40
2.0
 40
2.0
 40
3.0
 40
3.0
 40
3.0
 40
4.0
 40
4.0
 40
4.0
 40
4.0
 10
93.38895939505554
 20
-109.7261189504331
 10
93.12230900449721
 20
-109.7261189504331
 10
93.07235511996109
 20
-110.0096503088691
 10
93.07235511996109
 20
-110.3543321121684
 10
93.07235511996109
 20
-110.6738647184253
 10
93.11094018939588
 20
-110.9827175286779
 10
93.38895939505554
 20
-110.9827175286779
 10
93.65354272832273
 20
-110.9827175286779
 10
93.70556367015
 20
-110.701253227533
 10
93.70556367015
 20
-110.3543321121684
 10
93.70556367015
 20
-110.0349717606857
 10
93.66491154342405
 20
-109.7261189504331
 10
93.38895939505554
 20
-109.7261189504331
 97
        0
 97
        0
 75
     2
 76
     1
 98
        0
  0
ENDBLK
  5
D3
330
D0
100
AcDbEntity
  8
0
100
AcDbBlockEnd
  0
BLOCK
  5
FA
330
F8
100
AcDbEntity
  8
0
100
AcDbBlockBegin
  2
block 5
 70
     0
 10
0.0
 20
0.0
 30
0.0
  3
block 5
  1

  0
SPLINE
  5
FC
330
F8
100
AcDbEntity
  8
_U+30EC_U+30A4_U+30E4_U+30FC 1
370
     0
100
AcDbSpline
210
0.0
220
0.0
230
1.0
 70
    11
 71
     3
 72
    26
 73
    22
 74
     0
 42
0.0000000001
 43
0.0000000001
 12
1.0
 22
0.0
 32
0.0
 13
1.0
 23
0.0
 33
0.0
 40
0.0
 40
0.0
 40
0.0
 40
0.0
 40
1.0
 40
1.0
 40
1.0
 40
2.0
 40
2.0
 40
2.0
 40
3.0
 40
3.0
 40
3.0
 40
4.0
 40
4.0
 40
4.0
 40
5.0
 40
5.0
 40
5.0
 40
6.0
 40
6.0
 40
6.0
 40
7.0
 40
7.0
 40
7.0
 40
7.0
 10
77.07936060356002
 20
-147.1262477930796
 30
0.0
 10
77.07936060356002
 20
-147.1262477930796
 30
0.0
 10
77.07936060356002
 20
-146.022094690057
 30
0.0
 10
77.07936060356002
 20
-146.022094690057
 30
0.0
 10
77.07936060356002
 20
-146.022094690057
 30
0.0
 10
76.72658282587044
 20
-146.022094690057
 30
0.0
 10
76.72658282587044
 20
-146.022094690057
 30
0.0
 10
76.72658282587044
 20
-146.022094690057
 30
0.0
 10
76.72658282587044
 20
-145.8739555841912
 30
0.0
 10
76.72658282587044
 20
-145.8739555841912
 30
0.0
 10
77.08159991562543
 20
-145.8591416736047
 30
0.0
 10
77.1313815453873
 20
-145.6961886571524
 30
0.0
 10
77.16307642385159
 20
-145.581811487042
 30
0.0
 10
77.16307642385159
 20
-145.581811487042
 30
0.0
 10
77.31896699455915
 20
-145.581811487042
 30
0.0
 10
77.31896699455915
 20
-145.581811487042
 30
0.0
 10
77.31896699455915
 20
-145.581811487042
 30
0.0
 10
77.31896699455915
 20
-147.1262477930796
 30
0.0
 10
77.31896699455915
 20
-147.1262477930796
 30
0.0
 10
77.31896699455915
 20
-147.1262477930796
 30
0.0
 10
77.07936060356002
 20
-147.1262477930796
 30
0.0
 10
77.07936060356002
 20
-147.1262477930796
 30
0.0
  0
HATCH
  5
FD
330
F8
100
AcDbEntity
  8
_U+30EC_U+30A4_U+30E4_U+30FC 1
 62
   179
420
  2234388
100
AcDbHatch
 10
0.0
 20
0.0
 30
0.0
210
0.0
220
0.0
230
1.0
  2
SOLID
 70
     1
 71
     0
 91
        1
 92
        1
 93
        1
 72
     4
 94
        3
 73
     0
 74
     1
 95
       26
 96
       22
 40
0.0
 40
0.0
 40
0.0
 40
0.0
 40
1.0
 40
1.0
 40
1.0
 40
2.0
 40
2.0
 40
2.0
 40
3.0
 40
3.0
 40
3.0
 40
4.0
 40
4.0
 40
4.0
 40
5.0
 40
5.0
 40
5.0
 40
6.0
 40
6.0
 40
6.0
 40
7.0
 40
7.0
 40
7.0
 40
7.0
 10
77.07936060356002
 20
-147.1262477930796
 10
77.07936060356002
 20
-147.1262477930796
 10
77.07936060356002
 20
-146.022094690057
 10
77.07936060356002
 20
-146.022094690057
 10
77.07936060356002
 20
-146.022094690057
 10
76.72658282587044
 20
-146.022094690057
 10
76.72658282587044
 20
-146.022094690057
 10
76.72658282587044
 20
-146.022094690057
 10
76.72658282587044
 20
-145.8739555841912
 10
76.72658282587044
 20
-145.8739555841912
 10
77.08159991562543
 20
-145.8591416736047
 10
77.1313815453873
 20
-145.6961886571524
 10
77.16307642385159
 20
-145.581811487042
 10
77.16307642385159
 20
-145.581811487042
 10
77.31896699455915
 20
-145.581811487042
 10
77.31896699455915
 20
-145.581811487042
 10
77.31896699455915
 20
-145.581811487042
 10
77.31896699455915
 20
-147.1262477930796
 10
77.31896699455915
 20
-147.1262477930796
 10
77.31896699455915
 20
-147.1262477930796
 10
77.07936060356002
 20
-147.1262477930796
 10
77.07936060356002
 20
-147.1262477930796
 97
        0
 97
        0
 75
     2
 76
     1
 98
        0
  0
SPLINE
  5
FE
330
F8
100
AcDbEntity
  8
_U+30EC_U+30A4_U+30E4_U+30FC 1
370
     0
100
AcDbSpline
210
0.0
220
0.0
230
1.0
 70
    11
 71
     3
 72
    29
 73
    25
 74
     0
 42
0.0000000001
 43
0.0000000001
 12
1.0
 22
0.0
 32
0.0
 13
1.0
 23
0.0
 33
0.0
 40
0.0
 40
0.0
 40
0.0
 40
0.0
 40
1.0
 40
1.0
 40
1.0
 40
2.0
 40
2.0
 40
2.0
 40
3.0
 40
3.0
 40
3.0
 40
4.0
 40
4.0
 40
4.0
 40
5.0
 40
5.0
 40
5.0
 40
6.0
 40
6.0
 40
6.0
 40
7.0
 40
7.0
 40
7.0
 40
8.0
 40
8.0
 40
8.0
 40
8.0
 10
78.81413843515757
 20
-146.9484808660407
 30
0.0
 10
78.69889999117598
 20
-147.1579426715439
 30
0.0
 10
78.51355385406953
 20
-147.1768906967127
 30
0.0
 10
78.38918590705201
 20
-147.1768906967127
 30
0.0
 10
78.21727564233805
 20
-147.1768906967127
 30
0.0
 10
78.06586369576131
 20
-147.1303819076618
 30
0.0
 10
77.96406112417218
 20
-146.9484808660407
 30
0.0
 10
77.8533013043214
 20
-146.753832971124
 30
0.0
 10
77.83297524095843
 20
-146.5171549112874
 30
0.0
 10
77.83297524095843
 20
-146.3542018948351
 30
0.0
 10
77.83297524095843
 20
-146.2101969035516
 30
0.0
 10
77.85106199225599
 20
-145.9583604235798
 30
0.0
 10
77.96406112417218
 20
-145.7595784140809
 30
0.0
 10
78.07947182292806
 20
-145.5566622899997
 30
0.0
 10
78.25120983286776
 20
-145.5332356407
 30
0.0
 10
78.38918590705201
 20
-145.5332356407
 30
0.0
 10
78.5586846049263
 20
-145.5332356407
 30
0.0
 10
78.71250811834271
 20
-145.5776773724598
 30
0.0
 10
78.81413843515757
 20
-145.7595784140809
 30
0.0
 10
78.92041963087753
 20
-145.9521592517064
 30
0.0
 10
78.94522431837133
 20
-146.1805690823785
 30
0.0
 10
78.94522431837133
 20
-146.3542018948351
 30
0.0
 10
78.94522431837133
 20
-146.525423140452
 30
0.0
 10
78.92265894294295
 20
-146.7559000284152
 30
0.0
 10
78.81413843515757
 20
-146.9484808660407
 30
0.0
  0
SPLINE
  5
FF
330
F8
100
AcDbEntity
  8
_U+30EC_U+30A4_U+30E4_U+30FC 1
370
     0
100
AcDbSpline
210
0.0
220
0.0
230
1.0
 70
    11
 71
     3
 72
    17
 73
    13
 74
     0
 42
0.0000000001
 43
0.0000000001
 12
1.0
 22
0.0
 32
0.0
 13
1.0
 23
0.0
 33
0.0
 40
0.0
 40
0.0
 40
0.0
 40
0.0
 40
1.0
 40
1.0
 40
1.0
 40
2.0
 40
2.0
 40
2.0
 40
3.0
 40
3.0
 40
3.0
 40
4.0
 40
4.0
 40
4.0
 40
4.0
 10
78.38918590705201
 20
-145.7258164783255
 30
0.0
 10
78.12236326171941
 20
-145.7258164783255
 30
0.0
 10
78.07258163195755
 20
-146.0093478367615
 30
0.0
 10
78.07258163195755
 20
-146.3542018948351
 30
0.0
 10
78.07258163195755
 20
-146.6735622463177
 30
0.0
 10
78.1109944466181
 20
-146.9822428017961
 30
0.0
 10
78.38918590705201
 20
-146.9822428017961
 30
0.0
 10
78.65359698554494
 20
-146.9822428017961
 30
0.0
 10
78.70561792737222
 20
-146.7011230101997
 30
0.0
 10
78.70561792737222
 20
-146.3542018948351
 30
0.0
 10
78.70561792737222
 20
-146.0344970338039
 30
0.0
 10
78.66496580064626
 20
-145.7258164783255
 30
0.0
 10
78.38918590705201
 20
-145.7258164783255
 30
0.0
  0
HATCH
  5
100
330
F8
100
AcDbEntity
  8
_U+30EC_U+30A4_U+30E4_U+30FC 1
 62
   179
420
  2234388
100
AcDbHatch
 10
0.0
 20
0.0
 30
0.0
210
0.0
220
0.0
230
1.0
  2
SOLID
 70
     1
 71
     0
 91
        2
 92
        1
 93
        1
 72
     4
 94
        3
 73
     0
 74
     1
 95
       29
 96
       25
 40
0.0
 40
0.0
 40
0.0
 40
0.0
 40
1.0
 40
1.0
 40
1.0
 40
2.0
 40
2.0
 40
2.0
 40
3.0
 40
3.0
 40
3.0
 40
4.0
 40
4.0
 40
4.0
 40
5.0
 40
5.0
 40
5.0
 40
6.0
 40
6.0
 40
6.0
 40
7.0
 40
7.0
 40
7.0
 40
8.0
 40
8.0
 40
8.0
 40
8.0
 10
78.81413843515757
 20
-146.9484808660407
 10
78.69889999117598
 20
-147.1579426715439
 10
78.51355385406953
 20
-147.1768906967127
 10
78.38918590705201
 20
-147.1768906967127
 10
78.21727564233805
 20
-147.1768906967127
 10
78.06586369576131
 20
-147.1303819076618
 10
77.96406112417218
 20
-146.9484808660407
 10
77.8533013043214
 20
-146.753832971124
 10
77.83297524095843
 20
-146.5171549112874
 10
77.83297524095843
 20
-146.3542018948351
 10
77.83297524095843
 20
-146.2101969035516
 10
77.85106199225599
 20
-145.9583604235798
 10
77.96406112417218
 20
-145.7595784140809
 10
78.07947182292806
 20
-145.5566622899997
 10
78.25120983286776
 20
-145.5332356407
 10
78.38918590705201
 20
-145.5332356407
 10
78.5586846049263
 20
-145.5332356407
 10
78.71250811834271
 20
-145.5776773724598
 10
78.81413843515757
 20
-145.7595784140809
 10
78.92041963087753
 20
-145.9521592517064
 10
78.94522431837133
 20
-146.1805690823785
 10
78.94522431837133
 20
-146.3542018948351
 10
78.94522431837133
 20
-146.525423140452
 10
78.92265894294295
 20
-146.7559000284152
 10
78.81413843515757
 20
-146.9484808660407
 97
        0
 97
        0
 92
        1
 93
        1
 72
     4
 94
        3
 73
     0
 74
     1
 95
       17
 96
       13
 40
0.0
 40
0.0
 40
0.0
 40
0.0
 40
1.0
 40
1.0
 40
1.0
 40
2.0
 40
2.0
 40
2.0
 40
3.0
 40
3.0
 40
3.0
 40
4.0
 40
4.0
 40
4.0
 40
4.0
 10
78.38918590705201
 20
-145.7258164783255
 10
78.12236326171941
 20
-145.7258164783255
 10
78.07258163195755
 20
-146.0093478367615
 10
78.07258163195755
 20
-146.3542018948351
 10
78.07258163195755
 20
-146.6735622463177
 10
78.1109944466181
 20
-146.9822428017961
 10
78.38918590705201
 20
-146.9822428017961
 10
78.65359698554494
 20
-146.9822428017961
 10
78.70561792737222
 20
-146.7011230101997
 10
78.70561792737222
 20
-146.3542018948351
 10
78.70561792737222
 20
-146.0344970338039
 10
78.66496580064626
 20
-145.7258164783255
 10
78.38918590705201
 20
-145.7258164783255
 97
        0
 97
        0
 75
     2
 76
     1
 98
        0
  0
ENDBLK
  5
FB
330
F8
100
AcDbEntity
  8
0
100
AcDbBlockEnd
  0
BLOCK
  5
10F
330
10D
100
AcDbEntity
  8
0
100
AcDbBlockBegin
  2
block 6
 70
     0
 10
0.0
 20
0.0
 30
0.0
  3
block 6
  1

  0
SPLINE
  5
111
330
10D
100
AcDbEntity
  8
_U+30EC_U+30A4_U+30E4_U+30FC 1
370
     0
100
AcDbSpline
210
0.0
220
0.0
230
1.0
 70
    11
 71
     3
 72
    44
 73
    40
 74
     0
 42
0.0000000001
 43
0.0000000001
 12
1.0
 22
0.0
 32
0.0
 13
1.0
 23
0.0
 33
0.0
 40
0.0
 40
0.0
 40
0.0
 40
0.0
 40
1.0
 40
1.0
 40
1.0
 40
2.0
 40
2.0
 40
2.0
 40
3.0
 40
3.0
 40
3.0
 40
4.0
 40
4.0
 40
4.0
 40
5.0
 40
5.0
 40
5.0
 40
6.0
 40
6.0
 40
6.0
 40
7.0
 40
7.0
 40
7.0
 40
8.0
 40
8.0
 40
8.0
 40
9.0
 40
9.0
 40
9.0
 40
10.0
 40
10.0
 40
10.0
 40
11.0
 40
11.0
 40
11.0
 40
12.0
 40
12.0
 40
12.0
 40
13.0
 40
13.0
 40
13.0
 40
13.0
 10
66.75320365084643
 20
-132.3030354486951
 30
0.0
 10
66.91202255271644
 20
-132.535923903498
 30
0.0
 10
66.98609210564932
 20
-132.6354871630217
 30
0.0
 10
67.12975258738423
 20
-132.6871635953004
 30
0.0
 10
67.12975258738423
 20
-132.6871635953004
 30
0.0
 10
67.12975258738423
 20
-131.8555175451611
 30
0.0
 10
67.12975258738423
 20
-131.8555175451611
 30
0.0
 10
67.12975258738423
 20
-131.8555175451611
 30
0.0
 10
67.33508027830513
 20
-131.8555175451611
 30
0.0
 10
67.33508027830513
 20
-131.8555175451611
 30
0.0
 10
67.33508027830513
 20
-131.8555175451611
 30
0.0
 10
67.33508027830513
 20
-132.9541584954073
 30
0.0
 10
67.33508027830513
 20
-132.9541584954073
 30
0.0
 10
66.9774793669362
 20
-132.9200520501033
 30
0.0
 10
66.89927569942101
 20
-132.8501166117528
 30
0.0
 10
66.60093043039838
 20
-132.4387722108139
 30
0.0
 10
66.40214842089947
 20
-132.1652316292851
 30
0.0
 10
66.33428003984004
 20
-132.094951681386
 30
0.0
 10
66.19682072997857
 20
-132.094951681386
 30
0.0
 10
66.07830944528598
 20
-132.094951681386
 30
0.0
 10
65.94739581684648
 20
-132.1717773107071
 30
0.0
 10
65.94739581684648
 20
-132.3822726448558
 30
0.0
 10
65.94739581684648
 20
-132.6602918505155
 30
0.0
 10
66.1778727048097
 20
-132.6692490987771
 30
0.0
 10
66.29431693221115
 20
-132.673727722908
 30
0.0
 10
66.29431693221115
 20
-132.673727722908
 30
0.0
 10
66.29431693221115
 20
-132.9135063686813
 30
0.0
 10
66.29431693221115
 20
-132.9135063686813
 30
0.0
 10
66.16719290880543
 20
-132.9042046108712
 30
0.0
 10
66.05522730553481
 20
-132.8931803053184
 30
0.0
 10
65.93671602084221
 20
-132.8070529181871
 30
0.0
 10
65.77583006168105
 20
-132.6895751621401
 30
0.0
 10
65.7420681259256
 20
-132.4907931526412
 30
0.0
 10
65.7420681259256
 20
-132.3664252056237
 30
0.0
 10
65.7420681259256
 20
-132.0701469938922
 30
0.0
 10
65.92603622483794
 20
-131.8486273541906
 30
0.0
 10
66.19888778726973
 20
-131.8486273541906
 30
0.0
 10
66.42764212749032
 20
-131.8486273541906
 30
0.0
 10
66.52686087746551
 20
-131.9729953012082
 30
0.0
 10
66.75320365084643
 20
-132.3030354486951
 30
0.0
  0
HATCH
  5
112
330
10D
100
AcDbEntity
  8
_U+30EC_U+30A4_U+30E4_U+30FC 1
 62
   179
420
  2234388
100
AcDbHatch
 10
0.0
 20
0.0
 30
0.0
210
0.0
220
0.0
230
1.0
  2
SOLID
 70
     1
 71
     0
 91
        1
 92
        1
 93
        1
 72
     4
 94
        3
 73
     0
 74
     1
 95
       44
 96
       40
 40
0.0
 40
0.0
 40
0.0
 40
0.0
 40
1.0
 40
1.0
 40
1.0
 40
2.0
 40
2.0
 40
2.0
 40
3.0
 40
3.0
 40
3.0
 40
4.0
 40
4.0
 40
4.0
 40
5.0
 40
5.0
 40
5.0
 40
6.0
 40
6.0
 40
6.0
 40
7.0
 40
7.0
 40
7.0
 40
8.0
 40
8.0
 40
8.0
 40
9.0
 40
9.0
 40
9.0
 40
10.0
 40
10.0
 40
10.0
 40
11.0
 40
11.0
 40
11.0
 40
12.0
 40
12.0
 40
12.0
 40
13.0
 40
13.0
 40
13.0
 40
13.0
 10
66.75320365084643
 20
-132.3030354486951
 10
66.91202255271644
 20
-132.535923903498
 10
66.98609210564932
 20
-132.6354871630217
 10
67.12975258738423
 20
-132.6871635953004
 10
67.12975258738423
 20
-132.6871635953004
 10
67.12975258738423
 20
-131.8555175451611
 10
67.12975258738423
 20
-131.8555175451611
 10
67.12975258738423
 20
-131.8555175451611
 10
67.33508027830513
 20
-131.8555175451611
 10
67.33508027830513
 20
-131.8555175451611
 10
67.33508027830513
 20
-131.8555175451611
 10
67.33508027830513
 20
-132.9541584954073
 10
67.33508027830513
 20
-132.9541584954073
 10
66.9774793669362
 20
-132.9200520501033
 10
66.89927569942101
 20
-132.8501166117528
 10
66.60093043039838
 20
-132.4387722108139
 10
66.40214842089947
 20
-132.1652316292851
 10
66.33428003984004
 20
-132.094951681386
 10
66.19682072997857
 20
-132.094951681386
 10
66.07830944528598
 20
-132.094951681386
 10
65.94739581684648
 20
-132.1717773107071
 10
65.94739581684648
 20
-132.3822726448558
 10
65.94739581684648
 20
-132.6602918505155
 10
66.1778727048097
 20
-132.6692490987771
 10
66.29431693221115
 20
-132.673727722908
 10
66.29431693221115
 20
-132.673727722908
 10
66.29431693221115
 20
-132.9135063686813
 10
66.29431693221115
 20
-132.9135063686813
 10
66.16719290880543
 20
-132.9042046108712
 10
66.05522730553481
 20
-132.8931803053184
 10
65.93671602084221
 20
-132.8070529181871
 10
65.77583006168105
 20
-132.6895751621401
 10
65.7420681259256
 20
-132.4907931526412
 10
65.7420681259256
 20
-132.3664252056237
 10
65.7420681259256
 20
-132.0701469938922
 10
65.92603622483794
 20
-131.8486273541906
 10
66.19888778726973
 20
-131.8486273541906
 10
66.42764212749032
 20
-131.8486273541906
 10
66.52686087746551
 20
-131.9729953012082
 10
66.75320365084643
 20
-132.3030354486951
 97
        0
 97
        0
 75
     2
 76
     1
 98
        0
  0
POLYLINE
  5
113
330
10D
100
AcDbEntity
  8
_U+30EC_U+30A4_U+30E4_U+30FC 1
370
     0
100
AcDb2dPolyline
 66
     1
 10
0.0
 20
0.0
 30
0.0
  0
VERTEX
  5
114
330
113
100
AcDbEntity
  8
_U+30EC_U+30A4_U+30E4_U+30FC 1
370
     0
100
AcDbVertex
100
AcDb2dVertex
 10
66.98815916294046
 20
-130.7896050020248
 30
0.0
  0
VERTEX
  5
115
330
113
100
AcDbEntity
  8
_U+30EC_U+30A4_U+30E4_U+30FC 1
370
     0
100
AcDbVertex
100
AcDb2dVertex
 10
67.33508027830513
 20
-130.7896050020248
 30
0.0
  0
VERTEX
  5
116
330
113
100
AcDbEntity
  8
_U+30EC_U+30A4_U+30E4_U+30FC 1
370
     0
100
AcDbVertex
100
AcDb2dVertex
 10
67.33508027830513
 20
-131.0224934568277
 30
0.0
  0
VERTEX
  5
117
330
113
100
AcDbEntity
  8
_U+30EC_U+30A4_U+30E4_U+30FC 1
370
     0
100
AcDbVertex
100
AcDb2dVertex
 10
66.98815916294046
 20
-131.0224934568277
 30
0.0
  0
VERTEX
  5
118
330
113
100
AcDbEntity
  8
_U+30EC_U+30A4_U+30E4_U+30FC 1
370
     0
100
AcDbVertex
100
AcDb2dVertex
 10
66.98815916294046
 20
-131.7235703880761
 30
0.0
  0
VERTEX
  5
119
330
113
100
AcDbEntity
  8
_U+30EC_U+30A4_U+30E4_U+30FC 1
370
     0
100
AcDbVertex
100
AcDb2dVertex
 10
66.7638834468507
 20
-131.7235703880761
 30
0.0
  0
VERTEX
  5
11A
330
113
100
AcDbEntity
  8
_U+30EC_U+30A4_U+30E4_U+30FC 1
370
     0
100
AcDbVertex
100
AcDb2dVertex
 10
65.79064397226762
 20
-130.9976887693339
 30
0.0
  0
VERTEX
  5
11B
330
113
100
AcDbEntity
  8
_U+30EC_U+30A4_U+30E4_U+30FC 1
370
     0
100
AcDbVertex
100
AcDb2dVertex
 10
65.79064397226762
 20
-130.7896050020248
 30
0.0
  0
VERTEX
  5
11C
330
113
100
AcDbEntity
  8
_U+30EC_U+30A4_U+30E4_U+30FC 1
370
     0
100
AcDbVertex
100
AcDb2dVertex
 10
66.78937715344155
 20
-130.7896050020248
 30
0.0
  0
VERTEX
  5
11D
330
113
100
AcDbEntity
  8
_U+30EC_U+30A4_U+30E4_U+30FC 1
370
     0
100
AcDbVertex
100
AcDb2dVertex
 10
66.78937715344155
 20
-130.5680853623233
 30
0.0
  0
VERTEX
  5
11E
330
113
100
AcDbEntity
  8
_U+30EC_U+30A4_U+30E4_U+30FC 1
370
     0
100
AcDbVertex
100
AcDb2dVertex
 10
66.98815916294046
 20
-130.5680853623233
 30
0.0
  0
VERTEX
  5
11F
330
113
100
AcDbEntity
  8
_U+30EC_U+30A4_U+30E4_U+30FC 1
370
     0
100
AcDbVertex
100
AcDb2dVertex
 10
66.98815916294046
 20
-130.7896050020248
 30
0.0
  0
SEQEND
  5
120
330
113
100
AcDbEntity
  8
_U+30EC_U+30A4_U+30E4_U+30FC 1
370
     0
  0
POLYLINE
  5
121
330
10D
100
AcDbEntity
  8
_U+30EC_U+30A4_U+30E4_U+30FC 1
370
     0
100
AcDb2dPolyline
 66
     1
 10
0.0
 20
0.0
 30
0.0
  0
VERTEX
  5
122
330
121
100
AcDbEntity
  8
_U+30EC_U+30A4_U+30E4_U+30FC 1
370
     0
100
AcDbVertex
100
AcDb2dVertex
 10
66.13343097304998
 20
-131.0224934568277
 30
0.0
  0
VERTEX
  5
123
330
121
100
AcDbEntity
  8
_U+30EC_U+30A4_U+30E4_U+30FC 1
370
     0
100
AcDbVertex
100
AcDb2dVertex
 10
66.78937715344155
 20
-131.5110079966362
 30
0.0
  0
VERTEX
  5
124
330
121
100
AcDbEntity
  8
_U+30EC_U+30A4_U+30E4_U+30FC 1
370
     0
100
AcDbVertex
100
AcDb2dVertex
 10
66.78937715344155
 20
-131.0224934568277
 30
0.0
  0
VERTEX
  5
125
330
121
100
AcDbEntity
  8
_U+30EC_U+30A4_U+30E4_U+30FC 1
370
     0
100
AcDbVertex
100
AcDb2dVertex
 10
66.13343097304998
 20
-131.0224934568277
 30
0.0
  0
SEQEND
  5
126
330
121
100
AcDbEntity
  8
_U+30EC_U+30A4_U+30E4_U+30FC 1
370
     0
  0
HATCH
  5
127
330
10D
100
AcDbEntity
  8
_U+30EC_U+30A4_U+30E4_U+30FC 1
 62
   179
420
  2234388
100
AcDbHatch
 10
0.0
 20
0.0
 30
0.0
210
0.0
220
0.0
230
1.0
  2
SOLID
 70
     1
 71
     0
 91
        2
 92
        1
 93
       11
 72
     1
 10
66.98815916294046
 20
-130.7896050020248
 11
67.33508027830513
 21
-130.7896050020248
 72
     1
 10
67.33508027830513
 20
-130.7896050020248
 11
67.33508027830513
 21
-131.0224934568277
 72
     1
 10
67.33508027830513
 20
-131.0224934568277
 11
66.98815916294046
 21
-131.0224934568277
 72
     1
 10
66.98815916294046
 20
-131.0224934568277
 11
66.98815916294046
 21
-131.7235703880761
 72
     1
 10
66.98815916294046
 20
-131.7235703880761
 11
66.7638834468507
 21
-131.7235703880761
 72
     1
 10
66.7638834468507
 20
-131.7235703880761
 11
65.79064397226762
 21
-130.9976887693339
 72
     1
 10
65.79064397226762
 20
-130.9976887693339
 11
65.79064397226762
 21
-130.7896050020248
 72
     1
 10
65.79064397226762
 20
-130.7896050020248
 11
66.78937715344155
 21
-130.7896050020248
 72
     1
 10
66.78937715344155
 20
-130.7896050020248
 11
66.78937715344155
 21
-130.5680853623233
 72
     1
 10
66.78937715344155
 20
-130.5680853623233
 11
66.98815916294046
 21
-130.5680853623233
 72
     1
 10
66.98815916294046
 20
-130.5680853623233
 11
66.98815916294046
 21
-130.7896050020248
 97
        0
 92
        1
 93
        3
 72
     1
 10
66.13343097304998
 20
-131.0224934568277
 11
66.78937715344155
 21
-131.5110079966362
 72
     1
 10
66.78937715344155
 20
-131.5110079966362
 11
66.78937715344155
 21
-131.0224934568277
 72
     1
 10
66.78937715344155
 20
-131.0224934568277
 11
66.13343097304998
 21
-131.0224934568277
 97
        0
 75
     2
 76
     1
 98
        0
  0
ENDBLK
  5
110
330
10D
100
AcDbEntity
  8
0
100
AcDbBlockEnd
  0
BLOCK
  5
132
330
130
100
AcDbEntity
  8
0
100
AcDbBlockBegin
  2
block 7
 70
     0
 10
0.0
 20
0.0
 30
0.0
  3
block 7
  1

  0
SPLINE
  5
134
330
130
100
AcDbEntity
  8
_U+30EC_U+30A4_U+30E4_U+30FC 1
370
     0
100
AcDbSpline
210
0.0
220
0.0
230
1.0
 70
    11
 71
     3
 72
    26
 73
    22
 74
     0
 42
0.0000000001
 43
0.0000000001
 12
1.0
 22
0.0
 32
0.0
 13
1.0
 23
0.0
 33
0.0
 40
0.0
 40
0.0
 40
0.0
 40
0.0
 40
1.0
 40
1.0
 40
1.0
 40
2.0
 40
2.0
 40
2.0
 40
3.0
 40
3.0
 40
3.0
 40
4.0
 40
4.0
 40
4.0
 40
5.0
 40
5.0
 40
5.0
 40
6.0
 40
6.0
 40
6.0
 40
7.0
 40
7.0
 40
7.0
 40
7.0
 10
116.1145317635061
 20
-134.9543809341434
 30
0.0
 10
116.1145317635061
 20
-134.9543809341434
 30
0.0
 10
115.0103786604835
 20
-134.9543809341434
 30
0.0
 10
115.0103786604835
 20
-134.9543809341434
 30
0.0
 10
115.0103786604835
 20
-134.9543809341434
 30
0.0
 10
115.0103786604835
 20
-135.3068142022844
 30
0.0
 10
115.0103786604835
 20
-135.3068142022844
 30
0.0
 10
115.0103786604835
 20
-135.3068142022844
 30
0.0
 10
114.8622395546178
 20
-135.3068142022844
 30
0.0
 10
114.8622395546178
 20
-135.3068142022844
 30
0.0
 10
114.8474256440312
 20
-134.9519693673037
 30
0.0
 10
114.6844726275789
 20
-134.9023599923161
 30
0.0
 10
114.5700954574686
 20
-134.8706651138518
 30
0.0
 10
114.5700954574686
 20
-134.8706651138518
 30
0.0
 10
114.5700954574686
 20
-134.71460228837
 30
0.0
 10
114.5700954574686
 20
-134.71460228837
 30
0.0
 10
114.5700954574686
 20
-134.71460228837
 30
0.0
 10
116.1145317635061
 20
-134.71460228837
 30
0.0
 10
116.1145317635061
 20
-134.71460228837
 30
0.0
 10
116.1145317635061
 20
-134.71460228837
 30
0.0
 10
116.1145317635061
 20
-134.9543809341434
 30
0.0
 10
116.1145317635061
 20
-134.9543809341434
 30
0.0
  0
HATCH
  5
135
330
130
100
AcDbEntity
  8
_U+30EC_U+30A4_U+30E4_U+30FC 1
 62
   179
420
  2234388
100
AcDbHatch
 10
0.0
 20
0.0
 30
0.0
210
0.0
220
0.0
230
1.0
  2
SOLID
 70
     1
 71
     0
 91
        1
 92
        1
 93
        1
 72
     4
 94
        3
 73
     0
 74
     1
 95
       26
 96
       22
 40
0.0
 40
0.0
 40
0.0
 40
0.0
 40
1.0
 40
1.0
 40
1.0
 40
2.0
 40
2.0
 40
2.0
 40
3.0
 40
3.0
 40
3.0
 40
4.0
 40
4.0
 40
4.0
 40
5.0
 40
5.0
 40
5.0
 40
6.0
 40
6.0
 40
6.0
 40
7.0
 40
7.0
 40
7.0
 40
7.0
 10
116.1145317635061
 20
-134.9543809341434
 10
116.1145317635061
 20
-134.9543809341434
 10
115.0103786604835
 20
-134.9543809341434
 10
115.0103786604835
 20
-134.9543809341434
 10
115.0103786604835
 20
-134.9543809341434
 10
115.0103786604835
 20
-135.3068142022844
 10
115.0103786604835
 20
-135.3068142022844
 10
115.0103786604835
 20
-135.3068142022844
 10
114.8622395546178
 20
-135.3068142022844
 10
114.8622395546178
 20
-135.3068142022844
 10
114.8474256440312
 20
-134.9519693673037
 10
114.6844726275789
 20
-134.9023599923161
 10
114.5700954574686
 20
-134.8706651138518
 10
114.5700954574686
 20
-134.8706651138518
 10
114.5700954574686
 20
-134.71460228837
 10
114.5700954574686
 20
-134.71460228837
 10
114.5700954574686
 20
-134.71460228837
 10
116.1145317635061
 20
-134.71460228837
 10
116.1145317635061
 20
-134.71460228837
 10
116.1145317635061
 20
-134.71460228837
 10
116.1145317635061
 20
-134.9543809341434
 10
116.1145317635061
 20
-134.9543809341434
 97
        0
 97
        0
 75
     2
 76
     1
 98
        0
  0
SPLINE
  5
136
330
130
100
AcDbEntity
  8
_U+30EC_U+30A4_U+30E4_U+30FC 1
370
     0
100
AcDbSpline
210
0.0
220
0.0
230
1.0
 70
    11
 71
     3
 72
    62
 73
    58
 74
     0
 42
0.0000000001
 43
0.0000000001
 12
1.0
 22
0.0
 32
0.0
 13
1.0
 23
0.0
 33
0.0
 40
0.0
 40
0.0
 40
0.0
 40
0.0
 40
1.0
 40
1.0
 40
1.0
 40
2.0
 40
2.0
 40
2.0
 40
3.0
 40
3.0
 40
3.0
 40
4.0
 40
4.0
 40
4.0
 40
5.0
 40
5.0
 40
5.0
 40
6.0
 40
6.0
 40
6.0
 40
7.0
 40
7.0
 40
7.0
 40
8.0
 40
8.0
 40
8.0
 40
9.0
 40
9.0
 40
9.0
 40
10.0
 40
10.0
 40
10.0
 40
11.0
 40
11.0
 40
11.0
 40
12.0
 40
12.0
 40
12.0
 40
13.0
 40
13.0
 40
13.0
 40
14.0
 40
14.0
 40
14.0
 40
15.0
 40
15.0
 40
15.0
 40
16.0
 40
16.0
 40
16.0
 40
17.0
 40
17.0
 40
17.0
 40
18.0
 40
18.0
 40
18.0
 40
19.0
 40
19.0
 40
19.0
 40
19.0
 10
116.1651746671393
 20
-133.653512878913
 30
0.0
 10
116.1651746671393
 20
-133.7551431957279
 30
0.0
 10
116.1441595846792
 20
-133.9880316505308
 30
0.0
 10
115.9581244284758
 20
-134.1213568458099
 30
0.0
 10
115.8458143156566
 20
-134.2005940419707
 30
0.0
 10
115.7465955656814
 20
-134.2050726661015
 30
0.0
 10
115.6618462167443
 20
-134.2095512902323
 30
0.0
 10
115.6618462167443
 20
-134.2095512902323
 30
0.0
 10
115.6618462167443
 20
-133.9745957781383
 30
0.0
 10
115.6618462167443
 20
-133.9745957781383
 30
0.0
 10
115.7359157696771
 20
-133.9721842112986
 30
0.0
 10
115.9705267722227
 20
-133.9608153961973
 30
0.0
 10
115.9705267722227
 20
-133.6579915030438
 30
0.0
 10
115.9705267722227
 20
-133.5108859258237
 30
0.0
 10
115.9009358434206
 20
-133.3482774189199
 30
0.0
 10
115.6725260127485
 20
-133.3482774189199
 30
0.0
 10
115.5560817853471
 20
-133.3482774189199
 30
0.0
 10
115.5075059390051
 20
-133.3889295456458
 30
0.0
 10
115.4758110605408
 20
-133.4230359909498
 30
0.0
 10
115.4017415076079
 20
-133.501928677562
 30
0.0
 10
115.3889946543125
 20
-133.6262966245795
 30
0.0
 10
115.3889946543125
 20
-133.6852077573773
 30
0.0
 10
115.3889946543125
 20
-133.7055338207403
 30
0.0
 10
115.3910617116036
 20
-133.7437743806266
 30
0.0
 10
115.3951958261859
 20
-133.7734022017997
 30
0.0
 10
115.3951958261859
 20
-133.7734022017997
 30
0.0
 10
115.2005479312693
 20
-133.7734022017997
 30
0.0
 10
115.2005479312693
 20
-133.7734022017997
 30
0.0
 10
115.2070936126913
 20
-133.7327500750738
 30
0.0
 10
115.2091606699824
 20
-133.6872748146685
 30
0.0
 10
115.2091606699824
 20
-133.6807291332465
 30
0.0
 10
115.2091606699824
 20
-133.6104491853474
 30
0.0
 10
115.1878010779739
 20
-133.3978867939075
 30
0.0
 10
114.9511230181372
 20
-133.3978867939075
 30
0.0
 10
114.7733560910983
 20
-133.3978867939075
 30
0.0
 10
114.7182345633343
 20
-133.5381021801572
 30
0.0
 10
114.7182345633343
 20
-133.6555799362042
 30
0.0
 10
114.7182345633343
 20
-133.9384222755432
 30
0.0
 10
114.9511230181372
 20
-133.9473795238048
 30
0.0
 10
115.0227810042304
 20
-133.9518581479356
 30
0.0
 10
115.0227810042304
 20
-133.9518581479356
 30
0.0
 10
115.0227810042304
 20
-134.1688991635064
 30
0.0
 10
115.0227810042304
 20
-134.1688991635064
 30
0.0
 10
114.8980685476644
 20
-134.1599419152447
 30
0.0
 10
114.5215196111266
 20
-134.1306586036201
 30
0.0
 10
114.5215196111266
 20
-133.6421440638117
 30
0.0
 10
114.5215196111266
 20
-133.4023654180383
 30
0.0
 10
114.6486436345323
 20
-133.1446722757416
 30
0.0
 10
114.9445773367153
 20
-133.1446722757416
 30
0.0
 10
115.1309570024673
 20
-133.1446722757416
 30
0.0
 10
115.2132947845647
 20
-133.246647102105
 30
0.0
 10
115.2746174842022
 20
-133.3527560430507
 30
0.0
 10
115.3021782480842
 20
-133.287299228831
 30
0.0
 10
115.3824489728905
 20
-133.0926513339143
 30
0.0
 10
115.6597791594531
 20
-133.0926513339143
 30
0.0
 10
115.9980875361046
 20
-133.0926513339143
 30
0.0
 10
116.1651746671393
 20
-133.3572346671815
 30
0.0
 10
116.1651746671393
 20
-133.653512878913
 30
0.0
  0
HATCH
  5
137
330
130
100
AcDbEntity
  8
_U+30EC_U+30A4_U+30E4_U+30FC 1
 62
   179
420
  2234388
100
AcDbHatch
 10
0.0
 20
0.0
 30
0.0
210
0.0
220
0.0
230
1.0
  2
SOLID
 70
     1
 71
     0
 91
        1
 92
        1
 93
        1
 72
     4
 94
        3
 73
     0
 74
     1
 95
       62
 96
       58
 40
0.0
 40
0.0
 40
0.0
 40
0.0
 40
1.0
 40
1.0
 40
1.0
 40
2.0
 40
2.0
 40
2.0
 40
3.0
 40
3.0
 40
3.0
 40
4.0
 40
4.0
 40
4.0
 40
5.0
 40
5.0
 40
5.0
 40
6.0
 40
6.0
 40
6.0
 40
7.0
 40
7.0
 40
7.0
 40
8.0
 40
8.0
 40
8.0
 40
9.0
 40
9.0
 40
9.0
 40
10.0
 40
10.0
 40
10.0
 40
11.0
 40
11.0
 40
11.0
 40
12.0
 40
12.0
 40
12.0
 40
13.0
 40
13.0
 40
13.0
 40
14.0
 40
14.0
 40
14.0
 40
15.0
 40
15.0
 40
15.0
 40
16.0
 40
16.0
 40
16.0
 40
17.0
 40
17.0
 40
17.0
 40
18.0
 40
18.0
 40
18.0
 40
19.0
 40
19.0
 40
19.0
 40
19.0
 10
116.1651746671393
 20
-133.653512878913
 10
116.1651746671393
 20
-133.7551431957279
 10
116.1441595846792
 20
-133.9880316505308
 10
115.9581244284758
 20
-134.1213568458099
 10
115.8458143156566
 20
-134.2005940419707
 10
115.7465955656814
 20
-134.2050726661015
 10
115.6618462167443
 20
-134.2095512902323
 10
115.6618462167443
 20
-134.2095512902323
 10
115.6618462167443
 20
-133.9745957781383
 10
115.6618462167443
 20
-133.9745957781383
 10
115.7359157696771
 20
-133.9721842112986
 10
115.9705267722227
 20
-133.9608153961973
 10
115.9705267722227
 20
-133.6579915030438
 10
115.9705267722227
 20
-133.5108859258237
 10
115.9009358434206
 20
-133.3482774189199
 10
115.6725260127485
 20
-133.3482774189199
 10
115.5560817853471
 20
-133.3482774189199
 10
115.5075059390051
 20
-133.3889295456458
 10
115.4758110605408
 20
-133.4230359909498
 10
115.4017415076079
 20
-133.501928677562
 10
115.3889946543125
 20
-133.6262966245795
 10
115.3889946543125
 20
-133.6852077573773
 10
115.3889946543125
 20
-133.7055338207403
 10
115.3910617116036
 20
-133.7437743806266
 10
115.3951958261859
 20
-133.7734022017997
 10
115.3951958261859
 20
-133.7734022017997
 10
115.2005479312693
 20
-133.7734022017997
 10
115.2005479312693
 20
-133.7734022017997
 10
115.2070936126913
 20
-133.7327500750738
 10
115.2091606699824
 20
-133.6872748146685
 10
115.2091606699824
 20
-133.6807291332465
 10
115.2091606699824
 20
-133.6104491853474
 10
115.1878010779739
 20
-133.3978867939075
 10
114.9511230181372
 20
-133.3978867939075
 10
114.7733560910983
 20
-133.3978867939075
 10
114.7182345633343
 20
-133.5381021801572
 10
114.7182345633343
 20
-133.6555799362042
 10
114.7182345633343
 20
-133.9384222755432
 10
114.9511230181372
 20
-133.9473795238048
 10
115.0227810042304
 20
-133.9518581479356
 10
115.0227810042304
 20
-133.9518581479356
 10
115.0227810042304
 20
-134.1688991635064
 10
115.0227810042304
 20
-134.1688991635064
 10
114.8980685476644
 20
-134.1599419152447
 10
114.5215196111266
 20
-134.1306586036201
 10
114.5215196111266
 20
-133.6421440638117
 10
114.5215196111266
 20
-133.4023654180383
 10
114.6486436345323
 20
-133.1446722757416
 10
114.9445773367153
 20
-133.1446722757416
 10
115.1309570024673
 20
-133.1446722757416
 10
115.2132947845647
 20
-133.246647102105
 10
115.2746174842022
 20
-133.3527560430507
 10
115.3021782480842
 20
-133.287299228831
 10
115.3824489728905
 20
-133.0926513339143
 10
115.6597791594531
 20
-133.0926513339143
 10
115.9980875361046
 20
-133.0926513339143
 10
116.1651746671393
 20
-133.3572346671815
 10
116.1651746671393
 20
-133.653512878913
 97
        0
 97
        0
 75
     2
 76
     1
 98
        0
  0
ENDBLK
  5
133
330
130
100
AcDbEntity
  8
0
100
AcDbBlockEnd
  0
BLOCK
  5
143
330
141
100
AcDbEntity
  8
0
100
AcDbBlockBegin
  2
block 8
 70
     0
 10
0.0
 20
0.0
 30
0.0
  3
block 8
  1

  0
SPLINE
  5
145
330
141
100
AcDbEntity
  8
_U+30EC_U+30A4_U+30E4_U+30FC 1
370
     0
100
AcDbSpline
210
0.0
220
0.0
230
1.0
 70
    11
 71
     3
 72
    26
 73
    22
 74
     0
 42
0.0000000001
 43
0.0000000001
 12
1.0
 22
0.0
 32
0.0
 13
1.0
 23
0.0
 33
0.0
 40
0.0
 40
0.0
 40
0.0
 40
0.0
 40
1.0
 40
1.0
 40
1.0
 40
2.0
 40
2.0
 40
2.0
 40
3.0
 40
3.0
 40
3.0
 40
4.0
 40
4.0
 40
4.0
 40
5.0
 40
5.0
 40
5.0
 40
6.0
 40
6.0
 40
6.0
 40
7.0
 40
7.0
 40
7.0
 40
7.0
 10
116.0273708477293
 20
-125.8825832476092
 30
0.0
 10
116.0273708477293
 20
-125.8825832476092
 30
0.0
 10
114.9232177447067
 20
-125.8825832476092
 30
0.0
 10
114.9232177447067
 20
-125.8825832476092
 30
0.0
 10
114.9232177447067
 20
-125.8825832476092
 30
0.0
 10
114.9232177447067
 20
-126.2353610252988
 30
0.0
 10
114.9232177447067
 20
-126.2353610252988
 30
0.0
 10
114.9232177447067
 20
-126.2353610252988
 30
0.0
 10
114.775078638841
 20
-126.2353610252988
 30
0.0
 10
114.775078638841
 20
-126.2353610252988
 30
0.0
 10
114.7602647282544
 20
-125.8803439355438
 30
0.0
 10
114.5973117118021
 20
-125.830562305782
 30
0.0
 10
114.4829345416918
 20
-125.7990396820919
 30
0.0
 10
114.4829345416918
 20
-125.7990396820919
 30
0.0
 10
114.4829345416918
 20
-125.6429768566101
 30
0.0
 10
114.4829345416918
 20
-125.6429768566101
 30
0.0
 10
114.4829345416918
 20
-125.6429768566101
 30
0.0
 10
116.0273708477293
 20
-125.6429768566101
 30
0.0
 10
116.0273708477293
 20
-125.6429768566101
 30
0.0
 10
116.0273708477293
 20
-125.6429768566101
 30
0.0
 10
116.0273708477293
 20
-125.8825832476092
 30
0.0
 10
116.0273708477293
 20
-125.8825832476092
 30
0.0
  0
HATCH
  5
146
330
141
100
AcDbEntity
  8
_U+30EC_U+30A4_U+30E4_U+30FC 1
 62
     7
420
 16777215
100
AcDbHatch
 10
0.0
 20
0.0
 30
0.0
210
0.0
220
0.0
230
1.0
  2
SOLID
 70
     1
 71
     0
 91
        1
 92
        1
 93
        1
 72
     4
 94
        3
 73
     0
 74
     1
 95
       26
 96
       22
 40
0.0
 40
0.0
 40
0.0
 40
0.0
 40
1.0
 40
1.0
 40
1.0
 40
2.0
 40
2.0
 40
2.0
 40
3.0
 40
3.0
 40
3.0
 40
4.0
 40
4.0
 40
4.0
 40
5.0
 40
5.0
 40
5.0
 40
6.0
 40
6.0
 40
6.0
 40
7.0
 40
7.0
 40
7.0
 40
7.0
 10
116.0273708477293
 20
-125.8825832476092
 10
116.0273708477293
 20
-125.8825832476092
 10
114.9232177447067
 20
-125.8825832476092
 10
114.9232177447067
 20
-125.8825832476092
 10
114.9232177447067
 20
-125.8825832476092
 10
114.9232177447067
 20
-126.2353610252988
 10
114.9232177447067
 20
-126.2353610252988
 10
114.9232177447067
 20
-126.2353610252988
 10
114.775078638841
 20
-126.2353610252988
 10
114.775078638841
 20
-126.2353610252988
 10
114.7602647282544
 20
-125.8803439355438
 10
114.5973117118021
 20
-125.830562305782
 10
114.4829345416918
 20
-125.7990396820919
 10
114.4829345416918
 20
-125.7990396820919
 10
114.4829345416918
 20
-125.6429768566101
 10
114.4829345416918
 20
-125.6429768566101
 10
114.4829345416918
 20
-125.6429768566101
 10
116.0273708477293
 20
-125.6429768566101
 10
116.0273708477293
 20
-125.6429768566101
 10
116.0273708477293
 20
-125.6429768566101
 10
116.0273708477293
 20
-125.8825832476092
 10
116.0273708477293
 20
-125.8825832476092
 97
        0
 97
        0
 75
     2
 76
     1
 98
        0
  0
ENDBLK
  5
144
330
141
100
AcDbEntity
  8
0
100
AcDbBlockEnd
  0
ENDSEC
  0
SECTION
  2
ENTITIES
  0
POLYLINE
  5
41
330
1F
100
AcDbEntity
  8
_U+30EC_U+30A4_U+30E4_U+30FC 1
370
     0
100
AcDb2dPolyline
 66
     1
 10
0.0
 20
0.0
 30
0.0
  0
VERTEX
  5
42
330
41
100
AcDbEntity
  8
_U+30EC_U+30A4_U+30E4_U+30FC 1
370
     0
100
AcDbVertex
100
AcDb2dVertex
 10
73.66063312076069
 20
-120.7719552475847
 30
0.0
  0
VERTEX
  5
43
330
41
100
AcDbEntity
  8
_U+30EC_U+30A4_U+30E4_U+30FC 1
370
     0
100
AcDbVertex
100
AcDb2dVertex
 10
75.76040167830224
 20
-120.7719552475847
 30
0.0
  0
VERTEX
  5
44
330
41
100
AcDbEntity
  8
_U+30EC_U+30A4_U+30E4_U+30FC 1
370
     0
100
AcDbVertex
100
AcDb2dVertex
 10
75.76040167830224
 20
-119.7721830256125
 30
0.0
  0
VERTEX
  5
45
330
41
100
AcDbEntity
  8
_U+30EC_U+30A4_U+30E4_U+30FC 1
370
     0
100
AcDbVertex
100
AcDb2dVertex
 10
72.76041664847656
 20
-119.7721830256125
 30
0.0
  0
VERTEX
  5
46
330
41
100
AcDbEntity
  8
_U+30EC_U+30A4_U+30E4_U+30FC 1
370
     0
100
AcDbVertex
100
AcDb2dVertex
 10
72.76041664847656
 20
-143.7721138529458
 30
0.0
  0
VERTEX
  5
47
330
41
100
AcDbEntity
  8
_U+30EC_U+30A4_U+30E4_U+30FC 1
370
     0
100
AcDbVertex
100
AcDb2dVertex
 10
82.76085316637251
 20
-143.7721138529458
 30
0.0
  0
VERTEX
  5
48
330
41
100
AcDbEntity
  8
_U+30EC_U+30A4_U+30E4_U+30FC 1
370
     0
100
AcDbVertex
100
AcDb2dVertex
 10
82.76085316637251
 20
-140.7721269092514
 30
0.0
  0
VERTEX
  5
49
330
41
100
AcDbEntity
  8
_U+30EC_U+30A4_U+30E4_U+30FC 1
370
     0
100
AcDbVertex
100
AcDb2dVertex
 10
79.76086629846411
 20
-140.7721269092514
 30
0.0
  0
VERTEX
  5
4A
330
41
100
AcDbEntity
  8
_U+30EC_U+30A4_U+30E4_U+30FC 1
370
     0
100
AcDbVertex
100
AcDb2dVertex
 10
79.76086629846411
 20
-141.7718638534458
 30
0.0
  0
VERTEX
  5
4B
330
41
100
AcDbEntity
  8
_U+30EC_U+30A4_U+30E4_U+30FC 1
370
     0
100
AcDbVertex
100
AcDb2dVertex
 10
81.76037541411905
 20
-141.7718638534458
 30
0.0
  0
VERTEX
  5
4C
330
41
100
AcDbEntity
  8
_U+30EC_U+30A4_U+30E4_U+30FC 1
370
     0
100
AcDbVertex
100
AcDb2dVertex
 10
81.76037541411905
 20
-142.7716360754183
 30
0.0
  0
VERTEX
  5
4D
330
41
100
AcDbEntity
  8
_U+30EC_U+30A4_U+30E4_U+30FC 1
370
     0
100
AcDbVertex
100
AcDb2dVertex
 10
73.66063312076069
 20
-142.7716360754183
 30
0.0
  0
VERTEX
  5
4E
330
41
100
AcDbEntity
  8
_U+30EC_U+30A4_U+30E4_U+30FC 1
370
     0
100
AcDbVertex
100
AcDb2dVertex
 10
73.66063312076069
 20
-127.771701356946
 30
0.0
  0
VERTEX
  5
4F
330
41
100
AcDbEntity
  8
_U+30EC_U+30A4_U+30E4_U+30FC 1
370
     0
100
AcDbVertex
100
AcDb2dVertex
 10
112.7607218454565
 20
-127.771701356946
 30
0.0
  0
VERTEX
  5
50
330
41
100
AcDbEntity
  8
_U+30EC_U+30A4_U+30E4_U+30FC 1
370
     0
100
AcDbVertex
100
AcDb2dVertex
 10
112.7607218454565
 20
-126.8718358016154
 30
0.0
  0
VERTEX
  5
51
330
41
100
AcDbEntity
  8
_U+30EC_U+30A4_U+30E4_U+30FC 1
370
     0
100
AcDbVertex
100
AcDb2dVertex
 10
73.66063312076069
 20
-126.8718358016154
 30
0.0
  0
VERTEX
  5
52
330
41
100
AcDbEntity
  8
_U+30EC_U+30A4_U+30E4_U+30FC 1
370
     0
100
AcDbVertex
100
AcDb2dVertex
 10
73.66063312076069
 20
-120.7719552475847
 30
0.0
  0
SEQEND
  5
54
330
41
100
AcDbEntity
  8
_U+30EC_U+30A4_U+30E4_U+30FC 1
370
     0
  0
HATCH
  5
53
330
1F
100
AcDbEntity
  8
_U+30EC_U+30A4_U+30E4_U+30FC 1
 62
   253
420
 11711154
100
AcDbHatch
 10
0.0
 20
0.0
 30
0.0
210
0.0
220
0.0
230
1.0
  2
SOLID
 70
     1
 71
     0
 91
        1
 92
        1
 93
       16
 72
     1
 10
73.66063312076069
 20
-120.7719552475847
 11
75.76040167830224
 21
-120.7719552475847
 72
     1
 10
75.76040167830224
 20
-120.7719552475847
 11
75.76040167830224
 21
-119.7721830256125
 72
     1
 10
75.76040167830224
 20
-119.7721830256125
 11
72.76041664847656
 21
-119.7721830256125
 72
     1
 10
72.76041664847656
 20
-119.7721830256125
 11
72.76041664847656
 21
-143.7721138529458
 72
     1
 10
72.76041664847656
 20
-143.7721138529458
 11
82.76085316637251
 21
-143.7721138529458
 72
     1
 10
82.76085316637251
 20
-143.7721138529458
 11
82.76085316637251
 21
-140.7721269092514
 72
     1
 10
82.76085316637251
 20
-140.7721269092514
 11
79.76086629846411
 21
-140.7721269092514
 72
     1
 10
79.76086629846411
 20
-140.7721269092514
 11
79.76086629846411
 21
-141.7718638534458
 72
     1
 10
79.76086629846411
 20
-141.7718638534458
 11
81.76037541411905
 21
-141.7718638534458
 72
     1
 10
81.76037541411905
 20
-141.7718638534458
 11
81.76037541411905
 21
-142.7716360754183
 72
     1
 10
81.76037541411905
 20
-142.7716360754183
 11
73.66063312076069
 21
-142.7716360754183
 72
     1
 10
73.66063312076069
 20
-142.7716360754183
 11
73.66063312076069
 21
-127.771701356946
 72
     1
 10
73.66063312076069
 20
-127.771701356946
 11
112.7607218454565
 21
-127.771701356946
 72
     1
 10
112.7607218454565
 20
-127.771701356946
 11
112.7607218454565
 21
-126.8718358016154
 72
     1
 10
112.7607218454565
 20
-126.8718358016154
 11
73.66063312076069
 21
-126.8718358016154
 72
     1
 10
73.66063312076069
 20
-126.8718358016154
 11
73.66063312076069
 21
-120.7719552475847
 97
        0
 75
     2
 76
     1
 98
        0
  0
POLYLINE
  5
55
330
1F
100
AcDbEntity
  8
_U+30EC_U+30A4_U+30E4_U+30FC 1
 62
   179
420
  2234388
370
    25
100
AcDb2dPolyline
 66
     1
 10
0.0
 20
0.0
 30
0.0
  0
VERTEX
  5
56
330
55
100
AcDbEntity
  8
_U+30EC_U+30A4_U+30E4_U+30FC 1
 62
   179
420
  2234388
370
    25
100
AcDbVertex
100
AcDb2dVertex
 10
73.66063312076069
 20
-127.771701356946
 30
0.0
  0
VERTEX
  5
57
330
55
100
AcDbEntity
  8
_U+30EC_U+30A4_U+30E4_U+30FC 1
 62
   179
420
  2234388
370
    25
100
AcDbVertex
100
AcDb2dVertex
 10
112.7607218454565
 20
-127.771701356946
 30
0.0
  0
SEQEND
  5
58
330
55
100
AcDbEntity
  8
_U+30EC_U+30A4_U+30E4_U+30FC 1
 62
   179
420
  2234388
370
    25
  0
POLYLINE
  5
59
330
1F
100
AcDbEntity
  8
_U+30EC_U+30A4_U+30E4_U+30FC 1
 62
   179
420
  2234388
370
    25
100
AcDb2dPolyline
 66
     1
 10
0.0
 20
0.0
 30
0.0
  0
VERTEX
  5
5A
330
59
100
AcDbEntity
  8
_U+30EC_U+30A4_U+30E4_U+30FC 1
 62
   179
420
  2234388
370
    25
100
AcDbVertex
100
AcDb2dVertex
 10
79.76086629846411
 20
-140.7721269092514
 30
0.0
  0
VERTEX
  5
5B
330
59
100
AcDbEntity
  8
_U+30EC_U+30A4_U+30E4_U+30FC 1
 62
   179
420
  2234388
370
    25
100
AcDbVertex
100
AcDb2dVertex
 10
82.76085316637251
 20
-140.7721269092514
 30
0.0
  0
SEQEND
  5
5C
330
59
100
AcDbEntity
  8
_U+30EC_U+30A4_U+30E4_U+30FC 1
 62
   179
420
  2234388
370
    25
  0
POLYLINE
  5
5D
330
1F
100
AcDbEntity
  8
_U+30EC_U+30A4_U+30E4_U+30FC 1
 62
   179
420
  2234388
370
    25
100
AcDb2dPolyline
 66
     1
 10
0.0
 20
0.0
 30
0.0
  0
VERTEX
  5
5E
330
5D
100
AcDbEntity
  8
_U+30EC_U+30A4_U+30E4_U+30FC 1
 62
   179
420
  2234388
370
    25
100
AcDbVertex
100
AcDb2dVertex
 10
72.76041664847656
 20
-143.7721138529458
 30
0.0
  0
VERTEX
  5
5F
330
5D
100
AcDbEntity
  8
_U+30EC_U+30A4_U+30E4_U+30FC 1
 62
   179
420
  2234388
370
    25
100
AcDbVertex
100
AcDb2dVertex
 10
82.76085316637251
 20
-143.7721138529458
 30
0.0
  0
SEQEND
  5
60
330
5D
100
AcDbEntity
  8
_U+30EC_U+30A4_U+30E4_U+30FC 1
 62
   179
420
  2234388
370
    25
  0
POLYLINE
  5
61
330
1F
100
AcDbEntity
  8
_U+30EC_U+30A4_U+30E4_U+30FC 1
 62
   179
420
  2234388
370
    25
100
AcDb2dPolyline
 66
     1
 10
0.0
 20
0.0
 30
0.0
  0
VERTEX
  5
62
330
61
100
AcDbEntity
  8
_U+30EC_U+30A4_U+30E4_U+30FC 1
 62
   179
420
  2234388
370
    25
100
AcDbVertex
100
AcDb2dVertex
 10
72.76041664847656
 20
-119.7721830256125
 30
0.0
  0
VERTEX
  5
63
330
61
100
AcDbEntity
  8
_U+30EC_U+30A4_U+30E4_U+30FC 1
 62
   179
420
  2234388
370
    25
100
AcDbVertex
100
AcDb2dVertex
 10
72.76041664847656
 20
-143.7721138529458
 30
0.0
  0
SEQEND
  5
64
330
61
100
AcDbEntity
  8
_U+30EC_U+30A4_U+30E4_U+30FC 1
 62
   179
420
  2234388
370
    25
  0
POLYLINE
  5
65
330
1F
100
AcDbEntity
  8
_U+30EC_U+30A4_U+30E4_U+30FC 1
 62
   179
420
  2234388
370
    25
100
AcDb2dPolyline
 66
     1
 10
0.0
 20
0.0
 30
0.0
  0
VERTEX
  5
66
330
65
100
AcDbEntity
  8
_U+30EC_U+30A4_U+30E4_U+30FC 1
 62
   179
420
  2234388
370
    25
100
AcDbVertex
100
AcDb2dVertex
 10
112.7607218454565
 20
-126.8718358016154
 30
0.0
  0
VERTEX
  5
67
330
65
100
AcDbEntity
  8
_U+30EC_U+30A4_U+30E4_U+30FC 1
 62
   179
420
  2234388
370
    25
100
AcDbVertex
100
AcDb2dVertex
 10
112.7607218454565
 20
-127.771701356946
 30
0.0
  0
SEQEND
  5
68
330
65
100
AcDbEntity
  8
_U+30EC_U+30A4_U+30E4_U+30FC 1
 62
   179
420
  2234388
370
    25
  0
POLYLINE
  5
69
330
1F
100
AcDbEntity
  8
_U+30EC_U+30A4_U+30E4_U+30FC 1
 62
   179
420
  2234388
370
    25
100
AcDb2dPolyline
 66
     1
 10
0.0
 20
0.0
 30
0.0
  0
VERTEX
  5
6A
330
69
100
AcDbEntity
  8
_U+30EC_U+30A4_U+30E4_U+30FC 1
 62
   179
420
  2234388
370
    25
100
AcDbVertex
100
AcDb2dVertex
 10
72.76041664847656
 20
-119.7721830256125
 30
0.0
  0
VERTEX
  5
6B
330
69
100
AcDbEntity
  8
_U+30EC_U+30A4_U+30E4_U+30FC 1
 62
   179
420
  2234388
370
    25
100
AcDbVertex
100
AcDb2dVertex
 10
75.76040167830224
 20
-119.7721830256125
 30
0.0
  0
SEQEND
  5
6C
330
69
100
AcDbEntity
  8
_U+30EC_U+30A4_U+30E4_U+30FC 1
 62
   179
420
  2234388
370
    25
  0
POLYLINE
  5
6D
330
1F
100
AcDbEntity
  8
_U+30EC_U+30A4_U+30E4_U+30FC 1
 62
   179
420
  2234388
370
    25
100
AcDb2dPolyline
 66
     1
 10
0.0
 20
0.0
 30
0.0
  0
VERTEX
  5
6E
330
6D
100
AcDbEntity
  8
_U+30EC_U+30A4_U+30E4_U+30FC 1
 62
   179
420
  2234388
370
    25
100
AcDbVertex
100
AcDb2dVertex
 10
75.76040167830224
 20
-119.7721830256125
 30
0.0
  0
VERTEX
  5
6F
330
6D
100
AcDbEntity
  8
_U+30EC_U+30A4_U+30E4_U+30FC 1
 62
   179
420
  2234388
370
    25
100
AcDbVertex
100
AcDb2dVertex
 10
75.76040167830224
 20
-120.7719552475847
 30
0.0
  0
SEQEND
  5
70
330
6D
100
AcDbEntity
  8
_U+30EC_U+30A4_U+30E4_U+30FC 1
 62
   179
420
  2234388
370
    25
  0
POLYLINE
  5
71
330
1F
100
AcDbEntity
  8
_U+30EC_U+30A4_U+30E4_U+30FC 1
 62
   179
420
  2234388
370
    25
100
AcDb2dPolyline
 66
     1
 10
0.0
 20
0.0
 30
0.0
  0
VERTEX
  5
72
330
71
100
AcDbEntity
  8
_U+30EC_U+30A4_U+30E4_U+30FC 1
 62
   179
420
  2234388
370
    25
100
AcDbVertex
100
AcDb2dVertex
 10
73.66063312076069
 20
-120.7719552475847
 30
0.0
  0
VERTEX
  5
73
330
71
100
AcDbEntity
  8
_U+30EC_U+30A4_U+30E4_U+30FC 1
 62
   179
420
  2234388
370
    25
100
AcDbVertex
100
AcDb2dVertex
 10
75.76040167830224
 20
-120.7719552475847
 30
0.0
  0
SEQEND
  5
74
330
71
100
AcDbEntity
  8
_U+30EC_U+30A4_U+30E4_U+30FC 1
 62
   179
420
  2234388
370
    25
  0
POLYLINE
  5
75
330
1F
100
AcDbEntity
  8
_U+30EC_U+30A4_U+30E4_U+30FC 1
 62
   179
420
  2234388
370
    25
100
AcDb2dPolyline
 66
     1
 10
0.0
 20
0.0
 30
0.0
  0
VERTEX
  5
76
330
75
100
AcDbEntity
  8
_U+30EC_U+30A4_U+30E4_U+30FC 1
 62
   179
420
  2234388
370
    25
100
AcDbVertex
100
AcDb2dVertex
 10
82.76085316637251
 20
-140.7721269092514
 30
0.0
  0
VERTEX
  5
77
330
75
100
AcDbEntity
  8
_U+30EC_U+30A4_U+30E4_U+30FC 1
 62
   179
420
  2234388
370
    25
100
AcDbVertex
100
AcDb2dVertex
 10
82.76085316637251
 20
-143.7721138529458
 30
0.0
  0
SEQEND
  5
78
330
75
100
AcDbEntity
  8
_U+30EC_U+30A4_U+30E4_U+30FC 1
 62
   179
420
  2234388
370
    25
  0
POLYLINE
  5
79
330
1F
100
AcDbEntity
  8
_U+30EC_U+30A4_U+30E4_U+30FC 1
 62
   179
420
  2234388
370
    25
100
AcDb2dPolyline
 66
     1
 10
0.0
 20
0.0
 30
0.0
  0
VERTEX
  5
7A
330
79
100
AcDbEntity
  8
_U+30EC_U+30A4_U+30E4_U+30FC 1
 62
   179
420
  2234388
370
    25
100
AcDbVertex
100
AcDb2dVertex
 10
79.76086629846411
 20
-140.7721269092514
 30
0.0
  0
VERTEX
  5
7B
330
79
100
AcDbEntity
  8
_U+30EC_U+30A4_U+30E4_U+30FC 1
 62
   179
420
  2234388
370
    25
100
AcDbVertex
100
AcDb2dVertex
 10
79.76086629846411
 20
-141.7718638534458
 30
0.0
  0
SEQEND
  5
7C
330
79
100
AcDbEntity
  8
_U+30EC_U+30A4_U+30E4_U+30FC 1
 62
   179
420
  2234388
370
    25
  0
POLYLINE
  5
7D
330
1F
100
AcDbEntity
  8
_U+30EC_U+30A4_U+30E4_U+30FC 1
 62
   179
420
  2234388
370
    25
100
AcDb2dPolyline
 66
     1
 10
0.0
 20
0.0
 30
0.0
  0
VERTEX
  5
7E
330
7D
100
AcDbEntity
  8
_U+30EC_U+30A4_U+30E4_U+30FC 1
 62
   179
420
  2234388
370
    25
100
AcDbVertex
100
AcDb2dVertex
 10
79.76086629846411
 20
-141.7718638534458
 30
0.0
  0
VERTEX
  5
7F
330
7D
100
AcDbEntity
  8
_U+30EC_U+30A4_U+30E4_U+30FC 1
 62
   179
420
  2234388
370
    25
100
AcDbVertex
100
AcDb2dVertex
 10
81.76037541411905
 20
-141.7718638534458
 30
0.0
  0
SEQEND
  5
80
330
7D
100
AcDbEntity
  8
_U+30EC_U+30A4_U+30E4_U+30FC 1
 62
   179
420
  2234388
370
    25
  0
POLYLINE
  5
81
330
1F
100
AcDbEntity
  8
_U+30EC_U+30A4_U+30E4_U+30FC 1
 62
   179
420
  2234388
370
    25
100
AcDb2dPolyline
 66
     1
 10
0.0
 20
0.0
 30
0.0
  0
VERTEX
  5
82
330
81
100
AcDbEntity
  8
_U+30EC_U+30A4_U+30E4_U+30FC 1
 62
   179
420
  2234388
370
    25
100
AcDbVertex
100
AcDb2dVertex
 10
73.66063312076069
 20
-142.7716360754183
 30
0.0
  0
VERTEX
  5
83
330
81
100
AcDbEntity
  8
_U+30EC_U+30A4_U+30E4_U+30FC 1
 62
   179
420
  2234388
370
    25
100
AcDbVertex
100
AcDb2dVertex
 10
81.76037541411905
 20
-142.7716360754183
 30
0.0
  0
SEQEND
  5
84
330
81
100
AcDbEntity
  8
_U+30EC_U+30A4_U+30E4_U+30FC 1
 62
   179
420
  2234388
370
    25
  0
POLYLINE
  5
85
330
1F
100
AcDbEntity
  8
_U+30EC_U+30A4_U+30E4_U+30FC 1
 62
   179
420
  2234388
370
    25
100
AcDb2dPolyline
 66
     1
 10
0.0
 20
0.0
 30
0.0
  0
VERTEX
  5
86
330
85
100
AcDbEntity
  8
_U+30EC_U+30A4_U+30E4_U+30FC 1
 62
   179
420
  2234388
370
    25
100
AcDbVertex
100
AcDb2dVertex
 10
81.76037541411905
 20
-141.7718638534458
 30
0.0
  0
VERTEX
  5
87
330
85
100
AcDbEntity
  8
_U+30EC_U+30A4_U+30E4_U+30FC 1
 62
   179
420
  2234388
370
    25
100
AcDbVertex
100
AcDb2dVertex
 10
81.76037541411905
 20
-142.7716360754183
 30
0.0
  0
SEQEND
  5
88
330
85
100
AcDbEntity
  8
_U+30EC_U+30A4_U+30E4_U+30FC 1
 62
   179
420
  2234388
370
    25
  0
POLYLINE
  5
89
330
1F
100
AcDbEntity
  8
_U+30EC_U+30A4_U+30E4_U+30FC 1
 62
   179
420
  2234388
370
    25
100
AcDb2dPolyline
 66
     1
 10
0.0
 20
0.0
 30
0.0
  0
VERTEX
  5
8A
330
89
100
AcDbEntity
  8
_U+30EC_U+30A4_U+30E4_U+30FC 1
 62
   179
420
  2234388
370
    25
100
AcDbVertex
100
AcDb2dVertex
 10
73.66063312076069
 20
-126.8718358016154
 30
0.0
  0
VERTEX
  5
8B
330
89
100
AcDbEntity
  8
_U+30EC_U+30A4_U+30E4_U+30FC 1
 62
   179
420
  2234388
370
    25
100
AcDbVertex
100
AcDb2dVertex
 10
112.7607218454565
 20
-126.8718358016154
 30
0.0
  0
SEQEND
  5
8C
330
89
100
AcDbEntity
  8
_U+30EC_U+30A4_U+30E4_U+30FC 1
 62
   179
420
  2234388
370
    25
  0
POLYLINE
  5
8D
330
1F
100
AcDbEntity
  8
_U+30EC_U+30A4_U+30E4_U+30FC 1
 62
   179
420
  2234388
370
    25
100
AcDb2dPolyline
 66
     1
 10
0.0
 20
0.0
 30
0.0
  0
VERTEX
  5
8E
330
8D
100
AcDbEntity
  8
_U+30EC_U+30A4_U+30E4_U+30FC 1
 62
   179
420
  2234388
370
    25
100
AcDbVertex
100
AcDb2dVertex
 10
73.66063312076069
 20
-120.7719552475847
 30
0.0
  0
VERTEX
  5
8F
330
8D
100
AcDbEntity
  8
_U+30EC_U+30A4_U+30E4_U+30FC 1
 62
   179
420
  2234388
370
    25
100
AcDbVertex
100
AcDb2dVertex
 10
73.66063312076069
 20
-126.8718358016154
 30
0.0
  0
SEQEND
  5
90
330
8D
100
AcDbEntity
  8
_U+30EC_U+30A4_U+30E4_U+30FC 1
 62
   179
420
  2234388
370
    25
  0
POLYLINE
  5
91
330
1F
100
AcDbEntity
  8
_U+30EC_U+30A4_U+30E4_U+30FC 1
 62
   179
420
  2234388
370
    25
100
AcDb2dPolyline
 66
     1
 10
0.0
 20
0.0
 30
0.0
  0
VERTEX
  5
92
330
91
100
AcDbEntity
  8
_U+30EC_U+30A4_U+30E4_U+30FC 1
 62
   179
420
  2234388
370
    25
100
AcDbVertex
100
AcDb2dVertex
 10
73.66063312076069
 20
-127.771701356946
 30
0.0
  0
VERTEX
  5
93
330
91
100
AcDbEntity
  8
_U+30EC_U+30A4_U+30E4_U+30FC 1
 62
   179
420
  2234388
370
    25
100
AcDbVertex
100
AcDb2dVertex
 10
73.66063312076069
 20
-142.7716360754183
 30
0.0
  0
SEQEND
  5
94
330
91
100
AcDbEntity
  8
_U+30EC_U+30A4_U+30E4_U+30FC 1
 62
   179
420
  2234388
370
    25
  0
SPLINE
  5
95
330
1F
100
AcDbEntity
  8
_U+30EC_U+30A4_U+30E4_U+30FC 1
 62
   179
420
  2234388
370
     9
100
AcDbSpline
210
0.0
220
0.0
230
1.0
 70
    11
 71
     3
 72
    17
 73
    13
 74
     0
 42
0.0000000001
 43
0.0000000001
 12
1.0
 22
0.0
 32
0.0
 13
1.0
 23
0.0
 33
0.0
 40
0.0
 40
0.0
 40
0.0
 40
0.0
 40
1.0
 40
1.0
 40
1.0
 40
2.0
 40
2.0
 40
2.0
 40
3.0
 40
3.0
 40
3.0
 40
4.0
 40
4.0
 40
4.0
 40
4.0
 10
72.86067425228045
 20
-111.7719944165014
 30
0.0
 10
72.86067425228045
 20
-111.7161849720709
 30
0.0
 10
72.8158714756457
 20
-111.6713821943046
 30
0.0
 10
72.76041664847656
 20
-111.6713821943046
 30
0.0
 10
72.70531092291077
 20
-111.6713821943046
 30
0.0
 10
72.660508146276
 20
-111.7161849720709
 30
0.0
 10
72.660508146276
 20
-111.7719944165014
 30
0.0
 10
72.660508146276
 20
-111.8270983053766
 30
0.0
 10
72.70531092291077
 20
-111.871901083143
 30
0.0
 10
72.76041664847656
 20
-111.871901083143
 30
0.0
 10
72.8158714756457
 20
-111.871901083143
 30
0.0
 10
72.86067425228045
 20
-111.8270983053766
 30
0.0
 10
72.86067425228045
 20
-111.7719944165014
 30
0.0
  0
SPLINE
  5
96
330
1F
100
AcDbEntity
  8
_U+30EC_U+30A4_U+30E4_U+30FC 1
 62
   179
420
  2234388
370
     9
100
AcDbSpline
210
0.0
220
0.0
230
1.0
 70
    11
 71
     3
 72
    17
 73
    13
 74
     0
 42
0.0000000001
 43
0.0000000001
 12
1.0
 22
0.0
 32
0.0
 13
1.0
 23
0.0
 33
0.0
 40
0.0
 40
0.0
 40
0.0
 40
0.0
 40
1.0
 40
1.0
 40
1.0
 40
2.0
 40
2.0
 40
2.0
 40
3.0
 40
3.0
 40
3.0
 40
4.0
 40
4.0
 40
4.0
 40
4.0
 10
72.86067425228045
 20
-115.7717535821683
 30
0.0
 10
72.86067425228045
 20
-115.7166144155152
 30
0.0
 10
72.8158714756457
 20
-115.6718469155266
 30
0.0
 10
72.76041664847656
 20
-115.6718469155266
 30
0.0
 10
72.70531092291077
 20
-115.6718469155266
 30
0.0
 10
72.660508146276
 20
-115.7166144155152
 30
0.0
 10
72.660508146276
 20
-115.7717535821683
 30
0.0
 10
72.660508146276
 20
-115.8268574710432
 30
0.0
 10
72.70531092291077
 20
-115.8716602488099
 30
0.0
 10
72.76041664847656
 20
-115.8716602488099
 30
0.0
 10
72.8158714756457
 20
-115.8716602488099
 30
0.0
 10
72.86067425228045
 20
-115.8268574710432
 30
0.0
 10
72.86067425228045
 20
-115.7717535821683
 30
0.0
  0
SPLINE
  5
97
330
1F
100
AcDbEntity
  8
_U+30EC_U+30A4_U+30E4_U+30FC 1
 62
   179
420
  2234388
370
     9
100
AcDbSpline
210
0.0
220
0.0
230
1.0
 70
    11
 71
     3
 72
    17
 73
    13
 74
     0
 42
0.0000000001
 43
0.0000000001
 12
1.0
 22
0.0
 32
0.0
 13
1.0
 23
0.0
 33
0.0
 40
0.0
 40
0.0
 40
0.0
 40
0.0
 40
1.0
 40
1.0
 40
1.0
 40
2.0
 40
2.0
 40
2.0
 40
3.0
 40
3.0
 40
3.0
 40
4.0
 40
4.0
 40
4.0
 40
4.0
 10
75.86066112018885
 20
-115.7717535821683
 30
0.0
 10
75.86066112018885
 20
-115.7166144155152
 30
0.0
 10
75.81585834355408
 20
-115.6718469155266
 30
0.0
 10
75.76040167830224
 20
-115.6718469155266
 30
0.0
 10
75.70529779081917
 20
-115.6718469155266
 30
0.0
 10
75.6604950141844
 20
-115.7166144155152
 30
0.0
 10
75.6604950141844
 20
-115.7717535821683
 30
0.0
 10
75.6604950141844
 20
-115.8268574710432
 30
0.0
 10
75.70529779081917
 20
-115.8716602488099
 30
0.0
 10
75.76040167830224
 20
-115.8716602488099
 30
0.0
 10
75.81585834355408
 20
-115.8716602488099
 30
0.0
 10
75.86066112018885
 20
-115.8268574710432
 30
0.0
 10
75.86066112018885
 20
-115.7717535821683
 30
0.0
  0
SPLINE
  5
98
330
1F
100
AcDbEntity
  8
_U+30EC_U+30A4_U+30E4_U+30FC 1
 62
   179
420
  2234388
370
     9
100
AcDbSpline
210
0.0
220
0.0
230
1.0
 70
    11
 71
     3
 72
    17
 73
    13
 74
     0
 42
0.0000000001
 43
0.0000000001
 12
1.0
 22
0.0
 32
0.0
 13
1.0
 23
0.0
 33
0.0
 40
0.0
 40
0.0
 40
0.0
 40
0.0
 40
1.0
 40
1.0
 40
1.0
 40
2.0
 40
2.0
 40
2.0
 40
3.0
 40
3.0
 40
3.0
 40
4.0
 40
4.0
 40
4.0
 40
4.0
 10
112.8606285095744
 20
-111.7719944165014
 30
0.0
 10
112.8606285095744
 20
-111.7161849720709
 30
0.0
 10
112.8158638606848
 20
-111.6713821943046
 30
0.0
 10
112.7607218454565
 20
-111.6713821943046
 30
0.0
 10
112.7056179579735
 20
-111.6713821943046
 30
0.0
 10
112.6608151813387
 20
-111.7161849720709
 30
0.0
 10
112.6608151813387
 20
-111.7719944165014
 30
0.0
 10
112.6608151813387
 20
-111.8270983053766
 30
0.0
 10
112.7056179579735
 20
-111.871901083143
 30
0.0
 10
112.7607218454565
 20
-111.871901083143
 30
0.0
 10
112.8158638606848
 20
-111.871901083143
 30
0.0
 10
112.8606285095744
 20
-111.8270983053766
 30
0.0
 10
112.8606285095744
 20
-111.7719944165014
 30
0.0
  0
SPLINE
  5
99
330
1F
100
AcDbEntity
  8
_U+30EC_U+30A4_U+30E4_U+30FC 1
 62
   179
420
  2234388
370
     9
100
AcDbSpline
210
0.0
220
0.0
230
1.0
 70
    11
 71
     3
 72
    17
 73
    13
 74
     0
 42
0.0000000001
 43
0.0000000001
 12
1.0
 22
0.0
 32
0.0
 13
1.0
 23
0.0
 33
0.0
 40
0.0
 40
0.0
 40
0.0
 40
0.0
 40
1.0
 40
1.0
 40
1.0
 40
2.0
 40
2.0
 40
2.0
 40
3.0
 40
3.0
 40
3.0
 40
4.0
 40
4.0
 40
4.0
 40
4.0
 10
116.8603875741987
 20
-127.771701356946
 30
0.0
 10
116.8603875741987
 20
-127.7165974680707
 30
0.0
 10
116.8156200753408
 20
-127.6717946903043
 30
0.0
 10
116.7604809100809
 20
-127.6717946903043
 30
0.0
 10
116.7053770225978
 20
-127.6717946903043
 30
0.0
 10
116.660574245963
 20
-127.7165974680707
 30
0.0
 10
116.660574245963
 20
-127.771701356946
 30
0.0
 10
116.660574245963
 20
-127.8268405235987
 30
0.0
 10
116.7053770225978
 20
-127.8716080235876
 30
0.0
 10
116.7604809100809
 20
-127.8716080235876
 30
0.0
 10
116.8156200753408
 20
-127.8716080235876
 30
0.0
 10
116.8603875741987
 20
-127.8268405235987
 30
0.0
 10
116.8603875741987
 20
-127.771701356946
 30
0.0
  0
SPLINE
  5
9A
330
1F
100
AcDbEntity
  8
_U+30EC_U+30A4_U+30E4_U+30FC 1
 62
   179
420
  2234388
370
     9
100
AcDbSpline
210
0.0
220
0.0
230
1.0
 70
    11
 71
     3
 72
    17
 73
    13
 74
     0
 42
0.0000000001
 43
0.0000000001
 12
1.0
 22
0.0
 32
0.0
 13
1.0
 23
0.0
 33
0.0
 40
0.0
 40
0.0
 40
0.0
 40
0.0
 40
1.0
 40
1.0
 40
1.0
 40
2.0
 40
2.0
 40
2.0
 40
3.0
 40
3.0
 40
3.0
 40
4.0
 40
4.0
 40
4.0
 40
4.0
 10
116.8603875741987
 20
-140.7721269092514
 30
0.0
 10
116.8603875741987
 20
-140.716317464821
 30
0.0
 10
116.8156200753408
 20
-140.6715146870542
 30
0.0
 10
116.7604809100809
 20
-140.6715146870542
 30
0.0
 10
116.7053770225978
 20
-140.6715146870542
 30
0.0
 10
116.660574245963
 20
-140.716317464821
 30
0.0
 10
116.660574245963
 20
-140.7721269092514
 30
0.0
 10
116.660574245963
 20
-140.8272307981263
 30
0.0
 10
116.7053770225978
 20
-140.8720335758931
 30
0.0
 10
116.7604809100809
 20
-140.8720335758931
 30
0.0
 10
116.8156200753408
 20
-140.8720335758931
 30
0.0
 10
116.8603875741987
 20
-140.8272307981263
 30
0.0
 10
116.8603875741987
 20
-140.7721269092514
 30
0.0
  0
SPLINE
  5
9B
330
1F
100
AcDbEntity
  8
_U+30EC_U+30A4_U+30E4_U+30FC 1
 62
   179
420
  2234388
370
     9
100
AcDbSpline
210
0.0
220
0.0
230
1.0
 70
    11
 71
     3
 72
    17
 73
    13
 74
     0
 42
0.0000000001
 43
0.0000000001
 12
1.0
 22
0.0
 32
0.0
 13
1.0
 23
0.0
 33
0.0
 40
0.0
 40
0.0
 40
0.0
 40
0.0
 40
1.0
 40
1.0
 40
1.0
 40
2.0
 40
2.0
 40
2.0
 40
3.0
 40
3.0
 40
3.0
 40
4.0
 40
4.0
 40
4.0
 40
4.0
 10
116.8603875741987
 20
-143.7721138529458
 30
0.0
 10
116.8603875741987
 20
-143.7163044085153
 30
0.0
 10
116.8156200753408
 20
-143.6715016307486
 30
0.0
 10
116.7604809100809
 20
-143.6715016307486
 30
0.0
 10
116.7053770225978
 20
-143.6715016307486
 30
0.0
 10
116.660574245963
 20
-143.7163044085153
 30
0.0
 10
116.660574245963
 20
-143.7721138529458
 30
0.0
 10
116.660574245963
 20
-143.8272177418207
 30
0.0
 10
116.7053770225978
 20
-143.8720205195874
 30
0.0
 10
116.7604809100809
 20
-143.8720205195874
 30
0.0
 10
116.8156200753408
 20
-143.8720205195874
 30
0.0
 10
116.8603875741987
 20
-143.8272177418207
 30
0.0
 10
116.8603875741987
 20
-143.7721138529458
 30
0.0
  0
SPLINE
  5
9C
330
1F
100
AcDbEntity
  8
_U+30EC_U+30A4_U+30E4_U+30FC 1
 62
   179
420
  2234388
370
     9
100
AcDbSpline
210
0.0
220
0.0
230
1.0
 70
    11
 71
     3
 72
    17
 73
    13
 74
     0
 42
0.0000000001
 43
0.0000000001
 12
1.0
 22
0.0
 32
0.0
 13
1.0
 23
0.0
 33
0.0
 40
0.0
 40
0.0
 40
0.0
 40
0.0
 40
1.0
 40
1.0
 40
1.0
 40
2.0
 40
2.0
 40
2.0
 40
3.0
 40
3.0
 40
3.0
 40
4.0
 40
4.0
 40
4.0
 40
4.0
 10
72.86067425228045
 20
-147.7718730186126
 30
0.0
 10
72.86067425228045
 20
-147.7167338519596
 30
0.0
 10
72.8158714756457
 20
-147.671966351971
 30
0.0
 10
72.76041664847656
 20
-147.671966351971
 30
0.0
 10
72.70531092291077
 20
-147.671966351971
 30
0.0
 10
72.660508146276
 20
-147.7167338519596
 30
0.0
 10
72.660508146276
 20
-147.7718730186126
 30
0.0
 10
72.660508146276
 20
-147.8269769074876
 30
0.0
 10
72.70531092291077
 20
-147.8717796852543
 30
0.0
 10
72.76041664847656
 20
-147.8717796852543
 30
0.0
 10
72.8158714756457
 20
-147.8717796852543
 30
0.0
 10
72.86067425228045
 20
-147.8269769074876
 30
0.0
 10
72.86067425228045
 20
-147.7718730186126
 30
0.0
  0
SPLINE
  5
9D
330
1F
100
AcDbEntity
  8
_U+30EC_U+30A4_U+30E4_U+30FC 1
 62
   179
420
  2234388
370
     9
100
AcDbSpline
210
0.0
220
0.0
230
1.0
 70
    11
 71
     3
 72
    17
 73
    13
 74
     0
 42
0.0000000001
 43
0.0000000001
 12
1.0
 22
0.0
 32
0.0
 13
1.0
 23
0.0
 33
0.0
 40
0.0
 40
0.0
 40
0.0
 40
0.0
 40
1.0
 40
1.0
 40
1.0
 40
2.0
 40
2.0
 40
2.0
 40
3.0
 40
3.0
 40
3.0
 40
4.0
 40
4.0
 40
4.0
 40
4.0
 10
82.86075983049035
 20
-147.7718730186126
 30
0.0
 10
82.86075983049035
 20
-147.7167338519596
 30
0.0
 10
82.81595705385558
 20
-147.671966351971
 30
0.0
 10
82.76085316637251
 20
-147.671966351971
 30
0.0
 10
82.70571400111257
 20
-147.671966351971
 30
0.0
 10
82.66094650225467
 20
-147.7167338519596
 30
0.0
 10
82.66094650225467
 20
-147.7718730186126
 30
0.0
 10
82.66094650225467
 20
-147.8269769074876
 30
0.0
 10
82.70571400111257
 20
-147.8717796852543
 30
0.0
 10
82.76085316637251
 20
-147.8717796852543
 30
0.0
 10
82.81595705385558
 20
-147.8717796852543
 30
0.0
 10
82.86075983049035
 20
-147.8269769074876
 30
0.0
 10
82.86075983049035
 20
-147.7718730186126
 30
0.0
  0
SPLINE
  5
9E
330
1F
100
AcDbEntity
  8
_U+30EC_U+30A4_U+30E4_U+30FC 1
 62
   179
420
  2234388
370
     9
100
AcDbSpline
210
0.0
220
0.0
230
1.0
 70
    11
 71
     3
 72
    17
 73
    13
 74
     0
 42
0.0000000001
 43
0.0000000001
 12
1.0
 22
0.0
 32
0.0
 13
1.0
 23
0.0
 33
0.0
 40
0.0
 40
0.0
 40
0.0
 40
0.0
 40
1.0
 40
1.0
 40
1.0
 40
2.0
 40
2.0
 40
2.0
 40
3.0
 40
3.0
 40
3.0
 40
4.0
 40
4.0
 40
4.0
 40
4.0
 10
68.0810999297731
 20
-119.7721830256125
 30
0.0
 10
68.0810999297731
 20
-119.7163735811821
 30
0.0
 10
68.03633243091522
 20
-119.6716060811932
 30
0.0
 10
67.98119326565526
 20
-119.6716060811932
 30
0.0
 10
67.9260893781722
 20
-119.6716060811932
 30
0.0
 10
67.88128660153744
 20
-119.7163735811821
 30
0.0
 10
67.88128660153744
 20
-119.7721830256125
 30
0.0
 10
67.88128660153744
 20
-119.8273221922653
 30
0.0
 10
67.9260893781722
 20
-119.8720896922542
 30
0.0
 10
67.98119326565526
 20
-119.8720896922542
 30
0.0
 10
68.03633243091522
 20
-119.8720896922542
 30
0.0
 10
68.0810999297731
 20
-119.8273221922653
 30
0.0
 10
68.0810999297731
 20
-119.7721830256125
 30
0.0
  0
SPLINE
  5
9F
330
1F
100
AcDbEntity
  8
_U+30EC_U+30A4_U+30E4_U+30FC 1
 62
   179
420
  2234388
370
     9
100
AcDbSpline
210
0.0
220
0.0
230
1.0
 70
    11
 71
     3
 72
    17
 73
    13
 74
     0
 42
0.0000000001
 43
0.0000000001
 12
1.0
 22
0.0
 32
0.0
 13
1.0
 23
0.0
 33
0.0
 40
0.0
 40
0.0
 40
0.0
 40
0.0
 40
1.0
 40
1.0
 40
1.0
 40
2.0
 40
2.0
 40
2.0
 40
3.0
 40
3.0
 40
3.0
 40
4.0
 40
4.0
 40
4.0
 40
4.0
 10
68.0810999297731
 20
-143.7721138529458
 30
0.0
 10
68.0810999297731
 20
-143.7163044085153
 30
0.0
 10
68.03633243091522
 20
-143.6715016307486
 30
0.0
 10
67.98119326565526
 20
-143.6715016307486
 30
0.0
 10
67.9260893781722
 20
-143.6715016307486
 30
0.0
 10
67.88128660153744
 20
-143.7163044085153
 30
0.0
 10
67.88128660153744
 20
-143.7721138529458
 30
0.0
 10
67.88128660153744
 20
-143.8272177418207
 30
0.0
 10
67.9260893781722
 20
-143.8720205195874
 30
0.0
 10
67.98119326565526
 20
-143.8720205195874
 30
0.0
 10
68.03633243091522
 20
-143.8720205195874
 30
0.0
 10
68.0810999297731
 20
-143.8272177418207
 30
0.0
 10
68.0810999297731
 20
-143.7721138529458
 30
0.0
  0
POLYLINE
  5
A0
330
1F
100
AcDbEntity
  8
_U+30EC_U+30A4_U+30E4_U+30FC 1
 62
   179
420
  2234388
370
     9
100
AcDb2dPolyline
 66
     1
 10
0.0
 20
0.0
 30
0.0
  0
VERTEX
  5
A1
330
A0
100
AcDbEntity
  8
_U+30EC_U+30A4_U+30E4_U+30FC 1
 62
   179
420
  2234388
370
     9
100
AcDbVertex
100
AcDb2dVertex
 10
116.7604809100809
 20
-140.7721269092514
 30
0.0
  0
VERTEX
  5
A2
330
A0
100
AcDbEntity
  8
_U+30EC_U+30A4_U+30E4_U+30FC 1
 62
   179
420
  2234388
370
     9
100
AcDbVertex
100
AcDb2dVertex
 10
116.7604809100809
 20
-143.7721138529458
 30
0.0
  0
SEQEND
  5
A3
330
A0
100
AcDbEntity
  8
_U+30EC_U+30A4_U+30E4_U+30FC 1
 62
   179
420
  2234388
370
     9
  0
POLYLINE
  5
A4
330
1F
100
AcDbEntity
  8
_U+30EC_U+30A4_U+30E4_U+30FC 1
 62
   179
420
  2234388
370
     9
100
AcDb2dPolyline
 66
     1
 10
0.0
 20
0.0
 30
0.0
  0
VERTEX
  5
A5
330
A4
100
AcDbEntity
  8
_U+30EC_U+30A4_U+30E4_U+30FC 1
 62
   179
420
  2234388
370
     9
100
AcDbVertex
100
AcDb2dVertex
 10
85.3005708793567
 20
-140.7721269092514
 30
0.0
  0
VERTEX
  5
A6
330
A4
100
AcDbEntity
  8
_U+30EC_U+30A4_U+30E4_U+30FC 1
 62
   179
420
  2234388
370
     9
100
AcDbVertex
100
AcDb2dVertex
 10
117.7609233845574
 20
-140.7721269092514
 30
0.0
  0
SEQEND
  5
A7
330
A4
100
AcDbEntity
  8
_U+30EC_U+30A4_U+30E4_U+30FC 1
 62
   179
420
  2234388
370
     9
  0
POLYLINE
  5
A8
330
1F
100
AcDbEntity
  8
_U+30EC_U+30A4_U+30E4_U+30FC 1
 62
   179
420
  2234388
370
     9
100
AcDb2dPolyline
 66
     1
 10
0.0
 20
0.0
 30
0.0
  0
VERTEX
  5
A9
330
A8
100
AcDbEntity
  8
_U+30EC_U+30A4_U+30E4_U+30FC 1
 62
   179
420
  2234388
370
     9
100
AcDbVertex
100
AcDb2dVertex
 10
85.3005708793567
 20
-143.7721138529458
 30
0.0
  0
VERTEX
  5
AA
330
A8
100
AcDbEntity
  8
_U+30EC_U+30A4_U+30E4_U+30FC 1
 62
   179
420
  2234388
370
     9
100
AcDbVertex
100
AcDb2dVertex
 10
117.7609233845574
 20
-143.7721138529458
 30
0.0
  0
SEQEND
  5
AB
330
A8
100
AcDbEntity
  8
_U+30EC_U+30A4_U+30E4_U+30FC 1
 62
   179
420
  2234388
370
     9
  0
INSERT
  5
AD
330
1F
100
AcDbEntity
  8
_U+30EC_U+30A4_U+30E4_U+30FC 1
100
AcDbBlockReference
  2
block 2
 10
0.0
 20
0.0
 30
0.0
  0
POLYLINE
  5
B2
330
1F
100
AcDbEntity
  8
_U+30EC_U+30A4_U+30E4_U+30FC 1
 62
   179
420
  2234388
370
     9
100
AcDb2dPolyline
 66
     1
 10
0.0
 20
0.0
 30
0.0
  0
VERTEX
  5
B3
330
B2
100
AcDbEntity
  8
_U+30EC_U+30A4_U+30E4_U+30FC 1
 62
   179
420
  2234388
370
     9
100
AcDbVertex
100
AcDb2dVertex
 10
72.76041664847656
 20
-115.7717535821683
 30
0.0
  0
VERTEX
  5
B4
330
B2
100
AcDbEntity
  8
_U+30EC_U+30A4_U+30E4_U+30FC 1
 62
   179
420
  2234388
370
     9
100
AcDbVertex
100
AcDb2dVertex
 10
75.76040167830224
 20
-115.7717535821683
 30
0.0
  0
SEQEND
  5
B5
330
B2
100
AcDbEntity
  8
_U+30EC_U+30A4_U+30E4_U+30FC 1
 62
   179
420
  2234388
370
     9
  0
POLYLINE
  5
B6
330
1F
100
AcDbEntity
  8
_U+30EC_U+30A4_U+30E4_U+30FC 1
 62
   179
420
  2234388
370
     9
100
AcDb2dPolyline
 66
     1
 10
0.0
 20
0.0
 30
0.0
  0
VERTEX
  5
B7
330
B6
100
AcDbEntity
  8
_U+30EC_U+30A4_U+30E4_U+30FC 1
 62
   179
420
  2234388
370
     9
100
AcDbVertex
100
AcDb2dVertex
 10
72.76041664847656
 20
-117.2317596929141
 30
0.0
  0
VERTEX
  5
B8
330
B6
100
AcDbEntity
  8
_U+30EC_U+30A4_U+30E4_U+30FC 1
 62
   179
420
  2234388
370
     9
100
AcDbVertex
100
AcDb2dVertex
 10
72.76041664847656
 20
-114.7719813601961
 30
0.0
  0
SEQEND
  5
B9
330
B6
100
AcDbEntity
  8
_U+30EC_U+30A4_U+30E4_U+30FC 1
 62
   179
420
  2234388
370
     9
  0
POLYLINE
  5
BA
330
1F
100
AcDbEntity
  8
_U+30EC_U+30A4_U+30E4_U+30FC 1
 62
   179
420
  2234388
370
     9
100
AcDb2dPolyline
 66
     1
 10
0.0
 20
0.0
 30
0.0
  0
VERTEX
  5
BB
330
BA
100
AcDbEntity
  8
_U+30EC_U+30A4_U+30E4_U+30FC 1
 62
   179
420
  2234388
370
     9
100
AcDbVertex
100
AcDb2dVertex
 10
75.76040167830224
 20
-117.2317596929141
 30
0.0
  0
VERTEX
  5
BC
330
BA
100
AcDbEntity
  8
_U+30EC_U+30A4_U+30E4_U+30FC 1
 62
   179
420
  2234388
370
     9
100
AcDbVertex
100
AcDb2dVertex
 10
75.76040167830224
 20
-114.7719813601961
 30
0.0
  0
SEQEND
  5
BD
330
BA
100
AcDbEntity
  8
_U+30EC_U+30A4_U+30E4_U+30FC 1
 62
   179
420
  2234388
370
     9
  0
INSERT
  5
BF
330
1F
100
AcDbEntity
  8
_U+30EC_U+30A4_U+30E4_U+30FC 1
100
AcDbBlockReference
  2
block 3
 10
0.0
 20
0.0
 30
0.0
  0
POLYLINE
  5
C4
330
1F
100
AcDbEntity
  8
_U+30EC_U+30A4_U+30E4_U+30FC 1
 62
   179
420
  2234388
370
     9
100
AcDb2dPolyline
 66
     1
 10
0.0
 20
0.0
 30
0.0
  0
VERTEX
  5
C5
330
C4
100
AcDbEntity
  8
_U+30EC_U+30A4_U+30E4_U+30FC 1
 62
   179
420
  2234388
370
     9
100
AcDbVertex
100
AcDb2dVertex
 10
72.76041664847656
 20
-111.7719944165014
 30
0.0
  0
VERTEX
  5
C6
330
C4
100
AcDbEntity
  8
_U+30EC_U+30A4_U+30E4_U+30FC 1
 62
   179
420
  2234388
370
     9
100
AcDbVertex
100
AcDb2dVertex
 10
112.7607218454565
 20
-111.7719944165014
 30
0.0
  0
SEQEND
  5
C7
330
C4
100
AcDbEntity
  8
_U+30EC_U+30A4_U+30E4_U+30FC 1
 62
   179
420
  2234388
370
     9
  0
POLYLINE
  5
C8
330
1F
100
AcDbEntity
  8
_U+30EC_U+30A4_U+30E4_U+30FC 1
 62
   179
420
  2234388
370
     9
100
AcDb2dPolyline
 66
     1
 10
0.0
 20
0.0
 30
0.0
  0
VERTEX
  5
C9
330
C8
100
AcDbEntity
  8
_U+30EC_U+30A4_U+30E4_U+30FC 1
 62
   179
420
  2234388
370
     9
100
AcDbVertex
100
AcDb2dVertex
 10
72.76041664847656
 20
-117.2317596929141
 30
0.0
  0
VERTEX
  5
CA
330
C8
100
AcDbEntity
  8
_U+30EC_U+30A4_U+30E4_U+30FC 1
 62
   179
420
  2234388
370
     9
100
AcDbVertex
100
AcDb2dVertex
 10
72.76041664847656
 20
-110.7715166389737
 30
0.0
  0
SEQEND
  5
CB
330
C8
100
AcDbEntity
  8
_U+30EC_U+30A4_U+30E4_U+30FC 1
 62
   179
420
  2234388
370
     9
  0
POLYLINE
  5
CC
330
1F
100
AcDbEntity
  8
_U+30EC_U+30A4_U+30E4_U+30FC 1
 62
   179
420
  2234388
370
     9
100
AcDb2dPolyline
 66
     1
 10
0.0
 20
0.0
 30
0.0
  0
VERTEX
  5
CD
330
CC
100
AcDbEntity
  8
_U+30EC_U+30A4_U+30E4_U+30FC 1
 62
   179
420
  2234388
370
     9
100
AcDbVertex
100
AcDb2dVertex
 10
112.7607218454565
 20
-124.3321180244725
 30
0.0
  0
VERTEX
  5
CE
330
CC
100
AcDbEntity
  8
_U+30EC_U+30A4_U+30E4_U+30FC 1
 62
   179
420
  2234388
370
     9
100
AcDbVertex
100
AcDb2dVertex
 10
112.7607218454565
 20
-110.7715166389737
 30
0.0
  0
SEQEND
  5
CF
330
CC
100
AcDbEntity
  8
_U+30EC_U+30A4_U+30E4_U+30FC 1
 62
   179
420
  2234388
370
     9
  0
INSERT
  5
D1
330
1F
100
AcDbEntity
  8
_U+30EC_U+30A4_U+30E4_U+30FC 1
100
AcDbBlockReference
  2
block 4
 10
0.0
 20
0.0
 30
0.0
  0
POLYLINE
  5
EC
330
1F
100
AcDbEntity
  8
_U+30EC_U+30A4_U+30E4_U+30FC 1
 62
   179
420
  2234388
370
     9
100
AcDb2dPolyline
 66
     1
 10
0.0
 20
0.0
 30
0.0
  0
VERTEX
  5
ED
330
EC
100
AcDbEntity
  8
_U+30EC_U+30A4_U+30E4_U+30FC 1
 62
   179
420
  2234388
370
     9
100
AcDbVertex
100
AcDb2dVertex
 10
72.76041664847656
 20
-147.7718730186126
 30
0.0
  0
VERTEX
  5
EE
330
EC
100
AcDbEntity
  8
_U+30EC_U+30A4_U+30E4_U+30FC 1
 62
   179
420
  2234388
370
     9
100
AcDbVertex
100
AcDb2dVertex
 10
82.76085316637251
 20
-147.7718730186126
 30
0.0
  0
SEQEND
  5
EF
330
EC
100
AcDbEntity
  8
_U+30EC_U+30A4_U+30E4_U+30FC 1
 62
   179
420
  2234388
370
     9
  0
POLYLINE
  5
F0
330
1F
100
AcDbEntity
  8
_U+30EC_U+30A4_U+30E4_U+30FC 1
 62
   179
420
  2234388
370
     9
100
AcDb2dPolyline
 66
     1
 10
0.0
 20
0.0
 30
0.0
  0
VERTEX
  5
F1
330
F0
100
AcDbEntity
  8
_U+30EC_U+30A4_U+30E4_U+30FC 1
 62
   179
420
  2234388
370
     9
100
AcDbVertex
100
AcDb2dVertex
 10
72.76041664847656
 20
-146.3118316300889
 30
0.0
  0
VERTEX
  5
F2
330
F0
100
AcDbEntity
  8
_U+30EC_U+30A4_U+30E4_U+30FC 1
 62
   179
420
  2234388
370
     9
100
AcDbVertex
100
AcDb2dVertex
 10
72.76041664847656
 20
-148.771609962807
 30
0.0
  0
SEQEND
  5
F3
330
F0
100
AcDbEntity
  8
_U+30EC_U+30A4_U+30E4_U+30FC 1
 62
   179
420
  2234388
370
     9
  0
POLYLINE
  5
F4
330
1F
100
AcDbEntity
  8
_U+30EC_U+30A4_U+30E4_U+30FC 1
 62
   179
420
  2234388
370
     9
100
AcDb2dPolyline
 66
     1
 10
0.0
 20
0.0
 30
0.0
  0
VERTEX
  5
F5
330
F4
100
AcDbEntity
  8
_U+30EC_U+30A4_U+30E4_U+30FC 1
 62
   179
420
  2234388
370
     9
100
AcDbVertex
100
AcDb2dVertex
 10
82.76085316637251
 20
-146.3118316300889
 30
0.0
  0
VERTEX
  5
F6
330
F4
100
AcDbEntity
  8
_U+30EC_U+30A4_U+30E4_U+30FC 1
 62
   179
420
  2234388
370
     9
100
AcDbVertex
100
AcDb2dVertex
 10
82.76085316637251
 20
-148.771609962807
 30
0.0
  0
SEQEND
  5
F7
330
F4
100
AcDbEntity
  8
_U+30EC_U+30A4_U+30E4_U+30FC 1
 62
   179
420
  2234388
370
     9
  0
INSERT
  5
F9
330
1F
100
AcDbEntity
  8
_U+30EC_U+30A4_U+30E4_U+30FC 1
100
AcDbBlockReference
  2
block 5
 10
0.0
 20
0.0
 30
0.0
  0
POLYLINE
  5
101
330
1F
100
AcDbEntity
  8
_U+30EC_U+30A4_U+30E4_U+30FC 1
 62
   179
420
  2234388
370
     9
100
AcDb2dPolyline
 66
     1
 10
0.0
 20
0.0
 30
0.0
  0
VERTEX
  5
102
330
101
100
AcDbEntity
  8
_U+30EC_U+30A4_U+30E4_U+30FC 1
 62
   179
420
  2234388
370
     9
100
AcDbVertex
100
AcDb2dVertex
 10
67.98119326565526
 20
-119.7721830256125
 30
0.0
  0
VERTEX
  5
103
330
101
100
AcDbEntity
  8
_U+30EC_U+30A4_U+30E4_U+30FC 1
 62
   179
420
  2234388
370
     9
100
AcDbVertex
100
AcDb2dVertex
 10
67.98119326565526
 20
-143.7721138529458
 30
0.0
  0
SEQEND
  5
104
330
101
100
AcDbEntity
  8
_U+30EC_U+30A4_U+30E4_U+30FC 1
 62
   179
420
  2234388
370
     9
  0
POLYLINE
  5
105
330
1F
100
AcDbEntity
  8
_U+30EC_U+30A4_U+30E4_U+30FC 1
 62
   179
420
  2234388
370
     9
100
AcDb2dPolyline
 66
     1
 10
0.0
 20
0.0
 30
0.0
  0
VERTEX
  5
106
330
105
100
AcDbEntity
  8
_U+30EC_U+30A4_U+30E4_U+30FC 1
 62
   179
420
  2234388
370
     9
100
AcDbVertex
100
AcDb2dVertex
 10
69.44123461729541
 20
-119.7721830256125
 30
0.0
  0
VERTEX
  5
107
330
105
100
AcDbEntity
  8
_U+30EC_U+30A4_U+30E4_U+30FC 1
 62
   179
420
  2234388
370
     9
100
AcDbVertex
100
AcDb2dVertex
 10
66.98110356894746
 20
-119.7721830256125
 30
0.0
  0
SEQEND
  5
108
330
105
100
AcDbEntity
  8
_U+30EC_U+30A4_U+30E4_U+30FC 1
 62
   179
420
  2234388
370
     9
  0
POLYLINE
  5
109
330
1F
100
AcDbEntity
  8
_U+30EC_U+30A4_U+30E4_U+30FC 1
 62
   179
420
  2234388
370
     9
100
AcDb2dPolyline
 66
     1
 10
0.0
 20
0.0
 30
0.0
  0
VERTEX
  5
10A
330
109
100
AcDbEntity
  8
_U+30EC_U+30A4_U+30E4_U+30FC 1
 62
   179
420
  2234388
370
     9
100
AcDbVertex
100
AcDb2dVertex
 10
69.44123461729541
 20
-143.7721138529458
 30
0.0
  0
VERTEX
  5
10B
330
109
100
AcDbEntity
  8
_U+30EC_U+30A4_U+30E4_U+30FC 1
 62
   179
420
  2234388
370
     9
100
AcDbVertex
100
AcDb2dVertex
 10
66.98110356894746
 20
-143.7721138529458
 30
0.0
  0
SEQEND
  5
10C
330
109
100
AcDbEntity
  8
_U+30EC_U+30A4_U+30E4_U+30FC 1
 62
   179
420
  2234388
370
     9
  0
INSERT
  5
10E
330
1F
100
AcDbEntity
  8
_U+30EC_U+30A4_U+30E4_U+30FC 1
100
AcDbBlockReference
  2
block 6
 10
0.0
 20
0.0
 30
0.0
  0
POLYLINE
  5
128
330
1F
100
AcDbEntity
  8
_U+30EC_U+30A4_U+30E4_U+30FC 1
 62
   179
420
  2234388
370
     9
100
AcDb2dPolyline
 66
     1
 10
0.0
 20
0.0
 30
0.0
  0
VERTEX
  5
129
330
128
100
AcDbEntity
  8
_U+30EC_U+30A4_U+30E4_U+30FC 1
 62
   179
420
  2234388
370
     9
100
AcDbVertex
100
AcDb2dVertex
 10
116.7604809100809
 20
-140.7721269092514
 30
0.0
  0
VERTEX
  5
12A
330
128
100
AcDbEntity
  8
_U+30EC_U+30A4_U+30E4_U+30FC 1
 62
   179
420
  2234388
370
     9
100
AcDbVertex
100
AcDb2dVertex
 10
116.7604809100809
 20
-127.771701356946
 30
0.0
  0
SEQEND
  5
12B
330
128
100
AcDbEntity
  8
_U+30EC_U+30A4_U+30E4_U+30FC 1
 62
   179
420
  2234388
370
     9
  0
POLYLINE
  5
12C
330
1F
100
AcDbEntity
  8
_U+30EC_U+30A4_U+30E4_U+30FC 1
 62
   179
420
  2234388
370
     9
100
AcDb2dPolyline
 66
     1
 10
0.0
 20
0.0
 30
0.0
  0
VERTEX
  5
12D
330
12C
100
AcDbEntity
  8
_U+30EC_U+30A4_U+30E4_U+30FC 1
 62
   179
420
  2234388
370
     9
100
AcDbVertex
100
AcDb2dVertex
 10
115.6532173272184
 20
-127.771701356946
 30
0.0
  0
VERTEX
  5
12E
330
12C
100
AcDbEntity
  8
_U+30EC_U+30A4_U+30E4_U+30FC 1
 62
   179
420
  2234388
370
     9
100
AcDbVertex
100
AcDb2dVertex
 10
117.7609233845574
 20
-127.771701356946
 30
0.0
  0
SEQEND
  5
12F
330
12C
100
AcDbEntity
  8
_U+30EC_U+30A4_U+30E4_U+30FC 1
 62
   179
420
  2234388
370
     9
  0
INSERT
  5
131
330
1F
100
AcDbEntity
  8
_U+30EC_U+30A4_U+30E4_U+30FC 1
100
AcDbBlockReference
  2
block 7
 10
0.0
 20
0.0
 30
0.0
  0
POLYLINE
  5
138
330
1F
100
AcDbEntity
  8
_U+30EC_U+30A4_U+30E4_U+30FC 1
 62
   179
420
  2234388
370
     9
100
AcDb2dPolyline
 66
     1
 10
0.0
 20
0.0
 30
0.0
  0
VERTEX
  5
139
330
138
100
AcDbEntity
  8
_U+30EC_U+30A4_U+30E4_U+30FC 1
 62
   179
420
  2234388
370
     9
100
AcDbVertex
100
AcDb2dVertex
 10
115.6532173272184
 20
-126.8697896905048
 30
0.0
  0
VERTEX
  5
13A
330
138
100
AcDbEntity
  8
_U+30EC_U+30A4_U+30E4_U+30FC 1
 62
   179
420
  2234388
370
     9
100
AcDbVertex
100
AcDb2dVertex
 10
117.7609233845574
 20
-126.8697896905048
 30
0.0
  0
SEQEND
  5
13B
330
138
100
AcDbEntity
  8
_U+30EC_U+30A4_U+30E4_U+30FC 1
 62
   179
420
  2234388
370
     9
  0
SPLINE
  5
13C
330
1F
100
AcDbEntity
  8
_U+30EC_U+30A4_U+30E4_U+30FC 1
 62
     7
420
 16777215
370
     9
100
AcDbSpline
210
0.0
220
0.0
230
1.0
 70
    11
 71
     3
 72
    17
 73
    13
 74
     0
 42
0.0000000001
 43
0.0000000001
 12
1.0
 22
0.0
 32
0.0
 13
1.0
 23
0.0
 33
0.0
 40
0.0
 40
0.0
 40
0.0
 40
0.0
 40
1.0
 40
1.0
 40
1.0
 40
2.0
 40
2.0
 40
2.0
 40
3.0
 40
3.0
 40
3.0
 40
4.0
 40
4.0
 40
4.0
 40
4.0
 10
116.7604809100809
 20
-126.9559027460388
 30
0.0
 10
116.8156200753408
 20
-126.9559027460388
 30
0.0
 10
116.8603875741987
 20
-126.9110999682721
 30
0.0
 10
116.8603875741987
 20
-126.8559960793972
 30
0.0
 10
116.8603875741987
 20
-126.8005394127442
 30
0.0
 10
116.8156200753408
 20
-126.7557366349778
 30
0.0
 10
116.7604809100809
 20
-126.7557366349778
 30
0.0
 10
116.7053770225978
 20
-126.7557366349778
 30
0.0
 10
116.660574245963
 20
-126.8005394127442
 30
0.0
 10
116.660574245963
 20
-126.8559960793972
 30
0.0
 10
116.660574245963
 20
-126.9110999682721
 30
0.0
 10
116.7053770225978
 20
-126.9559027460388
 30
0.0
 10
116.7604809100809
 20
-126.9559027460388
 30
0.0
  0
POLYLINE
  5
13D
330
1F
100
AcDbEntity
  8
_U+30EC_U+30A4_U+30E4_U+30FC 1
 62
     7
420
 16777215
370
     9
100
AcDb2dPolyline
 66
     1
 10
0.0
 20
0.0
 30
0.0
  0
VERTEX
  5
13E
330
13D
100
AcDbEntity
  8
_U+30EC_U+30A4_U+30E4_U+30FC 1
 62
     7
420
 16777215
370
     9
100
AcDbVertex
100
AcDb2dVertex
 10
116.7611864656184
 20
-125.2013271909218
 30
0.0
  0
VERTEX
  5
13F
330
13D
100
AcDbEntity
  8
_U+30EC_U+30A4_U+30E4_U+30FC 1
 62
     7
420
 16777215
370
     9
100
AcDbVertex
100
AcDb2dVertex
 10
116.7611864656184
 20
-127.8557683013694
 30
0.0
  0
SEQEND
  5
140
330
13D
100
AcDbEntity
  8
_U+30EC_U+30A4_U+30E4_U+30FC 1
 62
     7
420
 16777215
370
     9
  0
INSERT
  5
142
330
1F
100
AcDbEntity
  8
_U+30EC_U+30A4_U+30E4_U+30FC 1
100
AcDbBlockReference
  2
block 8
 10
0.0
 20
0.0
 30
0.0
  0
ENDSEC
  0
SECTION
  2
OBJECTS
  0
DICTIONARY
  5
C
330
0
100
AcDbDictionary
281
     1
  3
ACAD_GROUP
350
D
  3
ACAD_LAYOUT
350
1A
  3
ACAD_MATERIAL
350
3B
  3
ACAD_MLEADERSTYLE
350
148
  3
ACAD_MLINESTYLE
350
17
  3
ACAD_PLOTSETTINGS
350
19
  3
ACAD_PLOTSTYLENAME
350
E
  3
ACAD_TABLESTYLE
350
147
  3
ACAD_VISUALSTYLE
350
2A
  0
SUN
  5
3F
330
29
100
AcDbSun
 90
        1
290
     0
 63
     7
421
 16777215
 40
1.0
291
     1
 91
  2455826
 92
 54000000
292
     0
 70
     2
 71
   256
280
     1
  0
DICTIONARY
  5
D
102
{ACAD_REACTORS
330
C
102
}
330
C
100
AcDbDictionary
281
     1
  0
DICTIONARY
  5
1A
102
{ACAD_REACTORS
330
C
102
}
330
C
100
AcDbDictionary
281
     1
  3
Layout1
350
1E
  3
Layout2
350
26
  3
Model
350
22
  0
DICTIONARY
  5
3B
102
{ACAD_REACTORS
330
C
102
}
330
C
100
AcDbDictionary
281
     1
  3
ByBlock
350
3D
  3
ByLayer
350
3C
  3
Global
350
3E
  0
DICTIONARY
  5
148
102
{ACAD_REACTORS
330
C
102
}
330
C
100
AcDbDictionary
281
     1
  0
DICTIONARY
  5
17
102
{ACAD_REACTORS
330
C
102
}
330
C
100
AcDbDictionary
281
     1
  3
Standard
350
18
  0
DICTIONARY
  5
19
102
{ACAD_REACTORS
330
C
102
}
330
C
100
AcDbDictionary
281
     1
  0
ACDBDICTIONARYWDFLT
  5
E
102
{ACAD_REACTORS
330
C
102
}
330
C
100
AcDbDictionary
281
     1
  3
Normal
350
F
100
AcDbDictionaryWithDefault
340
F
  0
DICTIONARY
  5
147
102
{ACAD_REACTORS
330
C
102
}
330
C
100
AcDbDictionary
281
     1
  0
DICTIONARY
  5
2A
102
{ACAD_REACTORS
330
C
102
}
330
C
100
AcDbDictionary
281
     1
  3
2dWireframe
350
2F
  3
3D Hidden
350
31
  3
3dWireframe
350
30
  3
Basic
350
32
  3
Brighten
350
36
  3
ColorChange
350
3A
  3
Conceptual
350
34
  3
Dim
350
35
  3
Facepattern
350
39
  3
Flat
350
2B
  3
FlatWithEdges
350
2C
  3
Gouraud
350
2D
  3
GouraudWithEdges
350
2E
  3
Linepattern
350
38
  3
Realistic
350
33
  3
Thicken
350
37
  0
LAYOUT
  5
1E
102
{ACAD_REACTORS
330
1A
102
}
330
1A
100
AcDbPlotSettings
  1

  2
none_device
  4

  6

 40
0.0
 41
0.0
 42
0.0
 43
0.0
 44
0.0
 45
0.0
 46
0.0
 47
0.0
 48
0.0
 49
0.0
140
0.0
141
0.0
142
1.0
143
1.0
 70
   688
 72
     0
 73
     0
 74
     5
  7

 75
    16
 76
     0
 77
     2
 78
   300
147
1.0
148
0.0
149
0.0
100
AcDbLayout
  1
Layout1
 70
     1
 71
     1
 10
0.0
 20
0.0
 11
12.0
 21
9.0
 12
0.0
 22
0.0
 32
0.0
 14
1.000000000000000E+20
 24
1.000000000000000E+20
 34
1.000000000000000E+20
 15
-1.000000000000000E+20
 25
-1.000000000000000E+20
 35
-1.000000000000000E+20
146
0.0
 13
0.0
 23
0.0
 33
0.0
 16
1.0
 26
0.0
 36
0.0
 17
0.0
 27
1.0
 37
0.0
 76
     0
330
1B
  0
LAYOUT
  5
26
102
{ACAD_REACTORS
330
1A
102
}
330
1A
100
AcDbPlotSettings
  1

  2
none_device
  4

  6

 40
0.0
 41
0.0
 42
0.0
 43
0.0
 44
0.0
 45
0.0
 46
0.0
 47
0.0
 48
0.0
 49
0.0
140
0.0
141
0.0
142
1.0
143
1.0
 70
   688
 72
     0
 73
     0
 74
     5
  7

 75
    16
 76
     0
 77
     2
 78
   300
147
1.0
148
0.0
149
0.0
100
AcDbLayout
  1
Layout2
 70
     1
 71
     2
 10
0.0
 20
0.0
 11
0.0
 21
0.0
 12
0.0
 22
0.0
 32
0.0
 14
0.0
 24
0.0
 34
0.0
 15
0.0
 25
0.0
 35
0.0
146
0.0
 13
0.0
 23
0.0
 33
0.0
 16
1.0
 26
0.0
 36
0.0
 17
0.0
 27
1.0
 37
0.0
 76
     0
330
23
  0
LAYOUT
  5
22
102
{ACAD_REACTORS
330
1A
102
}
330
1A
100
AcDbPlotSettings
  1

  2
none_device
  4

  6

 40
0.0
 41
0.0
 42
0.0
 43
0.0
 44
0.0
 45
0.0
 46
0.0
 47
0.0
 48
0.0
 49
0.0
140
0.0
141
0.0
142
1.0
143
1.0
 70
  1712
 72
     0
 73
     0
 74
     0
  7

 75
     0
 76
     0
 77
     2
 78
   300
147
1.0
148
0.0
149
0.0
100
AcDbLayout
  1
Model
 70
     1
 71
     0
 10
0.0
 20
0.0
 11
12.0
 21
9.0
 12
0.0
 22
0.0
 32
0.0
 14
1.000000000000000E+20
 24
1.000000000000000E+20
 34
1.000000000000000E+20
 15
-1.000000000000000E+20
 25
-1.000000000000000E+20
 35
-1.000000000000000E+20
146
0.0
 13
0.0
 23
0.0
 33
0.0
 16
1.0
 26
0.0
 36
0.0
 17
0.0
 27
1.0
 37
0.0
 76
     0
330
1F
331
29
  0
MATERIAL
  5
3D
102
{ACAD_REACTORS
330
3B
102
}
330
3B
100
AcDbMaterial
  1
ByBlock
 72
     1
 94
      127
  0
MATERIAL
  5
3C
102
{ACAD_REACTORS
330
3B
102
}
330
3B
100
AcDbMaterial
  1
ByLayer
 72
     1
 94
      127
  0
MATERIAL
  5
3E
102
{ACAD_REACTORS
330
3B
102
}
330
3B
100
AcDbMaterial
  1
Global
 72
     1
 94
      127
  0
MLINESTYLE
  5
18
102
{ACAD_REACTORS
330
17
102
}
330
17
100
AcDbMlineStyle
  2
Standard
 70
     0
  3

 62
   256
 51
90.0
 52
90.0
 71
     2
 49
0.5
 62
   256
  6
BYLAYER
 49
-0.5
 62
   256
  6
BYLAYER
  0
ACDBPLACEHOLDER
  5
F
102
{ACAD_REACTORS
330
E
102
}
330
E
  0
VISUALSTYLE
  5
2F
102
{ACAD_REACTORS
330
2A
102
}
330
2A
100
AcDbVisualStyle
  2
2dWireframe
 70
     4
177
     2
291
     0
 71
     0
176
     1
 72
     2
176
     1
 73
     0
176
     1
 90
        0
176
     1
 40
-0.6
176
     1
 41
-30.0
176
     1
 62
     5
 63
     7
421
 16777215
176
     1
 74
     1
176
     1
 91
        4
176
     1
 64
     7
176
     1
 65
   257
176
     1
 75
     1
176
     1
175
     1
176
     1
 42
1.0
176
     1
 92
        0
176
     1
 66
   257
176
     1
 43
1.0
176
     1
 76
     1
176
     1
 77
     6
176
     1
 78
     2
176
     1
 67
     7
176
     1
 79
     5
176
     1
170
     0
176
     1
171
     0
176
     1
290
     0
176
     1
 93
        1
176
     1
 44
0.0
176
     1
173
     0
176
     1
  0
VISUALSTYLE
  5
31
102
{ACAD_REACTORS
330
2A
102
}
330
2A
100
AcDbVisualStyle
  2
3D Hidden
 70
     6
177
     2
291
     0
 71
     1
176
     1
 72
     2
176
     1
 73
     2
176
     1
 90
        0
176
     1
 40
-0.6
176
     1
 41
-30.0
176
     1
 62
     5
 63
     7
421
 16777215
176
     1
 74
     2
176
     1
 91
        2
176
     1
 64
     7
176
     1
 65
   257
176
     1
 75
     2
176
     1
175
     1
176
     1
 42
40.0
176
     1
 92
        0
176
     1
 66
   257
176
     1
 43
1.0
176
     1
 76
     1
176
     1
 77
     6
176
     1
 78
     2
176
     1
 67
     7
176
     1
 79
     3
176
     1
170
     0
176
     1
171
     0
176
     1
290
     0
176
     1
 93
        1
176
     1
 44
0.0
176
     1
173
     0
176
     1
  0
VISUALSTYLE
  5
30
102
{ACAD_REACTORS
330
2A
102
}
330
2A
100
AcDbVisualStyle
  2
3dWireframe
 70
     5
177
     2
291
     0
 71
     0
176
     1
 72
     2
176
     1
 73
     0
176
     1
 90
        0
176
     1
 40
-0.6
176
     1
 41
-30.0
176
     1
 62
     5
 63
     7
421
 16777215
176
     1
 74
     1
176
     1
 91
        4
176
     1
 64
     7
176
     1
 65
   257
176
     1
 75
     1
176
     1
175
     1
176
     1
 42
1.0
176
     1
 92
        0
176
     1
 66
   257
176
     1
 43
1.0
176
     1
 76
     1
176
     1
 77
     6
176
     1
 78
     2
176
     1
 67
     7
176
     1
 79
     5
176
     1
170
     0
176
     1
171
     0
176
     1
290
     0
176
     1
 93
        1
176
     1
 44
0.0
176
     1
173
     0
176
     1
  0
VISUALSTYLE
  5
32
102
{ACAD_REACTORS
330
2A
102
}
330
2A
100
AcDbVisualStyle
  2
Basic
 70
     7
177
     2
291
     1
 71
     1
176
     1
 72
     0
176
     1
 73
     1
176
     1
 90
        0
176
     1
 40
-0.6
176
     1
 41
-30.0
176
     1
 62
     5
 63
     7
421
 16777215
176
     1
 74
     0
176
     1
 91
        4
176
     1
 64
     7
176
     1
 65
   257
176
     1
 75
     1
176
     1
175
     1
176
     1
 42
1.0
176
     1
 92
        8
176
     1
 66
     7
176
     1
 43
1.0
176
     1
 76
     1
176
     1
 77
     6
176
     1
 78
     2
176
     1
 67
     7
176
     1
 79
     5
176
     1
170
     0
176
     1
171
     0
176
     1
290
     0
176
     1
 93
        1
176
     1
 44
0.0
176
     1
173
     0
176
     1
  0
VISUALSTYLE
  5
36
102
{ACAD_REACTORS
330
2A
102
}
330
2A
100
AcDbVisualStyle
  2
Brighten
 70
    12
177
     2
291
     1
 71
     2
176
     1
 72
     2
176
     1
 73
     0
176
     1
 90
        0
176
     1
 40
-0.6
176
     1
 41
-30.0
176
     1
 62
     5
 63
     7
421
 16777215
176
     1
 74
     1
176
     1
 91
        4
176
     1
 64
     7
176
     1
 65
   257
176
     1
 75
     1
176
     1
175
     1
176
     1
 42
1.0
176
     1
 92
        8
176
     1
 66
     7
176
     1
 43
1.0
176
     1
 76
     1
176
     1
 77
     6
176
     1
 78
     2
176
     1
 67
     7
176
     1
 79
     5
176
     1
170
     0
176
     1
171
     0
176
     1
290
     0
176
     1
 93
        1
176
     1
 44
50.0
176
     1
173
     0
176
     1
  0
VISUALSTYLE
  5
3A
102
{ACAD_REACTORS
330
2A
102
}
330
2A
100
AcDbVisualStyle
  2
ColorChange
 70
    16
177
     2
291
     1
 71
     2
176
     1
 72
     2
176
     1
 73
     3
176
     1
 90
        0
176
     1
 40
-0.6
176
     1
 41
-30.0
176
     1
 62
     5
 63
     8
421
  8421504
176
     1
 74
     1
176
     1
 91
        4
176
     1
 64
     7
176
     1
 65
   257
176
     1
 75
     1
176
     1
175
     1
176
     1
 42
1.0
176
     1
 92
        8
176
     1
 66
     8
424
  8421504
176
     1
 43
1.0
176
     1
 76
     1
176
     1
 77
     6
176
     1
 78
     2
176
     1
 67
     7
176
     1
 79
     5
176
     1
170
     0
176
     1
171
     0
176
     1
290
     0
176
     1
 93
        1
176
     1
 44
0.0
176
     1
173
     0
176
     1
  0
VISUALSTYLE
  5
34
102
{ACAD_REACTORS
330
2A
102
}
330
2A
100
AcDbVisualStyle
  2
Conceptual
 70
     9
177
     2
291
     0
 71
     3
176
     1
 72
     2
176
     1
 73
     0
176
     1
 90
        0
176
     1
 40
-0.6
176
     1
 41
-30.0
176
     1
 62
     5
 63
     7
421
 16777215
176
     1
 74
     2
176
     1
 91
        2
176
     1
 64
     7
176
     1
 65
   257
176
     1
 75
     1
176
     1
175
     1
176
     1
 42
40.0
176
     1
 92
        8
176
     1
 66
     7
176
     1
 43
1.0
176
     1
 76
     1
176
     1
 77
     6
176
     1
 78
     2
176
     1
 67
     7
176
     1
 79
     3
176
     1
170
     0
176
     1
171
     0
176
     1
290
     0
176
     1
 93
        1
176
     1
 44
0.0
176
     1
173
     0
176
     1
  0
VISUALSTYLE
  5
35
102
{ACAD_REACTORS
330
2A
102
}
330
2A
100
AcDbVisualStyle
  2
Dim
 70
    11
177
     2
291
     1
 71
     2
176
     1
 72
     2
176
     1
 73
     0
176
     1
 90
        0
176
     1
 40
-0.6
176
     1
 41
-30.0
176
     1
 62
     5
 63
     7
421
 16777215
176
     1
 74
     1
176
     1
 91
        4
176
     1
 64
     7
176
     1
 65
   257
176
     1
 75
     1
176
     1
175
     1
176
     1
 42
1.0
176
     1
 92
        8
176
     1
 66
     7
176
     1
 43
1.0
176
     1
 76
     1
176
     1
 77
     6
176
     1
 78
     2
176
     1
 67
     7
176
     1
 79
     5
176
     1
170
     0
176
     1
171
     0
176
     1
290
     0
176
     1
 93
        1
176
     1
 44
-50.0
176
     1
173
     0
176
     1
  0
VISUALSTYLE
  5
39
102
{ACAD_REACTORS
330
2A
102
}
330
2A
100
AcDbVisualStyle
  2
Facepattern
 70
    15
177
     2
291
     1
 71
     2
176
     1
 72
     2
176
     1
 73
     0
176
     1
 90
        0
176
     1
 40
-0.6
176
     1
 41
-30.0
176
     1
 62
     5
 63
     7
421
 16777215
176
     1
 74
     1
176
     1
 91
        4
176
     1
 64
     7
176
     1
 65
   257
176
     1
 75
     1
176
     1
175
     1
176
     1
 42
1.0
176
     1
 92
        8
176
     1
 66
     7
176
     1
 43
1.0
176
     1
 76
     1
176
     1
 77
     6
176
     1
 78
     2
176
     1
 67
     7
176
     1
 79
     5
176
     1
170
     0
176
     1
171
     0
176
     1
290
     0
176
     1
 93
        1
176
     1
 44
0.0
176
     1
173
     0
176
     1
  0
VISUALSTYLE
  5
2B
102
{ACAD_REACTORS
330
2A
102
}
330
2A
100
AcDbVisualStyle
  2
Flat
 70
     0
177
     2
291
     1
 71
     2
176
     1
 72
     1
176
     1
 73
     1
176
     1
 90
        2
176
     1
 40
-0.6
176
     1
 41
30.0
176
     1
 62
     5
 63
     7
421
 16777215
176
     1
 74
     0
176
     1
 91
        4
176
     1
 64
     7
176
     1
 65
   257
176
     1
 75
     1
176
     1
175
     1
176
     1
 42
1.0
176
     1
 92
        8
176
     1
 66
     7
176
     1
 43
1.0
176
     1
 76
     1
176
     1
 77
     6
176
     1
 78
     2
176
     1
 67
     7
176
     1
 79
     5
176
     1
170
     0
176
     1
171
     0
176
     1
290
     0
176
     1
 93
       13
176
     1
 44
0.0
176
     1
173
     0
176
     1
  0
VISUALSTYLE
  5
2C
102
{ACAD_REACTORS
330
2A
102
}
330
2A
100
AcDbVisualStyle
  2
FlatWithEdges
 70
     1
177
     2
291
     1
 71
     2
176
     1
 72
     1
176
     1
 73
     1
176
     1
 90
        2
176
     1
 40
-0.6
176
     1
 41
30.0
176
     1
 62
     5
 63
     7
421
 16777215
176
     1
 74
     1
176
     1
 91
        4
176
     1
 64
     7
176
     1
 65
   257
176
     1
 75
     1
176
     1
175
     1
176
     1
 42
1.0
176
     1
 92
        0
176
     1
 66
   257
176
     1
 43
1.0
176
     1
 76
     1
176
     1
 77
     6
176
     1
 78
     2
176
     1
 67
     7
176
     1
 79
     5
176
     1
170
     0
176
     1
171
     0
176
     1
290
     0
176
     1
 93
       13
176
     1
 44
0.0
176
     1
173
     0
176
     1
  0
VISUALSTYLE
  5
2D
102
{ACAD_REACTORS
330
2A
102
}
330
2A
100
AcDbVisualStyle
  2
Gouraud
 70
     2
177
     2
291
     1
 71
     2
176
     1
 72
     2
176
     1
 73
     1
176
     1
 90
        2
176
     1
 40
-0.6
176
     1
 41
30.0
176
     1
 62
     5
 63
     7
421
 16777215
176
     1
 74
     0
176
     1
 91
        4
176
     1
 64
     7
176
     1
 65
   257
176
     1
 75
     1
176
     1
175
     1
176
     1
 42
1.0
176
     1
 92
        0
176
     1
 66
     7
176
     1
 43
1.0
176
     1
 76
     1
176
     1
 77
     6
176
     1
 78
     2
176
     1
 67
     7
176
     1
 79
     5
176
     1
170
     0
176
     1
171
     0
176
     1
290
     0
176
     1
 93
       13
176
     1
 44
0.0
176
     1
173
     0
176
     1
  0
VISUALSTYLE
  5
2E
102
{ACAD_REACTORS
330
2A
102
}
330
2A
100
AcDbVisualStyle
  2
GouraudWithEdges
 70
     3
177
     2
291
     1
 71
     2
176
     1
 72
     2
176
     1
 73
     1
176
     1
 90
        2
176
     1
 40
-0.6
176
     1
 41
30.0
176
     1
 62
     5
 63
     7
421
 16777215
176
     1
 74
     1
176
     1
 91
        4
176
     1
 64
     7
176
     1
 65
   257
176
     1
 75
     1
176
     1
175
     1
176
     1
 42
1.0
176
     1
 92
        0
176
     1
 66
   257
176
     1
 43
1.0
176
     1
 76
     1
176
     1
 77
     6
176
     1
 78
     2
176
     1
 67
     7
176
     1
 79
     5
176
     1
170
     0
176
     1
171
     0
176
     1
290
     0
176
     1
 93
       13
176
     1
 44
0.0
176
     1
173
     0
176
     1
  0
VISUALSTYLE
  5
38
102
{ACAD_REACTORS
330
2A
102
}
330
2A
100
AcDbVisualStyle
  2
Linepattern
 70
    14
177
     2
291
     1
 71
     2
176
     1
 72
     2
176
     1
 73
     0
176
     1
 90
        0
176
     1
 40
-0.6
176
     1
 41
-30.0
176
     1
 62
     5
 63
     7
421
 16777215
176
     1
 74
     1
176
     1
 91
        4
176
     1
 64
     7
176
     1
 65
   257
176
     1
 75
     7
176
     1
175
     7
176
     1
 42
1.0
176
     1
 92
        8
176
     1
 66
     7
176
     1
 43
1.0
176
     1
 76
     1
176
     1
 77
     6
176
     1
 78
     2
176
     1
 67
     7
176
     1
 79
     5
176
     1
170
     0
176
     1
171
     0
176
     1
290
     0
176
     1
 93
        1
176
     1
 44
0.0
176
     1
173
     0
176
     1
  0
VISUALSTYLE
  5
33
102
{ACAD_REACTORS
330
2A
102
}
330
2A
100
AcDbVisualStyle
  2
Realistic
 70
     8
177
     2
291
     0
 71
     2
176
     1
 72
     2
176
     1
 73
     0
176
     1
 90
        0
176
     1
 40
-0.6
176
     1
 41
-30.0
176
     1
 62
     5
 63
     7
421
 16777215
176
     1
 74
     1
176
     1
 91
        0
176
     1
 64
     7
176
     1
 65
   257
176
     1
 75
     1
176
     1
175
     1
176
     1
 42
1.0
176
     1
 92
        8
176
     1
 66
     8
424
  7895160
176
     1
 43
1.0
176
     1
 76
     1
176
     1
 77
     6
176
     1
 78
     2
176
     1
 67
     7
176
     1
 79
     5
176
     1
170
     0
176
     1
171
     0
176
     1
290
     0
176
     1
 93
       13
176
     1
 44
0.0
176
     1
173
     0
176
     1
  0
VISUALSTYLE
  5
37
102
{ACAD_REACTORS
330
2A
102
}
330
2A
100
AcDbVisualStyle
  2
Thicken
 70
    13
177
     2
291
     1
 71
     2
176
     1
 72
     2
176
     1
 73
     0
176
     1
 90
        0
176
     1
 40
-0.6
176
     1
 41
-30.0
176
     1
 62
     5
 63
     7
421
 16777215
176
     1
 74
     1
176
     1
 91
        4
176
     1
 64
     7
176
     1
 65
   257
176
     1
 75
     1
176
     1
175
     1
176
     1
 42
1.0
176
     1
 92
       12
176
     1
 66
     7
176
     1
 43
1.0
176
     1
 76
     1
176
     1
 77
     6
176
     1
 78
     2
176
     1
 67
     7
176
     1
 79
     5
176
     1
170
     0
176
     1
171
     0
176
     1
290
     0
176
     1
 93
        1
176
     1
 44
0.0
176
     1
173
     0
176
     1
  0
ENDSEC
  0
EOF
