  0
SECTION
  2
HEADER
  9
$ACADVER
  1
AC1024
  9
$ACADMAINTVER
 70
     6
  9
$DWGCODEPAGE
  3
UNDEFINED
  9
$INSBASE
 10
0.0
 20
0.0
 30
0.0
  9
$EXTMIN
 10
1.000000000000000E+20
 20
1.000000000000000E+20
 30
1.000000000000000E+20
  9
$EXTMAX
 10
-1.000000000000000E+20
 20
-1.000000000000000E+20
 30
-1.000000000000000E+20
  9
$LIMMIN
 10
0.0
 20
0.0
  9
$LIMMAX
 10
12.0
 20
9.0
  9
$ORTHOMODE
 70
     0
  9
$REGENMODE
 70
     1
  9
$FILLMODE
 70
     1
  9
$QTEXTMODE
 70
     0
  9
$MIRRTEXT
 70
     1
  9
$LTSCALE
 40
1.0
  9
$ATTMODE
 70
     1
  9
$TEXTSIZE
 40
0.2
  9
$TRACEWID
 40
0.05
  9
$TEXTSTYLE
  7
Standard
  9
$CLAYER
  8
0
  9
$CELTYPE
  6
ByLayer
  9
$CECOLOR
 62
   256
  9
$CELTSCALE
 40
1.0
  9
$DISPSILH
 70
     0
  9
$DIMSCALE
 40
1.0
  9
$DIMASZ
 40
0.18
  9
$DIMEXO
 40
0.0625
  9
$DIMDLI
 40
0.38
  9
$DIMRND
 40
0.0
  9
$DIMDLE
 40
0.0
  9
$DIMEXE
 40
0.18
  9
$DIMTP
 40
0.0
  9
$DIMTM
 40
0.0
  9
$DIMTXT
 40
0.18
  9
$DIMCEN
 40
0.09
  9
$DIMTSZ
 40
0.0
  9
$DIMTOL
 70
     0
  9
$DIMLIM
 70
     0
  9
$DIMTIH
 70
     1
  9
$DIMTOH
 70
     1
  9
$DIMSE1
 70
     0
  9
$DIMSE2
 70
     0
  9
$DIMTAD
 70
     0
  9
$DIMZIN
 70
     0
  9
$DIMBLK
  1

  9
$DIMASO
 70
     1
  9
$DIMSHO
 70
     1
  9
$DIMPOST
  1

  9
$DIMAPOST
  1

  9
$DIMALT
 70
     0
  9
$DIMALTD
 70
     2
  9
$DIMALTF
 40
25.4
  9
$DIMLFAC
 40
1.0
  9
$DIMTOFL
 70
     0
  9
$DIMTVP
 40
0.0
  9
$DIMTIX
 70
     0
  9
$DIMSOXD
 70
     0
  9
$DIMSAH
 70
     0
  9
$DIMBLK1
  1

  9
$DIMBLK2
  1

  9
$DIMSTYLE
  2
Standard
  9
$DIMCLRD
 70
     0
  9
$DIMCLRE
 70
     0
  9
$DIMCLRT
 70
     0
  9
$DIMTFAC
 40
1.0
  9
$DIMGAP
 40
0.09
  9
$DIMJUST
 70
     0
  9
$DIMSD1
 70
     0
  9
$DIMSD2
 70
     0
  9
$DIMTOLJ
 70
     1
  9
$DIMTZIN
 70
     0
  9
$DIMALTZ
 70
     0
  9
$DIMALTTZ
 70
     0
  9
$DIMUPT
 70
     0
  9
$DIMDEC
 70
     4
  9
$DIMTDEC
 70
     4
  9
$DIMALTU
 70
     2
  9
$DIMALTTD
 70
     2
  9
$DIMTXSTY
  7
Standard
  9
$DIMAUNIT
 70
     0
  9
$DIMADEC
 70
     0
  9
$DIMALTRND
 40
0.0
  9
$DIMAZIN
 70
     0
  9
$DIMDSEP
 70
    46
  9
$DIMATFIT
 70
     3
  9
$DIMFRAC
 70
     0
  9
$DIMLDRBLK
  1

  9
$DIMLUNIT
 70
     2
  9
$DIMLWD
 70
    -2
  9
$DIMLWE
 70
    -2
  9
$DIMTMOVE
 70
     0
  9
$DIMFXL
 40
1.0
  9
$DIMFXLON
 70
     0
  9
$DIMJOGANG
 40
0.7853981633974483
  9
$DIMTFILL
 70
     0
  9
$DIMTFILLCLR
 70
     0
  9
$DIMARCSYM
 70
     0
  9
$DIMLTYPE
  6

  9
$DIMLTEX1
  6

  9
$DIMLTEX2
  6

  9
$DIMTXTDIRECTION
 70
     0
  9
$LUNITS
 70
     2
  9
$LUPREC
 70
     4
  9
$SKETCHINC
 40
0.1
  9
$FILLETRAD
 40
0.5
  9
$AUNITS
 70
     0
  9
$AUPREC
 70
     0
  9
$MENU
  1
.
  9
$ELEVATION
 40
0.0
  9
$PELEVATION
 40
0.0
  9
$THICKNESS
 40
0.0
  9
$LIMCHECK
 70
     0
  9
$CHAMFERA
 40
0.5
  9
$CHAMFERB
 40
0.5
  9
$CHAMFERC
 40
1.0
  9
$CHAMFERD
 40
0.0
  9
$SKPOLY
 70
     0
  9
$TDCREATE
 40
2457917.613831019
  9
$TDUCREATE
 40
2457917.238831019
  9
$TDUPDATE
 40
2457917.613831019
  9
$TDUUPDATE
 40
2457917.238831019
  9
$TDINDWG
 40
0.0000000116
  9
$TDUSRTIMER
 40
0.0000000116
  9
$USRTIMER
 70
     1
  9
$ANGBASE
 50
0.0
  9
$ANGDIR
 70
     0
  9
$PDMODE
 70
     0
  9
$PDSIZE
 40
0.0
  9
$PLINEWID
 40
0.0
  9
$SPLFRAME
 70
     0
  9
$SPLINETYPE
 70
     6
  9
$SPLINESEGS
 70
     8
  9
$HANDSEED
  5
153
  9
$SURFTAB1
 70
     6
  9
$SURFTAB2
 70
     6
  9
$SURFTYPE
 70
     6
  9
$SURFU
 70
     6
  9
$SURFV
 70
     6
  9
$UCSBASE
  2

  9
$UCSNAME
  2

  9
$UCSORG
 10
0.0
 20
0.0
 30
0.0
  9
$UCSXDIR
 10
1.0
 20
0.0
 30
0.0
  9
$UCSYDIR
 10
0.0
 20
1.0
 30
0.0
  9
$UCSORTHOREF
  2

  9
$UCSORTHOVIEW
 70
     0
  9
$UCSORGTOP
 10
0.0
 20
0.0
 30
0.0
  9
$UCSORGBOTTOM
 10
0.0
 20
0.0
 30
0.0
  9
$UCSORGLEFT
 10
0.0
 20
0.0
 30
0.0
  9
$UCSORGRIGHT
 10
0.0
 20
0.0
 30
0.0
  9
$UCSORGFRONT
 10
0.0
 20
0.0
 30
0.0
  9
$UCSORGBACK
 10
0.0
 20
0.0
 30
0.0
  9
$PUCSBASE
  2

  9
$PUCSNAME
  2

  9
$PUCSORG
 10
0.0
 20
0.0
 30
0.0
  9
$PUCSXDIR
 10
1.0
 20
0.0
 30
0.0
  9
$PUCSYDIR
 10
0.0
 20
1.0
 30
0.0
  9
$PUCSORTHOREF
  2

  9
$PUCSORTHOVIEW
 70
     0
  9
$PUCSORGTOP
 10
0.0
 20
0.0
 30
0.0
  9
$PUCSORGBOTTOM
 10
0.0
 20
0.0
 30
0.0
  9
$PUCSORGLEFT
 10
0.0
 20
0.0
 30
0.0
  9
$PUCSORGRIGHT
 10
0.0
 20
0.0
 30
0.0
  9
$PUCSORGFRONT
 10
0.0
 20
0.0
 30
0.0
  9
$PUCSORGBACK
 10
0.0
 20
0.0
 30
0.0
  9
$USERI1
 70
     0
  9
$USERI2
 70
     0
  9
$USERI3
 70
     0
  9
$USERI4
 70
     0
  9
$USERI5
 70
     0
  9
$USERR1
 40
0.0
  9
$USERR2
 40
0.0
  9
$USERR3
 40
0.0
  9
$USERR4
 40
0.0
  9
$USERR5
 40
0.0
  9
$WORLDVIEW
 70
     1
  9
$SHADEDGE
 70
     3
  9
$SHADEDIF
 70
    70
  9
$TILEMODE
 70
     1
  9
$MAXACTVP
 70
    64
  9
$PINSBASE
 10
0.0
 20
0.0
 30
0.0
  9
$PLIMCHECK
 70
     0
  9
$PEXTMIN
 10
1.000000000000000E+20
 20
1.000000000000000E+20
 30
1.000000000000000E+20
  9
$PEXTMAX
 10
-1.000000000000000E+20
 20
-1.000000000000000E+20
 30
-1.000000000000000E+20
  9
$PLIMMIN
 10
0.0
 20
0.0
  9
$PLIMMAX
 10
12.0
 20
9.0
  9
$UNITMODE
 70
     0
  9
$VISRETAIN
 70
     1
  9
$PLINEGEN
 70
     0
  9
$PSLTSCALE
 70
     1
  9
$TREEDEPTH
 70
  3020
  9
$CMLSTYLE
  2
Standard
  9
$CMLJUST
 70
     0
  9
$CMLSCALE
 40
1.0
  9
$PROXYGRAPHICS
 70
     1
  9
$MEASUREMENT
 70
     0
  9
$CELWEIGHT
370
    -1
  9
$ENDCAPS
280
     0
  9
$JOINSTYLE
280
     0
  9
$LWDISPLAY
290
     1
  9
$INSUNITS
 70
     1
  9
$HYPERLINKBASE
  1

  9
$STYLESHEET
  1

  9
$XEDIT
290
     1
  9
$CEPSNTYPE
380
     0
  9
$PSTYLEMODE
290
     1
  9
$FINGERPRINTGUID
  2
{B9140567-CC06-7F49-C9E2-691CC85CA324}
  9
$VERSIONGUID
  2
{FAEB1C32-E019-11D5-929B-00C0DF256EC4}
  9
$EXTNAMES
290
     1
  9
$PSVPSCALE
 40
0.0
  9
$OLESTARTUP
290
     0
  9
$SORTENTS
280
   127
  9
$INDEXCTL
280
     0
  9
$HIDETEXT
280
     1
  9
$XCLIPFRAME
280
     2
  9
$HALOGAP
280
     0
  9
$OBSCOLOR
 70
   257
  9
$OBSLTYPE
280
     0
  9
$INTERSECTIONDISPLAY
280
     0
  9
$INTERSECTIONCOLOR
 70
   257
  9
$DIMASSOC
280
     2
  9
$PROJECTNAME
  1

  9
$CAMERADISPLAY
290
     0
  9
$LENSLENGTH
 40
50.0
  9
$CAMERAHEIGHT
 40
0.0
  9
$STEPSPERSEC
 40
2.0
  9
$STEPSIZE
 40
6.0
  9
$3DDWFPREC
 40
2.0
  9
$PSOLWIDTH
 40
0.25
  9
$PSOLHEIGHT
 40
4.0
  9
$LOFTANG1
 40
1.570796326794897
  9
$LOFTANG2
 40
1.570796326794897
  9
$LOFTMAG1
 40
0.0
  9
$LOFTMAG2
 40
0.0
  9
$LOFTPARAM
 70
     7
  9
$LOFTNORMALS
280
     1
  9
$LATITUDE
 40
37.795
  9
$LONGITUDE
 40
-122.394
  9
$NORTHDIRECTION
 40
0.0
  9
$TIMEZONE
 70
 -8000
  9
$LIGHTGLYPHDISPLAY
280
     1
  9
$TILEMODELIGHTSYNCH
280
     1
  9
$CMATERIAL
347
3C
  9
$SOLIDHIST
280
     1
  9
$SHOWHIST
280
     1
  9
$DWFFRAME
280
     2
  9
$DGNFRAME
280
     2
  9
$REALWORLDSCALE
290
     1
  9
$INTERFERECOLOR
 62
   256
  9
$CSHADOW
280
     0
  9
$SHADOWPLANELOCATION
 40
0.0
  0
ENDSEC
  0
SECTION
  2
CLASSES
  0
CLASS
  1
ACDBDICTIONARYWDFLT
  2
AcDbDictionaryWithDefault
  3
ObjectDBX Classes
 90
        0
 91
        4
280
     0
281
     0
  0
CLASS
  1
VISUALSTYLE
  2
AcDbVisualStyle
  3
ObjectDBX Classes
 90
     4095
 91
        4
280
     0
281
     0
  0
CLASS
  1
MATERIAL
  2
AcDbMaterial
  3
ObjectDBX Classes
 90
     1153
 91
        4
280
     0
281
     0
  0
CLASS
  1
SUN
  2
AcDbSun
  3
SCENEOE
 90
     1024
 91
        4
280
     0
281
     0
  0
ENDSEC
  0
SECTION
  2
TABLES
  0
TABLE
  2
VPORT
  5
8
330
0
100
AcDbSymbolTable
 70
     1
  0
VPORT
  5
29
330
8
100
AcDbSymbolTableRecord
100
AcDbViewportTableRecord
  2
*Active
 70
     0
 10
0.0
 20
0.0
 11
1.0
 21
1.0
 12
0.0
 22
0.0
 13
0.0
 23
0.0
 14
0.5
 24
0.5
 15
0.5
 25
0.5
 16
0.0
 26
0.0
 36
1.0
 17
91.00082462281999
 27
-128.4993055234307
 37
0.0
 40
256.9986110468615
 41
0.7081814508812795
 42
50.0
 43
0.0
 44
0.0
 50
0.0
 51
0.0
 71
     0
 72
   100
 73
     1
 74
     3
 75
     0
 76
     0
 77
     0
 78
     0
281
     0
 65
     1
110
0.0
120
0.0
130
0.0
111
1.0
121
0.0
131
0.0
112
0.0
122
1.0
132
0.0
 79
     0
146
0.0
 60
     3
 61
     5
292
     1
282
     1
141
0.0
142
0.0
 63
   250
361
3F
  0
ENDTAB
  0
TABLE
  2
LTYPE
  5
5
330
0
100
AcDbSymbolTable
 70
     1
  0
LTYPE
  5
14
330
5
100
AcDbSymbolTableRecord
100
AcDbLinetypeTableRecord
  2
ByBlock
 70
     0
  3

 72
    65
 73
     0
 40
0.0
  0
LTYPE
  5
15
330
5
100
AcDbSymbolTableRecord
100
AcDbLinetypeTableRecord
  2
ByLayer
 70
     0
  3

 72
    65
 73
     0
 40
0.0
  0
LTYPE
  5
16
330
5
100
AcDbSymbolTableRecord
100
AcDbLinetypeTableRecord
  2
Continuous
 70
     0
  3
Solid line
 72
    65
 73
     0
 40
0.0
  0
ENDTAB
  0
TABLE
  2
LAYER
  5
2
330
0
100
AcDbSymbolTable
 70
     2
  0
LAYER
  5
10
330
2
100
AcDbSymbolTableRecord
100
AcDbLayerTableRecord
  2
0
 70
     0
 62
     7
  6
Continuous
370
    -3
390
F
347
3E
  0
LAYER
  5
40
330
2
100
AcDbSymbolTableRecord
100
AcDbLayerTableRecord
  2
_U+30EC_U+30A4_U+30E4_U+30FC 1
 70
     0
 62
     7
  6
Continuous
370
    -3
390
F
347
3E
  0
ENDTAB
  0
TABLE
  2
STYLE
  5
3
330
0
100
AcDbSymbolTable
 70
     1
  0
STYLE
  5
11
330
3
100
AcDbSymbolTableRecord
100
AcDbTextStyleTableRecord
  2
Standard
 70
     0
 40
0.0
 41
1.0
 50
0.0
 71
     0
 42
0.2
  3
txt
  4

  0
ENDTAB
  0
TABLE
  2
VIEW
  5
6
330
0
100
AcDbSymbolTable
 70
     0
  0
ENDTAB
  0
TABLE
  2
UCS
  5
7
330
0
100
AcDbSymbolTable
 70
     0
  0
ENDTAB
  0
TABLE
  2
APPID
  5
9
330
0
100
AcDbSymbolTable
 70
     1
  0
APPID
  5
12
330
9
100
AcDbSymbolTableRecord
100
AcDbRegAppTableRecord
  2
ACAD
 70
     0
  0
ENDTAB
  0
TABLE
  2
DIMSTYLE
  5
A
330
0
100
AcDbSymbolTable
 70
     1
100
AcDbDimStyleTable
  0
DIMSTYLE
105
27
330
A
100
AcDbSymbolTableRecord
100
AcDbDimStyleTableRecord
  2
Standard
 70
     0
178
     0
340
11
  0
ENDTAB
  0
TABLE
  2
BLOCK_RECORD
  5
1
330
0
100
AcDbSymbolTable
 70
    15
  0
BLOCK_RECORD
  5
1F
330
1
100
AcDbSymbolTableRecord
100
AcDbBlockTableRecord
  2
*Model_Space
340
22
 70
     0
280
     1
281
     0
  0
BLOCK_RECORD
  5
1B
330
1
100
AcDbSymbolTableRecord
100
AcDbBlockTableRecord
  2
*Paper_Space
340
1E
 70
     0
280
     1
281
     0
  0
BLOCK_RECORD
  5
23
330
1
100
AcDbSymbolTableRecord
100
AcDbBlockTableRecord
  2
*Paper_Space0
340
26
 70
     0
280
     1
281
     0
  0
BLOCK_RECORD
  5
55
330
1
100
AcDbSymbolTableRecord
100
AcDbBlockTableRecord
  2
block 2
340
0
102
{BLKREFS
331
56
102
}
 70
     0
280
     1
281
     0
  0
BLOCK_RECORD
  5
A4
330
1
100
AcDbSymbolTableRecord
100
AcDbBlockTableRecord
  2
block 3
340
0
102
{BLKREFS
331
A5
102
}
 70
     0
280
     1
281
     0
  0
BLOCK_RECORD
  5
B4
330
1
100
AcDbSymbolTableRecord
100
AcDbBlockTableRecord
  2
block 4
340
0
102
{BLKREFS
331
B5
102
}
 70
     0
280
     1
281
     0
  0
BLOCK_RECORD
  5
BA
330
1
100
AcDbSymbolTableRecord
100
AcDbBlockTableRecord
  2
block 5
340
0
102
{BLKREFS
331
BB
102
}
 70
     0
280
     1
281
     0
  0
BLOCK_RECORD
  5
CA
330
1
100
AcDbSymbolTableRecord
100
AcDbBlockTableRecord
  2
block 6
340
0
102
{BLKREFS
331
CB
102
}
 70
     0
280
     1
281
     0
  0
BLOCK_RECORD
  5
D0
330
1
100
AcDbSymbolTableRecord
100
AcDbBlockTableRecord
  2
block 7
340
0
102
{BLKREFS
331
D1
102
}
 70
     0
280
     1
281
     0
  0
BLOCK_RECORD
  5
E0
330
1
100
AcDbSymbolTableRecord
100
AcDbBlockTableRecord
  2
block 8
340
0
102
{BLKREFS
331
E1
102
}
 70
     0
280
     1
281
     0
  0
BLOCK_RECORD
  5
FC
330
1
100
AcDbSymbolTableRecord
100
AcDbBlockTableRecord
  2
block 9
340
0
102
{BLKREFS
331
FD
102
}
 70
     0
280
     1
281
     0
  0
BLOCK_RECORD
  5
10C
330
1
100
AcDbSymbolTableRecord
100
AcDbBlockTableRecord
  2
block 10
340
0
102
{BLKREFS
331
10D
102
}
 70
     0
280
     1
281
     0
  0
BLOCK_RECORD
  5
115
330
1
100
AcDbSymbolTableRecord
100
AcDbBlockTableRecord
  2
block 11
340
0
102
{BLKREFS
331
116
102
}
 70
     0
280
     1
281
     0
  0
BLOCK_RECORD
  5
125
330
1
100
AcDbSymbolTableRecord
100
AcDbBlockTableRecord
  2
block 12
340
0
102
{BLKREFS
331
126
102
}
 70
     0
280
     1
281
     0
  0
BLOCK_RECORD
  5
12D
330
1
100
AcDbSymbolTableRecord
100
AcDbBlockTableRecord
  2
block 13
340
0
102
{BLKREFS
331
12E
102
}
 70
     0
280
     1
281
     0
  0
BLOCK_RECORD
  5
139
330
1
100
AcDbSymbolTableRecord
100
AcDbBlockTableRecord
  2
block 14
340
0
102
{BLKREFS
331
13A
102
}
 70
     0
280
     1
281
     0
  0
BLOCK_RECORD
  5
14B
330
1
100
AcDbSymbolTableRecord
100
AcDbBlockTableRecord
  2
block 15
340
0
102
{BLKREFS
331
14C
102
}
 70
     0
280
     1
281
     0
  0
ENDTAB
  0
ENDSEC
  0
SECTION
  2
BLOCKS
  0
BLOCK
  5
20
330
1F
100
AcDbEntity
  8
0
100
AcDbBlockBegin
  2
*Model_Space
 70
     0
 10
0.0
 20
0.0
 30
0.0
  3
*Model_Space
  1

  0
ENDBLK
  5
21
330
1F
100
AcDbEntity
  8
0
100
AcDbBlockEnd
  0
BLOCK
  5
1C
330
1B
100
AcDbEntity
 67
     1
  8
0
100
AcDbBlockBegin
  2
*Paper_Space
 70
     0
 10
0.0
 20
0.0
 30
0.0
  3
*Paper_Space
  1

  0
ENDBLK
  5
1D
330
1B
100
AcDbEntity
 67
     1
  8
0
100
AcDbBlockEnd
  0
BLOCK
  5
24
330
23
100
AcDbEntity
  8
0
100
AcDbBlockBegin
  2
*Paper_Space0
 70
     0
 10
0.0
 20
0.0
 30
0.0
  3
*Paper_Space0
  1

  0
ENDBLK
  5
25
330
23
100
AcDbEntity
  8
0
100
AcDbBlockEnd
  0
BLOCK
  5
57
330
55
100
AcDbEntity
  8
0
100
AcDbBlockBegin
  2
block 2
 70
     0
 10
0.0
 20
0.0
 30
0.0
  3
block 2
  1

  0
POLYLINE
  5
59
330
55
100
AcDbEntity
  8
_U+30EC_U+30A4_U+30E4_U+30FC 1
 62
   179
420
  2234388
370
    25
100
AcDb2dPolyline
 66
     1
 10
0.0
 20
0.0
 30
0.0
  0
VERTEX
  5
5A
330
59
100
AcDbEntity
  8
_U+30EC_U+30A4_U+30E4_U+30FC 1
 62
   179
420
  2234388
370
    25
100
AcDbVertex
100
AcDb2dVertex
 10
73.66476062065539
 20
-129.3006402454529
 30
0.0
  0
VERTEX
  5
5B
330
59
100
AcDbEntity
  8
_U+30EC_U+30A4_U+30E4_U+30FC 1
 62
   179
420
  2234388
370
    25
100
AcDbVertex
100
AcDb2dVertex
 10
112.7648493453512
 20
-129.3006402454529
 30
0.0
  0
SEQEND
  5
5C
330
59
100
AcDbEntity
  8
_U+30EC_U+30A4_U+30E4_U+30FC 1
 62
   179
420
  2234388
370
    25
  0
POLYLINE
  5
5D
330
55
100
AcDbEntity
  8
_U+30EC_U+30A4_U+30E4_U+30FC 1
 62
   179
420
  2234388
370
    25
100
AcDb2dPolyline
 66
     1
 10
0.0
 20
0.0
 30
0.0
  0
VERTEX
  5
5E
330
5D
100
AcDbEntity
  8
_U+30EC_U+30A4_U+30E4_U+30FC 1
 62
   179
420
  2234388
370
    25
100
AcDbVertex
100
AcDb2dVertex
 10
79.76481942450309
 20
-139.3003732985084
 30
0.0
  0
VERTEX
  5
5F
330
5D
100
AcDbEntity
  8
_U+30EC_U+30A4_U+30E4_U+30FC 1
 62
   179
420
  2234388
370
    25
100
AcDbVertex
100
AcDb2dVertex
 10
82.76480427738282
 20
-139.3003732985084
 30
0.0
  0
SEQEND
  5
60
330
5D
100
AcDbEntity
  8
_U+30EC_U+30A4_U+30E4_U+30FC 1
 62
   179
420
  2234388
370
    25
  0
POLYLINE
  5
61
330
55
100
AcDbEntity
  8
_U+30EC_U+30A4_U+30E4_U+30FC 1
 62
   179
420
  2234388
370
    25
100
AcDb2dPolyline
 66
     1
 10
0.0
 20
0.0
 30
0.0
  0
VERTEX
  5
62
330
61
100
AcDbEntity
  8
_U+30EC_U+30A4_U+30E4_U+30FC 1
 62
   179
420
  2234388
370
    25
100
AcDbVertex
100
AcDb2dVertex
 10
72.76471869917293
 20
-142.3003602422028
 30
0.0
  0
VERTEX
  5
63
330
61
100
AcDbEntity
  8
_U+30EC_U+30A4_U+30E4_U+30FC 1
 62
   179
420
  2234388
370
    25
100
AcDbVertex
100
AcDb2dVertex
 10
82.76480427738282
 20
-142.3003602422028
 30
0.0
  0
SEQEND
  5
64
330
61
100
AcDbEntity
  8
_U+30EC_U+30A4_U+30E4_U+30FC 1
 62
   179
420
  2234388
370
    25
  0
POLYLINE
  5
65
330
55
100
AcDbEntity
  8
_U+30EC_U+30A4_U+30E4_U+30FC 1
 62
   179
420
  2234388
370
    25
100
AcDb2dPolyline
 66
     1
 10
0.0
 20
0.0
 30
0.0
  0
VERTEX
  5
66
330
65
100
AcDbEntity
  8
_U+30EC_U+30A4_U+30E4_U+30FC 1
 62
   179
420
  2234388
370
    25
100
AcDbVertex
100
AcDb2dVertex
 10
72.76471869917293
 20
-121.3004516363414
 30
0.0
  0
VERTEX
  5
67
330
65
100
AcDbEntity
  8
_U+30EC_U+30A4_U+30E4_U+30FC 1
 62
   179
420
  2234388
370
    25
100
AcDbVertex
100
AcDb2dVertex
 10
72.76471869917293
 20
-142.3003602422028
 30
0.0
  0
SEQEND
  5
68
330
65
100
AcDbEntity
  8
_U+30EC_U+30A4_U+30E4_U+30FC 1
 62
   179
420
  2234388
370
    25
  0
POLYLINE
  5
69
330
55
100
AcDbEntity
  8
_U+30EC_U+30A4_U+30E4_U+30FC 1
 62
   179
420
  2234388
370
    25
100
AcDb2dPolyline
 66
     1
 10
0.0
 20
0.0
 30
0.0
  0
VERTEX
  5
6A
330
69
100
AcDbEntity
  8
_U+30EC_U+30A4_U+30E4_U+30FC 1
 62
   179
420
  2234388
370
    25
100
AcDbVertex
100
AcDb2dVertex
 10
112.7648493453512
 20
-128.4001044123443
 30
0.0
  0
VERTEX
  5
6B
330
69
100
AcDbEntity
  8
_U+30EC_U+30A4_U+30E4_U+30FC 1
 62
   179
420
  2234388
370
    25
100
AcDbVertex
100
AcDb2dVertex
 10
112.7648493453512
 20
-129.3006402454529
 30
0.0
  0
SEQEND
  5
6C
330
69
100
AcDbEntity
  8
_U+30EC_U+30A4_U+30E4_U+30FC 1
 62
   179
420
  2234388
370
    25
  0
POLYLINE
  5
6D
330
55
100
AcDbEntity
  8
_U+30EC_U+30A4_U+30E4_U+30FC 1
 62
   179
420
  2234388
370
    25
100
AcDb2dPolyline
 66
     1
 10
0.0
 20
0.0
 30
0.0
  0
VERTEX
  5
6E
330
6D
100
AcDbEntity
  8
_U+30EC_U+30A4_U+30E4_U+30FC 1
 62
   179
420
  2234388
370
    25
100
AcDbVertex
100
AcDb2dVertex
 10
72.76471869917293
 20
-121.3004516363414
 30
0.0
  0
VERTEX
  5
6F
330
6D
100
AcDbEntity
  8
_U+30EC_U+30A4_U+30E4_U+30FC 1
 62
   179
420
  2234388
370
    25
100
AcDbVertex
100
AcDb2dVertex
 10
75.76470556708132
 20
-121.3004516363414
 30
0.0
  0
SEQEND
  5
70
330
6D
100
AcDbEntity
  8
_U+30EC_U+30A4_U+30E4_U+30FC 1
 62
   179
420
  2234388
370
    25
  0
POLYLINE
  5
71
330
55
100
AcDbEntity
  8
_U+30EC_U+30A4_U+30E4_U+30FC 1
 62
   179
420
  2234388
370
    25
100
AcDb2dPolyline
 66
     1
 10
0.0
 20
0.0
 30
0.0
  0
VERTEX
  5
72
330
71
100
AcDbEntity
  8
_U+30EC_U+30A4_U+30E4_U+30FC 1
 62
   179
420
  2234388
370
    25
100
AcDbVertex
100
AcDb2dVertex
 10
75.76470556708132
 20
-121.3004516363414
 30
0.0
  0
VERTEX
  5
73
330
71
100
AcDbEntity
  8
_U+30EC_U+30A4_U+30E4_U+30FC 1
 62
   179
420
  2234388
370
    25
100
AcDbVertex
100
AcDb2dVertex
 10
75.76470556708132
 20
-122.3001885805361
 30
0.0
  0
SEQEND
  5
74
330
71
100
AcDbEntity
  8
_U+30EC_U+30A4_U+30E4_U+30FC 1
 62
   179
420
  2234388
370
    25
  0
POLYLINE
  5
75
330
55
100
AcDbEntity
  8
_U+30EC_U+30A4_U+30E4_U+30FC 1
 62
   179
420
  2234388
370
    25
100
AcDb2dPolyline
 66
     1
 10
0.0
 20
0.0
 30
0.0
  0
VERTEX
  5
76
330
75
100
AcDbEntity
  8
_U+30EC_U+30A4_U+30E4_U+30FC 1
 62
   179
420
  2234388
370
    25
100
AcDbVertex
100
AcDb2dVertex
 10
73.66476062065539
 20
-122.3001885805361
 30
0.0
  0
VERTEX
  5
77
330
75
100
AcDbEntity
  8
_U+30EC_U+30A4_U+30E4_U+30FC 1
 62
   179
420
  2234388
370
    25
100
AcDbVertex
100
AcDb2dVertex
 10
75.76470556708132
 20
-122.3001885805361
 30
0.0
  0
SEQEND
  5
78
330
75
100
AcDbEntity
  8
_U+30EC_U+30A4_U+30E4_U+30FC 1
 62
   179
420
  2234388
370
    25
  0
POLYLINE
  5
79
330
55
100
AcDbEntity
  8
_U+30EC_U+30A4_U+30E4_U+30FC 1
 62
   179
420
  2234388
370
    25
100
AcDb2dPolyline
 66
     1
 10
0.0
 20
0.0
 30
0.0
  0
VERTEX
  5
7A
330
79
100
AcDbEntity
  8
_U+30EC_U+30A4_U+30E4_U+30FC 1
 62
   179
420
  2234388
370
    25
100
AcDbVertex
100
AcDb2dVertex
 10
82.76480427738282
 20
-139.3003732985084
 30
0.0
  0
VERTEX
  5
7B
330
79
100
AcDbEntity
  8
_U+30EC_U+30A4_U+30E4_U+30FC 1
 62
   179
420
  2234388
370
    25
100
AcDbVertex
100
AcDb2dVertex
 10
82.76480427738282
 20
-142.3003602422028
 30
0.0
  0
SEQEND
  5
7C
330
79
100
AcDbEntity
  8
_U+30EC_U+30A4_U+30E4_U+30FC 1
 62
   179
420
  2234388
370
    25
  0
POLYLINE
  5
7D
330
55
100
AcDbEntity
  8
_U+30EC_U+30A4_U+30E4_U+30FC 1
 62
   179
420
  2234388
370
    25
100
AcDb2dPolyline
 66
     1
 10
0.0
 20
0.0
 30
0.0
  0
VERTEX
  5
7E
330
7D
100
AcDbEntity
  8
_U+30EC_U+30A4_U+30E4_U+30FC 1
 62
   179
420
  2234388
370
    25
100
AcDbVertex
100
AcDb2dVertex
 10
79.76481942450309
 20
-139.3003732985084
 30
0.0
  0
VERTEX
  5
7F
330
7D
100
AcDbEntity
  8
_U+30EC_U+30A4_U+30E4_U+30FC 1
 62
   179
420
  2234388
370
    25
100
AcDbVertex
100
AcDb2dVertex
 10
79.76481942450309
 20
-140.3001455204804
 30
0.0
  0
SEQEND
  5
80
330
7D
100
AcDbEntity
  8
_U+30EC_U+30A4_U+30E4_U+30FC 1
 62
   179
420
  2234388
370
    25
  0
POLYLINE
  5
81
330
55
100
AcDbEntity
  8
_U+30EC_U+30A4_U+30E4_U+30FC 1
 62
   179
420
  2234388
370
    25
100
AcDb2dPolyline
 66
     1
 10
0.0
 20
0.0
 30
0.0
  0
VERTEX
  5
82
330
81
100
AcDbEntity
  8
_U+30EC_U+30A4_U+30E4_U+30FC 1
 62
   179
420
  2234388
370
    25
100
AcDbVertex
100
AcDb2dVertex
 10
79.76481942450309
 20
-140.3001455204804
 30
0.0
  0
VERTEX
  5
83
330
81
100
AcDbEntity
  8
_U+30EC_U+30A4_U+30E4_U+30FC 1
 62
   179
420
  2234388
370
    25
100
AcDbVertex
100
AcDb2dVertex
 10
81.76467930289813
 20
-140.3001455204804
 30
0.0
  0
SEQEND
  5
84
330
81
100
AcDbEntity
  8
_U+30EC_U+30A4_U+30E4_U+30FC 1
 62
   179
420
  2234388
370
    25
  0
POLYLINE
  5
85
330
55
100
AcDbEntity
  8
_U+30EC_U+30A4_U+30E4_U+30FC 1
 62
   179
420
  2234388
370
    25
100
AcDb2dPolyline
 66
     1
 10
0.0
 20
0.0
 30
0.0
  0
VERTEX
  5
86
330
85
100
AcDbEntity
  8
_U+30EC_U+30A4_U+30E4_U+30FC 1
 62
   179
420
  2234388
370
    25
100
AcDbVertex
100
AcDb2dVertex
 10
73.66476062065539
 20
-141.3005880202303
 30
0.0
  0
VERTEX
  5
87
330
85
100
AcDbEntity
  8
_U+30EC_U+30A4_U+30E4_U+30FC 1
 62
   179
420
  2234388
370
    25
100
AcDbVertex
100
AcDb2dVertex
 10
81.76467930289813
 20
-141.3005880202303
 30
0.0
  0
SEQEND
  5
88
330
85
100
AcDbEntity
  8
_U+30EC_U+30A4_U+30E4_U+30FC 1
 62
   179
420
  2234388
370
    25
  0
POLYLINE
  5
89
330
55
100
AcDbEntity
  8
_U+30EC_U+30A4_U+30E4_U+30FC 1
 62
   179
420
  2234388
370
    25
100
AcDb2dPolyline
 66
     1
 10
0.0
 20
0.0
 30
0.0
  0
VERTEX
  5
8A
330
89
100
AcDbEntity
  8
_U+30EC_U+30A4_U+30E4_U+30FC 1
 62
   179
420
  2234388
370
    25
100
AcDbVertex
100
AcDb2dVertex
 10
81.76467930289813
 20
-140.3001455204804
 30
0.0
  0
VERTEX
  5
8B
330
89
100
AcDbEntity
  8
_U+30EC_U+30A4_U+30E4_U+30FC 1
 62
   179
420
  2234388
370
    25
100
AcDbVertex
100
AcDb2dVertex
 10
81.76467930289813
 20
-141.3005880202303
 30
0.0
  0
SEQEND
  5
8C
330
89
100
AcDbEntity
  8
_U+30EC_U+30A4_U+30E4_U+30FC 1
 62
   179
420
  2234388
370
    25
  0
POLYLINE
  5
8D
330
55
100
AcDbEntity
  8
_U+30EC_U+30A4_U+30E4_U+30FC 1
 62
   179
420
  2234388
370
    25
100
AcDb2dPolyline
 66
     1
 10
0.0
 20
0.0
 30
0.0
  0
VERTEX
  5
8E
330
8D
100
AcDbEntity
  8
_U+30EC_U+30A4_U+30E4_U+30FC 1
 62
   179
420
  2234388
370
    25
100
AcDbVertex
100
AcDb2dVertex
 10
73.66476062065539
 20
-122.3001885805361
 30
0.0
  0
VERTEX
  5
8F
330
8D
100
AcDbEntity
  8
_U+30EC_U+30A4_U+30E4_U+30FC 1
 62
   179
420
  2234388
370
    25
100
AcDbVertex
100
AcDb2dVertex
 10
73.66476062065539
 20
-128.4001044123443
 30
0.0
  0
SEQEND
  5
90
330
8D
100
AcDbEntity
  8
_U+30EC_U+30A4_U+30E4_U+30FC 1
 62
   179
420
  2234388
370
    25
  0
POLYLINE
  5
91
330
55
100
AcDbEntity
  8
_U+30EC_U+30A4_U+30E4_U+30FC 1
 62
   179
420
  2234388
370
    25
100
AcDb2dPolyline
 66
     1
 10
0.0
 20
0.0
 30
0.0
  0
VERTEX
  5
92
330
91
100
AcDbEntity
  8
_U+30EC_U+30A4_U+30E4_U+30FC 1
 62
   179
420
  2234388
370
    25
100
AcDbVertex
100
AcDb2dVertex
 10
73.66476062065539
 20
-128.4001044123443
 30
0.0
  0
VERTEX
  5
93
330
91
100
AcDbEntity
  8
_U+30EC_U+30A4_U+30E4_U+30FC 1
 62
   179
420
  2234388
370
    25
100
AcDbVertex
100
AcDb2dVertex
 10
112.7648493453512
 20
-128.4001044123443
 30
0.0
  0
SEQEND
  5
94
330
91
100
AcDbEntity
  8
_U+30EC_U+30A4_U+30E4_U+30FC 1
 62
   179
420
  2234388
370
    25
  0
POLYLINE
  5
95
330
55
100
AcDbEntity
  8
_U+30EC_U+30A4_U+30E4_U+30FC 1
 62
   179
420
  2234388
370
    25
100
AcDb2dPolyline
 66
     1
 10
0.0
 20
0.0
 30
0.0
  0
VERTEX
  5
96
330
95
100
AcDbEntity
  8
_U+30EC_U+30A4_U+30E4_U+30FC 1
 62
   179
420
  2234388
370
    25
100
AcDbVertex
100
AcDb2dVertex
 10
73.66476062065539
 20
-129.3006402454529
 30
0.0
  0
VERTEX
  5
97
330
95
100
AcDbEntity
  8
_U+30EC_U+30A4_U+30E4_U+30FC 1
 62
   179
420
  2234388
370
    25
100
AcDbVertex
100
AcDb2dVertex
 10
73.66476062065539
 20
-141.3005880202303
 30
0.0
  0
SEQEND
  5
98
330
95
100
AcDbEntity
  8
_U+30EC_U+30A4_U+30E4_U+30FC 1
 62
   179
420
  2234388
370
    25
  0
SPLINE
  5
99
330
55
100
AcDbEntity
  8
_U+30EC_U+30A4_U+30E4_U+30FC 1
 62
   179
420
  2234388
370
     9
100
AcDbSpline
210
0.0
220
0.0
230
1.0
 70
    11
 71
     3
 72
    17
 73
    13
 74
     0
 42
0.0000000001
 43
0.0000000001
 12
1.0
 22
0.0
 32
0.0
 13
1.0
 23
0.0
 33
0.0
 40
0.0
 40
0.0
 40
0.0
 40
0.0
 40
1.0
 40
1.0
 40
1.0
 40
2.0
 40
2.0
 40
2.0
 40
3.0
 40
3.0
 40
3.0
 40
4.0
 40
4.0
 40
4.0
 40
4.0
 10
72.86480175217515
 20
-113.3002277494528
 30
0.0
 10
72.86480175217515
 20
-113.2451238605776
 30
0.0
 10
72.81999897554039
 20
-113.2003210828111
 30
0.0
 10
72.76471869917293
 20
-113.2003210828111
 30
0.0
 10
72.70943842280546
 20
-113.2003210828111
 30
0.0
 10
72.66481387072278
 20
-113.2451238605776
 30
0.0
 10
72.66481387072278
 20
-113.3002277494528
 30
0.0
 10
72.66481387072278
 20
-113.3553669161055
 30
0.0
 10
72.70943842280546
 20
-113.4001344160944
 30
0.0
 10
72.76471869917293
 20
-113.4001344160944
 30
0.0
 10
72.81999897554039
 20
-113.4001344160944
 30
0.0
 10
72.86480175217515
 20
-113.3553669161055
 30
0.0
 10
72.86480175217515
 20
-113.3002277494528
 30
0.0
  0
SPLINE
  5
9A
330
55
100
AcDbEntity
  8
_U+30EC_U+30A4_U+30E4_U+30FC 1
 62
   179
420
  2234388
370
     9
100
AcDbSpline
210
0.0
220
0.0
230
1.0
 70
    11
 71
     3
 72
    17
 73
    13
 74
     0
 42
0.0000000001
 43
0.0000000001
 12
1.0
 22
0.0
 32
0.0
 13
1.0
 23
0.0
 33
0.0
 40
0.0
 40
0.0
 40
0.0
 40
0.0
 40
1.0
 40
1.0
 40
1.0
 40
2.0
 40
2.0
 40
2.0
 40
3.0
 40
3.0
 40
3.0
 40
4.0
 40
4.0
 40
4.0
 40
4.0
 10
72.86480175217515
 20
-117.2999869151193
 30
0.0
 10
72.86480175217515
 20
-117.2448830262444
 30
0.0
 10
72.81999897554039
 20
-117.2000802484777
 30
0.0
 10
72.76471869917293
 20
-117.2000802484777
 30
0.0
 10
72.70943842280546
 20
-117.2000802484777
 30
0.0
 10
72.66481387072278
 20
-117.2448830262444
 30
0.0
 10
72.66481387072278
 20
-117.2999869151193
 30
0.0
 10
72.66481387072278
 20
-117.3557963595498
 30
0.0
 10
72.70943842280546
 20
-117.4005991373165
 30
0.0
 10
72.76471869917293
 20
-117.4005991373165
 30
0.0
 10
72.81999897554039
 20
-117.4005991373165
 30
0.0
 10
72.86480175217515
 20
-117.3557963595498
 30
0.0
 10
72.86480175217515
 20
-117.2999869151193
 30
0.0
  0
SPLINE
  5
9B
330
55
100
AcDbEntity
  8
_U+30EC_U+30A4_U+30E4_U+30FC 1
 62
   179
420
  2234388
370
     9
100
AcDbSpline
210
0.0
220
0.0
230
1.0
 70
    11
 71
     3
 72
    17
 73
    13
 74
     0
 42
0.0000000001
 43
0.0000000001
 12
1.0
 22
0.0
 32
0.0
 13
1.0
 23
0.0
 33
0.0
 40
0.0
 40
0.0
 40
0.0
 40
0.0
 40
1.0
 40
1.0
 40
1.0
 40
2.0
 40
2.0
 40
2.0
 40
3.0
 40
3.0
 40
3.0
 40
4.0
 40
4.0
 40
4.0
 40
4.0
 10
75.86478862008356
 20
-117.2999869151193
 30
0.0
 10
75.86478862008356
 20
-117.2448830262444
 30
0.0
 10
75.82002112122566
 20
-117.2000802484777
 30
0.0
 10
75.76470556708132
 20
-117.2000802484777
 30
0.0
 10
75.70960167959825
 20
-117.2000802484777
 30
0.0
 10
75.6647989029635
 20
-117.2448830262444
 30
0.0
 10
75.6647989029635
 20
-117.2999869151193
 30
0.0
 10
75.6647989029635
 20
-117.3557963595498
 30
0.0
 10
75.70960167959825
 20
-117.4005991373165
 30
0.0
 10
75.76470556708132
 20
-117.4005991373165
 30
0.0
 10
75.82002112122566
 20
-117.4005991373165
 30
0.0
 10
75.86478862008356
 20
-117.3557963595498
 30
0.0
 10
75.86478862008356
 20
-117.2999869151193
 30
0.0
  0
SPLINE
  5
9C
330
55
100
AcDbEntity
  8
_U+30EC_U+30A4_U+30E4_U+30FC 1
 62
   179
420
  2234388
370
     9
100
AcDbSpline
210
0.0
220
0.0
230
1.0
 70
    11
 71
     3
 72
    17
 73
    13
 74
     0
 42
0.0000000001
 43
0.0000000001
 12
1.0
 22
0.0
 32
0.0
 13
1.0
 23
0.0
 33
0.0
 40
0.0
 40
0.0
 40
0.0
 40
0.0
 40
1.0
 40
1.0
 40
1.0
 40
2.0
 40
2.0
 40
2.0
 40
3.0
 40
3.0
 40
3.0
 40
4.0
 40
4.0
 40
4.0
 40
4.0
 10
112.8647560094691
 20
-113.3002277494528
 30
0.0
 10
112.8647560094691
 20
-113.2451238605776
 30
0.0
 10
112.8199885106112
 20
-113.2003210828111
 30
0.0
 10
112.7648493453512
 20
-113.2003210828111
 30
0.0
 10
112.7097454578682
 20
-113.2003210828111
 30
0.0
 10
112.6649426812334
 20
-113.2451238605776
 30
0.0
 10
112.6649426812334
 20
-113.3002277494528
 30
0.0
 10
112.6649426812334
 20
-113.3553669161055
 30
0.0
 10
112.7097454578682
 20
-113.4001344160944
 30
0.0
 10
112.7648493453512
 20
-113.4001344160944
 30
0.0
 10
112.8199885106112
 20
-113.4001344160944
 30
0.0
 10
112.8647560094691
 20
-113.3553669161055
 30
0.0
 10
112.8647560094691
 20
-113.3002277494528
 30
0.0
  0
SPLINE
  5
9D
330
55
100
AcDbEntity
  8
_U+30EC_U+30A4_U+30E4_U+30FC 1
 62
   179
420
  2234388
370
     9
100
AcDbSpline
210
0.0
220
0.0
230
1.0
 70
    11
 71
     3
 72
    17
 73
    13
 74
     0
 42
0.0000000001
 43
0.0000000001
 12
1.0
 22
0.0
 32
0.0
 13
1.0
 23
0.0
 33
0.0
 40
0.0
 40
0.0
 40
0.0
 40
0.0
 40
1.0
 40
1.0
 40
1.0
 40
2.0
 40
2.0
 40
2.0
 40
3.0
 40
3.0
 40
3.0
 40
4.0
 40
4.0
 40
4.0
 40
4.0
 10
116.8645150740934
 20
-129.3006402454529
 30
0.0
 10
116.8645150740934
 20
-129.2448308010225
 30
0.0
 10
116.8197475752355
 20
-129.2000280232557
 30
0.0
 10
116.7646084099756
 20
-129.2000280232557
 30
0.0
 10
116.7095045224925
 20
-129.2000280232557
 30
0.0
 10
116.6647017458577
 20
-129.2448308010225
 30
0.0
 10
116.6647017458577
 20
-129.3006402454529
 30
0.0
 10
116.6647017458577
 20
-129.3557441343278
 30
0.0
 10
116.7095045224925
 20
-129.4005469120945
 30
0.0
 10
116.7646084099756
 20
-129.4005469120945
 30
0.0
 10
116.8197475752355
 20
-129.4005469120945
 30
0.0
 10
116.8645150740934
 20
-129.3557441343278
 30
0.0
 10
116.8645150740934
 20
-129.3006402454529
 30
0.0
  0
SPLINE
  5
9E
330
55
100
AcDbEntity
  8
_U+30EC_U+30A4_U+30E4_U+30FC 1
 62
   179
420
  2234388
370
     9
100
AcDbSpline
210
0.0
220
0.0
230
1.0
 70
    11
 71
     3
 72
    17
 73
    13
 74
     0
 42
0.0000000001
 43
0.0000000001
 12
1.0
 22
0.0
 32
0.0
 13
1.0
 23
0.0
 33
0.0
 40
0.0
 40
0.0
 40
0.0
 40
0.0
 40
1.0
 40
1.0
 40
1.0
 40
2.0
 40
2.0
 40
2.0
 40
3.0
 40
3.0
 40
3.0
 40
4.0
 40
4.0
 40
4.0
 40
4.0
 10
116.8645150740934
 20
-139.3003732985084
 30
0.0
 10
116.8645150740934
 20
-139.2452341318554
 30
0.0
 10
116.8197475752355
 20
-139.2004666318668
 30
0.0
 10
116.7646084099756
 20
-139.2004666318668
 30
0.0
 10
116.7095045224925
 20
-139.2004666318668
 30
0.0
 10
116.6647017458577
 20
-139.2452341318554
 30
0.0
 10
116.6647017458577
 20
-139.3003732985084
 30
0.0
 10
116.6647017458577
 20
-139.3554771873834
 30
0.0
 10
116.7095045224925
 20
-139.4002799651501
 30
0.0
 10
116.7646084099756
 20
-139.4002799651501
 30
0.0
 10
116.8197475752355
 20
-139.4002799651501
 30
0.0
 10
116.8645150740934
 20
-139.3554771873834
 30
0.0
 10
116.8645150740934
 20
-139.3003732985084
 30
0.0
  0
SPLINE
  5
9F
330
55
100
AcDbEntity
  8
_U+30EC_U+30A4_U+30E4_U+30FC 1
 62
   179
420
  2234388
370
     9
100
AcDbSpline
210
0.0
220
0.0
230
1.0
 70
    11
 71
     3
 72
    17
 73
    13
 74
     0
 42
0.0000000001
 43
0.0000000001
 12
1.0
 22
0.0
 32
0.0
 13
1.0
 23
0.0
 33
0.0
 40
0.0
 40
0.0
 40
0.0
 40
0.0
 40
1.0
 40
1.0
 40
1.0
 40
2.0
 40
2.0
 40
2.0
 40
3.0
 40
3.0
 40
3.0
 40
4.0
 40
4.0
 40
4.0
 40
4.0
 10
116.8645150740934
 20
-142.3003602422028
 30
0.0
 10
116.8645150740934
 20
-142.2452210755497
 30
0.0
 10
116.8197475752355
 20
-142.2004535755612
 30
0.0
 10
116.7646084099756
 20
-142.2004535755612
 30
0.0
 10
116.7095045224925
 20
-142.2004535755612
 30
0.0
 10
116.6647017458577
 20
-142.2452210755497
 30
0.0
 10
116.6647017458577
 20
-142.3003602422028
 30
0.0
 10
116.6647017458577
 20
-142.3554641310777
 30
0.0
 10
116.7095045224925
 20
-142.4002669088444
 30
0.0
 10
116.7646084099756
 20
-142.4002669088444
 30
0.0
 10
116.8197475752355
 20
-142.4002669088444
 30
0.0
 10
116.8645150740934
 20
-142.3554641310777
 30
0.0
 10
116.8645150740934
 20
-142.3003602422028
 30
0.0
  0
SPLINE
  5
A0
330
55
100
AcDbEntity
  8
_U+30EC_U+30A4_U+30E4_U+30FC 1
 62
   179
420
  2234388
370
     9
100
AcDbSpline
210
0.0
220
0.0
230
1.0
 70
    11
 71
     3
 72
    17
 73
    13
 74
     0
 42
0.0000000001
 43
0.0000000001
 12
1.0
 22
0.0
 32
0.0
 13
1.0
 23
0.0
 33
0.0
 40
0.0
 40
0.0
 40
0.0
 40
0.0
 40
1.0
 40
1.0
 40
1.0
 40
2.0
 40
2.0
 40
2.0
 40
3.0
 40
3.0
 40
3.0
 40
4.0
 40
4.0
 40
4.0
 40
4.0
 10
72.86480175217515
 20
-146.3001194078697
 30
0.0
 10
72.86480175217515
 20
-146.2449802412166
 30
0.0
 10
72.81999897554039
 20
-146.2002127412281
 30
0.0
 10
72.76471869917293
 20
-146.2002127412281
 30
0.0
 10
72.70943842280546
 20
-146.2002127412281
 30
0.0
 10
72.66481387072278
 20
-146.2449802412166
 30
0.0
 10
72.66481387072278
 20
-146.3001194078697
 30
0.0
 10
72.66481387072278
 20
-146.3559288523001
 30
0.0
 10
72.70943842280546
 20
-146.4006963522887
 30
0.0
 10
72.76471869917293
 20
-146.4006963522887
 30
0.0
 10
72.81999897554039
 20
-146.4006963522887
 30
0.0
 10
72.86480175217515
 20
-146.3559288523001
 30
0.0
 10
72.86480175217515
 20
-146.3001194078697
 30
0.0
  0
SPLINE
  5
A1
330
55
100
AcDbEntity
  8
_U+30EC_U+30A4_U+30E4_U+30FC 1
 62
   179
420
  2234388
370
     9
100
AcDbSpline
210
0.0
220
0.0
230
1.0
 70
    11
 71
     3
 72
    17
 73
    13
 74
     0
 42
0.0000000001
 43
0.0000000001
 12
1.0
 22
0.0
 32
0.0
 13
1.0
 23
0.0
 33
0.0
 40
0.0
 40
0.0
 40
0.0
 40
0.0
 40
1.0
 40
1.0
 40
1.0
 40
2.0
 40
2.0
 40
2.0
 40
3.0
 40
3.0
 40
3.0
 40
4.0
 40
4.0
 40
4.0
 40
4.0
 10
82.86471094150066
 20
-146.3001194078697
 30
0.0
 10
82.86471094150066
 20
-146.2449802412166
 30
0.0
 10
82.8199081648659
 20
-146.2002127412281
 30
0.0
 10
82.76480427738282
 20
-146.2002127412281
 30
0.0
 10
82.70966511212288
 20
-146.2002127412281
 30
0.0
 10
82.66489761326498
 20
-146.2449802412166
 30
0.0
 10
82.66489761326498
 20
-146.3001194078697
 30
0.0
 10
82.66489761326498
 20
-146.3559288523001
 30
0.0
 10
82.70966511212288
 20
-146.4006963522887
 30
0.0
 10
82.76480427738282
 20
-146.4006963522887
 30
0.0
 10
82.8199081648659
 20
-146.4006963522887
 30
0.0
 10
82.86471094150066
 20
-146.3559288523001
 30
0.0
 10
82.86471094150066
 20
-146.3001194078697
 30
0.0
  0
SPLINE
  5
A2
330
55
100
AcDbEntity
  8
_U+30EC_U+30A4_U+30E4_U+30FC 1
 62
   179
420
  2234388
370
     9
100
AcDbSpline
210
0.0
220
0.0
230
1.0
 70
    11
 71
     3
 72
    17
 73
    13
 74
     0
 42
0.0000000001
 43
0.0000000001
 12
1.0
 22
0.0
 32
0.0
 13
1.0
 23
0.0
 33
0.0
 40
0.0
 40
0.0
 40
0.0
 40
0.0
 40
1.0
 40
1.0
 40
1.0
 40
2.0
 40
2.0
 40
2.0
 40
3.0
 40
3.0
 40
3.0
 40
4.0
 40
4.0
 40
4.0
 40
4.0
 10
68.0810999297731
 20
-121.3004516363414
 30
0.0
 10
68.0810999297731
 20
-121.2453124696887
 30
0.0
 10
68.03633243091522
 20
-121.200509691922
 30
0.0
 10
67.98119326565526
 20
-121.200509691922
 30
0.0
 10
67.92591298928781
 20
-121.200509691922
 30
0.0
 10
67.88111021265304
 20
-121.2453124696887
 30
0.0
 10
67.88111021265304
 20
-121.3004516363414
 30
0.0
 10
67.88111021265304
 20
-121.3555555252167
 30
0.0
 10
67.92591298928781
 20
-121.4003583029834
 30
0.0
 10
67.98119326565526
 20
-121.4003583029834
 30
0.0
 10
68.03633243091522
 20
-121.4003583029834
 30
0.0
 10
68.0810999297731
 20
-121.3555555252167
 30
0.0
 10
68.0810999297731
 20
-121.3004516363414
 30
0.0
  0
SPLINE
  5
A3
330
55
100
AcDbEntity
  8
_U+30EC_U+30A4_U+30E4_U+30FC 1
 62
   179
420
  2234388
370
     9
100
AcDbSpline
210
0.0
220
0.0
230
1.0
 70
    11
 71
     3
 72
    17
 73
    13
 74
     0
 42
0.0000000001
 43
0.0000000001
 12
1.0
 22
0.0
 32
0.0
 13
1.0
 23
0.0
 33
0.0
 40
0.0
 40
0.0
 40
0.0
 40
0.0
 40
1.0
 40
1.0
 40
1.0
 40
2.0
 40
2.0
 40
2.0
 40
3.0
 40
3.0
 40
3.0
 40
4.0
 40
4.0
 40
4.0
 40
4.0
 10
68.0810999297731
 20
-142.3003602422028
 30
0.0
 10
68.0810999297731
 20
-142.2452210755497
 30
0.0
 10
68.03633243091522
 20
-142.2004535755612
 30
0.0
 10
67.98119326565526
 20
-142.2004535755612
 30
0.0
 10
67.92591298928781
 20
-142.2004535755612
 30
0.0
 10
67.88111021265304
 20
-142.2452210755497
 30
0.0
 10
67.88111021265304
 20
-142.3003602422028
 30
0.0
 10
67.88111021265304
 20
-142.3554641310777
 30
0.0
 10
67.92591298928781
 20
-142.4002669088444
 30
0.0
 10
67.98119326565526
 20
-142.4002669088444
 30
0.0
 10
68.03633243091522
 20
-142.4002669088444
 30
0.0
 10
68.0810999297731
 20
-142.3554641310777
 30
0.0
 10
68.0810999297731
 20
-142.3003602422028
 30
0.0
  0
INSERT
  5
A5
330
55
100
AcDbEntity
  8
_U+30EC_U+30A4_U+30E4_U+30FC 1
100
AcDbBlockReference
  2
block 3
 10
0.0
 20
0.0
 30
0.0
  0
INSERT
  5
BB
330
55
100
AcDbEntity
  8
_U+30EC_U+30A4_U+30E4_U+30FC 1
100
AcDbBlockReference
  2
block 5
 10
0.0
 20
0.0
 30
0.0
  0
INSERT
  5
D1
330
55
100
AcDbEntity
  8
_U+30EC_U+30A4_U+30E4_U+30FC 1
100
AcDbBlockReference
  2
block 7
 10
0.0
 20
0.0
 30
0.0
  0
INSERT
  5
FD
330
55
100
AcDbEntity
  8
_U+30EC_U+30A4_U+30E4_U+30FC 1
100
AcDbBlockReference
  2
block 9
 10
0.0
 20
0.0
 30
0.0
  0
INSERT
  5
116
330
55
100
AcDbEntity
  8
_U+30EC_U+30A4_U+30E4_U+30FC 1
100
AcDbBlockReference
  2
block 11
 10
0.0
 20
0.0
 30
0.0
  0
INSERT
  5
12E
330
55
100
AcDbEntity
  8
_U+30EC_U+30A4_U+30E4_U+30FC 1
100
AcDbBlockReference
  2
block 13
 10
0.0
 20
0.0
 30
0.0
  0
ENDBLK
  5
58
330
55
100
AcDbEntity
  8
0
100
AcDbBlockEnd
  0
BLOCK
  5
A6
330
A4
100
AcDbEntity
  8
0
100
AcDbBlockBegin
  2
block 3
 70
     0
 10
0.0
 20
0.0
 30
0.0
  3
block 3
  1

  0
POLYLINE
  5
A8
330
A4
100
AcDbEntity
  8
_U+30EC_U+30A4_U+30E4_U+30FC 1
 62
   179
420
  2234388
370
     9
100
AcDb2dPolyline
 66
     1
 10
0.0
 20
0.0
 30
0.0
  0
VERTEX
  5
A9
330
A8
100
AcDbEntity
  8
_U+30EC_U+30A4_U+30E4_U+30FC 1
 62
   179
420
  2234388
370
     9
100
AcDbVertex
100
AcDb2dVertex
 10
116.7646084099756
 20
-139.3003732985084
 30
0.0
  0
VERTEX
  5
AA
330
A8
100
AcDbEntity
  8
_U+30EC_U+30A4_U+30E4_U+30FC 1
 62
   179
420
  2234388
370
     9
100
AcDbVertex
100
AcDb2dVertex
 10
116.7646084099756
 20
-142.3003602422028
 30
0.0
  0
SEQEND
  5
AB
330
A8
100
AcDbEntity
  8
_U+30EC_U+30A4_U+30E4_U+30FC 1
 62
   179
420
  2234388
370
     9
  0
POLYLINE
  5
AC
330
A4
100
AcDbEntity
  8
_U+30EC_U+30A4_U+30E4_U+30FC 1
 62
   179
420
  2234388
370
     9
100
AcDb2dPolyline
 66
     1
 10
0.0
 20
0.0
 30
0.0
  0
VERTEX
  5
AD
330
AC
100
AcDbEntity
  8
_U+30EC_U+30A4_U+30E4_U+30FC 1
 62
   179
420
  2234388
370
     9
100
AcDbVertex
100
AcDb2dVertex
 10
85.30452199036701
 20
-139.3003732985084
 30
0.0
  0
VERTEX
  5
AE
330
AC
100
AcDbEntity
  8
_U+30EC_U+30A4_U+30E4_U+30FC 1
 62
   179
420
  2234388
370
     9
100
AcDbVertex
100
AcDb2dVertex
 10
117.765086162229
 20
-139.3003732985084
 30
0.0
  0
SEQEND
  5
AF
330
AC
100
AcDbEntity
  8
_U+30EC_U+30A4_U+30E4_U+30FC 1
 62
   179
420
  2234388
370
     9
  0
POLYLINE
  5
B0
330
A4
100
AcDbEntity
  8
_U+30EC_U+30A4_U+30E4_U+30FC 1
 62
   179
420
  2234388
370
     9
100
AcDb2dPolyline
 66
     1
 10
0.0
 20
0.0
 30
0.0
  0
VERTEX
  5
B1
330
B0
100
AcDbEntity
  8
_U+30EC_U+30A4_U+30E4_U+30FC 1
 62
   179
420
  2234388
370
     9
100
AcDbVertex
100
AcDb2dVertex
 10
85.30452199036701
 20
-142.3003602422028
 30
0.0
  0
VERTEX
  5
B2
330
B0
100
AcDbEntity
  8
_U+30EC_U+30A4_U+30E4_U+30FC 1
 62
   179
420
  2234388
370
     9
100
AcDbVertex
100
AcDb2dVertex
 10
117.765086162229
 20
-142.3003602422028
 30
0.0
  0
SEQEND
  5
B3
330
B0
100
AcDbEntity
  8
_U+30EC_U+30A4_U+30E4_U+30FC 1
 62
   179
420
  2234388
370
     9
  0
INSERT
  5
B5
330
A4
100
AcDbEntity
  8
_U+30EC_U+30A4_U+30E4_U+30FC 1
100
AcDbBlockReference
  2
block 4
 10
0.0
 20
0.0
 30
0.0
  0
ENDBLK
  5
A7
330
A4
100
AcDbEntity
  8
0
100
AcDbBlockEnd
  0
BLOCK
  5
B6
330
B4
100
AcDbEntity
  8
0
100
AcDbBlockBegin
  2
block 4
 70
     0
 10
0.0
 20
0.0
 30
0.0
  3
block 4
  1

  0
SPLINE
  5
B8
330
B4
100
AcDbEntity
  8
_U+30EC_U+30A4_U+30E4_U+30FC 1
370
     0
100
AcDbSpline
210
0.0
220
0.0
230
1.0
 70
    11
 71
     3
 72
    62
 73
    58
 74
     0
 42
0.0000000001
 43
0.0000000001
 12
1.0
 22
0.0
 32
0.0
 13
1.0
 23
0.0
 33
0.0
 40
0.0
 40
0.0
 40
0.0
 40
0.0
 40
1.0
 40
1.0
 40
1.0
 40
2.0
 40
2.0
 40
2.0
 40
3.0
 40
3.0
 40
3.0
 40
4.0
 40
4.0
 40
4.0
 40
5.0
 40
5.0
 40
5.0
 40
6.0
 40
6.0
 40
6.0
 40
7.0
 40
7.0
 40
7.0
 40
8.0
 40
8.0
 40
8.0
 40
9.0
 40
9.0
 40
9.0
 40
10.0
 40
10.0
 40
10.0
 40
11.0
 40
11.0
 40
11.0
 40
12.0
 40
12.0
 40
12.0
 40
13.0
 40
13.0
 40
13.0
 40
14.0
 40
14.0
 40
14.0
 40
15.0
 40
15.0
 40
15.0
 40
16.0
 40
16.0
 40
16.0
 40
17.0
 40
17.0
 40
17.0
 40
18.0
 40
18.0
 40
18.0
 40
19.0
 40
19.0
 40
19.0
 40
19.0
 10
116.1693087817216
 20
-140.810354239971
 30
0.0
 10
116.1693087817216
 20
-140.9119845567859
 30
0.0
 10
116.1482936992615
 20
-141.1448730115888
 30
0.0
 10
115.9622585430581
 20
-141.278198206868
 30
0.0
 10
115.8499484302389
 20
-141.3574354030287
 30
0.0
 10
115.7507296802637
 20
-141.3619140271595
 30
0.0
 10
115.6659803313266
 20
-141.3663926512903
 30
0.0
 10
115.6659803313266
 20
-141.3663926512903
 30
0.0
 10
115.6659803313266
 20
-141.1314371391963
 30
0.0
 10
115.6659803313266
 20
-141.1314371391963
 30
0.0
 10
115.7400498842594
 20
-141.1290255723567
 30
0.0
 10
115.974660886805
 20
-141.1176567572553
 30
0.0
 10
115.974660886805
 20
-140.8148328641018
 30
0.0
 10
115.974660886805
 20
-140.6677272868817
 30
0.0
 10
115.9050699580029
 20
-140.5051187799779
 30
0.0
 10
115.6766601273308
 20
-140.5051187799779
 30
0.0
 10
115.5602158999294
 20
-140.5051187799779
 30
0.0
 10
115.5116400535874
 20
-140.5457709067038
 30
0.0
 10
115.4799451751231
 20
-140.5798773520078
 30
0.0
 10
115.4058756221902
 20
-140.65877003862
 30
0.0
 10
115.3931287688948
 20
-140.7831379856376
 30
0.0
 10
115.3931287688948
 20
-140.8420491184353
 30
0.0
 10
115.3931287688948
 20
-140.8623751817983
 30
0.0
 10
115.3951958261859
 20
-140.9006157416846
 30
0.0
 10
115.3993299407682
 20
-140.9302435628577
 30
0.0
 10
115.3993299407682
 20
-140.9302435628577
 30
0.0
 10
115.2046820458516
 20
-140.9302435628577
 30
0.0
 10
115.2046820458516
 20
-140.9302435628577
 30
0.0
 10
115.2112277272736
 20
-140.8895914361318
 30
0.0
 10
115.2132947845647
 20
-140.8441161757265
 30
0.0
 10
115.2132947845647
 20
-140.8375704943045
 30
0.0
 10
115.2132947845647
 20
-140.7672905464054
 30
0.0
 10
115.1919351925562
 20
-140.5547281549655
 30
0.0
 10
114.9552571327195
 20
-140.5547281549655
 30
0.0
 10
114.7774902056806
 20
-140.5547281549655
 30
0.0
 10
114.7223686779166
 20
-140.6949435412152
 30
0.0
 10
114.7223686779166
 20
-140.8124212972622
 30
0.0
 10
114.7223686779166
 20
-141.0952636366012
 30
0.0
 10
114.9552571327195
 20
-141.1042208848628
 30
0.0
 10
115.0269151188127
 20
-141.1086995089937
 30
0.0
 10
115.0269151188127
 20
-141.1086995089937
 30
0.0
 10
115.0269151188127
 20
-141.3257405245644
 30
0.0
 10
115.0269151188127
 20
-141.3257405245644
 30
0.0
 10
114.9022026622467
 20
-141.3167832763027
 30
0.0
 10
114.5256537257089
 20
-141.2874999646781
 30
0.0
 10
114.5256537257089
 20
-140.7989854248697
 30
0.0
 10
114.5256537257089
 20
-140.5592067790963
 30
0.0
 10
114.6527777491146
 20
-140.3015136367996
 30
0.0
 10
114.9487114512976
 20
-140.3015136367996
 30
0.0
 10
115.1350911170496
 20
-140.3015136367996
 30
0.0
 10
115.217428899147
 20
-140.403488463163
 30
0.0
 10
115.2787515987845
 20
-140.5095974041087
 30
0.0
 10
115.3063123626665
 20
-140.444140589889
 30
0.0
 10
115.3865830874728
 20
-140.2494926949724
 30
0.0
 10
115.6639132740354
 20
-140.2494926949724
 30
0.0
 10
116.0022216506869
 20
-140.2494926949724
 30
0.0
 10
116.1693087817216
 20
-140.5140760282395
 30
0.0
 10
116.1693087817216
 20
-140.810354239971
 30
0.0
  0
HATCH
  5
B9
330
B4
100
AcDbEntity
  8
_U+30EC_U+30A4_U+30E4_U+30FC 1
 62
   179
420
  2234388
100
AcDbHatch
 10
0.0
 20
0.0
 30
0.0
210
0.0
220
0.0
230
1.0
  2
SOLID
 70
     1
 71
     0
 91
        1
 92
        1
 93
        1
 72
     4
 94
        3
 73
     0
 74
     1
 95
       62
 96
       58
 40
0.0
 40
0.0
 40
0.0
 40
0.0
 40
1.0
 40
1.0
 40
1.0
 40
2.0
 40
2.0
 40
2.0
 40
3.0
 40
3.0
 40
3.0
 40
4.0
 40
4.0
 40
4.0
 40
5.0
 40
5.0
 40
5.0
 40
6.0
 40
6.0
 40
6.0
 40
7.0
 40
7.0
 40
7.0
 40
8.0
 40
8.0
 40
8.0
 40
9.0
 40
9.0
 40
9.0
 40
10.0
 40
10.0
 40
10.0
 40
11.0
 40
11.0
 40
11.0
 40
12.0
 40
12.0
 40
12.0
 40
13.0
 40
13.0
 40
13.0
 40
14.0
 40
14.0
 40
14.0
 40
15.0
 40
15.0
 40
15.0
 40
16.0
 40
16.0
 40
16.0
 40
17.0
 40
17.0
 40
17.0
 40
18.0
 40
18.0
 40
18.0
 40
19.0
 40
19.0
 40
19.0
 40
19.0
 10
116.1693087817216
 20
-140.810354239971
 10
116.1693087817216
 20
-140.9119845567859
 10
116.1482936992615
 20
-141.1448730115888
 10
115.9622585430581
 20
-141.278198206868
 10
115.8499484302389
 20
-141.3574354030287
 10
115.7507296802637
 20
-141.3619140271595
 10
115.6659803313266
 20
-141.3663926512903
 10
115.6659803313266
 20
-141.3663926512903
 10
115.6659803313266
 20
-141.1314371391963
 10
115.6659803313266
 20
-141.1314371391963
 10
115.7400498842594
 20
-141.1290255723567
 10
115.974660886805
 20
-141.1176567572553
 10
115.974660886805
 20
-140.8148328641018
 10
115.974660886805
 20
-140.6677272868817
 10
115.9050699580029
 20
-140.5051187799779
 10
115.6766601273308
 20
-140.5051187799779
 10
115.5602158999294
 20
-140.5051187799779
 10
115.5116400535874
 20
-140.5457709067038
 10
115.4799451751231
 20
-140.5798773520078
 10
115.4058756221902
 20
-140.65877003862
 10
115.3931287688948
 20
-140.7831379856376
 10
115.3931287688948
 20
-140.8420491184353
 10
115.3931287688948
 20
-140.8623751817983
 10
115.3951958261859
 20
-140.9006157416846
 10
115.3993299407682
 20
-140.9302435628577
 10
115.3993299407682
 20
-140.9302435628577
 10
115.2046820458516
 20
-140.9302435628577
 10
115.2046820458516
 20
-140.9302435628577
 10
115.2112277272736
 20
-140.8895914361318
 10
115.2132947845647
 20
-140.8441161757265
 10
115.2132947845647
 20
-140.8375704943045
 10
115.2132947845647
 20
-140.7672905464054
 10
115.1919351925562
 20
-140.5547281549655
 10
114.9552571327195
 20
-140.5547281549655
 10
114.7774902056806
 20
-140.5547281549655
 10
114.7223686779166
 20
-140.6949435412152
 10
114.7223686779166
 20
-140.8124212972622
 10
114.7223686779166
 20
-141.0952636366012
 10
114.9552571327195
 20
-141.1042208848628
 10
115.0269151188127
 20
-141.1086995089937
 10
115.0269151188127
 20
-141.1086995089937
 10
115.0269151188127
 20
-141.3257405245644
 10
115.0269151188127
 20
-141.3257405245644
 10
114.9022026622467
 20
-141.3167832763027
 10
114.5256537257089
 20
-141.2874999646781
 10
114.5256537257089
 20
-140.7989854248697
 10
114.5256537257089
 20
-140.5592067790963
 10
114.6527777491146
 20
-140.3015136367996
 10
114.9487114512976
 20
-140.3015136367996
 10
115.1350911170496
 20
-140.3015136367996
 10
115.217428899147
 20
-140.403488463163
 10
115.2787515987845
 20
-140.5095974041087
 10
115.3063123626665
 20
-140.444140589889
 10
115.3865830874728
 20
-140.2494926949724
 10
115.6639132740354
 20
-140.2494926949724
 10
116.0022216506869
 20
-140.2494926949724
 10
116.1693087817216
 20
-140.5140760282395
 10
116.1693087817216
 20
-140.810354239971
 97
        0
 97
        0
 75
     2
 76
     1
 98
        0
  0
ENDBLK
  5
B7
330
B4
100
AcDbEntity
  8
0
100
AcDbBlockEnd
  0
BLOCK
  5
BC
330
BA
100
AcDbEntity
  8
0
100
AcDbBlockBegin
  2
block 5
 70
     0
 10
0.0
 20
0.0
 30
0.0
  3
block 5
  1

  0
POLYLINE
  5
BE
330
BA
100
AcDbEntity
  8
_U+30EC_U+30A4_U+30E4_U+30FC 1
 62
   179
420
  2234388
370
     9
100
AcDb2dPolyline
 66
     1
 10
0.0
 20
0.0
 30
0.0
  0
VERTEX
  5
BF
330
BE
100
AcDbEntity
  8
_U+30EC_U+30A4_U+30E4_U+30FC 1
 62
   179
420
  2234388
370
     9
100
AcDbVertex
100
AcDb2dVertex
 10
72.76471869917293
 20
-117.2999869151193
 30
0.0
  0
VERTEX
  5
C0
330
BE
100
AcDbEntity
  8
_U+30EC_U+30A4_U+30E4_U+30FC 1
 62
   179
420
  2234388
370
     9
100
AcDbVertex
100
AcDb2dVertex
 10
75.76470556708132
 20
-117.2999869151193
 30
0.0
  0
SEQEND
  5
C1
330
BE
100
AcDbEntity
  8
_U+30EC_U+30A4_U+30E4_U+30FC 1
 62
   179
420
  2234388
370
     9
  0
POLYLINE
  5
C2
330
BA
100
AcDbEntity
  8
_U+30EC_U+30A4_U+30E4_U+30FC 1
 62
   179
420
  2234388
370
     9
100
AcDb2dPolyline
 66
     1
 10
0.0
 20
0.0
 30
0.0
  0
VERTEX
  5
C3
330
C2
100
AcDbEntity
  8
_U+30EC_U+30A4_U+30E4_U+30FC 1
 62
   179
420
  2234388
370
     9
100
AcDbVertex
100
AcDb2dVertex
 10
72.76471869917293
 20
-118.7600283036434
 30
0.0
  0
VERTEX
  5
C4
330
C2
100
AcDbEntity
  8
_U+30EC_U+30A4_U+30E4_U+30FC 1
 62
   179
420
  2234388
370
     9
100
AcDbVertex
100
AcDb2dVertex
 10
72.76471869917293
 20
-116.3002146931471
 30
0.0
  0
SEQEND
  5
C5
330
C2
100
AcDbEntity
  8
_U+30EC_U+30A4_U+30E4_U+30FC 1
 62
   179
420
  2234388
370
     9
  0
POLYLINE
  5
C6
330
BA
100
AcDbEntity
  8
_U+30EC_U+30A4_U+30E4_U+30FC 1
 62
   179
420
  2234388
370
     9
100
AcDb2dPolyline
 66
     1
 10
0.0
 20
0.0
 30
0.0
  0
VERTEX
  5
C7
330
C6
100
AcDbEntity
  8
_U+30EC_U+30A4_U+30E4_U+30FC 1
 62
   179
420
  2234388
370
     9
100
AcDbVertex
100
AcDb2dVertex
 10
75.76470556708132
 20
-118.7600283036434
 30
0.0
  0
VERTEX
  5
C8
330
C6
100
AcDbEntity
  8
_U+30EC_U+30A4_U+30E4_U+30FC 1
 62
   179
420
  2234388
370
     9
100
AcDbVertex
100
AcDb2dVertex
 10
75.76470556708132
 20
-116.3002146931471
 30
0.0
  0
SEQEND
  5
C9
330
C6
100
AcDbEntity
  8
_U+30EC_U+30A4_U+30E4_U+30FC 1
 62
   179
420
  2234388
370
     9
  0
INSERT
  5
CB
330
BA
100
AcDbEntity
  8
_U+30EC_U+30A4_U+30E4_U+30FC 1
100
AcDbBlockReference
  2
block 6
 10
0.0
 20
0.0
 30
0.0
  0
ENDBLK
  5
BD
330
BA
100
AcDbEntity
  8
0
100
AcDbBlockEnd
  0
BLOCK
  5
CC
330
CA
100
AcDbEntity
  8
0
100
AcDbBlockBegin
  2
block 6
 70
     0
 10
0.0
 20
0.0
 30
0.0
  3
block 6
  1

  0
SPLINE
  5
CE
330
CA
100
AcDbEntity
  8
_U+30EC_U+30A4_U+30E4_U+30FC 1
370
     0
100
AcDbSpline
210
0.0
220
0.0
230
1.0
 70
    11
 71
     3
 72
    62
 73
    58
 74
     0
 42
0.0000000001
 43
0.0000000001
 12
1.0
 22
0.0
 32
0.0
 13
1.0
 23
0.0
 33
0.0
 40
0.0
 40
0.0
 40
0.0
 40
0.0
 40
1.0
 40
1.0
 40
1.0
 40
2.0
 40
2.0
 40
2.0
 40
3.0
 40
3.0
 40
3.0
 40
4.0
 40
4.0
 40
4.0
 40
5.0
 40
5.0
 40
5.0
 40
6.0
 40
6.0
 40
6.0
 40
7.0
 40
7.0
 40
7.0
 40
8.0
 40
8.0
 40
8.0
 40
9.0
 40
9.0
 40
9.0
 40
10.0
 40
10.0
 40
10.0
 40
11.0
 40
11.0
 40
11.0
 40
12.0
 40
12.0
 40
12.0
 40
13.0
 40
13.0
 40
13.0
 40
14.0
 40
14.0
 40
14.0
 40
15.0
 40
15.0
 40
15.0
 40
16.0
 40
16.0
 40
16.0
 40
17.0
 40
17.0
 40
17.0
 40
18.0
 40
18.0
 40
18.0
 40
19.0
 40
19.0
 40
19.0
 40
19.0
 10
74.25541583430073
 20
-116.7053656392264
 30
0.0
 10
74.15378551748586
 20
-116.7053656392264
 30
0.0
 10
73.92089706268297
 20
-116.6841783019922
 30
0.0
 10
73.78739961262954
 20
-116.4979708910144
 30
0.0
 10
73.70833467124307
 20
-116.3858330329695
 30
0.0
 10
73.70385604711224
 20
-116.2864420282201
 30
0.0
 10
73.69937742298141
 20
-116.2018649340572
 30
0.0
 10
73.69937742298141
 20
-116.2018649340572
 30
0.0
 10
73.93433293507545
 20
-116.2018649340572
 30
0.0
 10
73.93433293507545
 20
-116.2018649340572
 30
0.0
 10
73.93674450191513
 20
-116.2759344869901
 30
0.0
 10
73.94794106224218
 20
-116.5107177443098
 30
0.0
 10
74.25093721016991
 20
-116.5107177443098
 30
0.0
 10
74.39787053261581
 20
-116.5107177443098
 30
0.0
 10
74.56065129429386
 20
-116.4409545607335
 30
0.0
 10
74.56065129429386
 20
-116.2123724752872
 30
0.0
 10
74.56065129429386
 20
-116.09610050266
 30
0.0
 10
74.51999916756792
 20
-116.0473524015437
 30
0.0
 10
74.48606497703821
 20
-116.0156575230794
 30
0.0
 10
74.40700003565172
 20
-115.9415879701466
 30
0.0
 10
74.2826320886342
 20
-115.9290133716254
 30
0.0
 10
74.22372095583644
 20
-115.9290133716254
 30
0.0
 10
74.20339489247345
 20
-115.9290133716254
 30
0.0
 10
74.16498207781292
 20
-115.9310804289165
 30
0.0
 10
74.1356987661883
 20
-115.9352145434988
 30
0.0
 10
74.1356987661883
 20
-115.9352145434988
 30
0.0
 10
74.1356987661883
 20
-115.7405666485822
 30
0.0
 10
74.1356987661883
 20
-115.7405666485822
 30
0.0
 10
74.17635089291424
 20
-115.7469400752299
 30
0.0
 10
74.22148164377103
 20
-115.7491793872953
 30
0.0
 10
74.22837183474152
 20
-115.7491793872953
 30
0.0
 10
74.29847952786636
 20
-115.7491793872953
 30
0.0
 10
74.51086966453201
 20
-115.7279920500611
 30
0.0
 10
74.51086966453201
 20
-115.4909694806759
 30
0.0
 10
74.51086966453201
 20
-115.3133748084112
 30
0.0
 10
74.3708265330566
 20
-115.2582532806473
 30
0.0
 10
74.25317652223532
 20
-115.2582532806473
 30
0.0
 10
73.97050643767056
 20
-115.2582532806473
 30
0.0
 10
73.96154918940893
 20
-115.4909694806759
 30
0.0
 10
73.9570705652781
 20
-115.5629719763176
 30
0.0
 10
73.9570705652781
 20
-115.5629719763176
 30
0.0
 10
73.74002954970736
 20
-115.5629719763176
 30
0.0
 10
73.74002954970736
 20
-115.5629719763176
 30
0.0
 10
73.74898679796901
 20
-115.4380872649773
 30
0.0
 10
73.77844236436789
 20
-115.0615383284395
 30
0.0
 10
74.26678464940206
 20
-115.0615383284395
 30
0.0
 10
74.50639104040118
 20
-115.0615383284395
 30
0.0
 10
74.76408418269787
 20
-115.1884900970709
 30
0.0
 10
74.76408418269787
 20
-115.4845960540282
 30
0.0
 10
74.76408418269787
 20
-115.6708034650059
 30
0.0
 10
74.662453865883
 20
-115.7533135018777
 30
0.0
 10
74.55617267016305
 20
-115.8146362015151
 30
0.0
 10
74.6216294843828
 20
-115.8421969653971
 30
0.0
 10
74.81610512452514
 20
-115.9226399449777
 30
0.0
 10
74.81610512452514
 20
-116.199797876766
 30
0.0
 10
74.81610512452514
 20
-116.5382785081918
 30
0.0
 10
74.55169404603222
 20
-116.7053656392264
 30
0.0
 10
74.25541583430073
 20
-116.7053656392264
 30
0.0
  0
HATCH
  5
CF
330
CA
100
AcDbEntity
  8
_U+30EC_U+30A4_U+30E4_U+30FC 1
 62
   179
420
  2234388
100
AcDbHatch
 10
0.0
 20
0.0
 30
0.0
210
0.0
220
0.0
230
1.0
  2
SOLID
 70
     1
 71
     0
 91
        1
 92
        1
 93
        1
 72
     4
 94
        3
 73
     0
 74
     1
 95
       62
 96
       58
 40
0.0
 40
0.0
 40
0.0
 40
0.0
 40
1.0
 40
1.0
 40
1.0
 40
2.0
 40
2.0
 40
2.0
 40
3.0
 40
3.0
 40
3.0
 40
4.0
 40
4.0
 40
4.0
 40
5.0
 40
5.0
 40
5.0
 40
6.0
 40
6.0
 40
6.0
 40
7.0
 40
7.0
 40
7.0
 40
8.0
 40
8.0
 40
8.0
 40
9.0
 40
9.0
 40
9.0
 40
10.0
 40
10.0
 40
10.0
 40
11.0
 40
11.0
 40
11.0
 40
12.0
 40
12.0
 40
12.0
 40
13.0
 40
13.0
 40
13.0
 40
14.0
 40
14.0
 40
14.0
 40
15.0
 40
15.0
 40
15.0
 40
16.0
 40
16.0
 40
16.0
 40
17.0
 40
17.0
 40
17.0
 40
18.0
 40
18.0
 40
18.0
 40
19.0
 40
19.0
 40
19.0
 40
19.0
 10
74.25541583430073
 20
-116.7053656392264
 10
74.15378551748586
 20
-116.7053656392264
 10
73.92089706268297
 20
-116.6841783019922
 10
73.78739961262954
 20
-116.4979708910144
 10
73.70833467124307
 20
-116.3858330329695
 10
73.70385604711224
 20
-116.2864420282201
 10
73.69937742298141
 20
-116.2018649340572
 10
73.69937742298141
 20
-116.2018649340572
 10
73.93433293507545
 20
-116.2018649340572
 10
73.93433293507545
 20
-116.2018649340572
 10
73.93674450191513
 20
-116.2759344869901
 10
73.94794106224218
 20
-116.5107177443098
 10
74.25093721016991
 20
-116.5107177443098
 10
74.39787053261581
 20
-116.5107177443098
 10
74.56065129429386
 20
-116.4409545607335
 10
74.56065129429386
 20
-116.2123724752872
 10
74.56065129429386
 20
-116.09610050266
 10
74.51999916756792
 20
-116.0473524015437
 10
74.48606497703821
 20
-116.0156575230794
 10
74.40700003565172
 20
-115.9415879701466
 10
74.2826320886342
 20
-115.9290133716254
 10
74.22372095583644
 20
-115.9290133716254
 10
74.20339489247345
 20
-115.9290133716254
 10
74.16498207781292
 20
-115.9310804289165
 10
74.1356987661883
 20
-115.9352145434988
 10
74.1356987661883
 20
-115.9352145434988
 10
74.1356987661883
 20
-115.7405666485822
 10
74.1356987661883
 20
-115.7405666485822
 10
74.17635089291424
 20
-115.7469400752299
 10
74.22148164377103
 20
-115.7491793872953
 10
74.22837183474152
 20
-115.7491793872953
 10
74.29847952786636
 20
-115.7491793872953
 10
74.51086966453201
 20
-115.7279920500611
 10
74.51086966453201
 20
-115.4909694806759
 10
74.51086966453201
 20
-115.3133748084112
 10
74.3708265330566
 20
-115.2582532806473
 10
74.25317652223532
 20
-115.2582532806473
 10
73.97050643767056
 20
-115.2582532806473
 10
73.96154918940893
 20
-115.4909694806759
 10
73.9570705652781
 20
-115.5629719763176
 10
73.9570705652781
 20
-115.5629719763176
 10
73.74002954970736
 20
-115.5629719763176
 10
73.74002954970736
 20
-115.5629719763176
 10
73.74898679796901
 20
-115.4380872649773
 10
73.77844236436789
 20
-115.0615383284395
 10
74.26678464940206
 20
-115.0615383284395
 10
74.50639104040118
 20
-115.0615383284395
 10
74.76408418269787
 20
-115.1884900970709
 10
74.76408418269787
 20
-115.4845960540282
 10
74.76408418269787
 20
-115.6708034650059
 10
74.662453865883
 20
-115.7533135018777
 10
74.55617267016305
 20
-115.8146362015151
 10
74.6216294843828
 20
-115.8421969653971
 10
74.81610512452514
 20
-115.9226399449777
 10
74.81610512452514
 20
-116.199797876766
 10
74.81610512452514
 20
-116.5382785081918
 10
74.55169404603222
 20
-116.7053656392264
 10
74.25541583430073
 20
-116.7053656392264
 97
        0
 97
        0
 75
     2
 76
     1
 98
        0
  0
ENDBLK
  5
CD
330
CA
100
AcDbEntity
  8
0
100
AcDbBlockEnd
  0
BLOCK
  5
D2
330
D0
100
AcDbEntity
  8
0
100
AcDbBlockBegin
  2
block 7
 70
     0
 10
0.0
 20
0.0
 30
0.0
  3
block 7
  1

  0
POLYLINE
  5
D4
330
D0
100
AcDbEntity
  8
_U+30EC_U+30A4_U+30E4_U+30FC 1
 62
   179
420
  2234388
370
     9
100
AcDb2dPolyline
 66
     1
 10
0.0
 20
0.0
 30
0.0
  0
VERTEX
  5
D5
330
D4
100
AcDbEntity
  8
_U+30EC_U+30A4_U+30E4_U+30FC 1
 62
   179
420
  2234388
370
     9
100
AcDbVertex
100
AcDb2dVertex
 10
72.76471869917293
 20
-113.3002277494528
 30
0.0
  0
VERTEX
  5
D6
330
D4
100
AcDbEntity
  8
_U+30EC_U+30A4_U+30E4_U+30FC 1
 62
   179
420
  2234388
370
     9
100
AcDbVertex
100
AcDb2dVertex
 10
112.7648493453512
 20
-113.3002277494528
 30
0.0
  0
SEQEND
  5
D7
330
D4
100
AcDbEntity
  8
_U+30EC_U+30A4_U+30E4_U+30FC 1
 62
   179
420
  2234388
370
     9
  0
POLYLINE
  5
D8
330
D0
100
AcDbEntity
  8
_U+30EC_U+30A4_U+30E4_U+30FC 1
 62
   179
420
  2234388
370
     9
100
AcDb2dPolyline
 66
     1
 10
0.0
 20
0.0
 30
0.0
  0
VERTEX
  5
D9
330
D8
100
AcDbEntity
  8
_U+30EC_U+30A4_U+30E4_U+30FC 1
 62
   179
420
  2234388
370
     9
100
AcDbVertex
100
AcDb2dVertex
 10
72.76471869917293
 20
-118.7600283036434
 30
0.0
  0
VERTEX
  5
DA
330
D8
100
AcDbEntity
  8
_U+30EC_U+30A4_U+30E4_U+30FC 1
 62
   179
420
  2234388
370
     9
100
AcDbVertex
100
AcDb2dVertex
 10
72.76471869917293
 20
-112.3004555274806
 30
0.0
  0
SEQEND
  5
DB
330
D8
100
AcDbEntity
  8
_U+30EC_U+30A4_U+30E4_U+30FC 1
 62
   179
420
  2234388
370
     9
  0
POLYLINE
  5
DC
330
D0
100
AcDbEntity
  8
_U+30EC_U+30A4_U+30E4_U+30FC 1
 62
   179
420
  2234388
370
     9
100
AcDb2dPolyline
 66
     1
 10
0.0
 20
0.0
 30
0.0
  0
VERTEX
  5
DD
330
DC
100
AcDbEntity
  8
_U+30EC_U+30A4_U+30E4_U+30FC 1
 62
   179
420
  2234388
370
     9
100
AcDbVertex
100
AcDb2dVertex
 10
112.7648493453512
 20
-125.8603513574239
 30
0.0
  0
VERTEX
  5
DE
330
DC
100
AcDbEntity
  8
_U+30EC_U+30A4_U+30E4_U+30FC 1
 62
   179
420
  2234388
370
     9
100
AcDbVertex
100
AcDb2dVertex
 10
112.7648493453512
 20
-112.3004555274806
 30
0.0
  0
SEQEND
  5
DF
330
DC
100
AcDbEntity
  8
_U+30EC_U+30A4_U+30E4_U+30FC 1
 62
   179
420
  2234388
370
     9
  0
INSERT
  5
E1
330
D0
100
AcDbEntity
  8
_U+30EC_U+30A4_U+30E4_U+30FC 1
100
AcDbBlockReference
  2
block 8
 10
0.0
 20
0.0
 30
0.0
  0
ENDBLK
  5
D3
330
D0
100
AcDbEntity
  8
0
100
AcDbBlockEnd
  0
BLOCK
  5
E2
330
E0
100
AcDbEntity
  8
0
100
AcDbBlockBegin
  2
block 8
 70
     0
 10
0.0
 20
0.0
 30
0.0
  3
block 8
  1

  0
POLYLINE
  5
E4
330
E0
100
AcDbEntity
  8
_U+30EC_U+30A4_U+30E4_U+30FC 1
370
     0
100
AcDb2dPolyline
 66
     1
 10
0.0
 20
0.0
 30
0.0
  0
VERTEX
  5
E5
330
E4
100
AcDbEntity
  8
_U+30EC_U+30A4_U+30E4_U+30FC 1
370
     0
100
AcDbVertex
100
AcDb2dVertex
 10
92.49013398295386
 20
-112.3075289975308
 30
0.0
  0
VERTEX
  5
E6
330
E4
100
AcDbEntity
  8
_U+30EC_U+30A4_U+30E4_U+30FC 1
370
     0
100
AcDbVertex
100
AcDb2dVertex
 10
92.49013398295386
 20
-112.6544501128954
 30
0.0
  0
VERTEX
  5
E7
330
E4
100
AcDbEntity
  8
_U+30EC_U+30A4_U+30E4_U+30FC 1
370
     0
100
AcDbVertex
100
AcDb2dVertex
 10
92.25724552815097
 20
-112.6544501128954
 30
0.0
  0
VERTEX
  5
E8
330
E4
100
AcDbEntity
  8
_U+30EC_U+30A4_U+30E4_U+30FC 1
370
     0
100
AcDbVertex
100
AcDb2dVertex
 10
92.25724552815097
 20
-112.3075289975308
 30
0.0
  0
VERTEX
  5
E9
330
E4
100
AcDbEntity
  8
_U+30EC_U+30A4_U+30E4_U+30FC 1
370
     0
100
AcDbVertex
100
AcDb2dVertex
 10
91.55651310645115
 20
-112.3075289975308
 30
0.0
  0
VERTEX
  5
EA
330
E4
100
AcDbEntity
  8
_U+30EC_U+30A4_U+30E4_U+30FC 1
370
     0
100
AcDbVertex
100
AcDb2dVertex
 10
91.55651310645115
 20
-112.083253281441
 30
0.0
  0
VERTEX
  5
EB
330
E4
100
AcDbEntity
  8
_U+30EC_U+30A4_U+30E4_U+30FC 1
370
     0
100
AcDbVertex
100
AcDb2dVertex
 10
92.2823947251933
 20
-111.1101860616322
 30
0.0
  0
VERTEX
  5
EC
330
E4
100
AcDbEntity
  8
_U+30EC_U+30A4_U+30E4_U+30FC 1
370
     0
100
AcDbVertex
100
AcDb2dVertex
 10
92.49013398295386
 20
-111.1101860616322
 30
0.0
  0
VERTEX
  5
ED
330
E4
100
AcDbEntity
  8
_U+30EC_U+30A4_U+30E4_U+30FC 1
370
     0
100
AcDbVertex
100
AcDb2dVertex
 10
92.49013398295386
 20
-112.1085747332576
 30
0.0
  0
VERTEX
  5
EE
330
E4
100
AcDbEntity
  8
_U+30EC_U+30A4_U+30E4_U+30FC 1
370
     0
100
AcDbVertex
100
AcDb2dVertex
 10
92.71199813220395
 20
-112.1085747332576
 30
0.0
  0
VERTEX
  5
EF
330
E4
100
AcDbEntity
  8
_U+30EC_U+30A4_U+30E4_U+30FC 1
370
     0
100
AcDbVertex
100
AcDb2dVertex
 10
92.71199813220395
 20
-112.3075289975308
 30
0.0
  0
VERTEX
  5
F0
330
E4
100
AcDbEntity
  8
_U+30EC_U+30A4_U+30E4_U+30FC 1
370
     0
100
AcDbVertex
100
AcDb2dVertex
 10
92.49013398295386
 20
-112.3075289975308
 30
0.0
  0
SEQEND
  5
F1
330
E4
100
AcDbEntity
  8
_U+30EC_U+30A4_U+30E4_U+30FC 1
370
     0
  0
POLYLINE
  5
F2
330
E0
100
AcDbEntity
  8
_U+30EC_U+30A4_U+30E4_U+30FC 1
370
     0
100
AcDb2dPolyline
 66
     1
 10
0.0
 20
0.0
 30
0.0
  0
VERTEX
  5
F3
330
F2
100
AcDbEntity
  8
_U+30EC_U+30A4_U+30E4_U+30FC 1
370
     0
100
AcDbVertex
100
AcDb2dVertex
 10
92.25724552815097
 20
-111.4528008076403
 30
0.0
  0
VERTEX
  5
F4
330
F2
100
AcDbEntity
  8
_U+30EC_U+30A4_U+30E4_U+30FC 1
370
     0
100
AcDbVertex
100
AcDb2dVertex
 10
91.76907549789107
 20
-112.1085747332576
 30
0.0
  0
VERTEX
  5
F5
330
F2
100
AcDbEntity
  8
_U+30EC_U+30A4_U+30E4_U+30FC 1
370
     0
100
AcDbVertex
100
AcDb2dVertex
 10
92.25724552815097
 20
-112.1085747332576
 30
0.0
  0
VERTEX
  5
F6
330
F2
100
AcDbEntity
  8
_U+30EC_U+30A4_U+30E4_U+30FC 1
370
     0
100
AcDbVertex
100
AcDb2dVertex
 10
92.25724552815097
 20
-111.4528008076403
 30
0.0
  0
SEQEND
  5
F7
330
F2
100
AcDbEntity
  8
_U+30EC_U+30A4_U+30E4_U+30FC 1
370
     0
  0
HATCH
  5
F8
330
E0
100
AcDbEntity
  8
_U+30EC_U+30A4_U+30E4_U+30FC 1
 62
   179
420
  2234388
100
AcDbHatch
 10
0.0
 20
0.0
 30
0.0
210
0.0
220
0.0
230
1.0
  2
SOLID
 70
     1
 71
     0
 91
        2
 92
        1
 93
       11
 72
     1
 10
92.49013398295386
 20
-112.3075289975308
 11
92.49013398295386
 21
-112.6544501128954
 72
     1
 10
92.49013398295386
 20
-112.6544501128954
 11
92.25724552815097
 21
-112.6544501128954
 72
     1
 10
92.25724552815097
 20
-112.6544501128954
 11
92.25724552815097
 21
-112.3075289975308
 72
     1
 10
92.25724552815097
 20
-112.3075289975308
 11
91.55651310645115
 21
-112.3075289975308
 72
     1
 10
91.55651310645115
 20
-112.3075289975308
 11
91.55651310645115
 21
-112.083253281441
 72
     1
 10
91.55651310645115
 20
-112.083253281441
 11
92.2823947251933
 21
-111.1101860616322
 72
     1
 10
92.2823947251933
 20
-111.1101860616322
 11
92.49013398295386
 21
-111.1101860616322
 72
     1
 10
92.49013398295386
 20
-111.1101860616322
 11
92.49013398295386
 21
-112.1085747332576
 72
     1
 10
92.49013398295386
 20
-112.1085747332576
 11
92.71199813220395
 21
-112.1085747332576
 72
     1
 10
92.71199813220395
 20
-112.1085747332576
 11
92.71199813220395
 21
-112.3075289975308
 72
     1
 10
92.71199813220395
 20
-112.3075289975308
 11
92.49013398295386
 21
-112.3075289975308
 97
        0
 92
        1
 93
        3
 72
     1
 10
92.25724552815097
 20
-111.4528008076403
 11
91.76907549789107
 21
-112.1085747332576
 72
     1
 10
91.76907549789107
 20
-112.1085747332576
 11
92.25724552815097
 21
-112.1085747332576
 72
     1
 10
92.25724552815097
 20
-112.1085747332576
 11
92.25724552815097
 21
-111.4528008076403
 97
        0
 75
     2
 76
     1
 98
        0
  0
SPLINE
  5
F9
330
E0
100
AcDbEntity
  8
_U+30EC_U+30A4_U+30E4_U+30FC 1
370
     0
100
AcDbSpline
210
0.0
220
0.0
230
1.0
 70
    11
 71
     3
 72
    29
 73
    25
 74
     0
 42
0.0000000001
 43
0.0000000001
 12
1.0
 22
0.0
 32
0.0
 13
1.0
 23
0.0
 33
0.0
 40
0.0
 40
0.0
 40
0.0
 40
0.0
 40
1.0
 40
1.0
 40
1.0
 40
2.0
 40
2.0
 40
2.0
 40
3.0
 40
3.0
 40
3.0
 40
4.0
 40
4.0
 40
4.0
 40
5.0
 40
5.0
 40
5.0
 40
6.0
 40
6.0
 40
6.0
 40
7.0
 40
7.0
 40
7.0
 40
8.0
 40
8.0
 40
8.0
 40
8.0
 10
93.81821829251767
 20
-112.4766831858565
 30
0.0
 10
93.7028075937618
 20
-112.6861449913597
 30
0.0
 10
93.51746145665535
 20
-112.7052652713028
 30
0.0
 10
93.39309350963784
 20
-112.7052652713028
 30
0.0
 10
93.22118324492388
 20
-112.7052652713028
 30
0.0
 10
93.0699435531214
 20
-112.658756482252
 30
0.0
 10
92.96796872675802
 20
-112.4766831858565
 30
0.0
 10
92.85738116168149
 20
-112.2820352909399
 30
0.0
 10
92.83705509831852
 20
-112.045184976329
 30
0.0
 10
92.83705509831852
 20
-111.8822319598767
 30
0.0
 10
92.83705509831852
 20
-111.7383992233675
 30
0.0
 10
92.85496959484182
 20
-111.48673499817
 30
0.0
 10
92.96796872675802
 20
-111.2877807338968
 30
0.0
 10
93.08337942551388
 20
-111.0846923550413
 30
0.0
 10
93.25528969022785
 20
-111.0614379605159
 30
0.0
 10
93.39309350963784
 20
-111.0614379605159
 30
0.0
 10
93.56259220751214
 20
-111.0614379605159
 30
0.0
 10
93.71624346615428
 20
-111.1058796922756
 30
0.0
 10
93.81821829251767
 20
-111.2877807338968
 30
0.0
 10
93.92432723346337
 20
-111.4803615715223
 30
0.0
 10
93.94913192095717
 20
-111.7087714021943
 30
0.0
 10
93.94913192095717
 20
-111.8822319598767
 30
0.0
 10
93.94913192095717
 20
-112.0536254602679
 30
0.0
 10
93.92673880030304
 20
-112.2842746030053
 30
0.0
 10
93.81821829251767
 20
-112.4766831858565
 30
0.0
  0
SPLINE
  5
FA
330
E0
100
AcDbEntity
  8
_U+30EC_U+30A4_U+30E4_U+30FC 1
370
     0
100
AcDbSpline
210
0.0
220
0.0
230
1.0
 70
    11
 71
     3
 72
    17
 73
    13
 74
     0
 42
0.0000000001
 43
0.0000000001
 12
1.0
 22
0.0
 32
0.0
 13
1.0
 23
0.0
 33
0.0
 40
0.0
 40
0.0
 40
0.0
 40
0.0
 40
1.0
 40
1.0
 40
1.0
 40
2.0
 40
2.0
 40
2.0
 40
3.0
 40
3.0
 40
3.0
 40
4.0
 40
4.0
 40
4.0
 40
4.0
 10
93.39309350963784
 20
-111.2540187981414
 30
0.0
 10
93.12644311907951
 20
-111.2540187981414
 30
0.0
 10
93.07648923454339
 20
-111.5375501565774
 30
0.0
 10
93.07648923454339
 20
-111.8822319598767
 30
0.0
 10
93.07648923454339
 20
-112.2017645661336
 30
0.0
 10
93.11507430397818
 20
-112.5106173763862
 30
0.0
 10
93.39309350963784
 20
-112.5106173763862
 30
0.0
 10
93.65767684290503
 20
-112.5106173763862
 30
0.0
 10
93.7096977847323
 20
-112.2291530752413
 30
0.0
 10
93.7096977847323
 20
-111.8822319598767
 30
0.0
 10
93.7096977847323
 20
-111.562871608394
 30
0.0
 10
93.66904565800635
 20
-111.2540187981414
 30
0.0
 10
93.39309350963784
 20
-111.2540187981414
 30
0.0
  0
HATCH
  5
FB
330
E0
100
AcDbEntity
  8
_U+30EC_U+30A4_U+30E4_U+30FC 1
 62
   179
420
  2234388
100
AcDbHatch
 10
0.0
 20
0.0
 30
0.0
210
0.0
220
0.0
230
1.0
  2
SOLID
 70
     1
 71
     0
 91
        2
 92
        1
 93
        1
 72
     4
 94
        3
 73
     0
 74
     1
 95
       29
 96
       25
 40
0.0
 40
0.0
 40
0.0
 40
0.0
 40
1.0
 40
1.0
 40
1.0
 40
2.0
 40
2.0
 40
2.0
 40
3.0
 40
3.0
 40
3.0
 40
4.0
 40
4.0
 40
4.0
 40
5.0
 40
5.0
 40
5.0
 40
6.0
 40
6.0
 40
6.0
 40
7.0
 40
7.0
 40
7.0
 40
8.0
 40
8.0
 40
8.0
 40
8.0
 10
93.81821829251767
 20
-112.4766831858565
 10
93.7028075937618
 20
-112.6861449913597
 10
93.51746145665535
 20
-112.7052652713028
 10
93.39309350963784
 20
-112.7052652713028
 10
93.22118324492388
 20
-112.7052652713028
 10
93.0699435531214
 20
-112.658756482252
 10
92.96796872675802
 20
-112.4766831858565
 10
92.85738116168149
 20
-112.2820352909399
 10
92.83705509831852
 20
-112.045184976329
 10
92.83705509831852
 20
-111.8822319598767
 10
92.83705509831852
 20
-111.7383992233675
 10
92.85496959484182
 20
-111.48673499817
 10
92.96796872675802
 20
-111.2877807338968
 10
93.08337942551388
 20
-111.0846923550413
 10
93.25528969022785
 20
-111.0614379605159
 10
93.39309350963784
 20
-111.0614379605159
 10
93.56259220751214
 20
-111.0614379605159
 10
93.71624346615428
 20
-111.1058796922756
 10
93.81821829251767
 20
-111.2877807338968
 10
93.92432723346337
 20
-111.4803615715223
 10
93.94913192095717
 20
-111.7087714021943
 10
93.94913192095717
 20
-111.8822319598767
 10
93.94913192095717
 20
-112.0536254602679
 10
93.92673880030304
 20
-112.2842746030053
 10
93.81821829251767
 20
-112.4766831858565
 97
        0
 97
        0
 92
        1
 93
        1
 72
     4
 94
        3
 73
     0
 74
     1
 95
       17
 96
       13
 40
0.0
 40
0.0
 40
0.0
 40
0.0
 40
1.0
 40
1.0
 40
1.0
 40
2.0
 40
2.0
 40
2.0
 40
3.0
 40
3.0
 40
3.0
 40
4.0
 40
4.0
 40
4.0
 40
4.0
 10
93.39309350963784
 20
-111.2540187981414
 10
93.12644311907951
 20
-111.2540187981414
 10
93.07648923454339
 20
-111.5375501565774
 10
93.07648923454339
 20
-111.8822319598767
 10
93.07648923454339
 20
-112.2017645661336
 10
93.11507430397818
 20
-112.5106173763862
 10
93.39309350963784
 20
-112.5106173763862
 10
93.65767684290503
 20
-112.5106173763862
 10
93.7096977847323
 20
-112.2291530752413
 10
93.7096977847323
 20
-111.8822319598767
 10
93.7096977847323
 20
-111.562871608394
 10
93.66904565800635
 20
-111.2540187981414
 10
93.39309350963784
 20
-111.2540187981414
 97
        0
 97
        0
 75
     2
 76
     1
 98
        0
  0
ENDBLK
  5
E3
330
E0
100
AcDbEntity
  8
0
100
AcDbBlockEnd
  0
BLOCK
  5
FE
330
FC
100
AcDbEntity
  8
0
100
AcDbBlockBegin
  2
block 9
 70
     0
 10
0.0
 20
0.0
 30
0.0
  3
block 9
  1

  0
POLYLINE
  5
100
330
FC
100
AcDbEntity
  8
_U+30EC_U+30A4_U+30E4_U+30FC 1
 62
   179
420
  2234388
370
     9
100
AcDb2dPolyline
 66
     1
 10
0.0
 20
0.0
 30
0.0
  0
VERTEX
  5
101
330
100
100
AcDbEntity
  8
_U+30EC_U+30A4_U+30E4_U+30FC 1
 62
   179
420
  2234388
370
     9
100
AcDbVertex
100
AcDb2dVertex
 10
72.76471869917293
 20
-146.3001194078697
 30
0.0
  0
VERTEX
  5
102
330
100
100
AcDbEntity
  8
_U+30EC_U+30A4_U+30E4_U+30FC 1
 62
   179
420
  2234388
370
     9
100
AcDbVertex
100
AcDb2dVertex
 10
82.76480427738282
 20
-146.3001194078697
 30
0.0
  0
SEQEND
  5
103
330
100
100
AcDbEntity
  8
_U+30EC_U+30A4_U+30E4_U+30FC 1
 62
   179
420
  2234388
370
     9
  0
POLYLINE
  5
104
330
FC
100
AcDbEntity
  8
_U+30EC_U+30A4_U+30E4_U+30FC 1
 62
   179
420
  2234388
370
     9
100
AcDb2dPolyline
 66
     1
 10
0.0
 20
0.0
 30
0.0
  0
VERTEX
  5
105
330
104
100
AcDbEntity
  8
_U+30EC_U+30A4_U+30E4_U+30FC 1
 62
   179
420
  2234388
370
     9
100
AcDbVertex
100
AcDb2dVertex
 10
72.76471869917293
 20
-144.8400780193453
 30
0.0
  0
VERTEX
  5
106
330
104
100
AcDbEntity
  8
_U+30EC_U+30A4_U+30E4_U+30FC 1
 62
   179
420
  2234388
370
     9
100
AcDbVertex
100
AcDb2dVertex
 10
72.76471869917293
 20
-147.3005619076196
 30
0.0
  0
SEQEND
  5
107
330
104
100
AcDbEntity
  8
_U+30EC_U+30A4_U+30E4_U+30FC 1
 62
   179
420
  2234388
370
     9
  0
POLYLINE
  5
108
330
FC
100
AcDbEntity
  8
_U+30EC_U+30A4_U+30E4_U+30FC 1
 62
   179
420
  2234388
370
     9
100
AcDb2dPolyline
 66
     1
 10
0.0
 20
0.0
 30
0.0
  0
VERTEX
  5
109
330
108
100
AcDbEntity
  8
_U+30EC_U+30A4_U+30E4_U+30FC 1
 62
   179
420
  2234388
370
     9
100
AcDbVertex
100
AcDb2dVertex
 10
82.76480427738282
 20
-144.8400780193453
 30
0.0
  0
VERTEX
  5
10A
330
108
100
AcDbEntity
  8
_U+30EC_U+30A4_U+30E4_U+30FC 1
 62
   179
420
  2234388
370
     9
100
AcDbVertex
100
AcDb2dVertex
 10
82.76480427738282
 20
-147.3005619076196
 30
0.0
  0
SEQEND
  5
10B
330
108
100
AcDbEntity
  8
_U+30EC_U+30A4_U+30E4_U+30FC 1
 62
   179
420
  2234388
370
     9
  0
INSERT
  5
10D
330
FC
100
AcDbEntity
  8
_U+30EC_U+30A4_U+30E4_U+30FC 1
100
AcDbBlockReference
  2
block 10
 10
0.0
 20
0.0
 30
0.0
  0
ENDBLK
  5
FF
330
FC
100
AcDbEntity
  8
0
100
AcDbBlockEnd
  0
BLOCK
  5
10E
330
10C
100
AcDbEntity
  8
0
100
AcDbBlockBegin
  2
block 10
 70
     0
 10
0.0
 20
0.0
 30
0.0
  3
block 10
  1

  0
SPLINE
  5
110
330
10C
100
AcDbEntity
  8
_U+30EC_U+30A4_U+30E4_U+30FC 1
370
     0
100
AcDbSpline
210
0.0
220
0.0
230
1.0
 70
    11
 71
     3
 72
    26
 73
    22
 74
     0
 42
0.0000000001
 43
0.0000000001
 12
1.0
 22
0.0
 32
0.0
 13
1.0
 23
0.0
 33
0.0
 40
0.0
 40
0.0
 40
0.0
 40
0.0
 40
1.0
 40
1.0
 40
1.0
 40
2.0
 40
2.0
 40
2.0
 40
3.0
 40
3.0
 40
3.0
 40
4.0
 40
4.0
 40
4.0
 40
5.0
 40
5.0
 40
5.0
 40
6.0
 40
6.0
 40
6.0
 40
7.0
 40
7.0
 40
7.0
 40
7.0
 10
77.08349471814232
 20
-145.6541584922323
 30
0.0
 10
77.08349471814232
 20
-145.6541584922323
 30
0.0
 10
77.08349471814232
 20
-144.5500053892097
 30
0.0
 10
77.08349471814232
 20
-144.5500053892097
 30
0.0
 10
77.08349471814232
 20
-144.5500053892097
 30
0.0
 10
76.73071694045274
 20
-144.5500053892097
 30
0.0
 10
76.73071694045274
 20
-144.5500053892097
 30
0.0
 10
76.73071694045274
 20
-144.5500053892097
 30
0.0
 10
76.73071694045274
 20
-144.401866283344
 30
0.0
 10
76.73071694045274
 20
-144.401866283344
 30
0.0
 10
77.08573403020773
 20
-144.3870523727574
 30
0.0
 10
77.1355156599696
 20
-144.2240993563051
 30
0.0
 10
77.16721053843389
 20
-144.1097221861948
 30
0.0
 10
77.16721053843389
 20
-144.1097221861948
 30
0.0
 10
77.32310110914145
 20
-144.1097221861948
 30
0.0
 10
77.32310110914145
 20
-144.1097221861948
 30
0.0
 10
77.32310110914145
 20
-144.1097221861948
 30
0.0
 10
77.32310110914145
 20
-145.6541584922323
 30
0.0
 10
77.32310110914145
 20
-145.6541584922323
 30
0.0
 10
77.32310110914145
 20
-145.6541584922323
 30
0.0
 10
77.08349471814232
 20
-145.6541584922323
 30
0.0
 10
77.08349471814232
 20
-145.6541584922323
 30
0.0
  0
HATCH
  5
111
330
10C
100
AcDbEntity
  8
_U+30EC_U+30A4_U+30E4_U+30FC 1
 62
   179
420
  2234388
100
AcDbHatch
 10
0.0
 20
0.0
 30
0.0
210
0.0
220
0.0
230
1.0
  2
SOLID
 70
     1
 71
     0
 91
        1
 92
        1
 93
        1
 72
     4
 94
        3
 73
     0
 74
     1
 95
       26
 96
       22
 40
0.0
 40
0.0
 40
0.0
 40
0.0
 40
1.0
 40
1.0
 40
1.0
 40
2.0
 40
2.0
 40
2.0
 40
3.0
 40
3.0
 40
3.0
 40
4.0
 40
4.0
 40
4.0
 40
5.0
 40
5.0
 40
5.0
 40
6.0
 40
6.0
 40
6.0
 40
7.0
 40
7.0
 40
7.0
 40
7.0
 10
77.08349471814232
 20
-145.6541584922323
 10
77.08349471814232
 20
-145.6541584922323
 10
77.08349471814232
 20
-144.5500053892097
 10
77.08349471814232
 20
-144.5500053892097
 10
77.08349471814232
 20
-144.5500053892097
 10
76.73071694045274
 20
-144.5500053892097
 10
76.73071694045274
 20
-144.5500053892097
 10
76.73071694045274
 20
-144.5500053892097
 10
76.73071694045274
 20
-144.401866283344
 10
76.73071694045274
 20
-144.401866283344
 10
77.08573403020773
 20
-144.3870523727574
 10
77.1355156599696
 20
-144.2240993563051
 10
77.16721053843389
 20
-144.1097221861948
 10
77.16721053843389
 20
-144.1097221861948
 10
77.32310110914145
 20
-144.1097221861948
 10
77.32310110914145
 20
-144.1097221861948
 10
77.32310110914145
 20
-144.1097221861948
 10
77.32310110914145
 20
-145.6541584922323
 10
77.32310110914145
 20
-145.6541584922323
 10
77.32310110914145
 20
-145.6541584922323
 10
77.08349471814232
 20
-145.6541584922323
 10
77.08349471814232
 20
-145.6541584922323
 97
        0
 97
        0
 75
     2
 76
     1
 98
        0
  0
SPLINE
  5
112
330
10C
100
AcDbEntity
  8
_U+30EC_U+30A4_U+30E4_U+30FC 1
370
     0
100
AcDbSpline
210
0.0
220
0.0
230
1.0
 70
    11
 71
     3
 72
    29
 73
    25
 74
     0
 42
0.0000000001
 43
0.0000000001
 12
1.0
 22
0.0
 32
0.0
 13
1.0
 23
0.0
 33
0.0
 40
0.0
 40
0.0
 40
0.0
 40
0.0
 40
1.0
 40
1.0
 40
1.0
 40
2.0
 40
2.0
 40
2.0
 40
3.0
 40
3.0
 40
3.0
 40
4.0
 40
4.0
 40
4.0
 40
5.0
 40
5.0
 40
5.0
 40
6.0
 40
6.0
 40
6.0
 40
7.0
 40
7.0
 40
7.0
 40
8.0
 40
8.0
 40
8.0
 40
8.0
 10
78.81827254973987
 20
-145.4763915651934
 30
0.0
 10
78.70303410575828
 20
-145.6858533706966
 30
0.0
 10
78.51768796865183
 20
-145.7048013958655
 30
0.0
 10
78.39332002163431
 20
-145.7048013958655
 30
0.0
 10
78.22140975692035
 20
-145.7048013958655
 30
0.0
 10
78.06999781034362
 20
-145.6582926068146
 30
0.0
 10
77.96819523875448
 20
-145.4763915651934
 30
0.0
 10
77.8574354189037
 20
-145.2817436702768
 30
0.0
 10
77.83710935554073
 20
-145.0450656104401
 30
0.0
 10
77.83710935554073
 20
-144.8821125939878
 30
0.0
 10
77.83710935554073
 20
-144.7381076027044
 30
0.0
 10
77.85519610683829
 20
-144.4862711227326
 30
0.0
 10
77.96819523875448
 20
-144.2874891132337
 30
0.0
 10
78.08360593751036
 20
-144.0845729891525
 30
0.0
 10
78.25534394745006
 20
-144.0611463398528
 30
0.0
 10
78.39332002163431
 20
-144.0611463398528
 30
0.0
 10
78.5628187195086
 20
-144.0611463398528
 30
0.0
 10
78.71664223292501
 20
-144.1055880716125
 30
0.0
 10
78.81827254973987
 20
-144.2874891132337
 30
0.0
 10
78.92455374545983
 20
-144.4800699508592
 30
0.0
 10
78.94935843295363
 20
-144.7084797815312
 30
0.0
 10
78.94935843295363
 20
-144.8821125939878
 30
0.0
 10
78.94935843295363
 20
-145.0533338396047
 30
0.0
 10
78.92679305752524
 20
-145.283810727568
 30
0.0
 10
78.81827254973987
 20
-145.4763915651934
 30
0.0
  0
SPLINE
  5
113
330
10C
100
AcDbEntity
  8
_U+30EC_U+30A4_U+30E4_U+30FC 1
370
     0
100
AcDbSpline
210
0.0
220
0.0
230
1.0
 70
    11
 71
     3
 72
    17
 73
    13
 74
     0
 42
0.0000000001
 43
0.0000000001
 12
1.0
 22
0.0
 32
0.0
 13
1.0
 23
0.0
 33
0.0
 40
0.0
 40
0.0
 40
0.0
 40
0.0
 40
1.0
 40
1.0
 40
1.0
 40
2.0
 40
2.0
 40
2.0
 40
3.0
 40
3.0
 40
3.0
 40
4.0
 40
4.0
 40
4.0
 40
4.0
 10
78.39332002163431
 20
-144.2537271774783
 30
0.0
 10
78.12649737630171
 20
-144.2537271774783
 30
0.0
 10
78.07671574653985
 20
-144.5372585359143
 30
0.0
 10
78.07671574653985
 20
-144.8821125939878
 30
0.0
 10
78.07671574653985
 20
-145.2014729454705
 30
0.0
 10
78.1151285612004
 20
-145.5101535009489
 30
0.0
 10
78.39332002163431
 20
-145.5101535009489
 30
0.0
 10
78.65773110012724
 20
-145.5101535009489
 30
0.0
 10
78.70975204195452
 20
-145.2290337093525
 30
0.0
 10
78.70975204195452
 20
-144.8821125939878
 30
0.0
 10
78.70975204195452
 20
-144.5624077329566
 30
0.0
 10
78.66909991522856
 20
-144.2537271774783
 30
0.0
 10
78.39332002163431
 20
-144.2537271774783
 30
0.0
  0
HATCH
  5
114
330
10C
100
AcDbEntity
  8
_U+30EC_U+30A4_U+30E4_U+30FC 1
 62
   179
420
  2234388
100
AcDbHatch
 10
0.0
 20
0.0
 30
0.0
210
0.0
220
0.0
230
1.0
  2
SOLID
 70
     1
 71
     0
 91
        2
 92
        1
 93
        1
 72
     4
 94
        3
 73
     0
 74
     1
 95
       29
 96
       25
 40
0.0
 40
0.0
 40
0.0
 40
0.0
 40
1.0
 40
1.0
 40
1.0
 40
2.0
 40
2.0
 40
2.0
 40
3.0
 40
3.0
 40
3.0
 40
4.0
 40
4.0
 40
4.0
 40
5.0
 40
5.0
 40
5.0
 40
6.0
 40
6.0
 40
6.0
 40
7.0
 40
7.0
 40
7.0
 40
8.0
 40
8.0
 40
8.0
 40
8.0
 10
78.81827254973987
 20
-145.4763915651934
 10
78.70303410575828
 20
-145.6858533706966
 10
78.51768796865183
 20
-145.7048013958655
 10
78.39332002163431
 20
-145.7048013958655
 10
78.22140975692035
 20
-145.7048013958655
 10
78.06999781034362
 20
-145.6582926068146
 10
77.96819523875448
 20
-145.4763915651934
 10
77.8574354189037
 20
-145.2817436702768
 10
77.83710935554073
 20
-145.0450656104401
 10
77.83710935554073
 20
-144.8821125939878
 10
77.83710935554073
 20
-144.7381076027044
 10
77.85519610683829
 20
-144.4862711227326
 10
77.96819523875448
 20
-144.2874891132337
 10
78.08360593751036
 20
-144.0845729891525
 10
78.25534394745006
 20
-144.0611463398528
 10
78.39332002163431
 20
-144.0611463398528
 10
78.5628187195086
 20
-144.0611463398528
 10
78.71664223292501
 20
-144.1055880716125
 10
78.81827254973987
 20
-144.2874891132337
 10
78.92455374545983
 20
-144.4800699508592
 10
78.94935843295363
 20
-144.7084797815312
 10
78.94935843295363
 20
-144.8821125939878
 10
78.94935843295363
 20
-145.0533338396047
 10
78.92679305752524
 20
-145.283810727568
 10
78.81827254973987
 20
-145.4763915651934
 97
        0
 97
        0
 92
        1
 93
        1
 72
     4
 94
        3
 73
     0
 74
     1
 95
       17
 96
       13
 40
0.0
 40
0.0
 40
0.0
 40
0.0
 40
1.0
 40
1.0
 40
1.0
 40
2.0
 40
2.0
 40
2.0
 40
3.0
 40
3.0
 40
3.0
 40
4.0
 40
4.0
 40
4.0
 40
4.0
 10
78.39332002163431
 20
-144.2537271774783
 10
78.12649737630171
 20
-144.2537271774783
 10
78.07671574653985
 20
-144.5372585359143
 10
78.07671574653985
 20
-144.8821125939878
 10
78.07671574653985
 20
-145.2014729454705
 10
78.1151285612004
 20
-145.5101535009489
 10
78.39332002163431
 20
-145.5101535009489
 10
78.65773110012724
 20
-145.5101535009489
 10
78.70975204195452
 20
-145.2290337093525
 10
78.70975204195452
 20
-144.8821125939878
 10
78.70975204195452
 20
-144.5624077329566
 10
78.66909991522856
 20
-144.2537271774783
 10
78.39332002163431
 20
-144.2537271774783
 97
        0
 97
        0
 75
     2
 76
     1
 98
        0
  0
ENDBLK
  5
10F
330
10C
100
AcDbEntity
  8
0
100
AcDbBlockEnd
  0
BLOCK
  5
117
330
115
100
AcDbEntity
  8
0
100
AcDbBlockBegin
  2
block 11
 70
     0
 10
0.0
 20
0.0
 30
0.0
  3
block 11
  1

  0
POLYLINE
  5
119
330
115
100
AcDbEntity
  8
_U+30EC_U+30A4_U+30E4_U+30FC 1
 62
   179
420
  2234388
370
     9
100
AcDb2dPolyline
 66
     1
 10
0.0
 20
0.0
 30
0.0
  0
VERTEX
  5
11A
330
119
100
AcDbEntity
  8
_U+30EC_U+30A4_U+30E4_U+30FC 1
 62
   179
420
  2234388
370
     9
100
AcDbVertex
100
AcDb2dVertex
 10
67.98119326565526
 20
-121.3004516363414
 30
0.0
  0
VERTEX
  5
11B
330
119
100
AcDbEntity
  8
_U+30EC_U+30A4_U+30E4_U+30FC 1
 62
   179
420
  2234388
370
     9
100
AcDbVertex
100
AcDb2dVertex
 10
67.98119326565526
 20
-142.3003602422028
 30
0.0
  0
SEQEND
  5
11C
330
119
100
AcDbEntity
  8
_U+30EC_U+30A4_U+30E4_U+30FC 1
 62
   179
420
  2234388
370
     9
  0
POLYLINE
  5
11D
330
115
100
AcDbEntity
  8
_U+30EC_U+30A4_U+30E4_U+30FC 1
 62
   179
420
  2234388
370
     9
100
AcDb2dPolyline
 66
     1
 10
0.0
 20
0.0
 30
0.0
  0
VERTEX
  5
11E
330
11D
100
AcDbEntity
  8
_U+30EC_U+30A4_U+30E4_U+30FC 1
 62
   179
420
  2234388
370
     9
100
AcDbVertex
100
AcDb2dVertex
 10
69.44105822841101
 20
-121.3004516363414
 30
0.0
  0
VERTEX
  5
11F
330
11D
100
AcDbEntity
  8
_U+30EC_U+30A4_U+30E4_U+30FC 1
 62
   179
420
  2234388
370
     9
100
AcDbVertex
100
AcDb2dVertex
 10
66.98110356894746
 20
-121.3004516363414
 30
0.0
  0
SEQEND
  5
120
330
11D
100
AcDbEntity
  8
_U+30EC_U+30A4_U+30E4_U+30FC 1
 62
   179
420
  2234388
370
     9
  0
POLYLINE
  5
121
330
115
100
AcDbEntity
  8
_U+30EC_U+30A4_U+30E4_U+30FC 1
 62
   179
420
  2234388
370
     9
100
AcDb2dPolyline
 66
     1
 10
0.0
 20
0.0
 30
0.0
  0
VERTEX
  5
122
330
121
100
AcDbEntity
  8
_U+30EC_U+30A4_U+30E4_U+30FC 1
 62
   179
420
  2234388
370
     9
100
AcDbVertex
100
AcDb2dVertex
 10
69.44105822841101
 20
-142.3003602422028
 30
0.0
  0
VERTEX
  5
123
330
121
100
AcDbEntity
  8
_U+30EC_U+30A4_U+30E4_U+30FC 1
 62
   179
420
  2234388
370
     9
100
AcDbVertex
100
AcDb2dVertex
 10
66.98110356894746
 20
-142.3003602422028
 30
0.0
  0
SEQEND
  5
124
330
121
100
AcDbEntity
  8
_U+30EC_U+30A4_U+30E4_U+30FC 1
 62
   179
420
  2234388
370
     9
  0
INSERT
  5
126
330
115
100
AcDbEntity
  8
_U+30EC_U+30A4_U+30E4_U+30FC 1
100
AcDbBlockReference
  2
block 12
 10
0.0
 20
0.0
 30
0.0
  0
ENDBLK
  5
118
330
115
100
AcDbEntity
  8
0
100
AcDbBlockEnd
  0
BLOCK
  5
127
330
125
100
AcDbEntity
  8
0
100
AcDbBlockBegin
  2
block 12
 70
     0
 10
0.0
 20
0.0
 30
0.0
  3
block 12
  1

  0
SPLINE
  5
129
330
125
100
AcDbEntity
  8
_U+30EC_U+30A4_U+30E4_U+30FC 1
370
     0
100
AcDbSpline
210
0.0
220
0.0
230
1.0
 70
    11
 71
     3
 72
    44
 73
    40
 74
     0
 42
0.0000000001
 43
0.0000000001
 12
1.0
 22
0.0
 32
0.0
 13
1.0
 23
0.0
 33
0.0
 40
0.0
 40
0.0
 40
0.0
 40
0.0
 40
1.0
 40
1.0
 40
1.0
 40
2.0
 40
2.0
 40
2.0
 40
3.0
 40
3.0
 40
3.0
 40
4.0
 40
4.0
 40
4.0
 40
5.0
 40
5.0
 40
5.0
 40
6.0
 40
6.0
 40
6.0
 40
7.0
 40
7.0
 40
7.0
 40
8.0
 40
8.0
 40
8.0
 40
9.0
 40
9.0
 40
9.0
 40
10.0
 40
10.0
 40
10.0
 40
11.0
 40
11.0
 40
11.0
 40
12.0
 40
12.0
 40
12.0
 40
13.0
 40
13.0
 40
13.0
 40
13.0
 10
66.75320365084643
 20
-132.3309407221256
 30
0.0
 10
66.91202255271644
 20
-132.5638291769285
 30
0.0
 10
66.98609210564932
 20
-132.6633924364522
 30
0.0
 10
67.12975258738423
 20
-132.7154133782795
 30
0.0
 10
67.12975258738423
 20
-132.7154133782795
 30
0.0
 10
67.12975258738423
 20
-131.8830783090431
 30
0.0
 10
67.12975258738423
 20
-131.8830783090431
 30
0.0
 10
67.12975258738423
 20
-131.8830783090431
 30
0.0
 10
67.33508027830513
 20
-131.8830783090431
 30
0.0
 10
67.33508027830513
 20
-131.8830783090431
 30
0.0
 10
67.33508027830513
 20
-131.8830783090431
 30
0.0
 10
67.33508027830513
 20
-132.9820637688378
 30
0.0
 10
67.33508027830513
 20
-132.9820637688378
 30
0.0
 10
66.9774793669362
 20
-132.9479573235338
 30
0.0
 10
66.89927569942101
 20
-132.8780218851833
 30
0.0
 10
66.60093043039838
 20
-132.4666774842445
 30
0.0
 10
66.40214842089947
 20
-132.1931369027156
 30
0.0
 10
66.33428003984004
 20
-132.1228569548165
 30
0.0
 10
66.19682072997857
 20
-132.1228569548165
 30
0.0
 10
66.07830944528598
 20
-132.1228569548165
 30
0.0
 10
65.94739581684648
 20
-132.1996825841376
 30
0.0
 10
65.94739581684648
 20
-132.4101779182863
 30
0.0
 10
65.94739581684648
 20
-132.688197123946
 30
0.0
 10
66.1778727048097
 20
-132.6971543722076
 30
0.0
 10
66.29431693221115
 20
-132.7016329963385
 30
0.0
 10
66.29431693221115
 20
-132.7016329963385
 30
0.0
 10
66.29431693221115
 20
-132.9414116421119
 30
0.0
 10
66.29431693221115
 20
-132.9414116421119
 30
0.0
 10
66.16719290880543
 20
-132.9324543938502
 30
0.0
 10
66.05522730553481
 20
-132.9210855787489
 30
0.0
 10
65.93671602084221
 20
-132.8349581916177
 30
0.0
 10
65.77583006168105
 20
-132.7174804355706
 30
0.0
 10
65.7420681259256
 20
-132.5186984260717
 30
0.0
 10
65.7420681259256
 20
-132.3943304790542
 30
0.0
 10
65.7420681259256
 20
-132.0980522673227
 30
0.0
 10
65.92603622483794
 20
-131.8765326276211
 30
0.0
 10
66.19888778726973
 20
-131.8765326276211
 30
0.0
 10
66.42764212749032
 20
-131.8765326276211
 30
0.0
 10
66.52686087746551
 20
-132.0009005746387
 30
0.0
 10
66.75320365084643
 20
-132.3309407221256
 30
0.0
  0
HATCH
  5
12A
330
125
100
AcDbEntity
  8
_U+30EC_U+30A4_U+30E4_U+30FC 1
 62
   179
420
  2234388
100
AcDbHatch
 10
0.0
 20
0.0
 30
0.0
210
0.0
220
0.0
230
1.0
  2
SOLID
 70
     1
 71
     0
 91
        1
 92
        1
 93
        1
 72
     4
 94
        3
 73
     0
 74
     1
 95
       44
 96
       40
 40
0.0
 40
0.0
 40
0.0
 40
0.0
 40
1.0
 40
1.0
 40
1.0
 40
2.0
 40
2.0
 40
2.0
 40
3.0
 40
3.0
 40
3.0
 40
4.0
 40
4.0
 40
4.0
 40
5.0
 40
5.0
 40
5.0
 40
6.0
 40
6.0
 40
6.0
 40
7.0
 40
7.0
 40
7.0
 40
8.0
 40
8.0
 40
8.0
 40
9.0
 40
9.0
 40
9.0
 40
10.0
 40
10.0
 40
10.0
 40
11.0
 40
11.0
 40
11.0
 40
12.0
 40
12.0
 40
12.0
 40
13.0
 40
13.0
 40
13.0
 40
13.0
 10
66.75320365084643
 20
-132.3309407221256
 10
66.91202255271644
 20
-132.5638291769285
 10
66.98609210564932
 20
-132.6633924364522
 10
67.12975258738423
 20
-132.7154133782795
 10
67.12975258738423
 20
-132.7154133782795
 10
67.12975258738423
 20
-131.8830783090431
 10
67.12975258738423
 20
-131.8830783090431
 10
67.12975258738423
 20
-131.8830783090431
 10
67.33508027830513
 20
-131.8830783090431
 10
67.33508027830513
 20
-131.8830783090431
 10
67.33508027830513
 20
-131.8830783090431
 10
67.33508027830513
 20
-132.9820637688378
 10
67.33508027830513
 20
-132.9820637688378
 10
66.9774793669362
 20
-132.9479573235338
 10
66.89927569942101
 20
-132.8780218851833
 10
66.60093043039838
 20
-132.4666774842445
 10
66.40214842089947
 20
-132.1931369027156
 10
66.33428003984004
 20
-132.1228569548165
 10
66.19682072997857
 20
-132.1228569548165
 10
66.07830944528598
 20
-132.1228569548165
 10
65.94739581684648
 20
-132.1996825841376
 10
65.94739581684648
 20
-132.4101779182863
 10
65.94739581684648
 20
-132.688197123946
 10
66.1778727048097
 20
-132.6971543722076
 10
66.29431693221115
 20
-132.7016329963385
 10
66.29431693221115
 20
-132.7016329963385
 10
66.29431693221115
 20
-132.9414116421119
 10
66.29431693221115
 20
-132.9414116421119
 10
66.16719290880543
 20
-132.9324543938502
 10
66.05522730553481
 20
-132.9210855787489
 10
65.93671602084221
 20
-132.8349581916177
 10
65.77583006168105
 20
-132.7174804355706
 10
65.7420681259256
 20
-132.5186984260717
 10
65.7420681259256
 20
-132.3943304790542
 10
65.7420681259256
 20
-132.0980522673227
 10
65.92603622483794
 20
-131.8765326276211
 10
66.19888778726973
 20
-131.8765326276211
 10
66.42764212749032
 20
-131.8765326276211
 10
66.52686087746551
 20
-132.0009005746387
 10
66.75320365084643
 20
-132.3309407221256
 97
        0
 97
        0
 75
     2
 76
     1
 98
        0
  0
SPLINE
  5
12B
330
125
100
AcDbEntity
  8
_U+30EC_U+30A4_U+30E4_U+30FC 1
370
     0
100
AcDbSpline
210
0.0
220
0.0
230
1.0
 70
    11
 71
     3
 72
    26
 73
    22
 74
     0
 42
0.0000000001
 43
0.0000000001
 12
1.0
 22
0.0
 32
0.0
 13
1.0
 23
0.0
 33
0.0
 40
0.0
 40
0.0
 40
0.0
 40
0.0
 40
1.0
 40
1.0
 40
1.0
 40
2.0
 40
2.0
 40
2.0
 40
3.0
 40
3.0
 40
3.0
 40
4.0
 40
4.0
 40
4.0
 40
5.0
 40
5.0
 40
5.0
 40
6.0
 40
6.0
 40
6.0
 40
7.0
 40
7.0
 40
7.0
 40
7.0
 10
67.33508027830513
 20
-131.2247205618119
 30
0.0
 10
67.33508027830513
 20
-131.2247205618119
 30
0.0
 10
66.23092717528255
 20
-131.2247205618119
 30
0.0
 10
66.23092717528255
 20
-131.2247205618119
 30
0.0
 10
66.23092717528255
 20
-131.2247205618119
 30
0.0
 10
66.23092717528255
 20
-131.5771538299529
 30
0.0
 10
66.23092717528255
 20
-131.5771538299529
 30
0.0
 10
66.23092717528255
 20
-131.5771538299529
 30
0.0
 10
66.08278806941681
 20
-131.5771538299529
 30
0.0
 10
66.08278806941681
 20
-131.5771538299529
 30
0.0
 10
66.06797415883022
 20
-131.2223089949722
 30
0.0
 10
65.90502114237792
 20
-131.1726996199846
 30
0.0
 10
65.79064397226762
 20
-131.1410047415203
 30
0.0
 10
65.79064397226762
 20
-131.1410047415203
 30
0.0
 10
65.79064397226762
 20
-130.9849419160385
 30
0.0
 10
65.79064397226762
 20
-130.9849419160385
 30
0.0
 10
65.79064397226762
 20
-130.9849419160385
 30
0.0
 10
67.33508027830513
 20
-130.9849419160385
 30
0.0
 10
67.33508027830513
 20
-130.9849419160385
 30
0.0
 10
67.33508027830513
 20
-130.9849419160385
 30
0.0
 10
67.33508027830513
 20
-131.2247205618119
 30
0.0
 10
67.33508027830513
 20
-131.2247205618119
 30
0.0
  0
HATCH
  5
12C
330
125
100
AcDbEntity
  8
_U+30EC_U+30A4_U+30E4_U+30FC 1
 62
   179
420
  2234388
100
AcDbHatch
 10
0.0
 20
0.0
 30
0.0
210
0.0
220
0.0
230
1.0
  2
SOLID
 70
     1
 71
     0
 91
        1
 92
        1
 93
        1
 72
     4
 94
        3
 73
     0
 74
     1
 95
       26
 96
       22
 40
0.0
 40
0.0
 40
0.0
 40
0.0
 40
1.0
 40
1.0
 40
1.0
 40
2.0
 40
2.0
 40
2.0
 40
3.0
 40
3.0
 40
3.0
 40
4.0
 40
4.0
 40
4.0
 40
5.0
 40
5.0
 40
5.0
 40
6.0
 40
6.0
 40
6.0
 40
7.0
 40
7.0
 40
7.0
 40
7.0
 10
67.33508027830513
 20
-131.2247205618119
 10
67.33508027830513
 20
-131.2247205618119
 10
66.23092717528255
 20
-131.2247205618119
 10
66.23092717528255
 20
-131.2247205618119
 10
66.23092717528255
 20
-131.2247205618119
 10
66.23092717528255
 20
-131.5771538299529
 10
66.23092717528255
 20
-131.5771538299529
 10
66.23092717528255
 20
-131.5771538299529
 10
66.08278806941681
 20
-131.5771538299529
 10
66.08278806941681
 20
-131.5771538299529
 10
66.06797415883022
 20
-131.2223089949722
 10
65.90502114237792
 20
-131.1726996199846
 10
65.79064397226762
 20
-131.1410047415203
 10
65.79064397226762
 20
-131.1410047415203
 10
65.79064397226762
 20
-130.9849419160385
 10
65.79064397226762
 20
-130.9849419160385
 10
65.79064397226762
 20
-130.9849419160385
 10
67.33508027830513
 20
-130.9849419160385
 10
67.33508027830513
 20
-130.9849419160385
 10
67.33508027830513
 20
-130.9849419160385
 10
67.33508027830513
 20
-131.2247205618119
 10
67.33508027830513
 20
-131.2247205618119
 97
        0
 97
        0
 75
     2
 76
     1
 98
        0
  0
ENDBLK
  5
128
330
125
100
AcDbEntity
  8
0
100
AcDbBlockEnd
  0
BLOCK
  5
12F
330
12D
100
AcDbEntity
  8
0
100
AcDbBlockBegin
  2
block 13
 70
     0
 10
0.0
 20
0.0
 30
0.0
  3
block 13
  1

  0
POLYLINE
  5
131
330
12D
100
AcDbEntity
  8
_U+30EC_U+30A4_U+30E4_U+30FC 1
 62
   179
420
  2234388
370
     9
100
AcDb2dPolyline
 66
     1
 10
0.0
 20
0.0
 30
0.0
  0
VERTEX
  5
132
330
131
100
AcDbEntity
  8
_U+30EC_U+30A4_U+30E4_U+30FC 1
 62
   179
420
  2234388
370
     9
100
AcDbVertex
100
AcDb2dVertex
 10
116.7646084099756
 20
-129.3006402454529
 30
0.0
  0
VERTEX
  5
133
330
131
100
AcDbEntity
  8
_U+30EC_U+30A4_U+30E4_U+30FC 1
 62
   179
420
  2234388
370
     9
100
AcDbVertex
100
AcDb2dVertex
 10
116.7646084099756
 20
-139.3003732985084
 30
0.0
  0
SEQEND
  5
134
330
131
100
AcDbEntity
  8
_U+30EC_U+30A4_U+30E4_U+30FC 1
 62
   179
420
  2234388
370
     9
  0
POLYLINE
  5
135
330
12D
100
AcDbEntity
  8
_U+30EC_U+30A4_U+30E4_U+30FC 1
 62
   179
420
  2234388
370
     9
100
AcDb2dPolyline
 66
     1
 10
0.0
 20
0.0
 30
0.0
  0
VERTEX
  5
136
330
135
100
AcDbEntity
  8
_U+30EC_U+30A4_U+30E4_U+30FC 1
 62
   179
420
  2234388
370
     9
100
AcDbVertex
100
AcDb2dVertex
 10
115.65738010489
 20
-129.3006402454529
 30
0.0
  0
VERTEX
  5
137
330
135
100
AcDbEntity
  8
_U+30EC_U+30A4_U+30E4_U+30FC 1
 62
   179
420
  2234388
370
     9
100
AcDbVertex
100
AcDb2dVertex
 10
117.765086162229
 20
-129.3006402454529
 30
0.0
  0
SEQEND
  5
138
330
135
100
AcDbEntity
  8
_U+30EC_U+30A4_U+30E4_U+30FC 1
 62
   179
420
  2234388
370
     9
  0
INSERT
  5
13A
330
12D
100
AcDbEntity
  8
_U+30EC_U+30A4_U+30E4_U+30FC 1
100
AcDbBlockReference
  2
block 14
 10
0.0
 20
0.0
 30
0.0
  0
ENDBLK
  5
130
330
12D
100
AcDbEntity
  8
0
100
AcDbBlockEnd
  0
BLOCK
  5
13B
330
139
100
AcDbEntity
  8
0
100
AcDbBlockBegin
  2
block 14
 70
     0
 10
0.0
 20
0.0
 30
0.0
  3
block 14
  1

  0
SPLINE
  5
13D
330
139
100
AcDbEntity
  8
_U+30EC_U+30A4_U+30E4_U+30FC 1
370
     0
100
AcDbSpline
210
0.0
220
0.0
230
1.0
 70
    11
 71
     3
 72
    26
 73
    22
 74
     0
 42
0.0000000001
 43
0.0000000001
 12
1.0
 22
0.0
 32
0.0
 13
1.0
 23
0.0
 33
0.0
 40
0.0
 40
0.0
 40
0.0
 40
0.0
 40
1.0
 40
1.0
 40
1.0
 40
2.0
 40
2.0
 40
2.0
 40
3.0
 40
3.0
 40
3.0
 40
4.0
 40
4.0
 40
4.0
 40
5.0
 40
5.0
 40
5.0
 40
6.0
 40
6.0
 40
6.0
 40
7.0
 40
7.0
 40
7.0
 40
7.0
 10
116.1186658780884
 20
-134.9826307171224
 30
0.0
 10
116.1186658780884
 20
-134.9826307171224
 30
0.0
 10
115.0145127750658
 20
-134.9826307171224
 30
0.0
 10
115.0145127750658
 20
-134.9826307171224
 30
0.0
 10
115.0145127750658
 20
-134.9826307171224
 30
0.0
 10
115.0145127750658
 20
-135.3350639852635
 30
0.0
 10
115.0145127750658
 20
-135.3350639852635
 30
0.0
 10
115.0145127750658
 20
-135.3350639852635
 30
0.0
 10
114.8663736692001
 20
-135.3350639852635
 30
0.0
 10
114.8663736692001
 20
-135.3350639852635
 30
0.0
 10
114.8515597586135
 20
-134.9802191502827
 30
0.0
 10
114.6886067421612
 20
-134.9306097752951
 30
0.0
 10
114.5742295720509
 20
-134.8989148968308
 30
0.0
 10
114.5742295720509
 20
-134.8989148968308
 30
0.0
 10
114.5742295720509
 20
-134.742852071349
 30
0.0
 10
114.5742295720509
 20
-134.742852071349
 30
0.0
 10
114.5742295720509
 20
-134.742852071349
 30
0.0
 10
116.1186658780884
 20
-134.742852071349
 30
0.0
 10
116.1186658780884
 20
-134.742852071349
 30
0.0
 10
116.1186658780884
 20
-134.742852071349
 30
0.0
 10
116.1186658780884
 20
-134.9826307171224
 30
0.0
 10
116.1186658780884
 20
-134.9826307171224
 30
0.0
  0
HATCH
  5
13E
330
139
100
AcDbEntity
  8
_U+30EC_U+30A4_U+30E4_U+30FC 1
 62
   179
420
  2234388
100
AcDbHatch
 10
0.0
 20
0.0
 30
0.0
210
0.0
220
0.0
230
1.0
  2
SOLID
 70
     1
 71
     0
 91
        1
 92
        1
 93
        1
 72
     4
 94
        3
 73
     0
 74
     1
 95
       26
 96
       22
 40
0.0
 40
0.0
 40
0.0
 40
0.0
 40
1.0
 40
1.0
 40
1.0
 40
2.0
 40
2.0
 40
2.0
 40
3.0
 40
3.0
 40
3.0
 40
4.0
 40
4.0
 40
4.0
 40
5.0
 40
5.0
 40
5.0
 40
6.0
 40
6.0
 40
6.0
 40
7.0
 40
7.0
 40
7.0
 40
7.0
 10
116.1186658780884
 20
-134.9826307171224
 10
116.1186658780884
 20
-134.9826307171224
 10
115.0145127750658
 20
-134.9826307171224
 10
115.0145127750658
 20
-134.9826307171224
 10
115.0145127750658
 20
-134.9826307171224
 10
115.0145127750658
 20
-135.3350639852635
 10
115.0145127750658
 20
-135.3350639852635
 10
115.0145127750658
 20
-135.3350639852635
 10
114.8663736692001
 20
-135.3350639852635
 10
114.8663736692001
 20
-135.3350639852635
 10
114.8515597586135
 20
-134.9802191502827
 10
114.6886067421612
 20
-134.9306097752951
 10
114.5742295720509
 20
-134.8989148968308
 10
114.5742295720509
 20
-134.8989148968308
 10
114.5742295720509
 20
-134.742852071349
 10
114.5742295720509
 20
-134.742852071349
 10
114.5742295720509
 20
-134.742852071349
 10
116.1186658780884
 20
-134.742852071349
 10
116.1186658780884
 20
-134.742852071349
 10
116.1186658780884
 20
-134.742852071349
 10
116.1186658780884
 20
-134.9826307171224
 10
116.1186658780884
 20
-134.9826307171224
 97
        0
 97
        0
 75
     2
 76
     1
 98
        0
  0
SPLINE
  5
13F
330
139
100
AcDbEntity
  8
_U+30EC_U+30A4_U+30E4_U+30FC 1
370
     0
100
AcDbSpline
210
0.0
220
0.0
230
1.0
 70
    11
 71
     3
 72
    29
 73
    25
 74
     0
 42
0.0000000001
 43
0.0000000001
 12
1.0
 22
0.0
 32
0.0
 13
1.0
 23
0.0
 33
0.0
 40
0.0
 40
0.0
 40
0.0
 40
0.0
 40
1.0
 40
1.0
 40
1.0
 40
2.0
 40
2.0
 40
2.0
 40
3.0
 40
3.0
 40
3.0
 40
4.0
 40
4.0
 40
4.0
 40
5.0
 40
5.0
 40
5.0
 40
6.0
 40
6.0
 40
6.0
 40
7.0
 40
7.0
 40
7.0
 40
8.0
 40
8.0
 40
8.0
 40
8.0
 10
115.9408989510495
 20
-133.2476806307506
 30
0.0
 10
116.1503607565527
 20
-133.3630913295065
 30
0.0
 10
116.1693087817216
 20
-133.5484374666129
 30
0.0
 10
116.1693087817216
 20
-133.6728054136304
 30
0.0
 10
116.1693087817216
 20
-133.8443711687958
 30
0.0
 10
116.1227999926707
 20
-133.9959553701468
 30
0.0
 10
115.9408989510495
 20
-134.0975856869617
 30
0.0
 10
115.7462510561329
 20
-134.2085177615868
 30
0.0
 10
115.5092284867477
 20
-134.2288438249497
 30
0.0
 10
115.3466199798439
 20
-134.2288438249497
 30
0.0
 10
115.2026149885605
 20
-134.2288438249497
 30
0.0
 10
114.9507785085887
 20
-134.2105848188779
 30
0.0
 10
114.7519964990898
 20
-134.0975856869617
 30
0.0
 10
114.5490803750086
 20
-133.9825194977544
 30
0.0
 10
114.5256537257089
 20
-133.8106092330404
 30
0.0
 10
114.5256537257089
 20
-133.6728054136304
 30
0.0
 10
114.5256537257089
 20
-133.5029622062076
 30
0.0
 10
114.5700954574686
 20
-133.3493109475654
 30
0.0
 10
114.7519964990898
 20
-133.2476806307506
 30
0.0
 10
114.9445773367153
 20
-133.1412271802564
 30
0.0
 10
115.1729871673873
 20
-133.1164224927626
 30
0.0
 10
115.3466199798439
 20
-133.1164224927626
 30
0.0
 10
115.5178412254608
 20
-133.1164224927626
 30
0.0
 10
115.748318113424
 20
-133.1391601229652
 30
0.0
 10
115.9408989510495
 20
-133.2476806307506
 30
0.0
  0
SPLINE
  5
140
330
139
100
AcDbEntity
  8
_U+30EC_U+30A4_U+30E4_U+30FC 1
370
     0
100
AcDbSpline
210
0.0
220
0.0
230
1.0
 70
    11
 71
     3
 72
    17
 73
    13
 74
     0
 42
0.0000000001
 43
0.0000000001
 12
1.0
 22
0.0
 32
0.0
 13
1.0
 23
0.0
 33
0.0
 40
0.0
 40
0.0
 40
0.0
 40
0.0
 40
1.0
 40
1.0
 40
1.0
 40
2.0
 40
2.0
 40
2.0
 40
3.0
 40
3.0
 40
3.0
 40
4.0
 40
4.0
 40
4.0
 40
4.0
 10
114.7182345633343
 20
-133.6728054136304
 30
0.0
 10
114.7182345633343
 20
-133.9394558041888
 30
0.0
 10
115.0017659217704
 20
-133.9890651791764
 30
0.0
 10
115.3466199798439
 20
-133.9890651791764
 30
0.0
 10
115.6659803313266
 20
-133.9890651791764
 30
0.0
 10
115.974660886805
 20
-133.9508246192901
 30
0.0
 10
115.974660886805
 20
-133.6728054136304
 30
0.0
 10
115.974660886805
 20
-133.4082220803632
 30
0.0
 10
115.6935410952086
 20
-133.356201138536
 30
0.0
 10
115.3466199798439
 20
-133.356201138536
 30
0.0
 10
115.0269151188127
 20
-133.356201138536
 30
0.0
 10
114.7182345633343
 20
-133.3968532652619
 30
0.0
 10
114.7182345633343
 20
-133.6728054136304
 30
0.0
  0
HATCH
  5
141
330
139
100
AcDbEntity
  8
_U+30EC_U+30A4_U+30E4_U+30FC 1
 62
   179
420
  2234388
100
AcDbHatch
 10
0.0
 20
0.0
 30
0.0
210
0.0
220
0.0
230
1.0
  2
SOLID
 70
     1
 71
     0
 91
        2
 92
        1
 93
        1
 72
     4
 94
        3
 73
     0
 74
     1
 95
       29
 96
       25
 40
0.0
 40
0.0
 40
0.0
 40
0.0
 40
1.0
 40
1.0
 40
1.0
 40
2.0
 40
2.0
 40
2.0
 40
3.0
 40
3.0
 40
3.0
 40
4.0
 40
4.0
 40
4.0
 40
5.0
 40
5.0
 40
5.0
 40
6.0
 40
6.0
 40
6.0
 40
7.0
 40
7.0
 40
7.0
 40
8.0
 40
8.0
 40
8.0
 40
8.0
 10
115.9408989510495
 20
-133.2476806307506
 10
116.1503607565527
 20
-133.3630913295065
 10
116.1693087817216
 20
-133.5484374666129
 10
116.1693087817216
 20
-133.6728054136304
 10
116.1693087817216
 20
-133.8443711687958
 10
116.1227999926707
 20
-133.9959553701468
 10
115.9408989510495
 20
-134.0975856869617
 10
115.7462510561329
 20
-134.2085177615868
 10
115.5092284867477
 20
-134.2288438249497
 10
115.3466199798439
 20
-134.2288438249497
 10
115.2026149885605
 20
-134.2288438249497
 10
114.9507785085887
 20
-134.2105848188779
 10
114.7519964990898
 20
-134.0975856869617
 10
114.5490803750086
 20
-133.9825194977544
 10
114.5256537257089
 20
-133.8106092330404
 10
114.5256537257089
 20
-133.6728054136304
 10
114.5256537257089
 20
-133.5029622062076
 10
114.5700954574686
 20
-133.3493109475654
 10
114.7519964990898
 20
-133.2476806307506
 10
114.9445773367153
 20
-133.1412271802564
 10
115.1729871673873
 20
-133.1164224927626
 10
115.3466199798439
 20
-133.1164224927626
 10
115.5178412254608
 20
-133.1164224927626
 10
115.748318113424
 20
-133.1391601229652
 10
115.9408989510495
 20
-133.2476806307506
 97
        0
 97
        0
 92
        1
 93
        1
 72
     4
 94
        3
 73
     0
 74
     1
 95
       17
 96
       13
 40
0.0
 40
0.0
 40
0.0
 40
0.0
 40
1.0
 40
1.0
 40
1.0
 40
2.0
 40
2.0
 40
2.0
 40
3.0
 40
3.0
 40
3.0
 40
4.0
 40
4.0
 40
4.0
 40
4.0
 10
114.7182345633343
 20
-133.6728054136304
 10
114.7182345633343
 20
-133.9394558041888
 10
115.0017659217704
 20
-133.9890651791764
 10
115.3466199798439
 20
-133.9890651791764
 10
115.6659803313266
 20
-133.9890651791764
 10
115.974660886805
 20
-133.9508246192901
 10
115.974660886805
 20
-133.6728054136304
 10
115.974660886805
 20
-133.4082220803632
 10
115.6935410952086
 20
-133.356201138536
 10
115.3466199798439
 20
-133.356201138536
 10
115.0269151188127
 20
-133.356201138536
 10
114.7182345633343
 20
-133.3968532652619
 10
114.7182345633343
 20
-133.6728054136304
 97
        0
 97
        0
 75
     2
 76
     1
 98
        0
  0
ENDBLK
  5
13C
330
139
100
AcDbEntity
  8
0
100
AcDbBlockEnd
  0
BLOCK
  5
14D
330
14B
100
AcDbEntity
  8
0
100
AcDbBlockBegin
  2
block 15
 70
     0
 10
0.0
 20
0.0
 30
0.0
  3
block 15
  1

  0
SPLINE
  5
14F
330
14B
100
AcDbEntity
  8
_U+30EC_U+30A4_U+30E4_U+30FC 1
370
     0
100
AcDbSpline
210
0.0
220
0.0
230
1.0
 70
    11
 71
     3
 72
    26
 73
    22
 74
     0
 42
0.0000000001
 43
0.0000000001
 12
1.0
 22
0.0
 32
0.0
 13
1.0
 23
0.0
 33
0.0
 40
0.0
 40
0.0
 40
0.0
 40
0.0
 40
1.0
 40
1.0
 40
1.0
 40
2.0
 40
2.0
 40
2.0
 40
3.0
 40
3.0
 40
3.0
 40
4.0
 40
4.0
 40
4.0
 40
5.0
 40
5.0
 40
5.0
 40
6.0
 40
6.0
 40
6.0
 40
7.0
 40
7.0
 40
7.0
 40
7.0
 10
116.06457787897
 20
-127.410827604866
 30
0.0
 10
116.06457787897
 20
-127.410827604866
 30
0.0
 10
114.9604247759474
 20
-127.410827604866
 30
0.0
 10
114.9604247759474
 20
-127.410827604866
 30
0.0
 10
114.9604247759474
 20
-127.410827604866
 30
0.0
 10
114.9604247759474
 20
-127.7636053825556
 30
0.0
 10
114.9604247759474
 20
-127.7636053825556
 30
0.0
 10
114.9604247759474
 20
-127.7636053825556
 30
0.0
 10
114.8122856700816
 20
-127.7636053825556
 30
0.0
 10
114.8122856700816
 20
-127.7636053825556
 30
0.0
 10
114.7974717594951
 20
-127.4085882928006
 30
0.0
 10
114.6345187430428
 20
-127.3588066630388
 30
0.0
 10
114.5201415729325
 20
-127.3272840393487
 30
0.0
 10
114.5201415729325
 20
-127.3272840393487
 30
0.0
 10
114.5201415729325
 20
-127.1712212138669
 30
0.0
 10
114.5201415729325
 20
-127.1712212138669
 30
0.0
 10
114.5201415729325
 20
-127.1712212138669
 30
0.0
 10
116.06457787897
 20
-127.1712212138669
 30
0.0
 10
116.06457787897
 20
-127.1712212138669
 30
0.0
 10
116.06457787897
 20
-127.1712212138669
 30
0.0
 10
116.06457787897
 20
-127.410827604866
 30
0.0
 10
116.06457787897
 20
-127.410827604866
 30
0.0
  0
HATCH
  5
150
330
14B
100
AcDbEntity
  8
_U+30EC_U+30A4_U+30E4_U+30FC 1
 62
     7
420
 16777215
100
AcDbHatch
 10
0.0
 20
0.0
 30
0.0
210
0.0
220
0.0
230
1.0
  2
SOLID
 70
     1
 71
     0
 91
        1
 92
        1
 93
        1
 72
     4
 94
        3
 73
     0
 74
     1
 95
       26
 96
       22
 40
0.0
 40
0.0
 40
0.0
 40
0.0
 40
1.0
 40
1.0
 40
1.0
 40
2.0
 40
2.0
 40
2.0
 40
3.0
 40
3.0
 40
3.0
 40
4.0
 40
4.0
 40
4.0
 40
5.0
 40
5.0
 40
5.0
 40
6.0
 40
6.0
 40
6.0
 40
7.0
 40
7.0
 40
7.0
 40
7.0
 10
116.06457787897
 20
-127.410827604866
 10
116.06457787897
 20
-127.410827604866
 10
114.9604247759474
 20
-127.410827604866
 10
114.9604247759474
 20
-127.410827604866
 10
114.9604247759474
 20
-127.410827604866
 10
114.9604247759474
 20
-127.7636053825556
 10
114.9604247759474
 20
-127.7636053825556
 10
114.9604247759474
 20
-127.7636053825556
 10
114.8122856700816
 20
-127.7636053825556
 10
114.8122856700816
 20
-127.7636053825556
 10
114.7974717594951
 20
-127.4085882928006
 10
114.6345187430428
 20
-127.3588066630388
 10
114.5201415729325
 20
-127.3272840393487
 10
114.5201415729325
 20
-127.3272840393487
 10
114.5201415729325
 20
-127.1712212138669
 10
114.5201415729325
 20
-127.1712212138669
 10
114.5201415729325
 20
-127.1712212138669
 10
116.06457787897
 20
-127.1712212138669
 10
116.06457787897
 20
-127.1712212138669
 10
116.06457787897
 20
-127.1712212138669
 10
116.06457787897
 20
-127.410827604866
 10
116.06457787897
 20
-127.410827604866
 97
        0
 97
        0
 75
     2
 76
     1
 98
        0
  0
ENDBLK
  5
14E
330
14B
100
AcDbEntity
  8
0
100
AcDbBlockEnd
  0
ENDSEC
  0
SECTION
  2
ENTITIES
  0
POLYLINE
  5
41
330
1F
100
AcDbEntity
  8
_U+30EC_U+30A4_U+30E4_U+30FC 1
370
     0
100
AcDb2dPolyline
 66
     1
 10
0.0
 20
0.0
 30
0.0
  0
VERTEX
  5
42
330
41
100
AcDbEntity
  8
_U+30EC_U+30A4_U+30E4_U+30FC 1
370
     0
100
AcDbVertex
100
AcDb2dVertex
 10
73.66476062065539
 20
-122.3001885805361
 30
0.0
  0
VERTEX
  5
43
330
41
100
AcDbEntity
  8
_U+30EC_U+30A4_U+30E4_U+30FC 1
370
     0
100
AcDbVertex
100
AcDb2dVertex
 10
75.76470556708132
 20
-122.3001885805361
 30
0.0
  0
VERTEX
  5
44
330
41
100
AcDbEntity
  8
_U+30EC_U+30A4_U+30E4_U+30FC 1
370
     0
100
AcDbVertex
100
AcDb2dVertex
 10
75.76470556708132
 20
-121.3004516363414
 30
0.0
  0
VERTEX
  5
45
330
41
100
AcDbEntity
  8
_U+30EC_U+30A4_U+30E4_U+30FC 1
370
     0
100
AcDbVertex
100
AcDb2dVertex
 10
72.76471869917293
 20
-121.3004516363414
 30
0.0
  0
VERTEX
  5
46
330
41
100
AcDbEntity
  8
_U+30EC_U+30A4_U+30E4_U+30FC 1
370
     0
100
AcDbVertex
100
AcDb2dVertex
 10
72.76471869917293
 20
-142.2996546866473
 30
0.0
  0
VERTEX
  5
47
330
41
100
AcDbEntity
  8
_U+30EC_U+30A4_U+30E4_U+30FC 1
370
     0
100
AcDbVertex
100
AcDb2dVertex
 10
82.76480427738282
 20
-142.2996546866473
 30
0.0
  0
VERTEX
  5
48
330
41
100
AcDbEntity
  8
_U+30EC_U+30A4_U+30E4_U+30FC 1
370
     0
100
AcDbVertex
100
AcDb2dVertex
 10
82.76480427738282
 20
-139.2996677429529
 30
0.0
  0
VERTEX
  5
49
330
41
100
AcDbEntity
  8
_U+30EC_U+30A4_U+30E4_U+30FC 1
370
     0
100
AcDbVertex
100
AcDb2dVertex
 10
79.76481942450309
 20
-139.2996677429529
 30
0.0
  0
VERTEX
  5
4A
330
41
100
AcDbEntity
  8
_U+30EC_U+30A4_U+30E4_U+30FC 1
370
     0
100
AcDbVertex
100
AcDb2dVertex
 10
79.76481942450309
 20
-140.2994399649248
 30
0.0
  0
VERTEX
  5
4B
330
41
100
AcDbEntity
  8
_U+30EC_U+30A4_U+30E4_U+30FC 1
370
     0
100
AcDbVertex
100
AcDb2dVertex
 10
81.76467930289813
 20
-140.2994399649248
 30
0.0
  0
VERTEX
  5
4C
330
41
100
AcDbEntity
  8
_U+30EC_U+30A4_U+30E4_U+30FC 1
370
     0
100
AcDbVertex
100
AcDb2dVertex
 10
81.76467930289813
 20
-141.2999177424529
 30
0.0
  0
VERTEX
  5
4D
330
41
100
AcDbEntity
  8
_U+30EC_U+30A4_U+30E4_U+30FC 1
370
     0
100
AcDbVertex
100
AcDb2dVertex
 10
73.66476062065539
 20
-141.2999177424529
 30
0.0
  0
VERTEX
  5
4E
330
41
100
AcDbEntity
  8
_U+30EC_U+30A4_U+30E4_U+30FC 1
370
     0
100
AcDbVertex
100
AcDb2dVertex
 10
73.66476062065539
 20
-129.2999346898974
 30
0.0
  0
VERTEX
  5
4F
330
41
100
AcDbEntity
  8
_U+30EC_U+30A4_U+30E4_U+30FC 1
370
     0
100
AcDbVertex
100
AcDb2dVertex
 10
112.7648493453512
 20
-129.2999346898974
 30
0.0
  0
VERTEX
  5
50
330
41
100
AcDbEntity
  8
_U+30EC_U+30A4_U+30E4_U+30FC 1
370
     0
100
AcDbVertex
100
AcDb2dVertex
 10
112.7648493453512
 20
-128.3993988567891
 30
0.0
  0
VERTEX
  5
51
330
41
100
AcDbEntity
  8
_U+30EC_U+30A4_U+30E4_U+30FC 1
370
     0
100
AcDbVertex
100
AcDb2dVertex
 10
73.66476062065539
 20
-128.3993988567891
 30
0.0
  0
VERTEX
  5
52
330
41
100
AcDbEntity
  8
_U+30EC_U+30A4_U+30E4_U+30FC 1
370
     0
100
AcDbVertex
100
AcDb2dVertex
 10
73.66476062065539
 20
-122.3001885805361
 30
0.0
  0
SEQEND
  5
54
330
41
100
AcDbEntity
  8
_U+30EC_U+30A4_U+30E4_U+30FC 1
370
     0
  0
HATCH
  5
53
330
1F
100
AcDbEntity
  8
_U+30EC_U+30A4_U+30E4_U+30FC 1
 62
   253
420
 11711154
100
AcDbHatch
 10
0.0
 20
0.0
 30
0.0
210
0.0
220
0.0
230
1.0
  2
SOLID
 70
     1
 71
     0
 91
        1
 92
        1
 93
       16
 72
     1
 10
73.66476062065539
 20
-122.3001885805361
 11
75.76470556708132
 21
-122.3001885805361
 72
     1
 10
75.76470556708132
 20
-122.3001885805361
 11
75.76470556708132
 21
-121.3004516363414
 72
     1
 10
75.76470556708132
 20
-121.3004516363414
 11
72.76471869917293
 21
-121.3004516363414
 72
     1
 10
72.76471869917293
 20
-121.3004516363414
 11
72.76471869917293
 21
-142.2996546866473
 72
     1
 10
72.76471869917293
 20
-142.2996546866473
 11
82.76480427738282
 21
-142.2996546866473
 72
     1
 10
82.76480427738282
 20
-142.2996546866473
 11
82.76480427738282
 21
-139.2996677429529
 72
     1
 10
82.76480427738282
 20
-139.2996677429529
 11
79.76481942450309
 21
-139.2996677429529
 72
     1
 10
79.76481942450309
 20
-139.2996677429529
 11
79.76481942450309
 21
-140.2994399649248
 72
     1
 10
79.76481942450309
 20
-140.2994399649248
 11
81.76467930289813
 21
-140.2994399649248
 72
     1
 10
81.76467930289813
 20
-140.2994399649248
 11
81.76467930289813
 21
-141.2999177424529
 72
     1
 10
81.76467930289813
 20
-141.2999177424529
 11
73.66476062065539
 21
-141.2999177424529
 72
     1
 10
73.66476062065539
 20
-141.2999177424529
 11
73.66476062065539
 21
-129.2999346898974
 72
     1
 10
73.66476062065539
 20
-129.2999346898974
 11
112.7648493453512
 21
-129.2999346898974
 72
     1
 10
112.7648493453512
 20
-129.2999346898974
 11
112.7648493453512
 21
-128.3993988567891
 72
     1
 10
112.7648493453512
 20
-128.3993988567891
 11
73.66476062065539
 21
-128.3993988567891
 72
     1
 10
73.66476062065539
 20
-128.3993988567891
 11
73.66476062065539
 21
-122.3001885805361
 97
        0
 75
     2
 76
     1
 98
        0
  0
INSERT
  5
56
330
1F
100
AcDbEntity
  8
_U+30EC_U+30A4_U+30E4_U+30FC 1
100
AcDbBlockReference
  2
block 2
 10
0.0
 20
0.0
 30
0.0
  0
POLYLINE
  5
142
330
1F
100
AcDbEntity
  8
_U+30EC_U+30A4_U+30E4_U+30FC 1
 62
   179
420
  2234388
370
     9
100
AcDb2dPolyline
 66
     1
 10
0.0
 20
0.0
 30
0.0
  0
VERTEX
  5
143
330
142
100
AcDbEntity
  8
_U+30EC_U+30A4_U+30E4_U+30FC 1
 62
   179
420
  2234388
370
     9
100
AcDbVertex
100
AcDb2dVertex
 10
115.65738010489
 20
-128.3980230234562
 30
0.0
  0
VERTEX
  5
144
330
142
100
AcDbEntity
  8
_U+30EC_U+30A4_U+30E4_U+30FC 1
 62
   179
420
  2234388
370
     9
100
AcDbVertex
100
AcDb2dVertex
 10
117.765086162229
 20
-128.3980230234562
 30
0.0
  0
SEQEND
  5
145
330
142
100
AcDbEntity
  8
_U+30EC_U+30A4_U+30E4_U+30FC 1
 62
   179
420
  2234388
370
     9
  0
SPLINE
  5
146
330
1F
100
AcDbEntity
  8
_U+30EC_U+30A4_U+30E4_U+30FC 1
 62
     7
420
 16777215
370
     9
100
AcDbSpline
210
0.0
220
0.0
230
1.0
 70
    11
 71
     3
 72
    17
 73
    13
 74
     0
 42
0.0000000001
 43
0.0000000001
 12
1.0
 22
0.0
 32
0.0
 13
1.0
 23
0.0
 33
0.0
 40
0.0
 40
0.0
 40
0.0
 40
0.0
 40
1.0
 40
1.0
 40
1.0
 40
2.0
 40
2.0
 40
2.0
 40
3.0
 40
3.0
 40
3.0
 40
4.0
 40
4.0
 40
4.0
 40
4.0
 10
116.7646084099756
 20
-128.4841360789902
 30
0.0
 10
116.8197475752355
 20
-128.4841360789902
 30
0.0
 10
116.8645150740934
 20
-128.4393685790013
 30
0.0
 10
116.8645150740934
 20
-128.3842294123486
 30
0.0
 10
116.8645150740934
 20
-128.3287727456956
 30
0.0
 10
116.8197475752355
 20
-128.2839699679292
 30
0.0
 10
116.7646084099756
 20
-128.2839699679292
 30
0.0
 10
116.7095045224925
 20
-128.2839699679292
 30
0.0
 10
116.6647017458577
 20
-128.3287727456956
 30
0.0
 10
116.6647017458577
 20
-128.3842294123486
 30
0.0
 10
116.6647017458577
 20
-128.4393685790013
 30
0.0
 10
116.7095045224925
 20
-128.4841360789902
 30
0.0
 10
116.7646084099756
 20
-128.4841360789902
 30
0.0
  0
POLYLINE
  5
147
330
1F
100
AcDbEntity
  8
_U+30EC_U+30A4_U+30E4_U+30FC 1
 62
     7
420
 16777215
370
     9
100
AcDb2dPolyline
 66
     1
 10
0.0
 20
0.0
 30
0.0
  0
VERTEX
  5
148
330
147
100
AcDbEntity
  8
_U+30EC_U+30A4_U+30E4_U+30FC 1
 62
     7
420
 16777215
370
     9
100
AcDbVertex
100
AcDb2dVertex
 10
116.7653139655131
 20
-126.7295605238732
 30
0.0
  0
VERTEX
  5
149
330
147
100
AcDbEntity
  8
_U+30EC_U+30A4_U+30E4_U+30FC 1
 62
     7
420
 16777215
370
     9
100
AcDbVertex
100
AcDb2dVertex
 10
116.7653139655131
 20
-129.3840016343205
 30
0.0
  0
SEQEND
  5
14A
330
147
100
AcDbEntity
  8
_U+30EC_U+30A4_U+30E4_U+30FC 1
 62
     7
420
 16777215
370
     9
  0
INSERT
  5
14C
330
1F
100
AcDbEntity
  8
_U+30EC_U+30A4_U+30E4_U+30FC 1
100
AcDbBlockReference
  2
block 15
 10
0.0
 20
0.0
 30
0.0
  0
ENDSEC
  0
SECTION
  2
OBJECTS
  0
DICTIONARY
  5
C
330
0
100
AcDbDictionary
281
     1
  3
ACAD_GROUP
350
D
  3
ACAD_LAYOUT
350
1A
  3
ACAD_MATERIAL
350
3B
  3
ACAD_MLEADERSTYLE
350
152
  3
ACAD_MLINESTYLE
350
17
  3
ACAD_PLOTSETTINGS
350
19
  3
ACAD_PLOTSTYLENAME
350
E
  3
ACAD_TABLESTYLE
350
151
  3
ACAD_VISUALSTYLE
350
2A
  0
SUN
  5
3F
330
29
100
AcDbSun
 90
        1
290
     0
 63
     7
421
 16777215
 40
1.0
291
     1
 91
  2455826
 92
 54000000
292
     0
 70
     2
 71
   256
280
     1
  0
DICTIONARY
  5
D
102
{ACAD_REACTORS
330
C
102
}
330
C
100
AcDbDictionary
281
     1
  0
DICTIONARY
  5
1A
102
{ACAD_REACTORS
330
C
102
}
330
C
100
AcDbDictionary
281
     1
  3
Layout1
350
1E
  3
Layout2
350
26
  3
Model
350
22
  0
DICTIONARY
  5
3B
102
{ACAD_REACTORS
330
C
102
}
330
C
100
AcDbDictionary
281
     1
  3
ByBlock
350
3D
  3
ByLayer
350
3C
  3
Global
350
3E
  0
DICTIONARY
  5
152
102
{ACAD_REACTORS
330
C
102
}
330
C
100
AcDbDictionary
281
     1
  0
DICTIONARY
  5
17
102
{ACAD_REACTORS
330
C
102
}
330
C
100
AcDbDictionary
281
     1
  3
Standard
350
18
  0
DICTIONARY
  5
19
102
{ACAD_REACTORS
330
C
102
}
330
C
100
AcDbDictionary
281
     1
  0
ACDBDICTIONARYWDFLT
  5
E
102
{ACAD_REACTORS
330
C
102
}
330
C
100
AcDbDictionary
281
     1
  3
Normal
350
F
100
AcDbDictionaryWithDefault
340
F
  0
DICTIONARY
  5
151
102
{ACAD_REACTORS
330
C
102
}
330
C
100
AcDbDictionary
281
     1
  0
DICTIONARY
  5
2A
102
{ACAD_REACTORS
330
C
102
}
330
C
100
AcDbDictionary
281
     1
  3
2dWireframe
350
2F
  3
3D Hidden
350
31
  3
3dWireframe
350
30
  3
Basic
350
32
  3
Brighten
350
36
  3
ColorChange
350
3A
  3
Conceptual
350
34
  3
Dim
350
35
  3
Facepattern
350
39
  3
Flat
350
2B
  3
FlatWithEdges
350
2C
  3
Gouraud
350
2D
  3
GouraudWithEdges
350
2E
  3
Linepattern
350
38
  3
Realistic
350
33
  3
Thicken
350
37
  0
LAYOUT
  5
1E
102
{ACAD_REACTORS
330
1A
102
}
330
1A
100
AcDbPlotSettings
  1

  2
none_device
  4

  6

 40
0.0
 41
0.0
 42
0.0
 43
0.0
 44
0.0
 45
0.0
 46
0.0
 47
0.0
 48
0.0
 49
0.0
140
0.0
141
0.0
142
1.0
143
1.0
 70
   688
 72
     0
 73
     0
 74
     5
  7

 75
    16
 76
     0
 77
     2
 78
   300
147
1.0
148
0.0
149
0.0
100
AcDbLayout
  1
Layout1
 70
     1
 71
     1
 10
0.0
 20
0.0
 11
12.0
 21
9.0
 12
0.0
 22
0.0
 32
0.0
 14
1.000000000000000E+20
 24
1.000000000000000E+20
 34
1.000000000000000E+20
 15
-1.000000000000000E+20
 25
-1.000000000000000E+20
 35
-1.000000000000000E+20
146
0.0
 13
0.0
 23
0.0
 33
0.0
 16
1.0
 26
0.0
 36
0.0
 17
0.0
 27
1.0
 37
0.0
 76
     0
330
1B
  0
LAYOUT
  5
26
102
{ACAD_REACTORS
330
1A
102
}
330
1A
100
AcDbPlotSettings
  1

  2
none_device
  4

  6

 40
0.0
 41
0.0
 42
0.0
 43
0.0
 44
0.0
 45
0.0
 46
0.0
 47
0.0
 48
0.0
 49
0.0
140
0.0
141
0.0
142
1.0
143
1.0
 70
   688
 72
     0
 73
     0
 74
     5
  7

 75
    16
 76
     0
 77
     2
 78
   300
147
1.0
148
0.0
149
0.0
100
AcDbLayout
  1
Layout2
 70
     1
 71
     2
 10
0.0
 20
0.0
 11
0.0
 21
0.0
 12
0.0
 22
0.0
 32
0.0
 14
0.0
 24
0.0
 34
0.0
 15
0.0
 25
0.0
 35
0.0
146
0.0
 13
0.0
 23
0.0
 33
0.0
 16
1.0
 26
0.0
 36
0.0
 17
0.0
 27
1.0
 37
0.0
 76
     0
330
23
  0
LAYOUT
  5
22
102
{ACAD_REACTORS
330
1A
102
}
330
1A
100
AcDbPlotSettings
  1

  2
none_device
  4

  6

 40
0.0
 41
0.0
 42
0.0
 43
0.0
 44
0.0
 45
0.0
 46
0.0
 47
0.0
 48
0.0
 49
0.0
140
0.0
141
0.0
142
1.0
143
1.0
 70
  1712
 72
     0
 73
     0
 74
     0
  7

 75
     0
 76
     0
 77
     2
 78
   300
147
1.0
148
0.0
149
0.0
100
AcDbLayout
  1
Model
 70
     1
 71
     0
 10
0.0
 20
0.0
 11
12.0
 21
9.0
 12
0.0
 22
0.0
 32
0.0
 14
1.000000000000000E+20
 24
1.000000000000000E+20
 34
1.000000000000000E+20
 15
-1.000000000000000E+20
 25
-1.000000000000000E+20
 35
-1.000000000000000E+20
146
0.0
 13
0.0
 23
0.0
 33
0.0
 16
1.0
 26
0.0
 36
0.0
 17
0.0
 27
1.0
 37
0.0
 76
     0
330
1F
331
29
  0
MATERIAL
  5
3D
102
{ACAD_REACTORS
330
3B
102
}
330
3B
100
AcDbMaterial
  1
ByBlock
 72
     1
 94
      127
  0
MATERIAL
  5
3C
102
{ACAD_REACTORS
330
3B
102
}
330
3B
100
AcDbMaterial
  1
ByLayer
 72
     1
 94
      127
  0
MATERIAL
  5
3E
102
{ACAD_REACTORS
330
3B
102
}
330
3B
100
AcDbMaterial
  1
Global
 72
     1
 94
      127
  0
MLINESTYLE
  5
18
102
{ACAD_REACTORS
330
17
102
}
330
17
100
AcDbMlineStyle
  2
Standard
 70
     0
  3

 62
   256
 51
90.0
 52
90.0
 71
     2
 49
0.5
 62
   256
  6
BYLAYER
 49
-0.5
 62
   256
  6
BYLAYER
  0
ACDBPLACEHOLDER
  5
F
102
{ACAD_REACTORS
330
E
102
}
330
E
  0
VISUALSTYLE
  5
2F
102
{ACAD_REACTORS
330
2A
102
}
330
2A
100
AcDbVisualStyle
  2
2dWireframe
 70
     4
177
     2
291
     0
 71
     0
176
     1
 72
     2
176
     1
 73
     0
176
     1
 90
        0
176
     1
 40
-0.6
176
     1
 41
-30.0
176
     1
 62
     5
 63
     7
421
 16777215
176
     1
 74
     1
176
     1
 91
        4
176
     1
 64
     7
176
     1
 65
   257
176
     1
 75
     1
176
     1
175
     1
176
     1
 42
1.0
176
     1
 92
        0
176
     1
 66
   257
176
     1
 43
1.0
176
     1
 76
     1
176
     1
 77
     6
176
     1
 78
     2
176
     1
 67
     7
176
     1
 79
     5
176
     1
170
     0
176
     1
171
     0
176
     1
290
     0
176
     1
 93
        1
176
     1
 44
0.0
176
     1
173
     0
176
     1
  0
VISUALSTYLE
  5
31
102
{ACAD_REACTORS
330
2A
102
}
330
2A
100
AcDbVisualStyle
  2
3D Hidden
 70
     6
177
     2
291
     0
 71
     1
176
     1
 72
     2
176
     1
 73
     2
176
     1
 90
        0
176
     1
 40
-0.6
176
     1
 41
-30.0
176
     1
 62
     5
 63
     7
421
 16777215
176
     1
 74
     2
176
     1
 91
        2
176
     1
 64
     7
176
     1
 65
   257
176
     1
 75
     2
176
     1
175
     1
176
     1
 42
40.0
176
     1
 92
        0
176
     1
 66
   257
176
     1
 43
1.0
176
     1
 76
     1
176
     1
 77
     6
176
     1
 78
     2
176
     1
 67
     7
176
     1
 79
     3
176
     1
170
     0
176
     1
171
     0
176
     1
290
     0
176
     1
 93
        1
176
     1
 44
0.0
176
     1
173
     0
176
     1
  0
VISUALSTYLE
  5
30
102
{ACAD_REACTORS
330
2A
102
}
330
2A
100
AcDbVisualStyle
  2
3dWireframe
 70
     5
177
     2
291
     0
 71
     0
176
     1
 72
     2
176
     1
 73
     0
176
     1
 90
        0
176
     1
 40
-0.6
176
     1
 41
-30.0
176
     1
 62
     5
 63
     7
421
 16777215
176
     1
 74
     1
176
     1
 91
        4
176
     1
 64
     7
176
     1
 65
   257
176
     1
 75
     1
176
     1
175
     1
176
     1
 42
1.0
176
     1
 92
        0
176
     1
 66
   257
176
     1
 43
1.0
176
     1
 76
     1
176
     1
 77
     6
176
     1
 78
     2
176
     1
 67
     7
176
     1
 79
     5
176
     1
170
     0
176
     1
171
     0
176
     1
290
     0
176
     1
 93
        1
176
     1
 44
0.0
176
     1
173
     0
176
     1
  0
VISUALSTYLE
  5
32
102
{ACAD_REACTORS
330
2A
102
}
330
2A
100
AcDbVisualStyle
  2
Basic
 70
     7
177
     2
291
     1
 71
     1
176
     1
 72
     0
176
     1
 73
     1
176
     1
 90
        0
176
     1
 40
-0.6
176
     1
 41
-30.0
176
     1
 62
     5
 63
     7
421
 16777215
176
     1
 74
     0
176
     1
 91
        4
176
     1
 64
     7
176
     1
 65
   257
176
     1
 75
     1
176
     1
175
     1
176
     1
 42
1.0
176
     1
 92
        8
176
     1
 66
     7
176
     1
 43
1.0
176
     1
 76
     1
176
     1
 77
     6
176
     1
 78
     2
176
     1
 67
     7
176
     1
 79
     5
176
     1
170
     0
176
     1
171
     0
176
     1
290
     0
176
     1
 93
        1
176
     1
 44
0.0
176
     1
173
     0
176
     1
  0
VISUALSTYLE
  5
36
102
{ACAD_REACTORS
330
2A
102
}
330
2A
100
AcDbVisualStyle
  2
Brighten
 70
    12
177
     2
291
     1
 71
     2
176
     1
 72
     2
176
     1
 73
     0
176
     1
 90
        0
176
     1
 40
-0.6
176
     1
 41
-30.0
176
     1
 62
     5
 63
     7
421
 16777215
176
     1
 74
     1
176
     1
 91
        4
176
     1
 64
     7
176
     1
 65
   257
176
     1
 75
     1
176
     1
175
     1
176
     1
 42
1.0
176
     1
 92
        8
176
     1
 66
     7
176
     1
 43
1.0
176
     1
 76
     1
176
     1
 77
     6
176
     1
 78
     2
176
     1
 67
     7
176
     1
 79
     5
176
     1
170
     0
176
     1
171
     0
176
     1
290
     0
176
     1
 93
        1
176
     1
 44
50.0
176
     1
173
     0
176
     1
  0
VISUALSTYLE
  5
3A
102
{ACAD_REACTORS
330
2A
102
}
330
2A
100
AcDbVisualStyle
  2
ColorChange
 70
    16
177
     2
291
     1
 71
     2
176
     1
 72
     2
176
     1
 73
     3
176
     1
 90
        0
176
     1
 40
-0.6
176
     1
 41
-30.0
176
     1
 62
     5
 63
     8
421
  8421504
176
     1
 74
     1
176
     1
 91
        4
176
     1
 64
     7
176
     1
 65
   257
176
     1
 75
     1
176
     1
175
     1
176
     1
 42
1.0
176
     1
 92
        8
176
     1
 66
     8
424
  8421504
176
     1
 43
1.0
176
     1
 76
     1
176
     1
 77
     6
176
     1
 78
     2
176
     1
 67
     7
176
     1
 79
     5
176
     1
170
     0
176
     1
171
     0
176
     1
290
     0
176
     1
 93
        1
176
     1
 44
0.0
176
     1
173
     0
176
     1
  0
VISUALSTYLE
  5
34
102
{ACAD_REACTORS
330
2A
102
}
330
2A
100
AcDbVisualStyle
  2
Conceptual
 70
     9
177
     2
291
     0
 71
     3
176
     1
 72
     2
176
     1
 73
     0
176
     1
 90
        0
176
     1
 40
-0.6
176
     1
 41
-30.0
176
     1
 62
     5
 63
     7
421
 16777215
176
     1
 74
     2
176
     1
 91
        2
176
     1
 64
     7
176
     1
 65
   257
176
     1
 75
     1
176
     1
175
     1
176
     1
 42
40.0
176
     1
 92
        8
176
     1
 66
     7
176
     1
 43
1.0
176
     1
 76
     1
176
     1
 77
     6
176
     1
 78
     2
176
     1
 67
     7
176
     1
 79
     3
176
     1
170
     0
176
     1
171
     0
176
     1
290
     0
176
     1
 93
        1
176
     1
 44
0.0
176
     1
173
     0
176
     1
  0
VISUALSTYLE
  5
35
102
{ACAD_REACTORS
330
2A
102
}
330
2A
100
AcDbVisualStyle
  2
Dim
 70
    11
177
     2
291
     1
 71
     2
176
     1
 72
     2
176
     1
 73
     0
176
     1
 90
        0
176
     1
 40
-0.6
176
     1
 41
-30.0
176
     1
 62
     5
 63
     7
421
 16777215
176
     1
 74
     1
176
     1
 91
        4
176
     1
 64
     7
176
     1
 65
   257
176
     1
 75
     1
176
     1
175
     1
176
     1
 42
1.0
176
     1
 92
        8
176
     1
 66
     7
176
     1
 43
1.0
176
     1
 76
     1
176
     1
 77
     6
176
     1
 78
     2
176
     1
 67
     7
176
     1
 79
     5
176
     1
170
     0
176
     1
171
     0
176
     1
290
     0
176
     1
 93
        1
176
     1
 44
-50.0
176
     1
173
     0
176
     1
  0
VISUALSTYLE
  5
39
102
{ACAD_REACTORS
330
2A
102
}
330
2A
100
AcDbVisualStyle
  2
Facepattern
 70
    15
177
     2
291
     1
 71
     2
176
     1
 72
     2
176
     1
 73
     0
176
     1
 90
        0
176
     1
 40
-0.6
176
     1
 41
-30.0
176
     1
 62
     5
 63
     7
421
 16777215
176
     1
 74
     1
176
     1
 91
        4
176
     1
 64
     7
176
     1
 65
   257
176
     1
 75
     1
176
     1
175
     1
176
     1
 42
1.0
176
     1
 92
        8
176
     1
 66
     7
176
     1
 43
1.0
176
     1
 76
     1
176
     1
 77
     6
176
     1
 78
     2
176
     1
 67
     7
176
     1
 79
     5
176
     1
170
     0
176
     1
171
     0
176
     1
290
     0
176
     1
 93
        1
176
     1
 44
0.0
176
     1
173
     0
176
     1
  0
VISUALSTYLE
  5
2B
102
{ACAD_REACTORS
330
2A
102
}
330
2A
100
AcDbVisualStyle
  2
Flat
 70
     0
177
     2
291
     1
 71
     2
176
     1
 72
     1
176
     1
 73
     1
176
     1
 90
        2
176
     1
 40
-0.6
176
     1
 41
30.0
176
     1
 62
     5
 63
     7
421
 16777215
176
     1
 74
     0
176
     1
 91
        4
176
     1
 64
     7
176
     1
 65
   257
176
     1
 75
     1
176
     1
175
     1
176
     1
 42
1.0
176
     1
 92
        8
176
     1
 66
     7
176
     1
 43
1.0
176
     1
 76
     1
176
     1
 77
     6
176
     1
 78
     2
176
     1
 67
     7
176
     1
 79
     5
176
     1
170
     0
176
     1
171
     0
176
     1
290
     0
176
     1
 93
       13
176
     1
 44
0.0
176
     1
173
     0
176
     1
  0
VISUALSTYLE
  5
2C
102
{ACAD_REACTORS
330
2A
102
}
330
2A
100
AcDbVisualStyle
  2
FlatWithEdges
 70
     1
177
     2
291
     1
 71
     2
176
     1
 72
     1
176
     1
 73
     1
176
     1
 90
        2
176
     1
 40
-0.6
176
     1
 41
30.0
176
     1
 62
     5
 63
     7
421
 16777215
176
     1
 74
     1
176
     1
 91
        4
176
     1
 64
     7
176
     1
 65
   257
176
     1
 75
     1
176
     1
175
     1
176
     1
 42
1.0
176
     1
 92
        0
176
     1
 66
   257
176
     1
 43
1.0
176
     1
 76
     1
176
     1
 77
     6
176
     1
 78
     2
176
     1
 67
     7
176
     1
 79
     5
176
     1
170
     0
176
     1
171
     0
176
     1
290
     0
176
     1
 93
       13
176
     1
 44
0.0
176
     1
173
     0
176
     1
  0
VISUALSTYLE
  5
2D
102
{ACAD_REACTORS
330
2A
102
}
330
2A
100
AcDbVisualStyle
  2
Gouraud
 70
     2
177
     2
291
     1
 71
     2
176
     1
 72
     2
176
     1
 73
     1
176
     1
 90
        2
176
     1
 40
-0.6
176
     1
 41
30.0
176
     1
 62
     5
 63
     7
421
 16777215
176
     1
 74
     0
176
     1
 91
        4
176
     1
 64
     7
176
     1
 65
   257
176
     1
 75
     1
176
     1
175
     1
176
     1
 42
1.0
176
     1
 92
        0
176
     1
 66
     7
176
     1
 43
1.0
176
     1
 76
     1
176
     1
 77
     6
176
     1
 78
     2
176
     1
 67
     7
176
     1
 79
     5
176
     1
170
     0
176
     1
171
     0
176
     1
290
     0
176
     1
 93
       13
176
     1
 44
0.0
176
     1
173
     0
176
     1
  0
VISUALSTYLE
  5
2E
102
{ACAD_REACTORS
330
2A
102
}
330
2A
100
AcDbVisualStyle
  2
GouraudWithEdges
 70
     3
177
     2
291
     1
 71
     2
176
     1
 72
     2
176
     1
 73
     1
176
     1
 90
        2
176
     1
 40
-0.6
176
     1
 41
30.0
176
     1
 62
     5
 63
     7
421
 16777215
176
     1
 74
     1
176
     1
 91
        4
176
     1
 64
     7
176
     1
 65
   257
176
     1
 75
     1
176
     1
175
     1
176
     1
 42
1.0
176
     1
 92
        0
176
     1
 66
   257
176
     1
 43
1.0
176
     1
 76
     1
176
     1
 77
     6
176
     1
 78
     2
176
     1
 67
     7
176
     1
 79
     5
176
     1
170
     0
176
     1
171
     0
176
     1
290
     0
176
     1
 93
       13
176
     1
 44
0.0
176
     1
173
     0
176
     1
  0
VISUALSTYLE
  5
38
102
{ACAD_REACTORS
330
2A
102
}
330
2A
100
AcDbVisualStyle
  2
Linepattern
 70
    14
177
     2
291
     1
 71
     2
176
     1
 72
     2
176
     1
 73
     0
176
     1
 90
        0
176
     1
 40
-0.6
176
     1
 41
-30.0
176
     1
 62
     5
 63
     7
421
 16777215
176
     1
 74
     1
176
     1
 91
        4
176
     1
 64
     7
176
     1
 65
   257
176
     1
 75
     7
176
     1
175
     7
176
     1
 42
1.0
176
     1
 92
        8
176
     1
 66
     7
176
     1
 43
1.0
176
     1
 76
     1
176
     1
 77
     6
176
     1
 78
     2
176
     1
 67
     7
176
     1
 79
     5
176
     1
170
     0
176
     1
171
     0
176
     1
290
     0
176
     1
 93
        1
176
     1
 44
0.0
176
     1
173
     0
176
     1
  0
VISUALSTYLE
  5
33
102
{ACAD_REACTORS
330
2A
102
}
330
2A
100
AcDbVisualStyle
  2
Realistic
 70
     8
177
     2
291
     0
 71
     2
176
     1
 72
     2
176
     1
 73
     0
176
     1
 90
        0
176
     1
 40
-0.6
176
     1
 41
-30.0
176
     1
 62
     5
 63
     7
421
 16777215
176
     1
 74
     1
176
     1
 91
        0
176
     1
 64
     7
176
     1
 65
   257
176
     1
 75
     1
176
     1
175
     1
176
     1
 42
1.0
176
     1
 92
        8
176
     1
 66
     8
424
  7895160
176
     1
 43
1.0
176
     1
 76
     1
176
     1
 77
     6
176
     1
 78
     2
176
     1
 67
     7
176
     1
 79
     5
176
     1
170
     0
176
     1
171
     0
176
     1
290
     0
176
     1
 93
       13
176
     1
 44
0.0
176
     1
173
     0
176
     1
  0
VISUALSTYLE
  5
37
102
{ACAD_REACTORS
330
2A
102
}
330
2A
100
AcDbVisualStyle
  2
Thicken
 70
    13
177
     2
291
     1
 71
     2
176
     1
 72
     2
176
     1
 73
     0
176
     1
 90
        0
176
     1
 40
-0.6
176
     1
 41
-30.0
176
     1
 62
     5
 63
     7
421
 16777215
176
     1
 74
     1
176
     1
 91
        4
176
     1
 64
     7
176
     1
 65
   257
176
     1
 75
     1
176
     1
175
     1
176
     1
 42
1.0
176
     1
 92
       12
176
     1
 66
     7
176
     1
 43
1.0
176
     1
 76
     1
176
     1
 77
     6
176
     1
 78
     2
176
     1
 67
     7
176
     1
 79
     5
176
     1
170
     0
176
     1
171
     0
176
     1
290
     0
176
     1
 93
        1
176
     1
 44
0.0
176
     1
173
     0
176
     1
  0
ENDSEC
  0
EOF
