  0
SECTION
  2
HEADER
  9
$ACADVER
  1
AC1024
  9
$ACADMAINTVER
 70
     6
  9
$DWGCODEPAGE
  3
UNDEFINED
  9
$INSBASE
 10
0.0
 20
0.0
 30
0.0
  9
$EXTMIN
 10
1.000000000000000E+20
 20
1.000000000000000E+20
 30
1.000000000000000E+20
  9
$EXTMAX
 10
-1.000000000000000E+20
 20
-1.000000000000000E+20
 30
-1.000000000000000E+20
  9
$LIMMIN
 10
0.0
 20
0.0
  9
$LIMMAX
 10
12.0
 20
9.0
  9
$ORTHOMODE
 70
     0
  9
$REGENMODE
 70
     1
  9
$FILLMODE
 70
     1
  9
$QTEXTMODE
 70
     0
  9
$MIRRTEXT
 70
     1
  9
$LTSCALE
 40
1.0
  9
$ATTMODE
 70
     1
  9
$TEXTSIZE
 40
0.2
  9
$TRACEWID
 40
0.05
  9
$TEXTSTYLE
  7
Standard
  9
$CLAYER
  8
0
  9
$CELTYPE
  6
ByLayer
  9
$CECOLOR
 62
   256
  9
$CELTSCALE
 40
1.0
  9
$DISPSILH
 70
     0
  9
$DIMSCALE
 40
1.0
  9
$DIMASZ
 40
0.18
  9
$DIMEXO
 40
0.0625
  9
$DIMDLI
 40
0.38
  9
$DIMRND
 40
0.0
  9
$DIMDLE
 40
0.0
  9
$DIMEXE
 40
0.18
  9
$DIMTP
 40
0.0
  9
$DIMTM
 40
0.0
  9
$DIMTXT
 40
0.18
  9
$DIMCEN
 40
0.09
  9
$DIMTSZ
 40
0.0
  9
$DIMTOL
 70
     0
  9
$DIMLIM
 70
     0
  9
$DIMTIH
 70
     1
  9
$DIMTOH
 70
     1
  9
$DIMSE1
 70
     0
  9
$DIMSE2
 70
     0
  9
$DIMTAD
 70
     0
  9
$DIMZIN
 70
     0
  9
$DIMBLK
  1

  9
$DIMASO
 70
     1
  9
$DIMSHO
 70
     1
  9
$DIMPOST
  1

  9
$DIMAPOST
  1

  9
$DIMALT
 70
     0
  9
$DIMALTD
 70
     2
  9
$DIMALTF
 40
25.4
  9
$DIMLFAC
 40
1.0
  9
$DIMTOFL
 70
     0
  9
$DIMTVP
 40
0.0
  9
$DIMTIX
 70
     0
  9
$DIMSOXD
 70
     0
  9
$DIMSAH
 70
     0
  9
$DIMBLK1
  1

  9
$DIMBLK2
  1

  9
$DIMSTYLE
  2
Standard
  9
$DIMCLRD
 70
     0
  9
$DIMCLRE
 70
     0
  9
$DIMCLRT
 70
     0
  9
$DIMTFAC
 40
1.0
  9
$DIMGAP
 40
0.09
  9
$DIMJUST
 70
     0
  9
$DIMSD1
 70
     0
  9
$DIMSD2
 70
     0
  9
$DIMTOLJ
 70
     1
  9
$DIMTZIN
 70
     0
  9
$DIMALTZ
 70
     0
  9
$DIMALTTZ
 70
     0
  9
$DIMUPT
 70
     0
  9
$DIMDEC
 70
     4
  9
$DIMTDEC
 70
     4
  9
$DIMALTU
 70
     2
  9
$DIMALTTD
 70
     2
  9
$DIMTXSTY
  7
Standard
  9
$DIMAUNIT
 70
     0
  9
$DIMADEC
 70
     0
  9
$DIMALTRND
 40
0.0
  9
$DIMAZIN
 70
     0
  9
$DIMDSEP
 70
    46
  9
$DIMATFIT
 70
     3
  9
$DIMFRAC
 70
     0
  9
$DIMLDRBLK
  1

  9
$DIMLUNIT
 70
     2
  9
$DIMLWD
 70
    -2
  9
$DIMLWE
 70
    -2
  9
$DIMTMOVE
 70
     0
  9
$DIMFXL
 40
1.0
  9
$DIMFXLON
 70
     0
  9
$DIMJOGANG
 40
0.7853981633974483
  9
$DIMTFILL
 70
     0
  9
$DIMTFILLCLR
 70
     0
  9
$DIMARCSYM
 70
     0
  9
$DIMLTYPE
  6

  9
$DIMLTEX1
  6

  9
$DIMLTEX2
  6

  9
$DIMTXTDIRECTION
 70
     0
  9
$LUNITS
 70
     2
  9
$LUPREC
 70
     4
  9
$SKETCHINC
 40
0.1
  9
$FILLETRAD
 40
0.5
  9
$AUNITS
 70
     0
  9
$AUPREC
 70
     0
  9
$MENU
  1
.
  9
$ELEVATION
 40
0.0
  9
$PELEVATION
 40
0.0
  9
$THICKNESS
 40
0.0
  9
$LIMCHECK
 70
     0
  9
$CHAMFERA
 40
0.5
  9
$CHAMFERB
 40
0.5
  9
$CHAMFERC
 40
1.0
  9
$CHAMFERD
 40
0.0
  9
$SKPOLY
 70
     0
  9
$TDCREATE
 40
2457917.613807871
  9
$TDUCREATE
 40
2457917.238807871
  9
$TDUPDATE
 40
2457917.613807871
  9
$TDUUPDATE
 40
2457917.238807871
  9
$TDINDWG
 40
0.0000000116
  9
$TDUSRTIMER
 40
0.0000000116
  9
$USRTIMER
 70
     1
  9
$ANGBASE
 50
0.0
  9
$ANGDIR
 70
     0
  9
$PDMODE
 70
     0
  9
$PDSIZE
 40
0.0
  9
$PLINEWID
 40
0.0
  9
$SPLFRAME
 70
     0
  9
$SPLINETYPE
 70
     6
  9
$SPLINESEGS
 70
     8
  9
$HANDSEED
  5
14E
  9
$SURFTAB1
 70
     6
  9
$SURFTAB2
 70
     6
  9
$SURFTYPE
 70
     6
  9
$SURFU
 70
     6
  9
$SURFV
 70
     6
  9
$UCSBASE
  2

  9
$UCSNAME
  2

  9
$UCSORG
 10
0.0
 20
0.0
 30
0.0
  9
$UCSXDIR
 10
1.0
 20
0.0
 30
0.0
  9
$UCSYDIR
 10
0.0
 20
1.0
 30
0.0
  9
$UCSORTHOREF
  2

  9
$UCSORTHOVIEW
 70
     0
  9
$UCSORGTOP
 10
0.0
 20
0.0
 30
0.0
  9
$UCSORGBOTTOM
 10
0.0
 20
0.0
 30
0.0
  9
$UCSORGLEFT
 10
0.0
 20
0.0
 30
0.0
  9
$UCSORGRIGHT
 10
0.0
 20
0.0
 30
0.0
  9
$UCSORGFRONT
 10
0.0
 20
0.0
 30
0.0
  9
$UCSORGBACK
 10
0.0
 20
0.0
 30
0.0
  9
$PUCSBASE
  2

  9
$PUCSNAME
  2

  9
$PUCSORG
 10
0.0
 20
0.0
 30
0.0
  9
$PUCSXDIR
 10
1.0
 20
0.0
 30
0.0
  9
$PUCSYDIR
 10
0.0
 20
1.0
 30
0.0
  9
$PUCSORTHOREF
  2

  9
$PUCSORTHOVIEW
 70
     0
  9
$PUCSORGTOP
 10
0.0
 20
0.0
 30
0.0
  9
$PUCSORGBOTTOM
 10
0.0
 20
0.0
 30
0.0
  9
$PUCSORGLEFT
 10
0.0
 20
0.0
 30
0.0
  9
$PUCSORGRIGHT
 10
0.0
 20
0.0
 30
0.0
  9
$PUCSORGFRONT
 10
0.0
 20
0.0
 30
0.0
  9
$PUCSORGBACK
 10
0.0
 20
0.0
 30
0.0
  9
$USERI1
 70
     0
  9
$USERI2
 70
     0
  9
$USERI3
 70
     0
  9
$USERI4
 70
     0
  9
$USERI5
 70
     0
  9
$USERR1
 40
0.0
  9
$USERR2
 40
0.0
  9
$USERR3
 40
0.0
  9
$USERR4
 40
0.0
  9
$USERR5
 40
0.0
  9
$WORLDVIEW
 70
     1
  9
$SHADEDGE
 70
     3
  9
$SHADEDIF
 70
    70
  9
$TILEMODE
 70
     1
  9
$MAXACTVP
 70
    64
  9
$PINSBASE
 10
0.0
 20
0.0
 30
0.0
  9
$PLIMCHECK
 70
     0
  9
$PEXTMIN
 10
1.000000000000000E+20
 20
1.000000000000000E+20
 30
1.000000000000000E+20
  9
$PEXTMAX
 10
-1.000000000000000E+20
 20
-1.000000000000000E+20
 30
-1.000000000000000E+20
  9
$PLIMMIN
 10
0.0
 20
0.0
  9
$PLIMMAX
 10
12.0
 20
9.0
  9
$UNITMODE
 70
     0
  9
$VISRETAIN
 70
     1
  9
$PLINEGEN
 70
     0
  9
$PSLTSCALE
 70
     1
  9
$TREEDEPTH
 70
  3020
  9
$CMLSTYLE
  2
Standard
  9
$CMLJUST
 70
     0
  9
$CMLSCALE
 40
1.0
  9
$PROXYGRAPHICS
 70
     1
  9
$MEASUREMENT
 70
     0
  9
$CELWEIGHT
370
    -1
  9
$ENDCAPS
280
     0
  9
$JOINSTYLE
280
     0
  9
$LWDISPLAY
290
     1
  9
$INSUNITS
 70
     1
  9
$HYPERLINKBASE
  1

  9
$STYLESHEET
  1

  9
$XEDIT
290
     1
  9
$CEPSNTYPE
380
     0
  9
$PSTYLEMODE
290
     1
  9
$FINGERPRINTGUID
  2
{40F8391B-0A73-FA68-11D9-909FFCBEE36F}
  9
$VERSIONGUID
  2
{FAEB1C32-E019-11D5-929B-00C0DF256EC4}
  9
$EXTNAMES
290
     1
  9
$PSVPSCALE
 40
0.0
  9
$OLESTARTUP
290
     0
  9
$SORTENTS
280
   127
  9
$INDEXCTL
280
     0
  9
$HIDETEXT
280
     1
  9
$XCLIPFRAME
280
     2
  9
$HALOGAP
280
     0
  9
$OBSCOLOR
 70
   257
  9
$OBSLTYPE
280
     0
  9
$INTERSECTIONDISPLAY
280
     0
  9
$INTERSECTIONCOLOR
 70
   257
  9
$DIMASSOC
280
     2
  9
$PROJECTNAME
  1

  9
$CAMERADISPLAY
290
     0
  9
$LENSLENGTH
 40
50.0
  9
$CAMERAHEIGHT
 40
0.0
  9
$STEPSPERSEC
 40
2.0
  9
$STEPSIZE
 40
6.0
  9
$3DDWFPREC
 40
2.0
  9
$PSOLWIDTH
 40
0.25
  9
$PSOLHEIGHT
 40
4.0
  9
$LOFTANG1
 40
1.570796326794897
  9
$LOFTANG2
 40
1.570796326794897
  9
$LOFTMAG1
 40
0.0
  9
$LOFTMAG2
 40
0.0
  9
$LOFTPARAM
 70
     7
  9
$LOFTNORMALS
280
     1
  9
$LATITUDE
 40
37.795
  9
$LONGITUDE
 40
-122.394
  9
$NORTHDIRECTION
 40
0.0
  9
$TIMEZONE
 70
 -8000
  9
$LIGHTGLYPHDISPLAY
280
     1
  9
$TILEMODELIGHTSYNCH
280
     1
  9
$CMATERIAL
347
3C
  9
$SOLIDHIST
280
     1
  9
$SHOWHIST
280
     1
  9
$DWFFRAME
280
     2
  9
$DGNFRAME
280
     2
  9
$REALWORLDSCALE
290
     1
  9
$INTERFERECOLOR
 62
   256
  9
$CSHADOW
280
     0
  9
$SHADOWPLANELOCATION
 40
0.0
  0
ENDSEC
  0
SECTION
  2
CLASSES
  0
CLASS
  1
ACDBDICTIONARYWDFLT
  2
AcDbDictionaryWithDefault
  3
ObjectDBX Classes
 90
        0
 91
        4
280
     0
281
     0
  0
CLASS
  1
VISUALSTYLE
  2
AcDbVisualStyle
  3
ObjectDBX Classes
 90
     4095
 91
        4
280
     0
281
     0
  0
CLASS
  1
MATERIAL
  2
AcDbMaterial
  3
ObjectDBX Classes
 90
     1153
 91
        4
280
     0
281
     0
  0
CLASS
  1
SUN
  2
AcDbSun
  3
SCENEOE
 90
     1024
 91
        4
280
     0
281
     0
  0
ENDSEC
  0
SECTION
  2
TABLES
  0
TABLE
  2
VPORT
  5
8
330
0
100
AcDbSymbolTable
 70
     1
  0
VPORT
  5
29
330
8
100
AcDbSymbolTableRecord
100
AcDbViewportTableRecord
  2
*Active
 70
     0
 10
0.0
 20
0.0
 11
1.0
 21
1.0
 12
0.0
 22
0.0
 13
0.0
 23
0.0
 14
0.5
 24
0.5
 15
0.5
 25
0.5
 16
0.0
 26
0.0
 36
1.0
 17
91.00082462281999
 27
-128.4993055234307
 37
0.0
 40
256.9986110468615
 41
0.7081814508812795
 42
50.0
 43
0.0
 44
0.0
 50
0.0
 51
0.0
 71
     0
 72
   100
 73
     1
 74
     3
 75
     0
 76
     0
 77
     0
 78
     0
281
     0
 65
     1
110
0.0
120
0.0
130
0.0
111
1.0
121
0.0
131
0.0
112
0.0
122
1.0
132
0.0
 79
     0
146
0.0
 60
     3
 61
     5
292
     1
282
     1
141
0.0
142
0.0
 63
   250
361
3F
  0
ENDTAB
  0
TABLE
  2
LTYPE
  5
5
330
0
100
AcDbSymbolTable
 70
     1
  0
LTYPE
  5
14
330
5
100
AcDbSymbolTableRecord
100
AcDbLinetypeTableRecord
  2
ByBlock
 70
     0
  3

 72
    65
 73
     0
 40
0.0
  0
LTYPE
  5
15
330
5
100
AcDbSymbolTableRecord
100
AcDbLinetypeTableRecord
  2
ByLayer
 70
     0
  3

 72
    65
 73
     0
 40
0.0
  0
LTYPE
  5
16
330
5
100
AcDbSymbolTableRecord
100
AcDbLinetypeTableRecord
  2
Continuous
 70
     0
  3
Solid line
 72
    65
 73
     0
 40
0.0
  0
ENDTAB
  0
TABLE
  2
LAYER
  5
2
330
0
100
AcDbSymbolTable
 70
     2
  0
LAYER
  5
10
330
2
100
AcDbSymbolTableRecord
100
AcDbLayerTableRecord
  2
0
 70
     0
 62
     7
  6
Continuous
370
    -3
390
F
347
3E
  0
LAYER
  5
40
330
2
100
AcDbSymbolTableRecord
100
AcDbLayerTableRecord
  2
_U+30EC_U+30A4_U+30E4_U+30FC 1
 70
     0
 62
     7
  6
Continuous
370
    -3
390
F
347
3E
  0
ENDTAB
  0
TABLE
  2
STYLE
  5
3
330
0
100
AcDbSymbolTable
 70
     1
  0
STYLE
  5
11
330
3
100
AcDbSymbolTableRecord
100
AcDbTextStyleTableRecord
  2
Standard
 70
     0
 40
0.0
 41
1.0
 50
0.0
 71
     0
 42
0.2
  3
txt
  4

  0
ENDTAB
  0
TABLE
  2
VIEW
  5
6
330
0
100
AcDbSymbolTable
 70
     0
  0
ENDTAB
  0
TABLE
  2
UCS
  5
7
330
0
100
AcDbSymbolTable
 70
     0
  0
ENDTAB
  0
TABLE
  2
APPID
  5
9
330
0
100
AcDbSymbolTable
 70
     1
  0
APPID
  5
12
330
9
100
AcDbSymbolTableRecord
100
AcDbRegAppTableRecord
  2
ACAD
 70
     0
  0
ENDTAB
  0
TABLE
  2
DIMSTYLE
  5
A
330
0
100
AcDbSymbolTable
 70
     1
100
AcDbDimStyleTable
  0
DIMSTYLE
105
27
330
A
100
AcDbSymbolTableRecord
100
AcDbDimStyleTableRecord
  2
Standard
 70
     0
178
     0
340
11
  0
ENDTAB
  0
TABLE
  2
BLOCK_RECORD
  5
1
330
0
100
AcDbSymbolTable
 70
    14
  0
BLOCK_RECORD
  5
1F
330
1
100
AcDbSymbolTableRecord
100
AcDbBlockTableRecord
  2
*Model_Space
340
22
 70
     0
280
     1
281
     0
  0
BLOCK_RECORD
  5
1B
330
1
100
AcDbSymbolTableRecord
100
AcDbBlockTableRecord
  2
*Paper_Space
340
1E
 70
     0
280
     1
281
     0
  0
BLOCK_RECORD
  5
23
330
1
100
AcDbSymbolTableRecord
100
AcDbBlockTableRecord
  2
*Paper_Space0
340
26
 70
     0
280
     1
281
     0
  0
BLOCK_RECORD
  5
A0
330
1
100
AcDbSymbolTableRecord
100
AcDbBlockTableRecord
  2
block 2
340
0
102
{BLKREFS
331
A1
102
}
 70
     0
280
     1
281
     0
  0
BLOCK_RECORD
  5
B0
330
1
100
AcDbSymbolTableRecord
100
AcDbBlockTableRecord
  2
block 3
340
0
102
{BLKREFS
331
B1
102
}
 70
     0
280
     1
281
     0
  0
BLOCK_RECORD
  5
B6
330
1
100
AcDbSymbolTableRecord
100
AcDbBlockTableRecord
  2
block 4
340
0
102
{BLKREFS
331
B7
102
}
 70
     0
280
     1
281
     0
  0
BLOCK_RECORD
  5
C6
330
1
100
AcDbSymbolTableRecord
100
AcDbBlockTableRecord
  2
block 5
340
0
102
{BLKREFS
331
C7
102
}
 70
     0
280
     1
281
     0
  0
BLOCK_RECORD
  5
CC
330
1
100
AcDbSymbolTableRecord
100
AcDbBlockTableRecord
  2
block 6
340
0
102
{BLKREFS
331
CD
102
}
 70
     0
280
     1
281
     0
  0
BLOCK_RECORD
  5
DC
330
1
100
AcDbSymbolTableRecord
100
AcDbBlockTableRecord
  2
block 7
340
0
102
{BLKREFS
331
DD
102
}
 70
     0
280
     1
281
     0
  0
BLOCK_RECORD
  5
E6
330
1
100
AcDbSymbolTableRecord
100
AcDbBlockTableRecord
  2
block 8
340
0
102
{BLKREFS
331
E7
102
}
 70
     0
280
     1
281
     0
  0
BLOCK_RECORD
  5
F6
330
1
100
AcDbSymbolTableRecord
100
AcDbBlockTableRecord
  2
block 9
340
0
102
{BLKREFS
331
F7
102
}
 70
     0
280
     1
281
     0
  0
BLOCK_RECORD
  5
FC
330
1
100
AcDbSymbolTableRecord
100
AcDbBlockTableRecord
  2
block 10
340
0
102
{BLKREFS
331
FD
102
}
 70
     0
280
     1
281
     0
  0
BLOCK_RECORD
  5
10C
330
1
100
AcDbSymbolTableRecord
100
AcDbBlockTableRecord
  2
block 11
340
0
102
{BLKREFS
331
10D
102
}
 70
     0
280
     1
281
     0
  0
BLOCK_RECORD
  5
128
330
1
100
AcDbSymbolTableRecord
100
AcDbBlockTableRecord
  2
block 12
340
0
102
{BLKREFS
331
129
102
}
 70
     0
280
     1
281
     0
  0
BLOCK_RECORD
  5
138
330
1
100
AcDbSymbolTableRecord
100
AcDbBlockTableRecord
  2
block 13
340
0
102
{BLKREFS
331
139
102
}
 70
     0
280
     1
281
     0
  0
BLOCK_RECORD
  5
146
330
1
100
AcDbSymbolTableRecord
100
AcDbBlockTableRecord
  2
block 14
340
0
102
{BLKREFS
331
147
102
}
 70
     0
280
     1
281
     0
  0
ENDTAB
  0
ENDSEC
  0
SECTION
  2
BLOCKS
  0
BLOCK
  5
20
330
1F
100
AcDbEntity
  8
0
100
AcDbBlockBegin
  2
*Model_Space
 70
     0
 10
0.0
 20
0.0
 30
0.0
  3
*Model_Space
  1

  0
ENDBLK
  5
21
330
1F
100
AcDbEntity
  8
0
100
AcDbBlockEnd
  0
BLOCK
  5
1C
330
1B
100
AcDbEntity
 67
     1
  8
0
100
AcDbBlockBegin
  2
*Paper_Space
 70
     0
 10
0.0
 20
0.0
 30
0.0
  3
*Paper_Space
  1

  0
ENDBLK
  5
1D
330
1B
100
AcDbEntity
 67
     1
  8
0
100
AcDbBlockEnd
  0
BLOCK
  5
24
330
23
100
AcDbEntity
  8
0
100
AcDbBlockBegin
  2
*Paper_Space0
 70
     0
 10
0.0
 20
0.0
 30
0.0
  3
*Paper_Space0
  1

  0
ENDBLK
  5
25
330
23
100
AcDbEntity
  8
0
100
AcDbBlockEnd
  0
BLOCK
  5
A2
330
A0
100
AcDbEntity
  8
0
100
AcDbBlockBegin
  2
block 2
 70
     0
 10
0.0
 20
0.0
 30
0.0
  3
block 2
  1

  0
POLYLINE
  5
A4
330
A0
100
AcDbEntity
  8
_U+30EC_U+30A4_U+30E4_U+30FC 1
 62
   179
420
  2234388
370
     9
100
AcDb2dPolyline
 66
     1
 10
0.0
 20
0.0
 30
0.0
  0
VERTEX
  5
A5
330
A4
100
AcDbEntity
  8
_U+30EC_U+30A4_U+30E4_U+30FC 1
 62
   179
420
  2234388
370
     9
100
AcDbVertex
100
AcDb2dVertex
 10
116.0752453720071
 20
-137.8868632988615
 30
0.0
  0
VERTEX
  5
A6
330
A4
100
AcDbEntity
  8
_U+30EC_U+30A4_U+30E4_U+30FC 1
 62
   179
420
  2234388
370
     9
100
AcDbVertex
100
AcDb2dVertex
 10
116.0752453720071
 20
-140.8868502425558
 30
0.0
  0
SEQEND
  5
A7
330
A4
100
AcDbEntity
  8
_U+30EC_U+30A4_U+30E4_U+30FC 1
 62
   179
420
  2234388
370
     9
  0
POLYLINE
  5
A8
330
A0
100
AcDbEntity
  8
_U+30EC_U+30A4_U+30E4_U+30FC 1
 62
   179
420
  2234388
370
     9
100
AcDb2dPolyline
 66
     1
 10
0.0
 20
0.0
 30
0.0
  0
VERTEX
  5
A9
330
A8
100
AcDbEntity
  8
_U+30EC_U+30A4_U+30E4_U+30FC 1
 62
   179
420
  2234388
370
     9
100
AcDbVertex
100
AcDb2dVertex
 10
84.61533534128296
 20
-137.8868632988615
 30
0.0
  0
VERTEX
  5
AA
330
A8
100
AcDbEntity
  8
_U+30EC_U+30A4_U+30E4_U+30FC 1
 62
   179
420
  2234388
370
     9
100
AcDbVertex
100
AcDb2dVertex
 10
117.0757231242606
 20
-137.8868632988615
 30
0.0
  0
SEQEND
  5
AB
330
A8
100
AcDbEntity
  8
_U+30EC_U+30A4_U+30E4_U+30FC 1
 62
   179
420
  2234388
370
     9
  0
POLYLINE
  5
AC
330
A0
100
AcDbEntity
  8
_U+30EC_U+30A4_U+30E4_U+30FC 1
 62
   179
420
  2234388
370
     9
100
AcDb2dPolyline
 66
     1
 10
0.0
 20
0.0
 30
0.0
  0
VERTEX
  5
AD
330
AC
100
AcDbEntity
  8
_U+30EC_U+30A4_U+30E4_U+30FC 1
 62
   179
420
  2234388
370
     9
100
AcDbVertex
100
AcDb2dVertex
 10
84.61533534128296
 20
-140.8868502425558
 30
0.0
  0
VERTEX
  5
AE
330
AC
100
AcDbEntity
  8
_U+30EC_U+30A4_U+30E4_U+30FC 1
 62
   179
420
  2234388
370
     9
100
AcDbVertex
100
AcDb2dVertex
 10
117.0757231242606
 20
-140.8868502425558
 30
0.0
  0
SEQEND
  5
AF
330
AC
100
AcDbEntity
  8
_U+30EC_U+30A4_U+30E4_U+30FC 1
 62
   179
420
  2234388
370
     9
  0
INSERT
  5
B1
330
A0
100
AcDbEntity
  8
_U+30EC_U+30A4_U+30E4_U+30FC 1
100
AcDbBlockReference
  2
block 3
 10
0.0
 20
0.0
 30
0.0
  0
ENDBLK
  5
A3
330
A0
100
AcDbEntity
  8
0
100
AcDbBlockEnd
  0
BLOCK
  5
B2
330
B0
100
AcDbEntity
  8
0
100
AcDbBlockBegin
  2
block 3
 70
     0
 10
0.0
 20
0.0
 30
0.0
  3
block 3
  1

  0
SPLINE
  5
B4
330
B0
100
AcDbEntity
  8
_U+30EC_U+30A4_U+30E4_U+30FC 1
370
     0
100
AcDbSpline
210
0.0
220
0.0
230
1.0
 70
    11
 71
     3
 72
    62
 73
    58
 74
     0
 42
0.0000000001
 43
0.0000000001
 12
1.0
 22
0.0
 32
0.0
 13
1.0
 23
0.0
 33
0.0
 40
0.0
 40
0.0
 40
0.0
 40
0.0
 40
1.0
 40
1.0
 40
1.0
 40
2.0
 40
2.0
 40
2.0
 40
3.0
 40
3.0
 40
3.0
 40
4.0
 40
4.0
 40
4.0
 40
5.0
 40
5.0
 40
5.0
 40
6.0
 40
6.0
 40
6.0
 40
7.0
 40
7.0
 40
7.0
 40
8.0
 40
8.0
 40
8.0
 40
9.0
 40
9.0
 40
9.0
 40
10.0
 40
10.0
 40
10.0
 40
11.0
 40
11.0
 40
11.0
 40
12.0
 40
12.0
 40
12.0
 40
13.0
 40
13.0
 40
13.0
 40
14.0
 40
14.0
 40
14.0
 40
15.0
 40
15.0
 40
15.0
 40
16.0
 40
16.0
 40
16.0
 40
17.0
 40
17.0
 40
17.0
 40
18.0
 40
18.0
 40
18.0
 40
19.0
 40
19.0
 40
19.0
 40
19.0
 10
115.4802896846716
 20
-139.3957980337275
 30
0.0
 10
115.4802896846716
 20
-139.4974283505423
 30
0.0
 10
115.4592746022116
 20
-139.7303168053452
 30
0.0
 10
115.2732394460081
 20
-139.8636420006244
 30
0.0
 10
115.1609293331889
 20
-139.9428791967851
 30
0.0
 10
115.0617105832137
 20
-139.947357820916
 30
0.0
 10
114.9769612342766
 20
-139.9518364450468
 30
0.0
 10
114.9769612342766
 20
-139.9518364450468
 30
0.0
 10
114.9769612342766
 20
-139.7168809329527
 30
0.0
 10
114.9769612342766
 20
-139.7168809329527
 30
0.0
 10
115.0510307872095
 20
-139.7144693661131
 30
0.0
 10
115.285641789755
 20
-139.7031005510117
 30
0.0
 10
115.285641789755
 20
-139.4002766578583
 30
0.0
 10
115.285641789755
 20
-139.2531710806381
 30
0.0
 10
115.2160508609529
 20
-139.0905625737343
 30
0.0
 10
114.9876410302809
 20
-139.0905625737343
 30
0.0
 10
114.8711968028794
 20
-139.0905625737343
 30
0.0
 10
114.8226209565374
 20
-139.1312147004602
 30
0.0
 10
114.7909260780731
 20
-139.1653211457642
 30
0.0
 10
114.7168565251402
 20
-139.2442138323765
 30
0.0
 10
114.7041096718448
 20
-139.368581779394
 30
0.0
 10
114.7041096718448
 20
-139.4274929121918
 30
0.0
 10
114.7041096718448
 20
-139.4478189755547
 30
0.0
 10
114.706176729136
 20
-139.486059535441
 30
0.0
 10
114.7103108437183
 20
-139.5156873566141
 30
0.0
 10
114.7103108437183
 20
-139.5156873566141
 30
0.0
 10
114.5156629488016
 20
-139.5156873566141
 30
0.0
 10
114.5156629488016
 20
-139.5156873566141
 30
0.0
 10
114.5222086302236
 20
-139.4750352298882
 30
0.0
 10
114.5242756875148
 20
-139.4295599694829
 30
0.0
 10
114.5242756875148
 20
-139.4230142880609
 30
0.0
 10
114.5242756875148
 20
-139.3527343401618
 30
0.0
 10
114.5029160955062
 20
-139.1401719487219
 30
0.0
 10
114.2662380356696
 20
-139.1401719487219
 30
0.0
 10
114.0884711086307
 20
-139.1401719487219
 30
0.0
 10
114.0333495808667
 20
-139.2803873349716
 30
0.0
 10
114.0333495808667
 20
-139.3978650910186
 30
0.0
 10
114.0333495808667
 20
-139.6807074303576
 30
0.0
 10
114.2662380356696
 20
-139.6896646786193
 30
0.0
 10
114.3378960217628
 20
-139.6941433027501
 30
0.0
 10
114.3378960217628
 20
-139.6941433027501
 30
0.0
 10
114.3378960217628
 20
-139.9111843183208
 30
0.0
 10
114.3378960217628
 20
-139.9111843183208
 30
0.0
 10
114.2131835651967
 20
-139.9022270700592
 30
0.0
 10
113.8366346286589
 20
-139.8729437584346
 30
0.0
 10
113.8366346286589
 20
-139.3844292186261
 30
0.0
 10
113.8366346286589
 20
-139.1446505728527
 30
0.0
 10
113.9637586520646
 20
-138.886957430556
 30
0.0
 10
114.2596923542476
 20
-138.886957430556
 30
0.0
 10
114.4460720199996
 20
-138.886957430556
 30
0.0
 10
114.5284098020971
 20
-138.9889322569194
 30
0.0
 10
114.5897325017345
 20
-139.0950411978651
 30
0.0
 10
114.6172932656165
 20
-139.0295843836454
 30
0.0
 10
114.6975639904228
 20
-138.8349364887288
 30
0.0
 10
114.9748941769854
 20
-138.8349364887288
 30
0.0
 10
115.313202553637
 20
-138.8349364887288
 30
0.0
 10
115.4802896846716
 20
-139.099519821996
 30
0.0
 10
115.4802896846716
 20
-139.3957980337275
 30
0.0
  0
HATCH
  5
B5
330
B0
100
AcDbEntity
  8
_U+30EC_U+30A4_U+30E4_U+30FC 1
 62
   179
420
  2234388
100
AcDbHatch
 10
0.0
 20
0.0
 30
0.0
210
0.0
220
0.0
230
1.0
  2
SOLID
 70
     1
 71
     0
 91
        1
 92
        1
 93
        1
 72
     4
 94
        3
 73
     0
 74
     1
 95
       62
 96
       58
 40
0.0
 40
0.0
 40
0.0
 40
0.0
 40
1.0
 40
1.0
 40
1.0
 40
2.0
 40
2.0
 40
2.0
 40
3.0
 40
3.0
 40
3.0
 40
4.0
 40
4.0
 40
4.0
 40
5.0
 40
5.0
 40
5.0
 40
6.0
 40
6.0
 40
6.0
 40
7.0
 40
7.0
 40
7.0
 40
8.0
 40
8.0
 40
8.0
 40
9.0
 40
9.0
 40
9.0
 40
10.0
 40
10.0
 40
10.0
 40
11.0
 40
11.0
 40
11.0
 40
12.0
 40
12.0
 40
12.0
 40
13.0
 40
13.0
 40
13.0
 40
14.0
 40
14.0
 40
14.0
 40
15.0
 40
15.0
 40
15.0
 40
16.0
 40
16.0
 40
16.0
 40
17.0
 40
17.0
 40
17.0
 40
18.0
 40
18.0
 40
18.0
 40
19.0
 40
19.0
 40
19.0
 40
19.0
 10
115.4802896846716
 20
-139.3957980337275
 10
115.4802896846716
 20
-139.4974283505423
 10
115.4592746022116
 20
-139.7303168053452
 10
115.2732394460081
 20
-139.8636420006244
 10
115.1609293331889
 20
-139.9428791967851
 10
115.0617105832137
 20
-139.947357820916
 10
114.9769612342766
 20
-139.9518364450468
 10
114.9769612342766
 20
-139.9518364450468
 10
114.9769612342766
 20
-139.7168809329527
 10
114.9769612342766
 20
-139.7168809329527
 10
115.0510307872095
 20
-139.7144693661131
 10
115.285641789755
 20
-139.7031005510117
 10
115.285641789755
 20
-139.4002766578583
 10
115.285641789755
 20
-139.2531710806381
 10
115.2160508609529
 20
-139.0905625737343
 10
114.9876410302809
 20
-139.0905625737343
 10
114.8711968028794
 20
-139.0905625737343
 10
114.8226209565374
 20
-139.1312147004602
 10
114.7909260780731
 20
-139.1653211457642
 10
114.7168565251402
 20
-139.2442138323765
 10
114.7041096718448
 20
-139.368581779394
 10
114.7041096718448
 20
-139.4274929121918
 10
114.7041096718448
 20
-139.4478189755547
 10
114.706176729136
 20
-139.486059535441
 10
114.7103108437183
 20
-139.5156873566141
 10
114.7103108437183
 20
-139.5156873566141
 10
114.5156629488016
 20
-139.5156873566141
 10
114.5156629488016
 20
-139.5156873566141
 10
114.5222086302236
 20
-139.4750352298882
 10
114.5242756875148
 20
-139.4295599694829
 10
114.5242756875148
 20
-139.4230142880609
 10
114.5242756875148
 20
-139.3527343401618
 10
114.5029160955062
 20
-139.1401719487219
 10
114.2662380356696
 20
-139.1401719487219
 10
114.0884711086307
 20
-139.1401719487219
 10
114.0333495808667
 20
-139.2803873349716
 10
114.0333495808667
 20
-139.3978650910186
 10
114.0333495808667
 20
-139.6807074303576
 10
114.2662380356696
 20
-139.6896646786193
 10
114.3378960217628
 20
-139.6941433027501
 10
114.3378960217628
 20
-139.6941433027501
 10
114.3378960217628
 20
-139.9111843183208
 10
114.3378960217628
 20
-139.9111843183208
 10
114.2131835651967
 20
-139.9022270700592
 10
113.8366346286589
 20
-139.8729437584346
 10
113.8366346286589
 20
-139.3844292186261
 10
113.8366346286589
 20
-139.1446505728527
 10
113.9637586520646
 20
-138.886957430556
 10
114.2596923542476
 20
-138.886957430556
 10
114.4460720199996
 20
-138.886957430556
 10
114.5284098020971
 20
-138.9889322569194
 10
114.5897325017345
 20
-139.0950411978651
 10
114.6172932656165
 20
-139.0295843836454
 10
114.6975639904228
 20
-138.8349364887288
 10
114.9748941769854
 20
-138.8349364887288
 10
115.313202553637
 20
-138.8349364887288
 10
115.4802896846716
 20
-139.099519821996
 10
115.4802896846716
 20
-139.3957980337275
 97
        0
 97
        0
 75
     2
 76
     1
 98
        0
  0
ENDBLK
  5
B3
330
B0
100
AcDbEntity
  8
0
100
AcDbBlockEnd
  0
BLOCK
  5
B8
330
B6
100
AcDbEntity
  8
0
100
AcDbBlockBegin
  2
block 4
 70
     0
 10
0.0
 20
0.0
 30
0.0
  3
block 4
  1

  0
POLYLINE
  5
BA
330
B6
100
AcDbEntity
  8
_U+30EC_U+30A4_U+30E4_U+30FC 1
 62
   179
420
  2234388
370
     9
100
AcDb2dPolyline
 66
     1
 10
0.0
 20
0.0
 30
0.0
  0
VERTEX
  5
BB
330
BA
100
AcDbEntity
  8
_U+30EC_U+30A4_U+30E4_U+30FC 1
 62
   179
420
  2234388
370
     9
100
AcDbVertex
100
AcDb2dVertex
 10
116.0752453720071
 20
-137.8868632988615
 30
0.0
  0
VERTEX
  5
BC
330
BA
100
AcDbEntity
  8
_U+30EC_U+30A4_U+30E4_U+30FC 1
 62
   179
420
  2234388
370
     9
100
AcDbVertex
100
AcDb2dVertex
 10
116.0752453720071
 20
-130.8867644117225
 30
0.0
  0
SEQEND
  5
BD
330
BA
100
AcDbEntity
  8
_U+30EC_U+30A4_U+30E4_U+30FC 1
 62
   179
420
  2234388
370
     9
  0
POLYLINE
  5
BE
330
B6
100
AcDbEntity
  8
_U+30EC_U+30A4_U+30E4_U+30FC 1
 62
   179
420
  2234388
370
     9
100
AcDb2dPolyline
 66
     1
 10
0.0
 20
0.0
 30
0.0
  0
VERTEX
  5
BF
330
BE
100
AcDbEntity
  8
_U+30EC_U+30A4_U+30E4_U+30FC 1
 62
   179
420
  2234388
370
     9
100
AcDbVertex
100
AcDb2dVertex
 10
114.9676642891528
 20
-130.8867644117225
 30
0.0
  0
VERTEX
  5
C0
330
BE
100
AcDbEntity
  8
_U+30EC_U+30A4_U+30E4_U+30FC 1
 62
   179
420
  2234388
370
     9
100
AcDbVertex
100
AcDb2dVertex
 10
117.0757231242606
 20
-130.8867644117225
 30
0.0
  0
SEQEND
  5
C1
330
BE
100
AcDbEntity
  8
_U+30EC_U+30A4_U+30E4_U+30FC 1
 62
   179
420
  2234388
370
     9
  0
POLYLINE
  5
C2
330
B6
100
AcDbEntity
  8
_U+30EC_U+30A4_U+30E4_U+30FC 1
 62
   179
420
  2234388
370
     9
100
AcDb2dPolyline
 66
     1
 10
0.0
 20
0.0
 30
0.0
  0
VERTEX
  5
C3
330
C2
100
AcDbEntity
  8
_U+30EC_U+30A4_U+30E4_U+30FC 1
 62
   179
420
  2234388
370
     9
100
AcDbVertex
100
AcDb2dVertex
 10
114.9676642891528
 20
-129.9865460786145
 30
0.0
  0
VERTEX
  5
C4
330
C2
100
AcDbEntity
  8
_U+30EC_U+30A4_U+30E4_U+30FC 1
 62
   179
420
  2234388
370
     9
100
AcDbVertex
100
AcDb2dVertex
 10
117.0757231242606
 20
-129.9865460786145
 30
0.0
  0
SEQEND
  5
C5
330
C2
100
AcDbEntity
  8
_U+30EC_U+30A4_U+30E4_U+30FC 1
 62
   179
420
  2234388
370
     9
  0
INSERT
  5
C7
330
B6
100
AcDbEntity
  8
_U+30EC_U+30A4_U+30E4_U+30FC 1
100
AcDbBlockReference
  2
block 5
 10
0.0
 20
0.0
 30
0.0
  0
ENDBLK
  5
B9
330
B6
100
AcDbEntity
  8
0
100
AcDbBlockEnd
  0
BLOCK
  5
C8
330
C6
100
AcDbEntity
  8
0
100
AcDbBlockBegin
  2
block 5
 70
     0
 10
0.0
 20
0.0
 30
0.0
  3
block 5
  1

  0
SPLINE
  5
CA
330
C6
100
AcDbEntity
  8
_U+30EC_U+30A4_U+30E4_U+30FC 1
370
     0
100
AcDbSpline
210
0.0
220
0.0
230
1.0
 70
    11
 71
     3
 72
    26
 73
    22
 74
     0
 42
0.0000000001
 43
0.0000000001
 12
1.0
 22
0.0
 32
0.0
 13
1.0
 23
0.0
 33
0.0
 40
0.0
 40
0.0
 40
0.0
 40
0.0
 40
1.0
 40
1.0
 40
1.0
 40
2.0
 40
2.0
 40
2.0
 40
3.0
 40
3.0
 40
3.0
 40
4.0
 40
4.0
 40
4.0
 40
5.0
 40
5.0
 40
5.0
 40
6.0
 40
6.0
 40
6.0
 40
7.0
 40
7.0
 40
7.0
 40
7.0
 10
115.4296467810384
 20
-134.4817138335671
 30
0.0
 10
115.4296467810384
 20
-134.4817138335671
 30
0.0
 10
115.4296467810384
 20
-134.7349283517329
 30
0.0
 10
115.4296467810384
 20
-134.7349283517329
 30
0.0
 10
115.1206217160115
 20
-134.708056606948
 30
0.0
 10
114.6024793550299
 20
-134.5020398969301
 30
0.0
 10
114.0967393377953
 20
-134.0679578657886
 30
0.0
 10
114.0967393377953
 20
-134.0679578657886
 30
0.0
 10
114.0967393377953
 20
-134.963338182405
 30
0.0
 10
114.0967393377953
 20
-134.963338182405
 30
0.0
 10
114.0967393377953
 20
-134.963338182405
 30
0.0
 10
113.8852104750009
 20
-134.963338182405
 30
0.0
 10
113.8852104750009
 20
-134.963338182405
 30
0.0
 10
113.8852104750009
 20
-134.963338182405
 30
0.0
 10
113.8852104750009
 20
-133.8147433476227
 30
0.0
 10
113.8852104750009
 20
-133.8147433476227
 30
0.0
 10
113.8852104750009
 20
-133.8147433476227
 30
0.0
 10
114.0967393377953
 20
-133.8147433476227
 30
0.0
 10
114.0967393377953
 20
-133.8147433476227
 30
0.0
 10
114.3868163776533
 20
-134.1606309343418
 30
0.0
 10
114.9790282915677
 20
-134.445540330972
 30
0.0
 10
115.4296467810384
 20
-134.4817138335671
 30
0.0
  0
HATCH
  5
CB
330
C6
100
AcDbEntity
  8
_U+30EC_U+30A4_U+30E4_U+30FC 1
 62
   179
420
  2234388
100
AcDbHatch
 10
0.0
 20
0.0
 30
0.0
210
0.0
220
0.0
230
1.0
  2
SOLID
 70
     1
 71
     0
 91
        1
 92
        1
 93
        1
 72
     4
 94
        3
 73
     0
 74
     1
 95
       26
 96
       22
 40
0.0
 40
0.0
 40
0.0
 40
0.0
 40
1.0
 40
1.0
 40
1.0
 40
2.0
 40
2.0
 40
2.0
 40
3.0
 40
3.0
 40
3.0
 40
4.0
 40
4.0
 40
4.0
 40
5.0
 40
5.0
 40
5.0
 40
6.0
 40
6.0
 40
6.0
 40
7.0
 40
7.0
 40
7.0
 40
7.0
 10
115.4296467810384
 20
-134.4817138335671
 10
115.4296467810384
 20
-134.4817138335671
 10
115.4296467810384
 20
-134.7349283517329
 10
115.4296467810384
 20
-134.7349283517329
 10
115.1206217160115
 20
-134.708056606948
 10
114.6024793550299
 20
-134.5020398969301
 10
114.0967393377953
 20
-134.0679578657886
 10
114.0967393377953
 20
-134.0679578657886
 10
114.0967393377953
 20
-134.963338182405
 10
114.0967393377953
 20
-134.963338182405
 10
114.0967393377953
 20
-134.963338182405
 10
113.8852104750009
 20
-134.963338182405
 10
113.8852104750009
 20
-134.963338182405
 10
113.8852104750009
 20
-134.963338182405
 10
113.8852104750009
 20
-133.8147433476227
 10
113.8852104750009
 20
-133.8147433476227
 10
113.8852104750009
 20
-133.8147433476227
 10
114.0967393377953
 20
-133.8147433476227
 10
114.0967393377953
 20
-133.8147433476227
 10
114.3868163776533
 20
-134.1606309343418
 10
114.9790282915677
 20
-134.445540330972
 10
115.4296467810384
 20
-134.4817138335671
 97
        0
 97
        0
 75
     2
 76
     1
 98
        0
  0
ENDBLK
  5
C9
330
C6
100
AcDbEntity
  8
0
100
AcDbBlockEnd
  0
BLOCK
  5
CE
330
CC
100
AcDbEntity
  8
0
100
AcDbBlockBegin
  2
block 6
 70
     0
 10
0.0
 20
0.0
 30
0.0
  3
block 6
  1

  0
POLYLINE
  5
D0
330
CC
100
AcDbEntity
  8
_U+30EC_U+30A4_U+30E4_U+30FC 1
 62
   179
420
  2234388
370
     9
100
AcDb2dPolyline
 66
     1
 10
0.0
 20
0.0
 30
0.0
  0
VERTEX
  5
D1
330
D0
100
AcDbEntity
  8
_U+30EC_U+30A4_U+30E4_U+30FC 1
 62
   179
420
  2234388
370
     9
100
AcDbVertex
100
AcDb2dVertex
 10
68.07542020769579
 20
-122.8868933026116
 30
0.0
  0
VERTEX
  5
D2
330
D0
100
AcDbEntity
  8
_U+30EC_U+30A4_U+30E4_U+30FC 1
 62
   179
420
  2234388
370
     9
100
AcDbVertex
100
AcDb2dVertex
 10
68.07542020769579
 20
-140.8868502425558
 30
0.0
  0
SEQEND
  5
D3
330
D0
100
AcDbEntity
  8
_U+30EC_U+30A4_U+30E4_U+30FC 1
 62
   179
420
  2234388
370
     9
  0
POLYLINE
  5
D4
330
CC
100
AcDbEntity
  8
_U+30EC_U+30A4_U+30E4_U+30FC 1
 62
   179
420
  2234388
370
     9
100
AcDb2dPolyline
 66
     1
 10
0.0
 20
0.0
 30
0.0
  0
VERTEX
  5
D5
330
D4
100
AcDbEntity
  8
_U+30EC_U+30A4_U+30E4_U+30FC 1
 62
   179
420
  2234388
370
     9
100
AcDbVertex
100
AcDb2dVertex
 10
69.53546155933591
 20
-122.8868933026116
 30
0.0
  0
VERTEX
  5
D6
330
D4
100
AcDbEntity
  8
_U+30EC_U+30A4_U+30E4_U+30FC 1
 62
   179
420
  2234388
370
     9
100
AcDbVertex
100
AcDb2dVertex
 10
67.07533051098798
 20
-122.8868933026116
 30
0.0
  0
SEQEND
  5
D7
330
D4
100
AcDbEntity
  8
_U+30EC_U+30A4_U+30E4_U+30FC 1
 62
   179
420
  2234388
370
     9
  0
POLYLINE
  5
D8
330
CC
100
AcDbEntity
  8
_U+30EC_U+30A4_U+30E4_U+30FC 1
 62
   179
420
  2234388
370
     9
100
AcDb2dPolyline
 66
     1
 10
0.0
 20
0.0
 30
0.0
  0
VERTEX
  5
D9
330
D8
100
AcDbEntity
  8
_U+30EC_U+30A4_U+30E4_U+30FC 1
 62
   179
420
  2234388
370
     9
100
AcDbVertex
100
AcDb2dVertex
 10
69.53546155933591
 20
-140.8868502425558
 30
0.0
  0
VERTEX
  5
DA
330
D8
100
AcDbEntity
  8
_U+30EC_U+30A4_U+30E4_U+30FC 1
 62
   179
420
  2234388
370
     9
100
AcDbVertex
100
AcDb2dVertex
 10
67.07533051098798
 20
-140.8868502425558
 30
0.0
  0
SEQEND
  5
DB
330
D8
100
AcDbEntity
  8
_U+30EC_U+30A4_U+30E4_U+30FC 1
 62
   179
420
  2234388
370
     9
  0
INSERT
  5
DD
330
CC
100
AcDbEntity
  8
_U+30EC_U+30A4_U+30E4_U+30FC 1
100
AcDbBlockReference
  2
block 7
 10
0.0
 20
0.0
 30
0.0
  0
ENDBLK
  5
CF
330
CC
100
AcDbEntity
  8
0
100
AcDbBlockEnd
  0
BLOCK
  5
DE
330
DC
100
AcDbEntity
  8
0
100
AcDbBlockBegin
  2
block 7
 70
     0
 10
0.0
 20
0.0
 30
0.0
  3
block 7
  1

  0
SPLINE
  5
E0
330
DC
100
AcDbEntity
  8
_U+30EC_U+30A4_U+30E4_U+30FC 1
370
     0
100
AcDbSpline
210
0.0
220
0.0
230
1.0
 70
    11
 71
     3
 72
    26
 73
    22
 74
     0
 42
0.0000000001
 43
0.0000000001
 12
1.0
 22
0.0
 32
0.0
 13
1.0
 23
0.0
 33
0.0
 40
0.0
 40
0.0
 40
0.0
 40
0.0
 40
1.0
 40
1.0
 40
1.0
 40
2.0
 40
2.0
 40
2.0
 40
3.0
 40
3.0
 40
3.0
 40
4.0
 40
4.0
 40
4.0
 40
5.0
 40
5.0
 40
5.0
 40
6.0
 40
6.0
 40
6.0
 40
7.0
 40
7.0
 40
7.0
 40
7.0
 10
67.42947589460097
 20
-132.5679632915108
 30
0.0
 10
67.42947589460097
 20
-132.5679632915108
 30
0.0
 10
66.3253227915784
 20
-132.5679632915108
 30
0.0
 10
66.3253227915784
 20
-132.5679632915108
 30
0.0
 10
66.3253227915784
 20
-132.5679632915108
 30
0.0
 10
66.3253227915784
 20
-132.9203965596519
 30
0.0
 10
66.3253227915784
 20
-132.9203965596519
 30
0.0
 10
66.3253227915784
 20
-132.9203965596519
 30
0.0
 10
66.17718368571265
 20
-132.9203965596519
 30
0.0
 10
66.17718368571265
 20
-132.9203965596519
 30
0.0
 10
66.16236977512608
 20
-132.5655517246711
 30
0.0
 10
65.99941675867376
 20
-132.5159423496835
 30
0.0
 10
65.88503958856346
 20
-132.4842474712192
 30
0.0
 10
65.88503958856346
 20
-132.4842474712192
 30
0.0
 10
65.88503958856346
 20
-132.3281846457374
 30
0.0
 10
65.88503958856346
 20
-132.3281846457374
 30
0.0
 10
65.88503958856346
 20
-132.3281846457374
 30
0.0
 10
67.42947589460097
 20
-132.3281846457374
 30
0.0
 10
67.42947589460097
 20
-132.3281846457374
 30
0.0
 10
67.42947589460097
 20
-132.3281846457374
 30
0.0
 10
67.42947589460097
 20
-132.5679632915108
 30
0.0
 10
67.42947589460097
 20
-132.5679632915108
 30
0.0
  0
HATCH
  5
E1
330
DC
100
AcDbEntity
  8
_U+30EC_U+30A4_U+30E4_U+30FC 1
 62
   179
420
  2234388
100
AcDbHatch
 10
0.0
 20
0.0
 30
0.0
210
0.0
220
0.0
230
1.0
  2
SOLID
 70
     1
 71
     0
 91
        1
 92
        1
 93
        1
 72
     4
 94
        3
 73
     0
 74
     1
 95
       26
 96
       22
 40
0.0
 40
0.0
 40
0.0
 40
0.0
 40
1.0
 40
1.0
 40
1.0
 40
2.0
 40
2.0
 40
2.0
 40
3.0
 40
3.0
 40
3.0
 40
4.0
 40
4.0
 40
4.0
 40
5.0
 40
5.0
 40
5.0
 40
6.0
 40
6.0
 40
6.0
 40
7.0
 40
7.0
 40
7.0
 40
7.0
 10
67.42947589460097
 20
-132.5679632915108
 10
67.42947589460097
 20
-132.5679632915108
 10
66.3253227915784
 20
-132.5679632915108
 10
66.3253227915784
 20
-132.5679632915108
 10
66.3253227915784
 20
-132.5679632915108
 10
66.3253227915784
 20
-132.9203965596519
 10
66.3253227915784
 20
-132.9203965596519
 10
66.3253227915784
 20
-132.9203965596519
 10
66.17718368571265
 20
-132.9203965596519
 10
66.17718368571265
 20
-132.9203965596519
 10
66.16236977512608
 20
-132.5655517246711
 10
65.99941675867376
 20
-132.5159423496835
 10
65.88503958856346
 20
-132.4842474712192
 10
65.88503958856346
 20
-132.4842474712192
 10
65.88503958856346
 20
-132.3281846457374
 10
65.88503958856346
 20
-132.3281846457374
 10
65.88503958856346
 20
-132.3281846457374
 10
67.42947589460097
 20
-132.3281846457374
 10
67.42947589460097
 20
-132.3281846457374
 10
67.42947589460097
 20
-132.3281846457374
 10
67.42947589460097
 20
-132.5679632915108
 10
67.42947589460097
 20
-132.5679632915108
 97
        0
 97
        0
 75
     2
 76
     1
 98
        0
  0
SPLINE
  5
E2
330
DC
100
AcDbEntity
  8
_U+30EC_U+30A4_U+30E4_U+30FC 1
370
     0
100
AcDbSpline
210
0.0
220
0.0
230
1.0
 70
    11
 71
     3
 72
    29
 73
    25
 74
     0
 42
0.0000000001
 43
0.0000000001
 12
1.0
 22
0.0
 32
0.0
 13
1.0
 23
0.0
 33
0.0
 40
0.0
 40
0.0
 40
0.0
 40
0.0
 40
1.0
 40
1.0
 40
1.0
 40
2.0
 40
2.0
 40
2.0
 40
3.0
 40
3.0
 40
3.0
 40
4.0
 40
4.0
 40
4.0
 40
5.0
 40
5.0
 40
5.0
 40
6.0
 40
6.0
 40
6.0
 40
7.0
 40
7.0
 40
7.0
 40
8.0
 40
8.0
 40
8.0
 40
8.0
 10
67.48011879823414
 20
-131.2581379880188
 30
0.0
 10
67.48011879823414
 20
-131.5427028751004
 30
0.0
 10
67.34265948837268
 20
-131.8141763993381
 30
0.0
 10
66.99367131571687
 20
-131.8141763993381
 30
0.0
 10
66.7377007211628
 20
-131.8141763993381
 30
0.0
 10
66.6426160857699
 20
-131.6625921979871
 30
0.0
 10
66.58129338613246
 20
-131.5495930660709
 30
0.0
 10
66.52203774378616
 20
-131.6829182613501
 30
0.0
 10
66.40766057367587
 20
-131.7645670243505
 30
0.0
 10
66.24677461451469
 20
-131.7645670243505
 30
0.0
 10
65.97185599479177
 20
-131.7645670243505
 30
0.0
 10
65.83646374222144
 20
-131.5520046329106
 30
0.0
 10
65.83646374222144
 20
-131.2581379880188
 30
0.0
 10
65.83646374222144
 20
-130.9549695853168
 30
0.0
 10
65.98046873350489
 20
-130.7517089516871
 30
0.0
 10
66.24677461451469
 20
-130.7517089516871
 30
0.0
 10
66.40766057367587
 20
-130.7517089516871
 30
0.0
 10
66.52203774378616
 20
-130.8350802624301
 30
0.0
 10
66.58129338613246
 20
-130.9687499672578
 30
0.0
 10
66.63193628976563
 20
-130.8736653318649
 30
0.0
 10
66.72702092515853
 20
-130.7041666339906
 30
0.0
 10
66.98953720113457
 20
-130.7041666339906
 30
0.0
 10
67.36401908038123
 20
-130.7041666339906
 30
0.0
 10
67.48011879823414
 20
-131.0025119030133
 30
0.0
 10
67.48011879823414
 20
-131.2581379880188
 30
0.0
  0
SPLINE
  5
E3
330
DC
100
AcDbEntity
  8
_U+30EC_U+30A4_U+30E4_U+30FC 1
370
     0
100
AcDbSpline
210
0.0
220
0.0
230
1.0
 70
    11
 71
     3
 72
    17
 73
    13
 74
     0
 42
0.0000000001
 43
0.0000000001
 12
1.0
 22
0.0
 32
0.0
 13
1.0
 23
0.0
 33
0.0
 40
0.0
 40
0.0
 40
0.0
 40
0.0
 40
1.0
 40
1.0
 40
1.0
 40
2.0
 40
2.0
 40
2.0
 40
3.0
 40
3.0
 40
3.0
 40
4.0
 40
4.0
 40
4.0
 40
4.0
 10
66.02904457984691
 20
-131.2581379880188
 30
0.0
 10
66.02904457984691
 20
-131.4345268768636
 30
0.0
 10
66.1241292152398
 20
-131.5247883785771
 30
0.0
 10
66.25952146781012
 20
-131.5247883785771
 30
0.0
 10
66.38216686708502
 20
-131.5247883785771
 30
0.0
 10
66.5006781517776
 20
-131.4479627492561
 30
0.0
 10
66.5006781517776
 20
-131.2581379880188
 30
0.0
 10
66.5006781517776
 20
-131.067968717233
 30
0.0
 10
66.38216686708502
 20
-130.991143087912
 30
0.0
 10
66.25952146781012
 20
-130.991143087912
 30
0.0
 10
66.1241292152398
 20
-130.991143087912
 30
0.0
 10
66.02904457984691
 20
-131.0838161564652
 30
0.0
 10
66.02904457984691
 20
-131.2581379880188
 30
0.0
  0
SPLINE
  5
E4
330
DC
100
AcDbEntity
  8
_U+30EC_U+30A4_U+30E4_U+30FC 1
370
     0
100
AcDbSpline
210
0.0
220
0.0
230
1.0
 70
    11
 71
     3
 72
    17
 73
    13
 74
     0
 42
0.0000000001
 43
0.0000000001
 12
1.0
 22
0.0
 32
0.0
 13
1.0
 23
0.0
 33
0.0
 40
0.0
 40
0.0
 40
0.0
 40
0.0
 40
1.0
 40
1.0
 40
1.0
 40
2.0
 40
2.0
 40
2.0
 40
3.0
 40
3.0
 40
3.0
 40
4.0
 40
4.0
 40
4.0
 40
4.0
 10
66.68912487482078
 20
-131.2581379880188
 30
0.0
 10
66.68912487482078
 20
-131.411789246661
 30
0.0
 10
66.77594128104907
 20
-131.5743977535647
 30
0.0
 10
66.97885740513028
 20
-131.5743977535647
 30
0.0
 10
67.18418509605118
 20
-131.5743977535647
 30
0.0
 10
67.28547090331753
 20
-131.4390055009944
 30
0.0
 10
67.28547090331753
 20
-131.2581379880188
 30
0.0
 10
67.28547090331753
 20
-131.0590114689714
 30
0.0
 10
67.16282550404263
 20
-130.9415337129244
 30
0.0
 10
66.98505857700374
 20
-130.9415337129244
 30
0.0
 10
66.76319442775365
 20
-130.9415337129244
 30
0.0
 10
66.68912487482078
 20
-131.1155110349295
 30
0.0
 10
66.68912487482078
 20
-131.2581379880188
 30
0.0
  0
HATCH
  5
E5
330
DC
100
AcDbEntity
  8
_U+30EC_U+30A4_U+30E4_U+30FC 1
 62
   179
420
  2234388
100
AcDbHatch
 10
0.0
 20
0.0
 30
0.0
210
0.0
220
0.0
230
1.0
  2
SOLID
 70
     1
 71
     0
 91
        3
 92
        1
 93
        1
 72
     4
 94
        3
 73
     0
 74
     1
 95
       29
 96
       25
 40
0.0
 40
0.0
 40
0.0
 40
0.0
 40
1.0
 40
1.0
 40
1.0
 40
2.0
 40
2.0
 40
2.0
 40
3.0
 40
3.0
 40
3.0
 40
4.0
 40
4.0
 40
4.0
 40
5.0
 40
5.0
 40
5.0
 40
6.0
 40
6.0
 40
6.0
 40
7.0
 40
7.0
 40
7.0
 40
8.0
 40
8.0
 40
8.0
 40
8.0
 10
67.48011879823414
 20
-131.2581379880188
 10
67.48011879823414
 20
-131.5427028751004
 10
67.34265948837268
 20
-131.8141763993381
 10
66.99367131571687
 20
-131.8141763993381
 10
66.7377007211628
 20
-131.8141763993381
 10
66.6426160857699
 20
-131.6625921979871
 10
66.58129338613246
 20
-131.5495930660709
 10
66.52203774378616
 20
-131.6829182613501
 10
66.40766057367587
 20
-131.7645670243505
 10
66.24677461451469
 20
-131.7645670243505
 10
65.97185599479177
 20
-131.7645670243505
 10
65.83646374222144
 20
-131.5520046329106
 10
65.83646374222144
 20
-131.2581379880188
 10
65.83646374222144
 20
-130.9549695853168
 10
65.98046873350489
 20
-130.7517089516871
 10
66.24677461451469
 20
-130.7517089516871
 10
66.40766057367587
 20
-130.7517089516871
 10
66.52203774378616
 20
-130.8350802624301
 10
66.58129338613246
 20
-130.9687499672578
 10
66.63193628976563
 20
-130.8736653318649
 10
66.72702092515853
 20
-130.7041666339906
 10
66.98953720113457
 20
-130.7041666339906
 10
67.36401908038123
 20
-130.7041666339906
 10
67.48011879823414
 20
-131.0025119030133
 10
67.48011879823414
 20
-131.2581379880188
 97
        0
 97
        0
 92
        1
 93
        1
 72
     4
 94
        3
 73
     0
 74
     1
 95
       17
 96
       13
 40
0.0
 40
0.0
 40
0.0
 40
0.0
 40
1.0
 40
1.0
 40
1.0
 40
2.0
 40
2.0
 40
2.0
 40
3.0
 40
3.0
 40
3.0
 40
4.0
 40
4.0
 40
4.0
 40
4.0
 10
66.02904457984691
 20
-131.2581379880188
 10
66.02904457984691
 20
-131.4345268768636
 10
66.1241292152398
 20
-131.5247883785771
 10
66.25952146781012
 20
-131.5247883785771
 10
66.38216686708502
 20
-131.5247883785771
 10
66.5006781517776
 20
-131.4479627492561
 10
66.5006781517776
 20
-131.2581379880188
 10
66.5006781517776
 20
-131.067968717233
 10
66.38216686708502
 20
-130.991143087912
 10
66.25952146781012
 20
-130.991143087912
 10
66.1241292152398
 20
-130.991143087912
 10
66.02904457984691
 20
-131.0838161564652
 10
66.02904457984691
 20
-131.2581379880188
 97
        0
 97
        0
 92
        1
 93
        1
 72
     4
 94
        3
 73
     0
 74
     1
 95
       17
 96
       13
 40
0.0
 40
0.0
 40
0.0
 40
0.0
 40
1.0
 40
1.0
 40
1.0
 40
2.0
 40
2.0
 40
2.0
 40
3.0
 40
3.0
 40
3.0
 40
4.0
 40
4.0
 40
4.0
 40
4.0
 10
66.68912487482078
 20
-131.2581379880188
 10
66.68912487482078
 20
-131.411789246661
 10
66.77594128104907
 20
-131.5743977535647
 10
66.97885740513028
 20
-131.5743977535647
 10
67.18418509605118
 20
-131.5743977535647
 10
67.28547090331753
 20
-131.4390055009944
 10
67.28547090331753
 20
-131.2581379880188
 10
67.28547090331753
 20
-131.0590114689714
 10
67.16282550404263
 20
-130.9415337129244
 10
66.98505857700374
 20
-130.9415337129244
 10
66.76319442775365
 20
-130.9415337129244
 10
66.68912487482078
 20
-131.1155110349295
 10
66.68912487482078
 20
-131.2581379880188
 97
        0
 97
        0
 75
     2
 76
     1
 98
        0
  0
ENDBLK
  5
DF
330
DC
100
AcDbEntity
  8
0
100
AcDbBlockEnd
  0
BLOCK
  5
E8
330
E6
100
AcDbEntity
  8
0
100
AcDbBlockBegin
  2
block 8
 70
     0
 10
0.0
 20
0.0
 30
0.0
  3
block 8
  1

  0
POLYLINE
  5
EA
330
E6
100
AcDbEntity
  8
_U+30EC_U+30A4_U+30E4_U+30FC 1
 62
   179
420
  2234388
370
     9
100
AcDb2dPolyline
 66
     1
 10
0.0
 20
0.0
 30
0.0
  0
VERTEX
  5
EB
330
EA
100
AcDbEntity
  8
_U+30EC_U+30A4_U+30E4_U+30FC 1
 62
   179
420
  2234388
370
     9
100
AcDbVertex
100
AcDb2dVertex
 10
72.0751792723201
 20
-118.8868166369451
 30
0.0
  0
VERTEX
  5
EC
330
EA
100
AcDbEntity
  8
_U+30EC_U+30A4_U+30E4_U+30FC 1
 62
   179
420
  2234388
370
     9
100
AcDbVertex
100
AcDb2dVertex
 10
75.0751661402285
 20
-118.8868166369451
 30
0.0
  0
SEQEND
  5
ED
330
EA
100
AcDbEntity
  8
_U+30EC_U+30A4_U+30E4_U+30FC 1
 62
   179
420
  2234388
370
     9
  0
POLYLINE
  5
EE
330
E6
100
AcDbEntity
  8
_U+30EC_U+30A4_U+30E4_U+30FC 1
 62
   179
420
  2234388
370
     9
100
AcDb2dPolyline
 66
     1
 10
0.0
 20
0.0
 30
0.0
  0
VERTEX
  5
EF
330
EE
100
AcDbEntity
  8
_U+30EC_U+30A4_U+30E4_U+30FC 1
 62
   179
420
  2234388
370
     9
100
AcDbVertex
100
AcDb2dVertex
 10
72.0751792723201
 20
-120.3464699699135
 30
0.0
  0
VERTEX
  5
F0
330
EE
100
AcDbEntity
  8
_U+30EC_U+30A4_U+30E4_U+30FC 1
 62
   179
420
  2234388
370
     9
100
AcDbVertex
100
AcDb2dVertex
 10
72.0751792723201
 20
-117.8866916371951
 30
0.0
  0
SEQEND
  5
F1
330
EE
100
AcDbEntity
  8
_U+30EC_U+30A4_U+30E4_U+30FC 1
 62
   179
420
  2234388
370
     9
  0
POLYLINE
  5
F2
330
E6
100
AcDbEntity
  8
_U+30EC_U+30A4_U+30E4_U+30FC 1
 62
   179
420
  2234388
370
     9
100
AcDb2dPolyline
 66
     1
 10
0.0
 20
0.0
 30
0.0
  0
VERTEX
  5
F3
330
F2
100
AcDbEntity
  8
_U+30EC_U+30A4_U+30E4_U+30FC 1
 62
   179
420
  2234388
370
     9
100
AcDbVertex
100
AcDb2dVertex
 10
75.0751661402285
 20
-120.3464699699135
 30
0.0
  0
VERTEX
  5
F4
330
F2
100
AcDbEntity
  8
_U+30EC_U+30A4_U+30E4_U+30FC 1
 62
   179
420
  2234388
370
     9
100
AcDbVertex
100
AcDb2dVertex
 10
75.0751661402285
 20
-117.8866916371951
 30
0.0
  0
SEQEND
  5
F5
330
F2
100
AcDbEntity
  8
_U+30EC_U+30A4_U+30E4_U+30FC 1
 62
   179
420
  2234388
370
     9
  0
INSERT
  5
F7
330
E6
100
AcDbEntity
  8
_U+30EC_U+30A4_U+30E4_U+30FC 1
100
AcDbBlockReference
  2
block 9
 10
0.0
 20
0.0
 30
0.0
  0
ENDBLK
  5
E9
330
E6
100
AcDbEntity
  8
0
100
AcDbBlockEnd
  0
BLOCK
  5
F8
330
F6
100
AcDbEntity
  8
0
100
AcDbBlockBegin
  2
block 9
 70
     0
 10
0.0
 20
0.0
 30
0.0
  3
block 9
  1

  0
SPLINE
  5
FA
330
F6
100
AcDbEntity
  8
_U+30EC_U+30A4_U+30E4_U+30FC 1
370
     0
100
AcDbSpline
210
0.0
220
0.0
230
1.0
 70
    11
 71
     3
 72
    62
 73
    58
 74
     0
 42
0.0000000001
 43
0.0000000001
 12
1.0
 22
0.0
 32
0.0
 13
1.0
 23
0.0
 33
0.0
 40
0.0
 40
0.0
 40
0.0
 40
0.0
 40
1.0
 40
1.0
 40
1.0
 40
2.0
 40
2.0
 40
2.0
 40
3.0
 40
3.0
 40
3.0
 40
4.0
 40
4.0
 40
4.0
 40
5.0
 40
5.0
 40
5.0
 40
6.0
 40
6.0
 40
6.0
 40
7.0
 40
7.0
 40
7.0
 40
8.0
 40
8.0
 40
8.0
 40
9.0
 40
9.0
 40
9.0
 40
10.0
 40
10.0
 40
10.0
 40
11.0
 40
11.0
 40
11.0
 40
12.0
 40
12.0
 40
12.0
 40
13.0
 40
13.0
 40
13.0
 40
14.0
 40
14.0
 40
14.0
 40
15.0
 40
15.0
 40
15.0
 40
16.0
 40
16.0
 40
16.0
 40
17.0
 40
17.0
 40
17.0
 40
18.0
 40
18.0
 40
18.0
 40
19.0
 40
19.0
 40
19.0
 40
19.0
 10
73.56656899202503
 20
-118.291832110184
 30
0.0
 10
73.46493867521016
 20
-118.291832110184
 30
0.0
 10
73.23205022040727
 20
-118.2706447729497
 30
0.0
 10
73.09855277035383
 20
-118.084437361972
 30
0.0
 10
73.01948782896736
 20
-117.9722995039271
 30
0.0
 10
73.01500920483653
 20
-117.8729084991776
 30
0.0
 10
73.0105305807057
 20
-117.7883314050147
 30
0.0
 10
73.0105305807057
 20
-117.7883314050147
 30
0.0
 10
73.24548609279974
 20
-117.7883314050147
 30
0.0
 10
73.24548609279974
 20
-117.7883314050147
 30
0.0
 10
73.24789765963942
 20
-117.8624009579476
 30
0.0
 10
73.25909421996649
 20
-118.0971842152674
 30
0.0
 10
73.5620903678942
 20
-118.0971842152674
 30
0.0
 10
73.7090236903401
 20
-118.0971842152674
 30
0.0
 10
73.87180445201817
 20
-118.0274210316911
 30
0.0
 10
73.87180445201817
 20
-117.7988389462447
 30
0.0
 10
73.87180445201817
 20
-117.6825669736176
 30
0.0
 10
73.83115232529221
 20
-117.6338188725013
 30
0.0
 10
73.7972181347625
 20
-117.602123994037
 30
0.0
 10
73.71815319337603
 20
-117.5280544411041
 30
0.0
 10
73.59378524635851
 20
-117.5154798425829
 30
0.0
 10
73.53487411356073
 20
-117.5154798425829
 30
0.0
 10
73.51454805019776
 20
-117.5154798425829
 30
0.0
 10
73.47613523553721
 20
-117.5175468998741
 30
0.0
 10
73.44685192391259
 20
-117.5216810144564
 30
0.0
 10
73.44685192391259
 20
-117.5216810144564
 30
0.0
 10
73.44685192391259
 20
-117.3270331195398
 30
0.0
 10
73.44685192391259
 20
-117.3270331195398
 30
0.0
 10
73.48750405063855
 20
-117.3334065461875
 30
0.0
 10
73.53263480149532
 20
-117.3356458582529
 30
0.0
 10
73.53952499246581
 20
-117.3356458582529
 30
0.0
 10
73.60963268559065
 20
-117.3356458582529
 30
0.0
 10
73.8220228222563
 20
-117.3144585210186
 30
0.0
 10
73.8220228222563
 20
-117.0774359516334
 30
0.0
 10
73.8220228222563
 20
-116.8998412793688
 30
0.0
 10
73.68197969078089
 20
-116.8447197516048
 30
0.0
 10
73.56432967995961
 20
-116.8447197516048
 30
0.0
 10
73.28165959539487
 20
-116.8447197516048
 30
0.0
 10
73.27270234713322
 20
-117.0774359516334
 30
0.0
 10
73.2682237230024
 20
-117.1494384472751
 30
0.0
 10
73.2682237230024
 20
-117.1494384472751
 30
0.0
 10
73.05118270743165
 20
-117.1494384472751
 30
0.0
 10
73.05118270743165
 20
-117.1494384472751
 30
0.0
 10
73.0601399556933
 20
-117.0245537359348
 30
0.0
 10
73.08959552209218
 20
-116.648004799397
 30
0.0
 10
73.57793780712635
 20
-116.648004799397
 30
0.0
 10
73.81754419812547
 20
-116.648004799397
 30
0.0
 10
74.07523734042216
 20
-116.7749565680285
 30
0.0
 10
74.07523734042216
 20
-117.0710625249857
 30
0.0
 10
74.07523734042216
 20
-117.2572699359635
 30
0.0
 10
73.9736070236073
 20
-117.3397799728352
 30
0.0
 10
73.86732582788734
 20
-117.4011026724726
 30
0.0
 10
73.93278264210709
 20
-117.4286634363546
 30
0.0
 10
74.12725828224944
 20
-117.5091064159352
 30
0.0
 10
74.12725828224944
 20
-117.7862643477236
 30
0.0
 10
74.12725828224944
 20
-118.1247449791494
 30
0.0
 10
73.86284720375652
 20
-118.291832110184
 30
0.0
 10
73.56656899202503
 20
-118.291832110184
 30
0.0
  0
HATCH
  5
FB
330
F6
100
AcDbEntity
  8
_U+30EC_U+30A4_U+30E4_U+30FC 1
 62
   179
420
  2234388
100
AcDbHatch
 10
0.0
 20
0.0
 30
0.0
210
0.0
220
0.0
230
1.0
  2
SOLID
 70
     1
 71
     0
 91
        1
 92
        1
 93
        1
 72
     4
 94
        3
 73
     0
 74
     1
 95
       62
 96
       58
 40
0.0
 40
0.0
 40
0.0
 40
0.0
 40
1.0
 40
1.0
 40
1.0
 40
2.0
 40
2.0
 40
2.0
 40
3.0
 40
3.0
 40
3.0
 40
4.0
 40
4.0
 40
4.0
 40
5.0
 40
5.0
 40
5.0
 40
6.0
 40
6.0
 40
6.0
 40
7.0
 40
7.0
 40
7.0
 40
8.0
 40
8.0
 40
8.0
 40
9.0
 40
9.0
 40
9.0
 40
10.0
 40
10.0
 40
10.0
 40
11.0
 40
11.0
 40
11.0
 40
12.0
 40
12.0
 40
12.0
 40
13.0
 40
13.0
 40
13.0
 40
14.0
 40
14.0
 40
14.0
 40
15.0
 40
15.0
 40
15.0
 40
16.0
 40
16.0
 40
16.0
 40
17.0
 40
17.0
 40
17.0
 40
18.0
 40
18.0
 40
18.0
 40
19.0
 40
19.0
 40
19.0
 40
19.0
 10
73.56656899202503
 20
-118.291832110184
 10
73.46493867521016
 20
-118.291832110184
 10
73.23205022040727
 20
-118.2706447729497
 10
73.09855277035383
 20
-118.084437361972
 10
73.01948782896736
 20
-117.9722995039271
 10
73.01500920483653
 20
-117.8729084991776
 10
73.0105305807057
 20
-117.7883314050147
 10
73.0105305807057
 20
-117.7883314050147
 10
73.24548609279974
 20
-117.7883314050147
 10
73.24548609279974
 20
-117.7883314050147
 10
73.24789765963942
 20
-117.8624009579476
 10
73.25909421996649
 20
-118.0971842152674
 10
73.5620903678942
 20
-118.0971842152674
 10
73.7090236903401
 20
-118.0971842152674
 10
73.87180445201817
 20
-118.0274210316911
 10
73.87180445201817
 20
-117.7988389462447
 10
73.87180445201817
 20
-117.6825669736176
 10
73.83115232529221
 20
-117.6338188725013
 10
73.7972181347625
 20
-117.602123994037
 10
73.71815319337603
 20
-117.5280544411041
 10
73.59378524635851
 20
-117.5154798425829
 10
73.53487411356073
 20
-117.5154798425829
 10
73.51454805019776
 20
-117.5154798425829
 10
73.47613523553721
 20
-117.5175468998741
 10
73.44685192391259
 20
-117.5216810144564
 10
73.44685192391259
 20
-117.5216810144564
 10
73.44685192391259
 20
-117.3270331195398
 10
73.44685192391259
 20
-117.3270331195398
 10
73.48750405063855
 20
-117.3334065461875
 10
73.53263480149532
 20
-117.3356458582529
 10
73.53952499246581
 20
-117.3356458582529
 10
73.60963268559065
 20
-117.3356458582529
 10
73.8220228222563
 20
-117.3144585210186
 10
73.8220228222563
 20
-117.0774359516334
 10
73.8220228222563
 20
-116.8998412793688
 10
73.68197969078089
 20
-116.8447197516048
 10
73.56432967995961
 20
-116.8447197516048
 10
73.28165959539487
 20
-116.8447197516048
 10
73.27270234713322
 20
-117.0774359516334
 10
73.2682237230024
 20
-117.1494384472751
 10
73.2682237230024
 20
-117.1494384472751
 10
73.05118270743165
 20
-117.1494384472751
 10
73.05118270743165
 20
-117.1494384472751
 10
73.0601399556933
 20
-117.0245537359348
 10
73.08959552209218
 20
-116.648004799397
 10
73.57793780712635
 20
-116.648004799397
 10
73.81754419812547
 20
-116.648004799397
 10
74.07523734042216
 20
-116.7749565680285
 10
74.07523734042216
 20
-117.0710625249857
 10
74.07523734042216
 20
-117.2572699359635
 10
73.9736070236073
 20
-117.3397799728352
 10
73.86732582788734
 20
-117.4011026724726
 10
73.93278264210709
 20
-117.4286634363546
 10
74.12725828224944
 20
-117.5091064159352
 10
74.12725828224944
 20
-117.7862643477236
 10
74.12725828224944
 20
-118.1247449791494
 10
73.86284720375652
 20
-118.291832110184
 10
73.56656899202503
 20
-118.291832110184
 97
        0
 97
        0
 75
     2
 76
     1
 98
        0
  0
ENDBLK
  5
F9
330
F6
100
AcDbEntity
  8
0
100
AcDbBlockEnd
  0
BLOCK
  5
FE
330
FC
100
AcDbEntity
  8
0
100
AcDbBlockBegin
  2
block 10
 70
     0
 10
0.0
 20
0.0
 30
0.0
  3
block 10
  1

  0
POLYLINE
  5
100
330
FC
100
AcDbEntity
  8
_U+30EC_U+30A4_U+30E4_U+30FC 1
 62
   179
420
  2234388
370
     9
100
AcDb2dPolyline
 66
     1
 10
0.0
 20
0.0
 30
0.0
  0
VERTEX
  5
101
330
100
100
AcDbEntity
  8
_U+30EC_U+30A4_U+30E4_U+30FC 1
 62
   179
420
  2234388
370
     9
100
AcDbVertex
100
AcDb2dVertex
 10
72.0751792723201
 20
-114.8867046935005
 30
0.0
  0
VERTEX
  5
102
330
100
100
AcDbEntity
  8
_U+30EC_U+30A4_U+30E4_U+30FC 1
 62
   179
420
  2234388
370
     9
100
AcDbVertex
100
AcDb2dVertex
 10
112.0751688073909
 20
-114.8867046935005
 30
0.0
  0
SEQEND
  5
103
330
100
100
AcDbEntity
  8
_U+30EC_U+30A4_U+30E4_U+30FC 1
 62
   179
420
  2234388
370
     9
  0
POLYLINE
  5
104
330
FC
100
AcDbEntity
  8
_U+30EC_U+30A4_U+30E4_U+30FC 1
 62
   179
420
  2234388
370
     9
100
AcDb2dPolyline
 66
     1
 10
0.0
 20
0.0
 30
0.0
  0
VERTEX
  5
105
330
104
100
AcDbEntity
  8
_U+30EC_U+30A4_U+30E4_U+30FC 1
 62
   179
420
  2234388
370
     9
100
AcDbVertex
100
AcDb2dVertex
 10
72.0751792723201
 20
-120.3464699699135
 30
0.0
  0
VERTEX
  5
106
330
104
100
AcDbEntity
  8
_U+30EC_U+30A4_U+30E4_U+30FC 1
 62
   179
420
  2234388
370
     9
100
AcDbVertex
100
AcDb2dVertex
 10
72.0751792723201
 20
-113.8867560826394
 30
0.0
  0
SEQEND
  5
107
330
104
100
AcDbEntity
  8
_U+30EC_U+30A4_U+30E4_U+30FC 1
 62
   179
420
  2234388
370
     9
  0
POLYLINE
  5
108
330
FC
100
AcDbEntity
  8
_U+30EC_U+30A4_U+30E4_U+30FC 1
 62
   179
420
  2234388
370
     9
100
AcDb2dPolyline
 66
     1
 10
0.0
 20
0.0
 30
0.0
  0
VERTEX
  5
109
330
108
100
AcDbEntity
  8
_U+30EC_U+30A4_U+30E4_U+30FC 1
 62
   179
420
  2234388
370
     9
100
AcDbVertex
100
AcDb2dVertex
 10
112.0751688073909
 20
-127.4468283014716
 30
0.0
  0
VERTEX
  5
10A
330
108
100
AcDbEntity
  8
_U+30EC_U+30A4_U+30E4_U+30FC 1
 62
   179
420
  2234388
370
     9
100
AcDbVertex
100
AcDb2dVertex
 10
112.0751688073909
 20
-113.8867560826394
 30
0.0
  0
SEQEND
  5
10B
330
108
100
AcDbEntity
  8
_U+30EC_U+30A4_U+30E4_U+30FC 1
 62
   179
420
  2234388
370
     9
  0
INSERT
  5
10D
330
FC
100
AcDbEntity
  8
_U+30EC_U+30A4_U+30E4_U+30FC 1
100
AcDbBlockReference
  2
block 11
 10
0.0
 20
0.0
 30
0.0
  0
ENDBLK
  5
FF
330
FC
100
AcDbEntity
  8
0
100
AcDbBlockEnd
  0
BLOCK
  5
10E
330
10C
100
AcDbEntity
  8
0
100
AcDbBlockBegin
  2
block 11
 70
     0
 10
0.0
 20
0.0
 30
0.0
  3
block 11
  1

  0
POLYLINE
  5
110
330
10C
100
AcDbEntity
  8
_U+30EC_U+30A4_U+30E4_U+30FC 1
370
     0
100
AcDb2dPolyline
 66
     1
 10
0.0
 20
0.0
 30
0.0
  0
VERTEX
  5
111
330
110
100
AcDbEntity
  8
_U+30EC_U+30A4_U+30E4_U+30FC 1
370
     0
100
AcDbVertex
100
AcDb2dVertex
 10
91.80145939545241
 20
-113.8939954684883
 30
0.0
  0
VERTEX
  5
112
330
110
100
AcDbEntity
  8
_U+30EC_U+30A4_U+30E4_U+30FC 1
370
     0
100
AcDbVertex
100
AcDb2dVertex
 10
91.80145939545241
 20
-114.240916583853
 30
0.0
  0
VERTEX
  5
113
330
110
100
AcDbEntity
  8
_U+30EC_U+30A4_U+30E4_U+30FC 1
370
     0
100
AcDbVertex
100
AcDb2dVertex
 10
91.56857094064952
 20
-114.240916583853
 30
0.0
  0
VERTEX
  5
114
330
110
100
AcDbEntity
  8
_U+30EC_U+30A4_U+30E4_U+30FC 1
370
     0
100
AcDbVertex
100
AcDb2dVertex
 10
91.56857094064952
 20
-113.8939954684883
 30
0.0
  0
VERTEX
  5
115
330
110
100
AcDbEntity
  8
_U+30EC_U+30A4_U+30E4_U+30FC 1
370
     0
100
AcDbVertex
100
AcDb2dVertex
 10
90.86783851894971
 20
-113.8939954684883
 30
0.0
  0
VERTEX
  5
116
330
110
100
AcDbEntity
  8
_U+30EC_U+30A4_U+30E4_U+30FC 1
370
     0
100
AcDbVertex
100
AcDb2dVertex
 10
90.86783851894971
 20
-113.6697197523985
 30
0.0
  0
VERTEX
  5
117
330
110
100
AcDbEntity
  8
_U+30EC_U+30A4_U+30E4_U+30FC 1
370
     0
100
AcDbVertex
100
AcDb2dVertex
 10
91.59337562814332
 20
-112.6966525325897
 30
0.0
  0
VERTEX
  5
118
330
110
100
AcDbEntity
  8
_U+30EC_U+30A4_U+30E4_U+30FC 1
370
     0
100
AcDbVertex
100
AcDb2dVertex
 10
91.80145939545241
 20
-112.6966525325897
 30
0.0
  0
VERTEX
  5
119
330
110
100
AcDbEntity
  8
_U+30EC_U+30A4_U+30E4_U+30FC 1
370
     0
100
AcDbVertex
100
AcDb2dVertex
 10
91.80145939545241
 20
-113.6950412042151
 30
0.0
  0
VERTEX
  5
11A
330
110
100
AcDbEntity
  8
_U+30EC_U+30A4_U+30E4_U+30FC 1
370
     0
100
AcDbVertex
100
AcDb2dVertex
 10
92.02297903515398
 20
-113.6950412042151
 30
0.0
  0
VERTEX
  5
11B
330
110
100
AcDbEntity
  8
_U+30EC_U+30A4_U+30E4_U+30FC 1
370
     0
100
AcDbVertex
100
AcDb2dVertex
 10
92.02297903515398
 20
-113.8939954684883
 30
0.0
  0
VERTEX
  5
11C
330
110
100
AcDbEntity
  8
_U+30EC_U+30A4_U+30E4_U+30FC 1
370
     0
100
AcDbVertex
100
AcDb2dVertex
 10
91.80145939545241
 20
-113.8939954684883
 30
0.0
  0
SEQEND
  5
11D
330
110
100
AcDbEntity
  8
_U+30EC_U+30A4_U+30E4_U+30FC 1
370
     0
  0
POLYLINE
  5
11E
330
10C
100
AcDbEntity
  8
_U+30EC_U+30A4_U+30E4_U+30FC 1
370
     0
100
AcDb2dPolyline
 66
     1
 10
0.0
 20
0.0
 30
0.0
  0
VERTEX
  5
11F
330
11E
100
AcDbEntity
  8
_U+30EC_U+30A4_U+30E4_U+30FC 1
370
     0
100
AcDbVertex
100
AcDb2dVertex
 10
91.56857094064952
 20
-113.0392672785978
 30
0.0
  0
VERTEX
  5
120
330
11E
100
AcDbEntity
  8
_U+30EC_U+30A4_U+30E4_U+30FC 1
370
     0
100
AcDbVertex
100
AcDb2dVertex
 10
91.08040091038963
 20
-113.6950412042151
 30
0.0
  0
VERTEX
  5
121
330
11E
100
AcDbEntity
  8
_U+30EC_U+30A4_U+30E4_U+30FC 1
370
     0
100
AcDbVertex
100
AcDb2dVertex
 10
91.56857094064952
 20
-113.6950412042151
 30
0.0
  0
VERTEX
  5
122
330
11E
100
AcDbEntity
  8
_U+30EC_U+30A4_U+30E4_U+30FC 1
370
     0
100
AcDbVertex
100
AcDb2dVertex
 10
91.56857094064952
 20
-113.0392672785978
 30
0.0
  0
SEQEND
  5
123
330
11E
100
AcDbEntity
  8
_U+30EC_U+30A4_U+30E4_U+30FC 1
370
     0
  0
HATCH
  5
124
330
10C
100
AcDbEntity
  8
_U+30EC_U+30A4_U+30E4_U+30FC 1
 62
   179
420
  2234388
100
AcDbHatch
 10
0.0
 20
0.0
 30
0.0
210
0.0
220
0.0
230
1.0
  2
SOLID
 70
     1
 71
     0
 91
        2
 92
        1
 93
       11
 72
     1
 10
91.80145939545241
 20
-113.8939954684883
 11
91.80145939545241
 21
-114.240916583853
 72
     1
 10
91.80145939545241
 20
-114.240916583853
 11
91.56857094064952
 21
-114.240916583853
 72
     1
 10
91.56857094064952
 20
-114.240916583853
 11
91.56857094064952
 21
-113.8939954684883
 72
     1
 10
91.56857094064952
 20
-113.8939954684883
 11
90.86783851894971
 21
-113.8939954684883
 72
     1
 10
90.86783851894971
 20
-113.8939954684883
 11
90.86783851894971
 21
-113.6697197523985
 72
     1
 10
90.86783851894971
 20
-113.6697197523985
 11
91.59337562814332
 21
-112.6966525325897
 72
     1
 10
91.59337562814332
 20
-112.6966525325897
 11
91.80145939545241
 21
-112.6966525325897
 72
     1
 10
91.80145939545241
 20
-112.6966525325897
 11
91.80145939545241
 21
-113.6950412042151
 72
     1
 10
91.80145939545241
 20
-113.6950412042151
 11
92.02297903515398
 21
-113.6950412042151
 72
     1
 10
92.02297903515398
 20
-113.6950412042151
 11
92.02297903515398
 21
-113.8939954684883
 72
     1
 10
92.02297903515398
 20
-113.8939954684883
 11
91.80145939545241
 21
-113.8939954684883
 97
        0
 92
        1
 93
        3
 72
     1
 10
91.56857094064952
 20
-113.0392672785978
 11
91.08040091038963
 21
-113.6950412042151
 72
     1
 10
91.08040091038963
 20
-113.6950412042151
 11
91.56857094064952
 21
-113.6950412042151
 72
     1
 10
91.56857094064952
 20
-113.6950412042151
 11
91.56857094064952
 21
-113.0392672785978
 97
        0
 75
     2
 76
     1
 98
        0
  0
SPLINE
  5
125
330
10C
100
AcDbEntity
  8
_U+30EC_U+30A4_U+30E4_U+30FC 1
370
     0
100
AcDbSpline
210
0.0
220
0.0
230
1.0
 70
    11
 71
     3
 72
    29
 73
    25
 74
     0
 42
0.0000000001
 43
0.0000000001
 12
1.0
 22
0.0
 32
0.0
 13
1.0
 23
0.0
 33
0.0
 40
0.0
 40
0.0
 40
0.0
 40
0.0
 40
1.0
 40
1.0
 40
1.0
 40
2.0
 40
2.0
 40
2.0
 40
3.0
 40
3.0
 40
3.0
 40
4.0
 40
4.0
 40
4.0
 40
5.0
 40
5.0
 40
5.0
 40
6.0
 40
6.0
 40
6.0
 40
7.0
 40
7.0
 40
7.0
 40
8.0
 40
8.0
 40
8.0
 40
8.0
 10
93.12954370501623
 20
-114.0631496568141
 30
0.0
 10
93.01413300626037
 20
-114.2726114623173
 30
0.0
 10
92.82878686915392
 20
-114.2917317422604
 30
0.0
 10
92.7044189221364
 20
-114.2917317422604
 30
0.0
 10
92.53250865742243
 20
-114.2917317422604
 30
0.0
 10
92.38092445607144
 20
-114.2452229532095
 30
0.0
 10
92.27929413925656
 20
-114.0631496568141
 30
0.0
 10
92.16836206463152
 20
-113.8685017618975
 30
0.0
 10
92.14803600126855
 20
-113.6316514472865
 30
0.0
 10
92.14803600126855
 20
-113.4686984308342
 30
0.0
 10
92.14803600126855
 20
-113.324865694325
 30
0.0
 10
92.16629500734038
 20
-113.0732014691275
 30
0.0
 10
92.27929413925656
 20
-112.8742472048544
 30
0.0
 10
92.39470483801244
 20
-112.6711588259989
 30
0.0
 10
92.56627059317788
 20
-112.6479044314734
 30
0.0
 10
92.7044189221364
 20
-112.6479044314734
 30
0.0
 10
92.87391762001069
 20
-112.6479044314734
 30
0.0
 10
93.02756887865283
 20
-112.6923461632332
 30
0.0
 10
93.12954370501623
 20
-112.8742472048544
 30
0.0
 10
93.23565264596192
 20
-113.0668280424798
 30
0.0
 10
93.26045733345572
 20
-113.2952378731519
 30
0.0
 10
93.26045733345572
 20
-113.4686984308342
 30
0.0
 10
93.26045733345572
 20
-113.6400919312254
 30
0.0
 10
93.2380642128016
 20
-113.8707410739629
 30
0.0
 10
93.12954370501623
 20
-114.0631496568141
 30
0.0
  0
SPLINE
  5
126
330
10C
100
AcDbEntity
  8
_U+30EC_U+30A4_U+30E4_U+30FC 1
370
     0
100
AcDbSpline
210
0.0
220
0.0
230
1.0
 70
    11
 71
     3
 72
    17
 73
    13
 74
     0
 42
0.0000000001
 43
0.0000000001
 12
1.0
 22
0.0
 32
0.0
 13
1.0
 23
0.0
 33
0.0
 40
0.0
 40
0.0
 40
0.0
 40
0.0
 40
1.0
 40
1.0
 40
1.0
 40
2.0
 40
2.0
 40
2.0
 40
3.0
 40
3.0
 40
3.0
 40
4.0
 40
4.0
 40
4.0
 40
4.0
 10
92.7044189221364
 20
-112.8404852690989
 30
0.0
 10
92.43742402202953
 20
-112.8404852690989
 30
0.0
 10
92.38781464704194
 20
-113.124016627535
 30
0.0
 10
92.38781464704194
 20
-113.4686984308342
 30
0.0
 10
92.38781464704194
 20
-113.7882310370911
 30
0.0
 10
92.42605520692821
 20
-114.0970838473438
 30
0.0
 10
92.7044189221364
 20
-114.0970838473438
 30
0.0
 10
92.96900225540358
 20
-114.0970838473438
 30
0.0
 10
93.02102319723086
 20
-113.8156195461989
 30
0.0
 10
93.02102319723086
 20
-113.4686984308342
 30
0.0
 10
93.02102319723086
 20
-113.1493380793516
 30
0.0
 10
92.98037107050492
 20
-112.8404852690989
 30
0.0
 10
92.7044189221364
 20
-112.8404852690989
 30
0.0
  0
HATCH
  5
127
330
10C
100
AcDbEntity
  8
_U+30EC_U+30A4_U+30E4_U+30FC 1
 62
   179
420
  2234388
100
AcDbHatch
 10
0.0
 20
0.0
 30
0.0
210
0.0
220
0.0
230
1.0
  2
SOLID
 70
     1
 71
     0
 91
        2
 92
        1
 93
        1
 72
     4
 94
        3
 73
     0
 74
     1
 95
       29
 96
       25
 40
0.0
 40
0.0
 40
0.0
 40
0.0
 40
1.0
 40
1.0
 40
1.0
 40
2.0
 40
2.0
 40
2.0
 40
3.0
 40
3.0
 40
3.0
 40
4.0
 40
4.0
 40
4.0
 40
5.0
 40
5.0
 40
5.0
 40
6.0
 40
6.0
 40
6.0
 40
7.0
 40
7.0
 40
7.0
 40
8.0
 40
8.0
 40
8.0
 40
8.0
 10
93.12954370501623
 20
-114.0631496568141
 10
93.01413300626037
 20
-114.2726114623173
 10
92.82878686915392
 20
-114.2917317422604
 10
92.7044189221364
 20
-114.2917317422604
 10
92.53250865742243
 20
-114.2917317422604
 10
92.38092445607144
 20
-114.2452229532095
 10
92.27929413925656
 20
-114.0631496568141
 10
92.16836206463152
 20
-113.8685017618975
 10
92.14803600126855
 20
-113.6316514472865
 10
92.14803600126855
 20
-113.4686984308342
 10
92.14803600126855
 20
-113.324865694325
 10
92.16629500734038
 20
-113.0732014691275
 10
92.27929413925656
 20
-112.8742472048544
 10
92.39470483801244
 20
-112.6711588259989
 10
92.56627059317788
 20
-112.6479044314734
 10
92.7044189221364
 20
-112.6479044314734
 10
92.87391762001069
 20
-112.6479044314734
 10
93.02756887865283
 20
-112.6923461632332
 10
93.12954370501623
 20
-112.8742472048544
 10
93.23565264596192
 20
-113.0668280424798
 10
93.26045733345572
 20
-113.2952378731519
 10
93.26045733345572
 20
-113.4686984308342
 10
93.26045733345572
 20
-113.6400919312254
 10
93.2380642128016
 20
-113.8707410739629
 10
93.12954370501623
 20
-114.0631496568141
 97
        0
 97
        0
 92
        1
 93
        1
 72
     4
 94
        3
 73
     0
 74
     1
 95
       17
 96
       13
 40
0.0
 40
0.0
 40
0.0
 40
0.0
 40
1.0
 40
1.0
 40
1.0
 40
2.0
 40
2.0
 40
2.0
 40
3.0
 40
3.0
 40
3.0
 40
4.0
 40
4.0
 40
4.0
 40
4.0
 10
92.7044189221364
 20
-112.8404852690989
 10
92.43742402202953
 20
-112.8404852690989
 10
92.38781464704194
 20
-113.124016627535
 10
92.38781464704194
 20
-113.4686984308342
 10
92.38781464704194
 20
-113.7882310370911
 10
92.42605520692821
 20
-114.0970838473438
 10
92.7044189221364
 20
-114.0970838473438
 10
92.96900225540358
 20
-114.0970838473438
 10
93.02102319723086
 20
-113.8156195461989
 10
93.02102319723086
 20
-113.4686984308342
 10
93.02102319723086
 20
-113.1493380793516
 10
92.98037107050492
 20
-112.8404852690989
 10
92.7044189221364
 20
-112.8404852690989
 97
        0
 97
        0
 75
     2
 76
     1
 98
        0
  0
ENDBLK
  5
10F
330
10C
100
AcDbEntity
  8
0
100
AcDbBlockEnd
  0
BLOCK
  5
12A
330
128
100
AcDbEntity
  8
0
100
AcDbBlockBegin
  2
block 12
 70
     0
 10
0.0
 20
0.0
 30
0.0
  3
block 12
  1

  0
POLYLINE
  5
12C
330
128
100
AcDbEntity
  8
_U+30EC_U+30A4_U+30E4_U+30FC 1
 62
   179
420
  2234388
370
     9
100
AcDb2dPolyline
 66
     1
 10
0.0
 20
0.0
 30
0.0
  0
VERTEX
  5
12D
330
12C
100
AcDbEntity
  8
_U+30EC_U+30A4_U+30E4_U+30FC 1
 62
   179
420
  2234388
370
     9
100
AcDbVertex
100
AcDb2dVertex
 10
72.0751792723201
 20
-144.8865741304452
 30
0.0
  0
VERTEX
  5
12E
330
12C
100
AcDbEntity
  8
_U+30EC_U+30A4_U+30E4_U+30FC 1
 62
   179
420
  2234388
370
     9
100
AcDbVertex
100
AcDb2dVertex
 10
82.07561762829877
 20
-144.8865741304452
 30
0.0
  0
SEQEND
  5
12F
330
12C
100
AcDbEntity
  8
_U+30EC_U+30A4_U+30E4_U+30FC 1
 62
   179
420
  2234388
370
     9
  0
POLYLINE
  5
130
330
128
100
AcDbEntity
  8
_U+30EC_U+30A4_U+30E4_U+30FC 1
 62
   179
420
  2234388
370
     9
100
AcDb2dPolyline
 66
     1
 10
0.0
 20
0.0
 30
0.0
  0
VERTEX
  5
131
330
130
100
AcDbEntity
  8
_U+30EC_U+30A4_U+30E4_U+30FC 1
 62
   179
420
  2234388
370
     9
100
AcDbVertex
100
AcDb2dVertex
 10
72.0751792723201
 20
-143.426568019699
 30
0.0
  0
VERTEX
  5
132
330
130
100
AcDbEntity
  8
_U+30EC_U+30A4_U+30E4_U+30FC 1
 62
   179
420
  2234388
370
     9
100
AcDbVertex
100
AcDb2dVertex
 10
72.0751792723201
 20
-145.8866991301948
 30
0.0
  0
SEQEND
  5
133
330
130
100
AcDbEntity
  8
_U+30EC_U+30A4_U+30E4_U+30FC 1
 62
   179
420
  2234388
370
     9
  0
POLYLINE
  5
134
330
128
100
AcDbEntity
  8
_U+30EC_U+30A4_U+30E4_U+30FC 1
 62
   179
420
  2234388
370
     9
100
AcDb2dPolyline
 66
     1
 10
0.0
 20
0.0
 30
0.0
  0
VERTEX
  5
135
330
134
100
AcDbEntity
  8
_U+30EC_U+30A4_U+30E4_U+30FC 1
 62
   179
420
  2234388
370
     9
100
AcDbVertex
100
AcDb2dVertex
 10
82.07561762829877
 20
-143.426568019699
 30
0.0
  0
VERTEX
  5
136
330
134
100
AcDbEntity
  8
_U+30EC_U+30A4_U+30E4_U+30FC 1
 62
   179
420
  2234388
370
     9
100
AcDbVertex
100
AcDb2dVertex
 10
82.07561762829877
 20
-145.8866991301948
 30
0.0
  0
SEQEND
  5
137
330
134
100
AcDbEntity
  8
_U+30EC_U+30A4_U+30E4_U+30FC 1
 62
   179
420
  2234388
370
     9
  0
INSERT
  5
139
330
128
100
AcDbEntity
  8
_U+30EC_U+30A4_U+30E4_U+30FC 1
100
AcDbBlockReference
  2
block 13
 10
0.0
 20
0.0
 30
0.0
  0
ENDBLK
  5
12B
330
128
100
AcDbEntity
  8
0
100
AcDbBlockEnd
  0
BLOCK
  5
13A
330
138
100
AcDbEntity
  8
0
100
AcDbBlockBegin
  2
block 13
 70
     0
 10
0.0
 20
0.0
 30
0.0
  3
block 13
  1

  0
SPLINE
  5
13C
330
138
100
AcDbEntity
  8
_U+30EC_U+30A4_U+30E4_U+30FC 1
370
     0
100
AcDbSpline
210
0.0
220
0.0
230
1.0
 70
    11
 71
     3
 72
    26
 73
    22
 74
     0
 42
0.0000000001
 43
0.0000000001
 12
1.0
 22
0.0
 32
0.0
 13
1.0
 23
0.0
 33
0.0
 40
0.0
 40
0.0
 40
0.0
 40
0.0
 40
1.0
 40
1.0
 40
1.0
 40
2.0
 40
2.0
 40
2.0
 40
3.0
 40
3.0
 40
3.0
 40
4.0
 40
4.0
 40
4.0
 40
5.0
 40
5.0
 40
5.0
 40
6.0
 40
6.0
 40
6.0
 40
7.0
 40
7.0
 40
7.0
 40
7.0
 10
76.39464787586662
 20
-144.2409803241828
 30
0.0
 10
76.39464787586662
 20
-144.2409803241828
 30
0.0
 10
76.39464787586662
 20
-143.1368272211602
 30
0.0
 10
76.39464787586662
 20
-143.1368272211602
 30
0.0
 10
76.39464787586662
 20
-143.1368272211602
 30
0.0
 10
76.04187009817704
 20
-143.1368272211602
 30
0.0
 10
76.04187009817704
 20
-143.1368272211602
 30
0.0
 10
76.04187009817704
 20
-143.1368272211602
 30
0.0
 10
76.04187009817704
 20
-142.9886881152945
 30
0.0
 10
76.04187009817704
 20
-142.9886881152945
 30
0.0
 10
76.39688718793204
 20
-142.9738742047079
 30
0.0
 10
76.44666881769389
 20
-142.8109211882556
 30
0.0
 10
76.47836369615818
 20
-142.6965440181453
 30
0.0
 10
76.47836369615818
 20
-142.6965440181453
 30
0.0
 10
76.63425426686574
 20
-142.6965440181453
 30
0.0
 10
76.63425426686574
 20
-142.6965440181453
 30
0.0
 10
76.63425426686574
 20
-142.6965440181453
 30
0.0
 10
76.63425426686574
 20
-144.2409803241828
 30
0.0
 10
76.63425426686574
 20
-144.2409803241828
 30
0.0
 10
76.63425426686574
 20
-144.2409803241828
 30
0.0
 10
76.39464787586662
 20
-144.2409803241828
 30
0.0
 10
76.39464787586662
 20
-144.2409803241828
 30
0.0
  0
HATCH
  5
13D
330
138
100
AcDbEntity
  8
_U+30EC_U+30A4_U+30E4_U+30FC 1
 62
   179
420
  2234388
100
AcDbHatch
 10
0.0
 20
0.0
 30
0.0
210
0.0
220
0.0
230
1.0
  2
SOLID
 70
     1
 71
     0
 91
        1
 92
        1
 93
        1
 72
     4
 94
        3
 73
     0
 74
     1
 95
       26
 96
       22
 40
0.0
 40
0.0
 40
0.0
 40
0.0
 40
1.0
 40
1.0
 40
1.0
 40
2.0
 40
2.0
 40
2.0
 40
3.0
 40
3.0
 40
3.0
 40
4.0
 40
4.0
 40
4.0
 40
5.0
 40
5.0
 40
5.0
 40
6.0
 40
6.0
 40
6.0
 40
7.0
 40
7.0
 40
7.0
 40
7.0
 10
76.39464787586662
 20
-144.2409803241828
 10
76.39464787586662
 20
-144.2409803241828
 10
76.39464787586662
 20
-143.1368272211602
 10
76.39464787586662
 20
-143.1368272211602
 10
76.39464787586662
 20
-143.1368272211602
 10
76.04187009817704
 20
-143.1368272211602
 10
76.04187009817704
 20
-143.1368272211602
 10
76.04187009817704
 20
-143.1368272211602
 10
76.04187009817704
 20
-142.9886881152945
 10
76.04187009817704
 20
-142.9886881152945
 10
76.39688718793204
 20
-142.9738742047079
 10
76.44666881769389
 20
-142.8109211882556
 10
76.47836369615818
 20
-142.6965440181453
 10
76.47836369615818
 20
-142.6965440181453
 10
76.63425426686574
 20
-142.6965440181453
 10
76.63425426686574
 20
-142.6965440181453
 10
76.63425426686574
 20
-142.6965440181453
 10
76.63425426686574
 20
-144.2409803241828
 10
76.63425426686574
 20
-144.2409803241828
 10
76.63425426686574
 20
-144.2409803241828
 10
76.39464787586662
 20
-144.2409803241828
 10
76.39464787586662
 20
-144.2409803241828
 97
        0
 97
        0
 75
     2
 76
     1
 98
        0
  0
SPLINE
  5
13E
330
138
100
AcDbEntity
  8
_U+30EC_U+30A4_U+30E4_U+30FC 1
370
     0
100
AcDbSpline
210
0.0
220
0.0
230
1.0
 70
    11
 71
     3
 72
    29
 73
    25
 74
     0
 42
0.0000000001
 43
0.0000000001
 12
1.0
 22
0.0
 32
0.0
 13
1.0
 23
0.0
 33
0.0
 40
0.0
 40
0.0
 40
0.0
 40
0.0
 40
1.0
 40
1.0
 40
1.0
 40
2.0
 40
2.0
 40
2.0
 40
3.0
 40
3.0
 40
3.0
 40
4.0
 40
4.0
 40
4.0
 40
5.0
 40
5.0
 40
5.0
 40
6.0
 40
6.0
 40
6.0
 40
7.0
 40
7.0
 40
7.0
 40
8.0
 40
8.0
 40
8.0
 40
8.0
 10
78.12942570746418
 20
-144.0632133971439
 30
0.0
 10
78.01418726348257
 20
-144.2726752026471
 30
0.0
 10
77.82884112637613
 20
-144.291623227816
 30
0.0
 10
77.7044731793586
 20
-144.291623227816
 30
0.0
 10
77.53256291464464
 20
-144.291623227816
 30
0.0
 10
77.38115096806791
 20
-144.2451144387651
 30
0.0
 10
77.27934839647878
 20
-144.0632133971439
 30
0.0
 10
77.168588576628
 20
-143.8685655022273
 30
0.0
 10
77.14826251326502
 20
-143.6318874423906
 30
0.0
 10
77.14826251326502
 20
-143.4689344259383
 30
0.0
 10
77.14826251326502
 20
-143.3249294346549
 30
0.0
 10
77.16634926456258
 20
-143.0730929546831
 30
0.0
 10
77.27934839647878
 20
-142.8743109451842
 30
0.0
 10
77.39475909523465
 20
-142.671394821103
 30
0.0
 10
77.56649710517435
 20
-142.6479681718033
 30
0.0
 10
77.7044731793586
 20
-142.6479681718033
 30
0.0
 10
77.8739718772329
 20
-142.6479681718033
 30
0.0
 10
78.0277953906493
 20
-142.692409903563
 30
0.0
 10
78.12942570746418
 20
-142.8743109451842
 30
0.0
 10
78.23570690318414
 20
-143.0668917828097
 30
0.0
 10
78.26051159067794
 20
-143.2953016134817
 30
0.0
 10
78.26051159067794
 20
-143.4689344259383
 30
0.0
 10
78.26051159067794
 20
-143.6401556715552
 30
0.0
 10
78.23794621524955
 20
-143.8706325595185
 30
0.0
 10
78.12942570746418
 20
-144.0632133971439
 30
0.0
  0
SPLINE
  5
13F
330
138
100
AcDbEntity
  8
_U+30EC_U+30A4_U+30E4_U+30FC 1
370
     0
100
AcDbSpline
210
0.0
220
0.0
230
1.0
 70
    11
 71
     3
 72
    17
 73
    13
 74
     0
 42
0.0000000001
 43
0.0000000001
 12
1.0
 22
0.0
 32
0.0
 13
1.0
 23
0.0
 33
0.0
 40
0.0
 40
0.0
 40
0.0
 40
0.0
 40
1.0
 40
1.0
 40
1.0
 40
2.0
 40
2.0
 40
2.0
 40
3.0
 40
3.0
 40
3.0
 40
4.0
 40
4.0
 40
4.0
 40
4.0
 10
77.7044731793586
 20
-142.8405490094288
 30
0.0
 10
77.437650534026
 20
-142.8405490094288
 30
0.0
 10
77.38786890426415
 20
-143.1240803678648
 30
0.0
 10
77.38786890426415
 20
-143.4689344259383
 30
0.0
 10
77.38786890426415
 20
-143.788294777421
 30
0.0
 10
77.42628171892468
 20
-144.0969753328994
 30
0.0
 10
77.7044731793586
 20
-144.0969753328994
 30
0.0
 10
77.96888425785153
 20
-144.0969753328994
 30
0.0
 10
78.02090519967881
 20
-143.815855541303
 30
0.0
 10
78.02090519967881
 20
-143.4689344259383
 30
0.0
 10
78.02090519967881
 20
-143.1492295649071
 30
0.0
 10
77.98025307295286
 20
-142.8405490094288
 30
0.0
 10
77.7044731793586
 20
-142.8405490094288
 30
0.0
  0
HATCH
  5
140
330
138
100
AcDbEntity
  8
_U+30EC_U+30A4_U+30E4_U+30FC 1
 62
   179
420
  2234388
100
AcDbHatch
 10
0.0
 20
0.0
 30
0.0
210
0.0
220
0.0
230
1.0
  2
SOLID
 70
     1
 71
     0
 91
        2
 92
        1
 93
        1
 72
     4
 94
        3
 73
     0
 74
     1
 95
       29
 96
       25
 40
0.0
 40
0.0
 40
0.0
 40
0.0
 40
1.0
 40
1.0
 40
1.0
 40
2.0
 40
2.0
 40
2.0
 40
3.0
 40
3.0
 40
3.0
 40
4.0
 40
4.0
 40
4.0
 40
5.0
 40
5.0
 40
5.0
 40
6.0
 40
6.0
 40
6.0
 40
7.0
 40
7.0
 40
7.0
 40
8.0
 40
8.0
 40
8.0
 40
8.0
 10
78.12942570746418
 20
-144.0632133971439
 10
78.01418726348257
 20
-144.2726752026471
 10
77.82884112637613
 20
-144.291623227816
 10
77.7044731793586
 20
-144.291623227816
 10
77.53256291464464
 20
-144.291623227816
 10
77.38115096806791
 20
-144.2451144387651
 10
77.27934839647878
 20
-144.0632133971439
 10
77.168588576628
 20
-143.8685655022273
 10
77.14826251326502
 20
-143.6318874423906
 10
77.14826251326502
 20
-143.4689344259383
 10
77.14826251326502
 20
-143.3249294346549
 10
77.16634926456258
 20
-143.0730929546831
 10
77.27934839647878
 20
-142.8743109451842
 10
77.39475909523465
 20
-142.671394821103
 10
77.56649710517435
 20
-142.6479681718033
 10
77.7044731793586
 20
-142.6479681718033
 10
77.8739718772329
 20
-142.6479681718033
 10
78.0277953906493
 20
-142.692409903563
 10
78.12942570746418
 20
-142.8743109451842
 10
78.23570690318414
 20
-143.0668917828097
 10
78.26051159067794
 20
-143.2953016134817
 10
78.26051159067794
 20
-143.4689344259383
 10
78.26051159067794
 20
-143.6401556715552
 10
78.23794621524955
 20
-143.8706325595185
 10
78.12942570746418
 20
-144.0632133971439
 97
        0
 97
        0
 92
        1
 93
        1
 72
     4
 94
        3
 73
     0
 74
     1
 95
       17
 96
       13
 40
0.0
 40
0.0
 40
0.0
 40
0.0
 40
1.0
 40
1.0
 40
1.0
 40
2.0
 40
2.0
 40
2.0
 40
3.0
 40
3.0
 40
3.0
 40
4.0
 40
4.0
 40
4.0
 40
4.0
 10
77.7044731793586
 20
-142.8405490094288
 10
77.437650534026
 20
-142.8405490094288
 10
77.38786890426415
 20
-143.1240803678648
 10
77.38786890426415
 20
-143.4689344259383
 10
77.38786890426415
 20
-143.788294777421
 10
77.42628171892468
 20
-144.0969753328994
 10
77.7044731793586
 20
-144.0969753328994
 10
77.96888425785153
 20
-144.0969753328994
 10
78.02090519967881
 20
-143.815855541303
 10
78.02090519967881
 20
-143.4689344259383
 10
78.02090519967881
 20
-143.1492295649071
 10
77.98025307295286
 20
-142.8405490094288
 10
77.7044731793586
 20
-142.8405490094288
 97
        0
 97
        0
 75
     2
 76
     1
 98
        0
  0
ENDBLK
  5
13B
330
138
100
AcDbEntity
  8
0
100
AcDbBlockEnd
  0
BLOCK
  5
148
330
146
100
AcDbEntity
  8
0
100
AcDbBlockBegin
  2
block 14
 70
     0
 10
0.0
 20
0.0
 30
0.0
  3
block 14
  1

  0
SPLINE
  5
14A
330
146
100
AcDbEntity
  8
_U+30EC_U+30A4_U+30E4_U+30FC 1
370
     0
100
AcDbSpline
210
0.0
220
0.0
230
1.0
 70
    11
 71
     3
 72
    26
 73
    22
 74
     0
 42
0.0000000001
 43
0.0000000001
 12
1.0
 22
0.0
 32
0.0
 13
1.0
 23
0.0
 33
0.0
 40
0.0
 40
0.0
 40
0.0
 40
0.0
 40
1.0
 40
1.0
 40
1.0
 40
2.0
 40
2.0
 40
2.0
 40
3.0
 40
3.0
 40
3.0
 40
4.0
 40
4.0
 40
4.0
 40
5.0
 40
5.0
 40
5.0
 40
6.0
 40
6.0
 40
6.0
 40
7.0
 40
7.0
 40
7.0
 40
7.0
 10
115.37555878192
 20
-128.9991888783405
 30
0.0
 10
115.37555878192
 20
-128.9991888783405
 30
0.0
 10
114.2714056788974
 20
-128.9991888783405
 30
0.0
 10
114.2714056788974
 20
-128.9991888783405
 30
0.0
 10
114.2714056788974
 20
-128.9991888783405
 30
0.0
 10
114.2714056788974
 20
-129.3516221464815
 30
0.0
 10
114.2714056788974
 20
-129.3516221464815
 30
0.0
 10
114.2714056788974
 20
-129.3516221464815
 30
0.0
 10
114.1232665730317
 20
-129.3516221464815
 30
0.0
 10
114.1232665730317
 20
-129.3516221464815
 30
0.0
 10
114.1084526624451
 20
-128.9967773115008
 30
0.0
 10
113.9454996459928
 20
-128.9471679365132
 30
0.0
 10
113.8311224758825
 20
-128.9154730580489
 30
0.0
 10
113.8311224758825
 20
-128.9154730580489
 30
0.0
 10
113.8311224758825
 20
-128.7594102325671
 30
0.0
 10
113.8311224758825
 20
-128.7594102325671
 30
0.0
 10
113.8311224758825
 20
-128.7594102325671
 30
0.0
 10
115.37555878192
 20
-128.7594102325671
 30
0.0
 10
115.37555878192
 20
-128.7594102325671
 30
0.0
 10
115.37555878192
 20
-128.7594102325671
 30
0.0
 10
115.37555878192
 20
-128.9991888783405
 30
0.0
 10
115.37555878192
 20
-128.9991888783405
 30
0.0
  0
HATCH
  5
14B
330
146
100
AcDbEntity
  8
_U+30EC_U+30A4_U+30E4_U+30FC 1
 62
     7
420
 16777215
100
AcDbHatch
 10
0.0
 20
0.0
 30
0.0
210
0.0
220
0.0
230
1.0
  2
SOLID
 70
     1
 71
     0
 91
        1
 92
        1
 93
        1
 72
     4
 94
        3
 73
     0
 74
     1
 95
       26
 96
       22
 40
0.0
 40
0.0
 40
0.0
 40
0.0
 40
1.0
 40
1.0
 40
1.0
 40
2.0
 40
2.0
 40
2.0
 40
3.0
 40
3.0
 40
3.0
 40
4.0
 40
4.0
 40
4.0
 40
5.0
 40
5.0
 40
5.0
 40
6.0
 40
6.0
 40
6.0
 40
7.0
 40
7.0
 40
7.0
 40
7.0
 10
115.37555878192
 20
-128.9991888783405
 10
115.37555878192
 20
-128.9991888783405
 10
114.2714056788974
 20
-128.9991888783405
 10
114.2714056788974
 20
-128.9991888783405
 10
114.2714056788974
 20
-128.9991888783405
 10
114.2714056788974
 20
-129.3516221464815
 10
114.2714056788974
 20
-129.3516221464815
 10
114.2714056788974
 20
-129.3516221464815
 10
114.1232665730317
 20
-129.3516221464815
 10
114.1232665730317
 20
-129.3516221464815
 10
114.1084526624451
 20
-128.9967773115008
 10
113.9454996459928
 20
-128.9471679365132
 10
113.8311224758825
 20
-128.9154730580489
 10
113.8311224758825
 20
-128.9154730580489
 10
113.8311224758825
 20
-128.7594102325671
 10
113.8311224758825
 20
-128.7594102325671
 10
113.8311224758825
 20
-128.7594102325671
 10
115.37555878192
 20
-128.7594102325671
 10
115.37555878192
 20
-128.7594102325671
 10
115.37555878192
 20
-128.7594102325671
 10
115.37555878192
 20
-128.9991888783405
 10
115.37555878192
 20
-128.9991888783405
 97
        0
 97
        0
 75
     2
 76
     1
 98
        0
  0
ENDBLK
  5
149
330
146
100
AcDbEntity
  8
0
100
AcDbBlockEnd
  0
ENDSEC
  0
SECTION
  2
ENTITIES
  0
POLYLINE
  5
41
330
1F
100
AcDbEntity
  8
_U+30EC_U+30A4_U+30E4_U+30FC 1
370
     0
100
AcDb2dPolyline
 66
     1
 10
0.0
 20
0.0
 30
0.0
  0
VERTEX
  5
42
330
41
100
AcDbEntity
  8
_U+30EC_U+30A4_U+30E4_U+30FC 1
370
     0
100
AcDbVertex
100
AcDb2dVertex
 10
72.97539758268695
 20
-123.8866655245838
 30
0.0
  0
VERTEX
  5
43
330
41
100
AcDbEntity
  8
_U+30EC_U+30A4_U+30E4_U+30FC 1
370
     0
100
AcDbVertex
100
AcDb2dVertex
 10
75.0751661402285
 20
-123.8866655245838
 30
0.0
  0
VERTEX
  5
44
330
41
100
AcDbEntity
  8
_U+30EC_U+30A4_U+30E4_U+30FC 1
370
     0
100
AcDbVertex
100
AcDb2dVertex
 10
75.0751661402285
 20
-122.8868933026116
 30
0.0
  0
VERTEX
  5
45
330
41
100
AcDbEntity
  8
_U+30EC_U+30A4_U+30E4_U+30FC 1
370
     0
100
AcDbVertex
100
AcDb2dVertex
 10
72.0751792723201
 20
-122.8868933026116
 30
0.0
  0
VERTEX
  5
46
330
41
100
AcDbEntity
  8
_U+30EC_U+30A4_U+30E4_U+30FC 1
370
     0
100
AcDbVertex
100
AcDb2dVertex
 10
72.0751792723201
 20
-140.8868502425558
 30
0.0
  0
VERTEX
  5
47
330
41
100
AcDbEntity
  8
_U+30EC_U+30A4_U+30E4_U+30FC 1
370
     0
100
AcDbVertex
100
AcDb2dVertex
 10
82.07561762829877
 20
-140.8868502425558
 30
0.0
  0
VERTEX
  5
48
330
41
100
AcDbEntity
  8
_U+30EC_U+30A4_U+30E4_U+30FC 1
370
     0
100
AcDbVertex
100
AcDb2dVertex
 10
82.07561762829877
 20
-137.8868632988615
 30
0.0
  0
VERTEX
  5
49
330
41
100
AcDbEntity
  8
_U+30EC_U+30A4_U+30E4_U+30FC 1
370
     0
100
AcDbVertex
100
AcDb2dVertex
 10
79.07563076039037
 20
-137.8868632988615
 30
0.0
  0
VERTEX
  5
4A
330
41
100
AcDbEntity
  8
_U+30EC_U+30A4_U+30E4_U+30FC 1
370
     0
100
AcDbVertex
100
AcDb2dVertex
 10
79.07563076039037
 20
-138.8866002430559
 30
0.0
  0
VERTEX
  5
4B
330
41
100
AcDbEntity
  8
_U+30EC_U+30A4_U+30E4_U+30FC 1
370
     0
100
AcDbVertex
100
AcDb2dVertex
 10
81.07513987604531
 20
-138.8866002430559
 30
0.0
  0
VERTEX
  5
4C
330
41
100
AcDbEntity
  8
_U+30EC_U+30A4_U+30E4_U+30FC 1
370
     0
100
AcDbVertex
100
AcDb2dVertex
 10
81.07513987604531
 20
-139.8867252428062
 30
0.0
  0
VERTEX
  5
4D
330
41
100
AcDbEntity
  8
_U+30EC_U+30A4_U+30E4_U+30FC 1
370
     0
100
AcDbVertex
100
AcDb2dVertex
 10
72.97539758268695
 20
-139.8867252428062
 30
0.0
  0
VERTEX
  5
4E
330
41
100
AcDbEntity
  8
_U+30EC_U+30A4_U+30E4_U+30FC 1
370
     0
100
AcDbVertex
100
AcDb2dVertex
 10
72.97539758268695
 20
-130.8867644117225
 30
0.0
  0
VERTEX
  5
4F
330
41
100
AcDbEntity
  8
_U+30EC_U+30A4_U+30E4_U+30FC 1
370
     0
100
AcDbVertex
100
AcDb2dVertex
 10
112.0751688073909
 20
-130.8867644117225
 30
0.0
  0
VERTEX
  5
50
330
41
100
AcDbEntity
  8
_U+30EC_U+30A4_U+30E4_U+30FC 1
370
     0
100
AcDbVertex
100
AcDb2dVertex
 10
112.0751688073909
 20
-129.9865460786145
 30
0.0
  0
VERTEX
  5
51
330
41
100
AcDbEntity
  8
_U+30EC_U+30A4_U+30E4_U+30FC 1
370
     0
100
AcDbVertex
100
AcDb2dVertex
 10
72.97539758268695
 20
-129.9865460786145
 30
0.0
  0
VERTEX
  5
52
330
41
100
AcDbEntity
  8
_U+30EC_U+30A4_U+30E4_U+30FC 1
370
     0
100
AcDbVertex
100
AcDb2dVertex
 10
72.97539758268695
 20
-123.8866655245838
 30
0.0
  0
SEQEND
  5
54
330
41
100
AcDbEntity
  8
_U+30EC_U+30A4_U+30E4_U+30FC 1
370
     0
  0
HATCH
  5
53
330
1F
100
AcDbEntity
  8
_U+30EC_U+30A4_U+30E4_U+30FC 1
 62
   253
420
 11711154
100
AcDbHatch
 10
0.0
 20
0.0
 30
0.0
210
0.0
220
0.0
230
1.0
  2
SOLID
 70
     1
 71
     0
 91
        1
 92
        1
 93
       16
 72
     1
 10
72.97539758268695
 20
-123.8866655245838
 11
75.0751661402285
 21
-123.8866655245838
 72
     1
 10
75.0751661402285
 20
-123.8866655245838
 11
75.0751661402285
 21
-122.8868933026116
 72
     1
 10
75.0751661402285
 20
-122.8868933026116
 11
72.0751792723201
 21
-122.8868933026116
 72
     1
 10
72.0751792723201
 20
-122.8868933026116
 11
72.0751792723201
 21
-140.8868502425558
 72
     1
 10
72.0751792723201
 20
-140.8868502425558
 11
82.07561762829877
 21
-140.8868502425558
 72
     1
 10
82.07561762829877
 20
-140.8868502425558
 11
82.07561762829877
 21
-137.8868632988615
 72
     1
 10
82.07561762829877
 20
-137.8868632988615
 11
79.07563076039037
 21
-137.8868632988615
 72
     1
 10
79.07563076039037
 20
-137.8868632988615
 11
79.07563076039037
 21
-138.8866002430559
 72
     1
 10
79.07563076039037
 20
-138.8866002430559
 11
81.07513987604531
 21
-138.8866002430559
 72
     1
 10
81.07513987604531
 20
-138.8866002430559
 11
81.07513987604531
 21
-139.8867252428062
 72
     1
 10
81.07513987604531
 20
-139.8867252428062
 11
72.97539758268695
 21
-139.8867252428062
 72
     1
 10
72.97539758268695
 20
-139.8867252428062
 11
72.97539758268695
 21
-130.8867644117225
 72
     1
 10
72.97539758268695
 20
-130.8867644117225
 11
112.0751688073909
 21
-130.8867644117225
 72
     1
 10
112.0751688073909
 20
-130.8867644117225
 11
112.0751688073909
 21
-129.9865460786145
 72
     1
 10
112.0751688073909
 20
-129.9865460786145
 11
72.97539758268695
 21
-129.9865460786145
 72
     1
 10
72.97539758268695
 20
-129.9865460786145
 11
72.97539758268695
 21
-123.8866655245838
 97
        0
 75
     2
 76
     1
 98
        0
  0
POLYLINE
  5
55
330
1F
100
AcDbEntity
  8
_U+30EC_U+30A4_U+30E4_U+30FC 1
 62
   179
420
  2234388
370
    25
100
AcDb2dPolyline
 66
     1
 10
0.0
 20
0.0
 30
0.0
  0
VERTEX
  5
56
330
55
100
AcDbEntity
  8
_U+30EC_U+30A4_U+30E4_U+30FC 1
 62
   179
420
  2234388
370
    25
100
AcDbVertex
100
AcDb2dVertex
 10
72.97539758268695
 20
-130.8867644117225
 30
0.0
  0
VERTEX
  5
57
330
55
100
AcDbEntity
  8
_U+30EC_U+30A4_U+30E4_U+30FC 1
 62
   179
420
  2234388
370
    25
100
AcDbVertex
100
AcDb2dVertex
 10
112.0751688073909
 20
-130.8867644117225
 30
0.0
  0
SEQEND
  5
58
330
55
100
AcDbEntity
  8
_U+30EC_U+30A4_U+30E4_U+30FC 1
 62
   179
420
  2234388
370
    25
  0
POLYLINE
  5
59
330
1F
100
AcDbEntity
  8
_U+30EC_U+30A4_U+30E4_U+30FC 1
 62
   179
420
  2234388
370
    25
100
AcDb2dPolyline
 66
     1
 10
0.0
 20
0.0
 30
0.0
  0
VERTEX
  5
5A
330
59
100
AcDbEntity
  8
_U+30EC_U+30A4_U+30E4_U+30FC 1
 62
   179
420
  2234388
370
    25
100
AcDbVertex
100
AcDb2dVertex
 10
79.07563076039037
 20
-137.8868632988615
 30
0.0
  0
VERTEX
  5
5B
330
59
100
AcDbEntity
  8
_U+30EC_U+30A4_U+30E4_U+30FC 1
 62
   179
420
  2234388
370
    25
100
AcDbVertex
100
AcDb2dVertex
 10
82.07561762829877
 20
-137.8868632988615
 30
0.0
  0
SEQEND
  5
5C
330
59
100
AcDbEntity
  8
_U+30EC_U+30A4_U+30E4_U+30FC 1
 62
   179
420
  2234388
370
    25
  0
POLYLINE
  5
5D
330
1F
100
AcDbEntity
  8
_U+30EC_U+30A4_U+30E4_U+30FC 1
 62
   179
420
  2234388
370
    25
100
AcDb2dPolyline
 66
     1
 10
0.0
 20
0.0
 30
0.0
  0
VERTEX
  5
5E
330
5D
100
AcDbEntity
  8
_U+30EC_U+30A4_U+30E4_U+30FC 1
 62
   179
420
  2234388
370
    25
100
AcDbVertex
100
AcDb2dVertex
 10
72.0751792723201
 20
-140.8868502425558
 30
0.0
  0
VERTEX
  5
5F
330
5D
100
AcDbEntity
  8
_U+30EC_U+30A4_U+30E4_U+30FC 1
 62
   179
420
  2234388
370
    25
100
AcDbVertex
100
AcDb2dVertex
 10
82.07561762829877
 20
-140.8868502425558
 30
0.0
  0
SEQEND
  5
60
330
5D
100
AcDbEntity
  8
_U+30EC_U+30A4_U+30E4_U+30FC 1
 62
   179
420
  2234388
370
    25
  0
POLYLINE
  5
61
330
1F
100
AcDbEntity
  8
_U+30EC_U+30A4_U+30E4_U+30FC 1
 62
   179
420
  2234388
370
    25
100
AcDb2dPolyline
 66
     1
 10
0.0
 20
0.0
 30
0.0
  0
VERTEX
  5
62
330
61
100
AcDbEntity
  8
_U+30EC_U+30A4_U+30E4_U+30FC 1
 62
   179
420
  2234388
370
    25
100
AcDbVertex
100
AcDb2dVertex
 10
72.0751792723201
 20
-122.8868933026116
 30
0.0
  0
VERTEX
  5
63
330
61
100
AcDbEntity
  8
_U+30EC_U+30A4_U+30E4_U+30FC 1
 62
   179
420
  2234388
370
    25
100
AcDbVertex
100
AcDb2dVertex
 10
72.0751792723201
 20
-140.8868502425558
 30
0.0
  0
SEQEND
  5
64
330
61
100
AcDbEntity
  8
_U+30EC_U+30A4_U+30E4_U+30FC 1
 62
   179
420
  2234388
370
    25
  0
POLYLINE
  5
65
330
1F
100
AcDbEntity
  8
_U+30EC_U+30A4_U+30E4_U+30FC 1
 62
   179
420
  2234388
370
    25
100
AcDb2dPolyline
 66
     1
 10
0.0
 20
0.0
 30
0.0
  0
VERTEX
  5
66
330
65
100
AcDbEntity
  8
_U+30EC_U+30A4_U+30E4_U+30FC 1
 62
   179
420
  2234388
370
    25
100
AcDbVertex
100
AcDb2dVertex
 10
112.0751688073909
 20
-129.9865460786145
 30
0.0
  0
VERTEX
  5
67
330
65
100
AcDbEntity
  8
_U+30EC_U+30A4_U+30E4_U+30FC 1
 62
   179
420
  2234388
370
    25
100
AcDbVertex
100
AcDb2dVertex
 10
112.0751688073909
 20
-130.8867644117225
 30
0.0
  0
SEQEND
  5
68
330
65
100
AcDbEntity
  8
_U+30EC_U+30A4_U+30E4_U+30FC 1
 62
   179
420
  2234388
370
    25
  0
POLYLINE
  5
69
330
1F
100
AcDbEntity
  8
_U+30EC_U+30A4_U+30E4_U+30FC 1
 62
   179
420
  2234388
370
    25
100
AcDb2dPolyline
 66
     1
 10
0.0
 20
0.0
 30
0.0
  0
VERTEX
  5
6A
330
69
100
AcDbEntity
  8
_U+30EC_U+30A4_U+30E4_U+30FC 1
 62
   179
420
  2234388
370
    25
100
AcDbVertex
100
AcDb2dVertex
 10
72.0751792723201
 20
-122.8868933026116
 30
0.0
  0
VERTEX
  5
6B
330
69
100
AcDbEntity
  8
_U+30EC_U+30A4_U+30E4_U+30FC 1
 62
   179
420
  2234388
370
    25
100
AcDbVertex
100
AcDb2dVertex
 10
75.0751661402285
 20
-122.8868933026116
 30
0.0
  0
SEQEND
  5
6C
330
69
100
AcDbEntity
  8
_U+30EC_U+30A4_U+30E4_U+30FC 1
 62
   179
420
  2234388
370
    25
  0
POLYLINE
  5
6D
330
1F
100
AcDbEntity
  8
_U+30EC_U+30A4_U+30E4_U+30FC 1
 62
   179
420
  2234388
370
    25
100
AcDb2dPolyline
 66
     1
 10
0.0
 20
0.0
 30
0.0
  0
VERTEX
  5
6E
330
6D
100
AcDbEntity
  8
_U+30EC_U+30A4_U+30E4_U+30FC 1
 62
   179
420
  2234388
370
    25
100
AcDbVertex
100
AcDb2dVertex
 10
75.0751661402285
 20
-122.8868933026116
 30
0.0
  0
VERTEX
  5
6F
330
6D
100
AcDbEntity
  8
_U+30EC_U+30A4_U+30E4_U+30FC 1
 62
   179
420
  2234388
370
    25
100
AcDbVertex
100
AcDb2dVertex
 10
75.0751661402285
 20
-123.8866655245838
 30
0.0
  0
SEQEND
  5
70
330
6D
100
AcDbEntity
  8
_U+30EC_U+30A4_U+30E4_U+30FC 1
 62
   179
420
  2234388
370
    25
  0
POLYLINE
  5
71
330
1F
100
AcDbEntity
  8
_U+30EC_U+30A4_U+30E4_U+30FC 1
 62
   179
420
  2234388
370
    25
100
AcDb2dPolyline
 66
     1
 10
0.0
 20
0.0
 30
0.0
  0
VERTEX
  5
72
330
71
100
AcDbEntity
  8
_U+30EC_U+30A4_U+30E4_U+30FC 1
 62
   179
420
  2234388
370
    25
100
AcDbVertex
100
AcDb2dVertex
 10
72.97539758268695
 20
-123.8866655245838
 30
0.0
  0
VERTEX
  5
73
330
71
100
AcDbEntity
  8
_U+30EC_U+30A4_U+30E4_U+30FC 1
 62
   179
420
  2234388
370
    25
100
AcDbVertex
100
AcDb2dVertex
 10
75.0751661402285
 20
-123.8866655245838
 30
0.0
  0
SEQEND
  5
74
330
71
100
AcDbEntity
  8
_U+30EC_U+30A4_U+30E4_U+30FC 1
 62
   179
420
  2234388
370
    25
  0
POLYLINE
  5
75
330
1F
100
AcDbEntity
  8
_U+30EC_U+30A4_U+30E4_U+30FC 1
 62
   179
420
  2234388
370
    25
100
AcDb2dPolyline
 66
     1
 10
0.0
 20
0.0
 30
0.0
  0
VERTEX
  5
76
330
75
100
AcDbEntity
  8
_U+30EC_U+30A4_U+30E4_U+30FC 1
 62
   179
420
  2234388
370
    25
100
AcDbVertex
100
AcDb2dVertex
 10
82.07561762829877
 20
-137.8868632988615
 30
0.0
  0
VERTEX
  5
77
330
75
100
AcDbEntity
  8
_U+30EC_U+30A4_U+30E4_U+30FC 1
 62
   179
420
  2234388
370
    25
100
AcDbVertex
100
AcDb2dVertex
 10
82.07561762829877
 20
-140.8868502425558
 30
0.0
  0
SEQEND
  5
78
330
75
100
AcDbEntity
  8
_U+30EC_U+30A4_U+30E4_U+30FC 1
 62
   179
420
  2234388
370
    25
  0
POLYLINE
  5
79
330
1F
100
AcDbEntity
  8
_U+30EC_U+30A4_U+30E4_U+30FC 1
 62
   179
420
  2234388
370
    25
100
AcDb2dPolyline
 66
     1
 10
0.0
 20
0.0
 30
0.0
  0
VERTEX
  5
7A
330
79
100
AcDbEntity
  8
_U+30EC_U+30A4_U+30E4_U+30FC 1
 62
   179
420
  2234388
370
    25
100
AcDbVertex
100
AcDb2dVertex
 10
79.07563076039037
 20
-137.8868632988615
 30
0.0
  0
VERTEX
  5
7B
330
79
100
AcDbEntity
  8
_U+30EC_U+30A4_U+30E4_U+30FC 1
 62
   179
420
  2234388
370
    25
100
AcDbVertex
100
AcDb2dVertex
 10
79.07563076039037
 20
-138.8866002430559
 30
0.0
  0
SEQEND
  5
7C
330
79
100
AcDbEntity
  8
_U+30EC_U+30A4_U+30E4_U+30FC 1
 62
   179
420
  2234388
370
    25
  0
POLYLINE
  5
7D
330
1F
100
AcDbEntity
  8
_U+30EC_U+30A4_U+30E4_U+30FC 1
 62
   179
420
  2234388
370
    25
100
AcDb2dPolyline
 66
     1
 10
0.0
 20
0.0
 30
0.0
  0
VERTEX
  5
7E
330
7D
100
AcDbEntity
  8
_U+30EC_U+30A4_U+30E4_U+30FC 1
 62
   179
420
  2234388
370
    25
100
AcDbVertex
100
AcDb2dVertex
 10
79.07563076039037
 20
-138.8866002430559
 30
0.0
  0
VERTEX
  5
7F
330
7D
100
AcDbEntity
  8
_U+30EC_U+30A4_U+30E4_U+30FC 1
 62
   179
420
  2234388
370
    25
100
AcDbVertex
100
AcDb2dVertex
 10
81.07513987604531
 20
-138.8866002430559
 30
0.0
  0
SEQEND
  5
80
330
7D
100
AcDbEntity
  8
_U+30EC_U+30A4_U+30E4_U+30FC 1
 62
   179
420
  2234388
370
    25
  0
POLYLINE
  5
81
330
1F
100
AcDbEntity
  8
_U+30EC_U+30A4_U+30E4_U+30FC 1
 62
   179
420
  2234388
370
    25
100
AcDb2dPolyline
 66
     1
 10
0.0
 20
0.0
 30
0.0
  0
VERTEX
  5
82
330
81
100
AcDbEntity
  8
_U+30EC_U+30A4_U+30E4_U+30FC 1
 62
   179
420
  2234388
370
    25
100
AcDbVertex
100
AcDb2dVertex
 10
72.97539758268695
 20
-139.8867252428062
 30
0.0
  0
VERTEX
  5
83
330
81
100
AcDbEntity
  8
_U+30EC_U+30A4_U+30E4_U+30FC 1
 62
   179
420
  2234388
370
    25
100
AcDbVertex
100
AcDb2dVertex
 10
81.07513987604531
 20
-139.8867252428062
 30
0.0
  0
SEQEND
  5
84
330
81
100
AcDbEntity
  8
_U+30EC_U+30A4_U+30E4_U+30FC 1
 62
   179
420
  2234388
370
    25
  0
POLYLINE
  5
85
330
1F
100
AcDbEntity
  8
_U+30EC_U+30A4_U+30E4_U+30FC 1
 62
   179
420
  2234388
370
    25
100
AcDb2dPolyline
 66
     1
 10
0.0
 20
0.0
 30
0.0
  0
VERTEX
  5
86
330
85
100
AcDbEntity
  8
_U+30EC_U+30A4_U+30E4_U+30FC 1
 62
   179
420
  2234388
370
    25
100
AcDbVertex
100
AcDb2dVertex
 10
81.07513987604531
 20
-138.8866002430559
 30
0.0
  0
VERTEX
  5
87
330
85
100
AcDbEntity
  8
_U+30EC_U+30A4_U+30E4_U+30FC 1
 62
   179
420
  2234388
370
    25
100
AcDbVertex
100
AcDb2dVertex
 10
81.07513987604531
 20
-139.8867252428062
 30
0.0
  0
SEQEND
  5
88
330
85
100
AcDbEntity
  8
_U+30EC_U+30A4_U+30E4_U+30FC 1
 62
   179
420
  2234388
370
    25
  0
POLYLINE
  5
89
330
1F
100
AcDbEntity
  8
_U+30EC_U+30A4_U+30E4_U+30FC 1
 62
   179
420
  2234388
370
    25
100
AcDb2dPolyline
 66
     1
 10
0.0
 20
0.0
 30
0.0
  0
VERTEX
  5
8A
330
89
100
AcDbEntity
  8
_U+30EC_U+30A4_U+30E4_U+30FC 1
 62
   179
420
  2234388
370
    25
100
AcDbVertex
100
AcDb2dVertex
 10
72.97539758268695
 20
-129.9865460786145
 30
0.0
  0
VERTEX
  5
8B
330
89
100
AcDbEntity
  8
_U+30EC_U+30A4_U+30E4_U+30FC 1
 62
   179
420
  2234388
370
    25
100
AcDbVertex
100
AcDb2dVertex
 10
112.0751688073909
 20
-129.9865460786145
 30
0.0
  0
SEQEND
  5
8C
330
89
100
AcDbEntity
  8
_U+30EC_U+30A4_U+30E4_U+30FC 1
 62
   179
420
  2234388
370
    25
  0
POLYLINE
  5
8D
330
1F
100
AcDbEntity
  8
_U+30EC_U+30A4_U+30E4_U+30FC 1
 62
   179
420
  2234388
370
    25
100
AcDb2dPolyline
 66
     1
 10
0.0
 20
0.0
 30
0.0
  0
VERTEX
  5
8E
330
8D
100
AcDbEntity
  8
_U+30EC_U+30A4_U+30E4_U+30FC 1
 62
   179
420
  2234388
370
    25
100
AcDbVertex
100
AcDb2dVertex
 10
72.97539758268695
 20
-123.8866655245838
 30
0.0
  0
VERTEX
  5
8F
330
8D
100
AcDbEntity
  8
_U+30EC_U+30A4_U+30E4_U+30FC 1
 62
   179
420
  2234388
370
    25
100
AcDbVertex
100
AcDb2dVertex
 10
72.97539758268695
 20
-129.9865460786145
 30
0.0
  0
SEQEND
  5
90
330
8D
100
AcDbEntity
  8
_U+30EC_U+30A4_U+30E4_U+30FC 1
 62
   179
420
  2234388
370
    25
  0
POLYLINE
  5
91
330
1F
100
AcDbEntity
  8
_U+30EC_U+30A4_U+30E4_U+30FC 1
 62
   179
420
  2234388
370
    25
100
AcDb2dPolyline
 66
     1
 10
0.0
 20
0.0
 30
0.0
  0
VERTEX
  5
92
330
91
100
AcDbEntity
  8
_U+30EC_U+30A4_U+30E4_U+30FC 1
 62
   179
420
  2234388
370
    25
100
AcDbVertex
100
AcDb2dVertex
 10
72.97539758268695
 20
-130.8867644117225
 30
0.0
  0
VERTEX
  5
93
330
91
100
AcDbEntity
  8
_U+30EC_U+30A4_U+30E4_U+30FC 1
 62
   179
420
  2234388
370
    25
100
AcDbVertex
100
AcDb2dVertex
 10
72.97539758268695
 20
-139.8867252428062
 30
0.0
  0
SEQEND
  5
94
330
91
100
AcDbEntity
  8
_U+30EC_U+30A4_U+30E4_U+30FC 1
 62
   179
420
  2234388
370
    25
  0
SPLINE
  5
95
330
1F
100
AcDbEntity
  8
_U+30EC_U+30A4_U+30E4_U+30FC 1
 62
   179
420
  2234388
370
     9
100
AcDbSpline
210
0.0
220
0.0
230
1.0
 70
    11
 71
     3
 72
    17
 73
    13
 74
     0
 42
0.0000000001
 43
0.0000000001
 12
1.0
 22
0.0
 32
0.0
 13
1.0
 23
0.0
 33
0.0
 40
0.0
 40
0.0
 40
0.0
 40
0.0
 40
1.0
 40
1.0
 40
1.0
 40
2.0
 40
2.0
 40
2.0
 40
3.0
 40
3.0
 40
3.0
 40
4.0
 40
4.0
 40
4.0
 40
4.0
 10
72.1754387142067
 20
-114.8867046935005
 30
0.0
 10
72.1754387142067
 20
-114.8313891379588
 30
0.0
 10
72.13063593757195
 20
-114.7867980268588
 30
0.0
 10
72.0751792723201
 20
-114.7867980268588
 30
0.0
 10
72.02007538483703
 20
-114.7867980268588
 30
0.0
 10
71.97527260820226
 20
-114.8313891379588
 30
0.0
 10
71.97527260820226
 20
-114.8867046935005
 30
0.0
 10
71.97527260820226
 20
-114.9419849712646
 30
0.0
 10
72.02007538483703
 20
-114.986787749031
 30
0.0
 10
72.0751792723201
 20
-114.986787749031
 30
0.0
 10
72.13063593757195
 20
-114.986787749031
 30
0.0
 10
72.1754387142067
 20
-114.9419849712646
 30
0.0
 10
72.1754387142067
 20
-114.8867046935005
 30
0.0
  0
SPLINE
  5
96
330
1F
100
AcDbEntity
  8
_U+30EC_U+30A4_U+30E4_U+30FC 1
 62
   179
420
  2234388
370
     9
100
AcDbSpline
210
0.0
220
0.0
230
1.0
 70
    11
 71
     3
 72
    17
 73
    13
 74
     0
 42
0.0000000001
 43
0.0000000001
 12
1.0
 22
0.0
 32
0.0
 13
1.0
 23
0.0
 33
0.0
 40
0.0
 40
0.0
 40
0.0
 40
0.0
 40
1.0
 40
1.0
 40
1.0
 40
2.0
 40
2.0
 40
2.0
 40
3.0
 40
3.0
 40
3.0
 40
4.0
 40
4.0
 40
4.0
 40
4.0
 10
72.1754387142067
 20
-118.8868166369451
 30
0.0
 10
72.1754387142067
 20
-118.8313246925143
 30
0.0
 10
72.13063593757195
 20
-118.7865571925257
 30
0.0
 10
72.0751792723201
 20
-118.7865571925257
 30
0.0
 10
72.02007538483703
 20
-118.7865571925257
 30
0.0
 10
71.97527260820226
 20
-118.8313246925143
 30
0.0
 10
71.97527260820226
 20
-118.8868166369451
 30
0.0
 10
71.97527260820226
 20
-118.94192052582
 30
0.0
 10
72.02007538483703
 20
-118.9867233035867
 30
0.0
 10
72.0751792723201
 20
-118.9867233035867
 30
0.0
 10
72.13063593757195
 20
-118.9867233035867
 30
0.0
 10
72.1754387142067
 20
-118.94192052582
 30
0.0
 10
72.1754387142067
 20
-118.8868166369451
 30
0.0
  0
SPLINE
  5
97
330
1F
100
AcDbEntity
  8
_U+30EC_U+30A4_U+30E4_U+30FC 1
 62
   179
420
  2234388
370
     9
100
AcDbSpline
210
0.0
220
0.0
230
1.0
 70
    11
 71
     3
 72
    17
 73
    13
 74
     0
 42
0.0000000001
 43
0.0000000001
 12
1.0
 22
0.0
 32
0.0
 13
1.0
 23
0.0
 33
0.0
 40
0.0
 40
0.0
 40
0.0
 40
0.0
 40
1.0
 40
1.0
 40
1.0
 40
2.0
 40
2.0
 40
2.0
 40
3.0
 40
3.0
 40
3.0
 40
4.0
 40
4.0
 40
4.0
 40
4.0
 10
75.17542558211511
 20
-118.8868166369451
 30
0.0
 10
75.17542558211511
 20
-118.8313246925143
 30
0.0
 10
75.13065808325723
 20
-118.7865571925257
 30
0.0
 10
75.0751661402285
 20
-118.7865571925257
 30
0.0
 10
75.02006225274543
 20
-118.7865571925257
 30
0.0
 10
74.97525947611066
 20
-118.8313246925143
 30
0.0
 10
74.97525947611066
 20
-118.8868166369451
 30
0.0
 10
74.97525947611066
 20
-118.94192052582
 30
0.0
 10
75.02006225274543
 20
-118.9867233035867
 30
0.0
 10
75.0751661402285
 20
-118.9867233035867
 30
0.0
 10
75.13065808325723
 20
-118.9867233035867
 30
0.0
 10
75.17542558211511
 20
-118.94192052582
 30
0.0
 10
75.17542558211511
 20
-118.8868166369451
 30
0.0
  0
SPLINE
  5
98
330
1F
100
AcDbEntity
  8
_U+30EC_U+30A4_U+30E4_U+30FC 1
 62
   179
420
  2234388
370
     9
100
AcDbSpline
210
0.0
220
0.0
230
1.0
 70
    11
 71
     3
 72
    17
 73
    13
 74
     0
 42
0.0000000001
 43
0.0000000001
 12
1.0
 22
0.0
 32
0.0
 13
1.0
 23
0.0
 33
0.0
 40
0.0
 40
0.0
 40
0.0
 40
0.0
 40
1.0
 40
1.0
 40
1.0
 40
2.0
 40
2.0
 40
2.0
 40
3.0
 40
3.0
 40
3.0
 40
4.0
 40
4.0
 40
4.0
 40
4.0
 10
112.1750754715087
 20
-114.8867046935005
 30
0.0
 10
112.1750754715087
 20
-114.8313891379588
 30
0.0
 10
112.130272694874
 20
-114.7867980268588
 30
0.0
 10
112.0751688073909
 20
-114.7867980268588
 30
0.0
 10
112.020029642131
 20
-114.7867980268588
 30
0.0
 10
111.9752621432731
 20
-114.8313891379588
 30
0.0
 10
111.9752621432731
 20
-114.8867046935005
 30
0.0
 10
111.9752621432731
 20
-114.9419849712646
 30
0.0
 10
112.020029642131
 20
-114.986787749031
 30
0.0
 10
112.0751688073909
 20
-114.986787749031
 30
0.0
 10
112.130272694874
 20
-114.986787749031
 30
0.0
 10
112.1750754715087
 20
-114.9419849712646
 30
0.0
 10
112.1750754715087
 20
-114.8867046935005
 30
0.0
  0
SPLINE
  5
99
330
1F
100
AcDbEntity
  8
_U+30EC_U+30A4_U+30E4_U+30FC 1
 62
   179
420
  2234388
370
     9
100
AcDbSpline
210
0.0
220
0.0
230
1.0
 70
    11
 71
     3
 72
    17
 73
    13
 74
     0
 42
0.0000000001
 43
0.0000000001
 12
1.0
 22
0.0
 32
0.0
 13
1.0
 23
0.0
 33
0.0
 40
0.0
 40
0.0
 40
0.0
 40
0.0
 40
1.0
 40
1.0
 40
1.0
 40
2.0
 40
2.0
 40
2.0
 40
3.0
 40
3.0
 40
3.0
 40
4.0
 40
4.0
 40
4.0
 40
4.0
 10
116.1751520361249
 20
-130.8867644117225
 30
0.0
 10
116.1751520361249
 20
-130.8313077450698
 30
0.0
 10
116.1303845372671
 20
-130.7865049673031
 30
0.0
 10
116.0752453720071
 20
-130.7865049673031
 30
0.0
 10
116.0201444154395
 20
-130.7865049673031
 30
0.0
 10
115.9753416376728
 20
-130.8313077450698
 30
0.0
 10
115.9753416376728
 20
-130.8867644117225
 30
0.0
 10
115.9753416376728
 20
-130.941868300598
 30
0.0
 10
116.0201444154395
 20
-130.9866710783648
 30
0.0
 10
116.0752453720071
 20
-130.9866710783648
 30
0.0
 10
116.1303845372671
 20
-130.9866710783648
 30
0.0
 10
116.1751520361249
 20
-130.941868300598
 30
0.0
 10
116.1751520361249
 20
-130.8867644117225
 30
0.0
  0
SPLINE
  5
9A
330
1F
100
AcDbEntity
  8
_U+30EC_U+30A4_U+30E4_U+30FC 1
 62
   179
420
  2234388
370
     9
100
AcDbSpline
210
0.0
220
0.0
230
1.0
 70
    11
 71
     3
 72
    17
 73
    13
 74
     0
 42
0.0000000001
 43
0.0000000001
 12
1.0
 22
0.0
 32
0.0
 13
1.0
 23
0.0
 33
0.0
 40
0.0
 40
0.0
 40
0.0
 40
0.0
 40
1.0
 40
1.0
 40
1.0
 40
2.0
 40
2.0
 40
2.0
 40
3.0
 40
3.0
 40
3.0
 40
4.0
 40
4.0
 40
4.0
 40
4.0
 10
116.1751520361249
 20
-137.8868632988615
 30
0.0
 10
116.1751520361249
 20
-137.8313713544313
 30
0.0
 10
116.1303845372671
 20
-137.7866038544421
 30
0.0
 10
116.0752453720071
 20
-137.7866038544421
 30
0.0
 10
116.0201444154395
 20
-137.7866038544421
 30
0.0
 10
115.9753416376728
 20
-137.8313713544313
 30
0.0
 10
115.9753416376728
 20
-137.8868632988615
 30
0.0
 10
115.9753416376728
 20
-137.941967187737
 30
0.0
 10
116.0201444154395
 20
-137.9867699655031
 30
0.0
 10
116.0752453720071
 20
-137.9867699655031
 30
0.0
 10
116.1303845372671
 20
-137.9867699655031
 30
0.0
 10
116.1751520361249
 20
-137.941967187737
 30
0.0
 10
116.1751520361249
 20
-137.8868632988615
 30
0.0
  0
SPLINE
  5
9B
330
1F
100
AcDbEntity
  8
_U+30EC_U+30A4_U+30E4_U+30FC 1
 62
   179
420
  2234388
370
     9
100
AcDbSpline
210
0.0
220
0.0
230
1.0
 70
    11
 71
     3
 72
    17
 73
    13
 74
     0
 42
0.0000000001
 43
0.0000000001
 12
1.0
 22
0.0
 32
0.0
 13
1.0
 23
0.0
 33
0.0
 40
0.0
 40
0.0
 40
0.0
 40
0.0
 40
1.0
 40
1.0
 40
1.0
 40
2.0
 40
2.0
 40
2.0
 40
3.0
 40
3.0
 40
3.0
 40
4.0
 40
4.0
 40
4.0
 40
4.0
 10
116.1751520361249
 20
-140.8868502425558
 30
0.0
 10
116.1751520361249
 20
-140.8313582981256
 30
0.0
 10
116.1303845372671
 20
-140.7865907981364
 30
0.0
 10
116.0752453720071
 20
-140.7865907981364
 30
0.0
 10
116.0201444154395
 20
-140.7865907981364
 30
0.0
 10
115.9753416376728
 20
-140.8313582981256
 30
0.0
 10
115.9753416376728
 20
-140.8868502425558
 30
0.0
 10
115.9753416376728
 20
-140.9419541314314
 30
0.0
 10
116.0201444154395
 20
-140.9867569091975
 30
0.0
 10
116.0752453720071
 20
-140.9867569091975
 30
0.0
 10
116.1303845372671
 20
-140.9867569091975
 30
0.0
 10
116.1751520361249
 20
-140.9419541314314
 30
0.0
 10
116.1751520361249
 20
-140.8868502425558
 30
0.0
  0
SPLINE
  5
9C
330
1F
100
AcDbEntity
  8
_U+30EC_U+30A4_U+30E4_U+30FC 1
 62
   179
420
  2234388
370
     9
100
AcDbSpline
210
0.0
220
0.0
230
1.0
 70
    11
 71
     3
 72
    17
 73
    13
 74
     0
 42
0.0000000001
 43
0.0000000001
 12
1.0
 22
0.0
 32
0.0
 13
1.0
 23
0.0
 33
0.0
 40
0.0
 40
0.0
 40
0.0
 40
0.0
 40
1.0
 40
1.0
 40
1.0
 40
2.0
 40
2.0
 40
2.0
 40
3.0
 40
3.0
 40
3.0
 40
4.0
 40
4.0
 40
4.0
 40
4.0
 10
72.1754387142067
 20
-144.8865741304452
 30
0.0
 10
72.1754387142067
 20
-144.8314702415696
 30
0.0
 10
72.13063593757195
 20
-144.7866674638036
 30
0.0
 10
72.0751792723201
 20
-144.7866674638036
 30
0.0
 10
72.02007538483703
 20
-144.7866674638036
 30
0.0
 10
71.97527260820226
 20
-144.8314702415696
 30
0.0
 10
71.97527260820226
 20
-144.8865741304452
 30
0.0
 10
71.97527260820226
 20
-144.9420660748754
 30
0.0
 10
72.02007538483703
 20
-144.9868335748646
 30
0.0
 10
72.0751792723201
 20
-144.9868335748646
 30
0.0
 10
72.13063593757195
 20
-144.9868335748646
 30
0.0
 10
72.1754387142067
 20
-144.9420660748754
 30
0.0
 10
72.1754387142067
 20
-144.8865741304452
 30
0.0
  0
SPLINE
  5
9D
330
1F
100
AcDbEntity
  8
_U+30EC_U+30A4_U+30E4_U+30FC 1
 62
   179
420
  2234388
370
     9
100
AcDbSpline
210
0.0
220
0.0
230
1.0
 70
    11
 71
     3
 72
    17
 73
    13
 74
     0
 42
0.0000000001
 43
0.0000000001
 12
1.0
 22
0.0
 32
0.0
 13
1.0
 23
0.0
 33
0.0
 40
0.0
 40
0.0
 40
0.0
 40
0.0
 40
1.0
 40
1.0
 40
1.0
 40
2.0
 40
2.0
 40
2.0
 40
3.0
 40
3.0
 40
3.0
 40
4.0
 40
4.0
 40
4.0
 40
4.0
 10
82.17552429241661
 20
-144.8865741304452
 30
0.0
 10
82.17552429241661
 20
-144.8314702415696
 30
0.0
 10
82.13072151578184
 20
-144.7866674638036
 30
0.0
 10
82.07561762829877
 20
-144.7866674638036
 30
0.0
 10
82.02048053505037
 20
-144.7866674638036
 30
0.0
 10
81.97571096418093
 20
-144.8314702415696
 30
0.0
 10
81.97571096418093
 20
-144.8865741304452
 30
0.0
 10
81.97571096418093
 20
-144.9420660748754
 30
0.0
 10
82.02048053505037
 20
-144.9868335748646
 30
0.0
 10
82.07561762829877
 20
-144.9868335748646
 30
0.0
 10
82.13072151578184
 20
-144.9868335748646
 30
0.0
 10
82.17552429241661
 20
-144.9420660748754
 30
0.0
 10
82.17552429241661
 20
-144.8865741304452
 30
0.0
  0
SPLINE
  5
9E
330
1F
100
AcDbEntity
  8
_U+30EC_U+30A4_U+30E4_U+30FC 1
 62
   179
420
  2234388
370
     9
100
AcDbSpline
210
0.0
220
0.0
230
1.0
 70
    11
 71
     3
 72
    17
 73
    13
 74
     0
 42
0.0000000001
 43
0.0000000001
 12
1.0
 22
0.0
 32
0.0
 13
1.0
 23
0.0
 33
0.0
 40
0.0
 40
0.0
 40
0.0
 40
0.0
 40
1.0
 40
1.0
 40
1.0
 40
2.0
 40
2.0
 40
2.0
 40
3.0
 40
3.0
 40
3.0
 40
4.0
 40
4.0
 40
4.0
 40
4.0
 10
68.17532687181362
 20
-122.8868933026116
 30
0.0
 10
68.17532687181362
 20
-122.8314366359589
 30
0.0
 10
68.13056109407854
 20
-122.7866338581922
 30
0.0
 10
68.07542020769579
 20
-122.7866338581922
 30
0.0
 10
68.02031632021271
 20
-122.7866338581922
 30
0.0
 10
67.97551354357795
 20
-122.8314366359589
 30
0.0
 10
67.97551354357795
 20
-122.8868933026116
 30
0.0
 10
67.97551354357795
 20
-122.9420324692643
 30
0.0
 10
68.02031632021271
 20
-122.9867999692532
 30
0.0
 10
68.07542020769579
 20
-122.9867999692532
 30
0.0
 10
68.13056109407854
 20
-122.9867999692532
 30
0.0
 10
68.17532687181362
 20
-122.9420324692643
 30
0.0
 10
68.17532687181362
 20
-122.8868933026116
 30
0.0
  0
SPLINE
  5
9F
330
1F
100
AcDbEntity
  8
_U+30EC_U+30A4_U+30E4_U+30FC 1
 62
   179
420
  2234388
370
     9
100
AcDbSpline
210
0.0
220
0.0
230
1.0
 70
    11
 71
     3
 72
    17
 73
    13
 74
     0
 42
0.0000000001
 43
0.0000000001
 12
1.0
 22
0.0
 32
0.0
 13
1.0
 23
0.0
 33
0.0
 40
0.0
 40
0.0
 40
0.0
 40
0.0
 40
1.0
 40
1.0
 40
1.0
 40
2.0
 40
2.0
 40
2.0
 40
3.0
 40
3.0
 40
3.0
 40
4.0
 40
4.0
 40
4.0
 40
4.0
 10
68.17532687181362
 20
-140.8868502425558
 30
0.0
 10
68.17532687181362
 20
-140.8313582981256
 30
0.0
 10
68.13056109407854
 20
-140.7865907981364
 30
0.0
 10
68.07542020769579
 20
-140.7865907981364
 30
0.0
 10
68.02031632021271
 20
-140.7865907981364
 30
0.0
 10
67.97551354357795
 20
-140.8313582981256
 30
0.0
 10
67.97551354357795
 20
-140.8868502425558
 30
0.0
 10
67.97551354357795
 20
-140.9419541314314
 30
0.0
 10
68.02031632021271
 20
-140.9867569091975
 30
0.0
 10
68.07542020769579
 20
-140.9867569091975
 30
0.0
 10
68.13056109407854
 20
-140.9867569091975
 30
0.0
 10
68.17532687181362
 20
-140.9419541314314
 30
0.0
 10
68.17532687181362
 20
-140.8868502425558
 30
0.0
  0
INSERT
  5
A1
330
1F
100
AcDbEntity
  8
_U+30EC_U+30A4_U+30E4_U+30FC 1
100
AcDbBlockReference
  2
block 2
 10
0.0
 20
0.0
 30
0.0
  0
INSERT
  5
B7
330
1F
100
AcDbEntity
  8
_U+30EC_U+30A4_U+30E4_U+30FC 1
100
AcDbBlockReference
  2
block 4
 10
0.0
 20
0.0
 30
0.0
  0
INSERT
  5
CD
330
1F
100
AcDbEntity
  8
_U+30EC_U+30A4_U+30E4_U+30FC 1
100
AcDbBlockReference
  2
block 6
 10
0.0
 20
0.0
 30
0.0
  0
INSERT
  5
E7
330
1F
100
AcDbEntity
  8
_U+30EC_U+30A4_U+30E4_U+30FC 1
100
AcDbBlockReference
  2
block 8
 10
0.0
 20
0.0
 30
0.0
  0
INSERT
  5
FD
330
1F
100
AcDbEntity
  8
_U+30EC_U+30A4_U+30E4_U+30FC 1
100
AcDbBlockReference
  2
block 10
 10
0.0
 20
0.0
 30
0.0
  0
INSERT
  5
129
330
1F
100
AcDbEntity
  8
_U+30EC_U+30A4_U+30E4_U+30FC 1
100
AcDbBlockReference
  2
block 12
 10
0.0
 20
0.0
 30
0.0
  0
SPLINE
  5
141
330
1F
100
AcDbEntity
  8
_U+30EC_U+30A4_U+30E4_U+30FC 1
 62
     7
420
 16777215
370
     9
100
AcDbSpline
210
0.0
220
0.0
230
1.0
 70
    11
 71
     3
 72
    17
 73
    13
 74
     0
 42
0.0000000001
 43
0.0000000001
 12
1.0
 22
0.0
 32
0.0
 13
1.0
 23
0.0
 33
0.0
 40
0.0
 40
0.0
 40
0.0
 40
0.0
 40
1.0
 40
1.0
 40
1.0
 40
2.0
 40
2.0
 40
2.0
 40
3.0
 40
3.0
 40
3.0
 40
4.0
 40
4.0
 40
4.0
 40
4.0
 10
116.0752453720071
 20
-130.0723416341488
 30
0.0
 10
116.1303845372671
 20
-130.0723416341488
 30
0.0
 10
116.1751520361249
 20
-130.0275388563821
 30
0.0
 10
116.1751520361249
 20
-129.9724349675072
 30
0.0
 10
116.1751520361249
 20
-129.9172958008541
 30
0.0
 10
116.1303845372671
 20
-129.8725283008649
 30
0.0
 10
116.0752453720071
 20
-129.8725283008649
 30
0.0
 10
116.0201444154395
 20
-129.8725283008649
 30
0.0
 10
115.9753416376728
 20
-129.9172958008541
 30
0.0
 10
115.9753416376728
 20
-129.9724349675072
 30
0.0
 10
115.9753416376728
 20
-130.0275388563821
 30
0.0
 10
116.0201444154395
 20
-130.0723416341488
 30
0.0
 10
116.0752453720071
 20
-130.0723416341488
 30
0.0
  0
POLYLINE
  5
142
330
1F
100
AcDbEntity
  8
_U+30EC_U+30A4_U+30E4_U+30FC 1
 62
     7
420
 16777215
370
     9
100
AcDb2dPolyline
 66
     1
 10
0.0
 20
0.0
 30
0.0
  0
VERTEX
  5
143
330
142
100
AcDbEntity
  8
_U+30EC_U+30A4_U+30E4_U+30FC 1
 62
     7
420
 16777215
370
     9
100
AcDbVertex
100
AcDb2dVertex
 10
116.0759509275447
 20
-128.3177660790315
 30
0.0
  0
VERTEX
  5
144
330
142
100
AcDbEntity
  8
_U+30EC_U+30A4_U+30E4_U+30FC 1
 62
     7
420
 16777215
370
     9
100
AcDbVertex
100
AcDb2dVertex
 10
116.0759509275447
 20
-130.9722071894791
 30
0.0
  0
SEQEND
  5
145
330
142
100
AcDbEntity
  8
_U+30EC_U+30A4_U+30E4_U+30FC 1
 62
     7
420
 16777215
370
     9
  0
INSERT
  5
147
330
1F
100
AcDbEntity
  8
_U+30EC_U+30A4_U+30E4_U+30FC 1
100
AcDbBlockReference
  2
block 14
 10
0.0
 20
0.0
 30
0.0
  0
ENDSEC
  0
SECTION
  2
OBJECTS
  0
DICTIONARY
  5
C
330
0
100
AcDbDictionary
281
     1
  3
ACAD_GROUP
350
D
  3
ACAD_LAYOUT
350
1A
  3
ACAD_MATERIAL
350
3B
  3
ACAD_MLEADERSTYLE
350
14D
  3
ACAD_MLINESTYLE
350
17
  3
ACAD_PLOTSETTINGS
350
19
  3
ACAD_PLOTSTYLENAME
350
E
  3
ACAD_TABLESTYLE
350
14C
  3
ACAD_VISUALSTYLE
350
2A
  0
SUN
  5
3F
330
29
100
AcDbSun
 90
        1
290
     0
 63
     7
421
 16777215
 40
1.0
291
     1
 91
  2455826
 92
 54000000
292
     0
 70
     2
 71
   256
280
     1
  0
DICTIONARY
  5
D
102
{ACAD_REACTORS
330
C
102
}
330
C
100
AcDbDictionary
281
     1
  0
DICTIONARY
  5
1A
102
{ACAD_REACTORS
330
C
102
}
330
C
100
AcDbDictionary
281
     1
  3
Layout1
350
1E
  3
Layout2
350
26
  3
Model
350
22
  0
DICTIONARY
  5
3B
102
{ACAD_REACTORS
330
C
102
}
330
C
100
AcDbDictionary
281
     1
  3
ByBlock
350
3D
  3
ByLayer
350
3C
  3
Global
350
3E
  0
DICTIONARY
  5
14D
102
{ACAD_REACTORS
330
C
102
}
330
C
100
AcDbDictionary
281
     1
  0
DICTIONARY
  5
17
102
{ACAD_REACTORS
330
C
102
}
330
C
100
AcDbDictionary
281
     1
  3
Standard
350
18
  0
DICTIONARY
  5
19
102
{ACAD_REACTORS
330
C
102
}
330
C
100
AcDbDictionary
281
     1
  0
ACDBDICTIONARYWDFLT
  5
E
102
{ACAD_REACTORS
330
C
102
}
330
C
100
AcDbDictionary
281
     1
  3
Normal
350
F
100
AcDbDictionaryWithDefault
340
F
  0
DICTIONARY
  5
14C
102
{ACAD_REACTORS
330
C
102
}
330
C
100
AcDbDictionary
281
     1
  0
DICTIONARY
  5
2A
102
{ACAD_REACTORS
330
C
102
}
330
C
100
AcDbDictionary
281
     1
  3
2dWireframe
350
2F
  3
3D Hidden
350
31
  3
3dWireframe
350
30
  3
Basic
350
32
  3
Brighten
350
36
  3
ColorChange
350
3A
  3
Conceptual
350
34
  3
Dim
350
35
  3
Facepattern
350
39
  3
Flat
350
2B
  3
FlatWithEdges
350
2C
  3
Gouraud
350
2D
  3
GouraudWithEdges
350
2E
  3
Linepattern
350
38
  3
Realistic
350
33
  3
Thicken
350
37
  0
LAYOUT
  5
1E
102
{ACAD_REACTORS
330
1A
102
}
330
1A
100
AcDbPlotSettings
  1

  2
none_device
  4

  6

 40
0.0
 41
0.0
 42
0.0
 43
0.0
 44
0.0
 45
0.0
 46
0.0
 47
0.0
 48
0.0
 49
0.0
140
0.0
141
0.0
142
1.0
143
1.0
 70
   688
 72
     0
 73
     0
 74
     5
  7

 75
    16
 76
     0
 77
     2
 78
   300
147
1.0
148
0.0
149
0.0
100
AcDbLayout
  1
Layout1
 70
     1
 71
     1
 10
0.0
 20
0.0
 11
12.0
 21
9.0
 12
0.0
 22
0.0
 32
0.0
 14
1.000000000000000E+20
 24
1.000000000000000E+20
 34
1.000000000000000E+20
 15
-1.000000000000000E+20
 25
-1.000000000000000E+20
 35
-1.000000000000000E+20
146
0.0
 13
0.0
 23
0.0
 33
0.0
 16
1.0
 26
0.0
 36
0.0
 17
0.0
 27
1.0
 37
0.0
 76
     0
330
1B
  0
LAYOUT
  5
26
102
{ACAD_REACTORS
330
1A
102
}
330
1A
100
AcDbPlotSettings
  1

  2
none_device
  4

  6

 40
0.0
 41
0.0
 42
0.0
 43
0.0
 44
0.0
 45
0.0
 46
0.0
 47
0.0
 48
0.0
 49
0.0
140
0.0
141
0.0
142
1.0
143
1.0
 70
   688
 72
     0
 73
     0
 74
     5
  7

 75
    16
 76
     0
 77
     2
 78
   300
147
1.0
148
0.0
149
0.0
100
AcDbLayout
  1
Layout2
 70
     1
 71
     2
 10
0.0
 20
0.0
 11
0.0
 21
0.0
 12
0.0
 22
0.0
 32
0.0
 14
0.0
 24
0.0
 34
0.0
 15
0.0
 25
0.0
 35
0.0
146
0.0
 13
0.0
 23
0.0
 33
0.0
 16
1.0
 26
0.0
 36
0.0
 17
0.0
 27
1.0
 37
0.0
 76
     0
330
23
  0
LAYOUT
  5
22
102
{ACAD_REACTORS
330
1A
102
}
330
1A
100
AcDbPlotSettings
  1

  2
none_device
  4

  6

 40
0.0
 41
0.0
 42
0.0
 43
0.0
 44
0.0
 45
0.0
 46
0.0
 47
0.0
 48
0.0
 49
0.0
140
0.0
141
0.0
142
1.0
143
1.0
 70
  1712
 72
     0
 73
     0
 74
     0
  7

 75
     0
 76
     0
 77
     2
 78
   300
147
1.0
148
0.0
149
0.0
100
AcDbLayout
  1
Model
 70
     1
 71
     0
 10
0.0
 20
0.0
 11
12.0
 21
9.0
 12
0.0
 22
0.0
 32
0.0
 14
1.000000000000000E+20
 24
1.000000000000000E+20
 34
1.000000000000000E+20
 15
-1.000000000000000E+20
 25
-1.000000000000000E+20
 35
-1.000000000000000E+20
146
0.0
 13
0.0
 23
0.0
 33
0.0
 16
1.0
 26
0.0
 36
0.0
 17
0.0
 27
1.0
 37
0.0
 76
     0
330
1F
331
29
  0
MATERIAL
  5
3D
102
{ACAD_REACTORS
330
3B
102
}
330
3B
100
AcDbMaterial
  1
ByBlock
 72
     1
 94
      127
  0
MATERIAL
  5
3C
102
{ACAD_REACTORS
330
3B
102
}
330
3B
100
AcDbMaterial
  1
ByLayer
 72
     1
 94
      127
  0
MATERIAL
  5
3E
102
{ACAD_REACTORS
330
3B
102
}
330
3B
100
AcDbMaterial
  1
Global
 72
     1
 94
      127
  0
MLINESTYLE
  5
18
102
{ACAD_REACTORS
330
17
102
}
330
17
100
AcDbMlineStyle
  2
Standard
 70
     0
  3

 62
   256
 51
90.0
 52
90.0
 71
     2
 49
0.5
 62
   256
  6
BYLAYER
 49
-0.5
 62
   256
  6
BYLAYER
  0
ACDBPLACEHOLDER
  5
F
102
{ACAD_REACTORS
330
E
102
}
330
E
  0
VISUALSTYLE
  5
2F
102
{ACAD_REACTORS
330
2A
102
}
330
2A
100
AcDbVisualStyle
  2
2dWireframe
 70
     4
177
     2
291
     0
 71
     0
176
     1
 72
     2
176
     1
 73
     0
176
     1
 90
        0
176
     1
 40
-0.6
176
     1
 41
-30.0
176
     1
 62
     5
 63
     7
421
 16777215
176
     1
 74
     1
176
     1
 91
        4
176
     1
 64
     7
176
     1
 65
   257
176
     1
 75
     1
176
     1
175
     1
176
     1
 42
1.0
176
     1
 92
        0
176
     1
 66
   257
176
     1
 43
1.0
176
     1
 76
     1
176
     1
 77
     6
176
     1
 78
     2
176
     1
 67
     7
176
     1
 79
     5
176
     1
170
     0
176
     1
171
     0
176
     1
290
     0
176
     1
 93
        1
176
     1
 44
0.0
176
     1
173
     0
176
     1
  0
VISUALSTYLE
  5
31
102
{ACAD_REACTORS
330
2A
102
}
330
2A
100
AcDbVisualStyle
  2
3D Hidden
 70
     6
177
     2
291
     0
 71
     1
176
     1
 72
     2
176
     1
 73
     2
176
     1
 90
        0
176
     1
 40
-0.6
176
     1
 41
-30.0
176
     1
 62
     5
 63
     7
421
 16777215
176
     1
 74
     2
176
     1
 91
        2
176
     1
 64
     7
176
     1
 65
   257
176
     1
 75
     2
176
     1
175
     1
176
     1
 42
40.0
176
     1
 92
        0
176
     1
 66
   257
176
     1
 43
1.0
176
     1
 76
     1
176
     1
 77
     6
176
     1
 78
     2
176
     1
 67
     7
176
     1
 79
     3
176
     1
170
     0
176
     1
171
     0
176
     1
290
     0
176
     1
 93
        1
176
     1
 44
0.0
176
     1
173
     0
176
     1
  0
VISUALSTYLE
  5
30
102
{ACAD_REACTORS
330
2A
102
}
330
2A
100
AcDbVisualStyle
  2
3dWireframe
 70
     5
177
     2
291
     0
 71
     0
176
     1
 72
     2
176
     1
 73
     0
176
     1
 90
        0
176
     1
 40
-0.6
176
     1
 41
-30.0
176
     1
 62
     5
 63
     7
421
 16777215
176
     1
 74
     1
176
     1
 91
        4
176
     1
 64
     7
176
     1
 65
   257
176
     1
 75
     1
176
     1
175
     1
176
     1
 42
1.0
176
     1
 92
        0
176
     1
 66
   257
176
     1
 43
1.0
176
     1
 76
     1
176
     1
 77
     6
176
     1
 78
     2
176
     1
 67
     7
176
     1
 79
     5
176
     1
170
     0
176
     1
171
     0
176
     1
290
     0
176
     1
 93
        1
176
     1
 44
0.0
176
     1
173
     0
176
     1
  0
VISUALSTYLE
  5
32
102
{ACAD_REACTORS
330
2A
102
}
330
2A
100
AcDbVisualStyle
  2
Basic
 70
     7
177
     2
291
     1
 71
     1
176
     1
 72
     0
176
     1
 73
     1
176
     1
 90
        0
176
     1
 40
-0.6
176
     1
 41
-30.0
176
     1
 62
     5
 63
     7
421
 16777215
176
     1
 74
     0
176
     1
 91
        4
176
     1
 64
     7
176
     1
 65
   257
176
     1
 75
     1
176
     1
175
     1
176
     1
 42
1.0
176
     1
 92
        8
176
     1
 66
     7
176
     1
 43
1.0
176
     1
 76
     1
176
     1
 77
     6
176
     1
 78
     2
176
     1
 67
     7
176
     1
 79
     5
176
     1
170
     0
176
     1
171
     0
176
     1
290
     0
176
     1
 93
        1
176
     1
 44
0.0
176
     1
173
     0
176
     1
  0
VISUALSTYLE
  5
36
102
{ACAD_REACTORS
330
2A
102
}
330
2A
100
AcDbVisualStyle
  2
Brighten
 70
    12
177
     2
291
     1
 71
     2
176
     1
 72
     2
176
     1
 73
     0
176
     1
 90
        0
176
     1
 40
-0.6
176
     1
 41
-30.0
176
     1
 62
     5
 63
     7
421
 16777215
176
     1
 74
     1
176
     1
 91
        4
176
     1
 64
     7
176
     1
 65
   257
176
     1
 75
     1
176
     1
175
     1
176
     1
 42
1.0
176
     1
 92
        8
176
     1
 66
     7
176
     1
 43
1.0
176
     1
 76
     1
176
     1
 77
     6
176
     1
 78
     2
176
     1
 67
     7
176
     1
 79
     5
176
     1
170
     0
176
     1
171
     0
176
     1
290
     0
176
     1
 93
        1
176
     1
 44
50.0
176
     1
173
     0
176
     1
  0
VISUALSTYLE
  5
3A
102
{ACAD_REACTORS
330
2A
102
}
330
2A
100
AcDbVisualStyle
  2
ColorChange
 70
    16
177
     2
291
     1
 71
     2
176
     1
 72
     2
176
     1
 73
     3
176
     1
 90
        0
176
     1
 40
-0.6
176
     1
 41
-30.0
176
     1
 62
     5
 63
     8
421
  8421504
176
     1
 74
     1
176
     1
 91
        4
176
     1
 64
     7
176
     1
 65
   257
176
     1
 75
     1
176
     1
175
     1
176
     1
 42
1.0
176
     1
 92
        8
176
     1
 66
     8
424
  8421504
176
     1
 43
1.0
176
     1
 76
     1
176
     1
 77
     6
176
     1
 78
     2
176
     1
 67
     7
176
     1
 79
     5
176
     1
170
     0
176
     1
171
     0
176
     1
290
     0
176
     1
 93
        1
176
     1
 44
0.0
176
     1
173
     0
176
     1
  0
VISUALSTYLE
  5
34
102
{ACAD_REACTORS
330
2A
102
}
330
2A
100
AcDbVisualStyle
  2
Conceptual
 70
     9
177
     2
291
     0
 71
     3
176
     1
 72
     2
176
     1
 73
     0
176
     1
 90
        0
176
     1
 40
-0.6
176
     1
 41
-30.0
176
     1
 62
     5
 63
     7
421
 16777215
176
     1
 74
     2
176
     1
 91
        2
176
     1
 64
     7
176
     1
 65
   257
176
     1
 75
     1
176
     1
175
     1
176
     1
 42
40.0
176
     1
 92
        8
176
     1
 66
     7
176
     1
 43
1.0
176
     1
 76
     1
176
     1
 77
     6
176
     1
 78
     2
176
     1
 67
     7
176
     1
 79
     3
176
     1
170
     0
176
     1
171
     0
176
     1
290
     0
176
     1
 93
        1
176
     1
 44
0.0
176
     1
173
     0
176
     1
  0
VISUALSTYLE
  5
35
102
{ACAD_REACTORS
330
2A
102
}
330
2A
100
AcDbVisualStyle
  2
Dim
 70
    11
177
     2
291
     1
 71
     2
176
     1
 72
     2
176
     1
 73
     0
176
     1
 90
        0
176
     1
 40
-0.6
176
     1
 41
-30.0
176
     1
 62
     5
 63
     7
421
 16777215
176
     1
 74
     1
176
     1
 91
        4
176
     1
 64
     7
176
     1
 65
   257
176
     1
 75
     1
176
     1
175
     1
176
     1
 42
1.0
176
     1
 92
        8
176
     1
 66
     7
176
     1
 43
1.0
176
     1
 76
     1
176
     1
 77
     6
176
     1
 78
     2
176
     1
 67
     7
176
     1
 79
     5
176
     1
170
     0
176
     1
171
     0
176
     1
290
     0
176
     1
 93
        1
176
     1
 44
-50.0
176
     1
173
     0
176
     1
  0
VISUALSTYLE
  5
39
102
{ACAD_REACTORS
330
2A
102
}
330
2A
100
AcDbVisualStyle
  2
Facepattern
 70
    15
177
     2
291
     1
 71
     2
176
     1
 72
     2
176
     1
 73
     0
176
     1
 90
        0
176
     1
 40
-0.6
176
     1
 41
-30.0
176
     1
 62
     5
 63
     7
421
 16777215
176
     1
 74
     1
176
     1
 91
        4
176
     1
 64
     7
176
     1
 65
   257
176
     1
 75
     1
176
     1
175
     1
176
     1
 42
1.0
176
     1
 92
        8
176
     1
 66
     7
176
     1
 43
1.0
176
     1
 76
     1
176
     1
 77
     6
176
     1
 78
     2
176
     1
 67
     7
176
     1
 79
     5
176
     1
170
     0
176
     1
171
     0
176
     1
290
     0
176
     1
 93
        1
176
     1
 44
0.0
176
     1
173
     0
176
     1
  0
VISUALSTYLE
  5
2B
102
{ACAD_REACTORS
330
2A
102
}
330
2A
100
AcDbVisualStyle
  2
Flat
 70
     0
177
     2
291
     1
 71
     2
176
     1
 72
     1
176
     1
 73
     1
176
     1
 90
        2
176
     1
 40
-0.6
176
     1
 41
30.0
176
     1
 62
     5
 63
     7
421
 16777215
176
     1
 74
     0
176
     1
 91
        4
176
     1
 64
     7
176
     1
 65
   257
176
     1
 75
     1
176
     1
175
     1
176
     1
 42
1.0
176
     1
 92
        8
176
     1
 66
     7
176
     1
 43
1.0
176
     1
 76
     1
176
     1
 77
     6
176
     1
 78
     2
176
     1
 67
     7
176
     1
 79
     5
176
     1
170
     0
176
     1
171
     0
176
     1
290
     0
176
     1
 93
       13
176
     1
 44
0.0
176
     1
173
     0
176
     1
  0
VISUALSTYLE
  5
2C
102
{ACAD_REACTORS
330
2A
102
}
330
2A
100
AcDbVisualStyle
  2
FlatWithEdges
 70
     1
177
     2
291
     1
 71
     2
176
     1
 72
     1
176
     1
 73
     1
176
     1
 90
        2
176
     1
 40
-0.6
176
     1
 41
30.0
176
     1
 62
     5
 63
     7
421
 16777215
176
     1
 74
     1
176
     1
 91
        4
176
     1
 64
     7
176
     1
 65
   257
176
     1
 75
     1
176
     1
175
     1
176
     1
 42
1.0
176
     1
 92
        0
176
     1
 66
   257
176
     1
 43
1.0
176
     1
 76
     1
176
     1
 77
     6
176
     1
 78
     2
176
     1
 67
     7
176
     1
 79
     5
176
     1
170
     0
176
     1
171
     0
176
     1
290
     0
176
     1
 93
       13
176
     1
 44
0.0
176
     1
173
     0
176
     1
  0
VISUALSTYLE
  5
2D
102
{ACAD_REACTORS
330
2A
102
}
330
2A
100
AcDbVisualStyle
  2
Gouraud
 70
     2
177
     2
291
     1
 71
     2
176
     1
 72
     2
176
     1
 73
     1
176
     1
 90
        2
176
     1
 40
-0.6
176
     1
 41
30.0
176
     1
 62
     5
 63
     7
421
 16777215
176
     1
 74
     0
176
     1
 91
        4
176
     1
 64
     7
176
     1
 65
   257
176
     1
 75
     1
176
     1
175
     1
176
     1
 42
1.0
176
     1
 92
        0
176
     1
 66
     7
176
     1
 43
1.0
176
     1
 76
     1
176
     1
 77
     6
176
     1
 78
     2
176
     1
 67
     7
176
     1
 79
     5
176
     1
170
     0
176
     1
171
     0
176
     1
290
     0
176
     1
 93
       13
176
     1
 44
0.0
176
     1
173
     0
176
     1
  0
VISUALSTYLE
  5
2E
102
{ACAD_REACTORS
330
2A
102
}
330
2A
100
AcDbVisualStyle
  2
GouraudWithEdges
 70
     3
177
     2
291
     1
 71
     2
176
     1
 72
     2
176
     1
 73
     1
176
     1
 90
        2
176
     1
 40
-0.6
176
     1
 41
30.0
176
     1
 62
     5
 63
     7
421
 16777215
176
     1
 74
     1
176
     1
 91
        4
176
     1
 64
     7
176
     1
 65
   257
176
     1
 75
     1
176
     1
175
     1
176
     1
 42
1.0
176
     1
 92
        0
176
     1
 66
   257
176
     1
 43
1.0
176
     1
 76
     1
176
     1
 77
     6
176
     1
 78
     2
176
     1
 67
     7
176
     1
 79
     5
176
     1
170
     0
176
     1
171
     0
176
     1
290
     0
176
     1
 93
       13
176
     1
 44
0.0
176
     1
173
     0
176
     1
  0
VISUALSTYLE
  5
38
102
{ACAD_REACTORS
330
2A
102
}
330
2A
100
AcDbVisualStyle
  2
Linepattern
 70
    14
177
     2
291
     1
 71
     2
176
     1
 72
     2
176
     1
 73
     0
176
     1
 90
        0
176
     1
 40
-0.6
176
     1
 41
-30.0
176
     1
 62
     5
 63
     7
421
 16777215
176
     1
 74
     1
176
     1
 91
        4
176
     1
 64
     7
176
     1
 65
   257
176
     1
 75
     7
176
     1
175
     7
176
     1
 42
1.0
176
     1
 92
        8
176
     1
 66
     7
176
     1
 43
1.0
176
     1
 76
     1
176
     1
 77
     6
176
     1
 78
     2
176
     1
 67
     7
176
     1
 79
     5
176
     1
170
     0
176
     1
171
     0
176
     1
290
     0
176
     1
 93
        1
176
     1
 44
0.0
176
     1
173
     0
176
     1
  0
VISUALSTYLE
  5
33
102
{ACAD_REACTORS
330
2A
102
}
330
2A
100
AcDbVisualStyle
  2
Realistic
 70
     8
177
     2
291
     0
 71
     2
176
     1
 72
     2
176
     1
 73
     0
176
     1
 90
        0
176
     1
 40
-0.6
176
     1
 41
-30.0
176
     1
 62
     5
 63
     7
421
 16777215
176
     1
 74
     1
176
     1
 91
        0
176
     1
 64
     7
176
     1
 65
   257
176
     1
 75
     1
176
     1
175
     1
176
     1
 42
1.0
176
     1
 92
        8
176
     1
 66
     8
424
  7895160
176
     1
 43
1.0
176
     1
 76
     1
176
     1
 77
     6
176
     1
 78
     2
176
     1
 67
     7
176
     1
 79
     5
176
     1
170
     0
176
     1
171
     0
176
     1
290
     0
176
     1
 93
       13
176
     1
 44
0.0
176
     1
173
     0
176
     1
  0
VISUALSTYLE
  5
37
102
{ACAD_REACTORS
330
2A
102
}
330
2A
100
AcDbVisualStyle
  2
Thicken
 70
    13
177
     2
291
     1
 71
     2
176
     1
 72
     2
176
     1
 73
     0
176
     1
 90
        0
176
     1
 40
-0.6
176
     1
 41
-30.0
176
     1
 62
     5
 63
     7
421
 16777215
176
     1
 74
     1
176
     1
 91
        4
176
     1
 64
     7
176
     1
 65
   257
176
     1
 75
     1
176
     1
175
     1
176
     1
 42
1.0
176
     1
 92
       12
176
     1
 66
     7
176
     1
 43
1.0
176
     1
 76
     1
176
     1
 77
     6
176
     1
 78
     2
176
     1
 67
     7
176
     1
 79
     5
176
     1
170
     0
176
     1
171
     0
176
     1
290
     0
176
     1
 93
        1
176
     1
 44
0.0
176
     1
173
     0
176
     1
  0
ENDSEC
  0
EOF
