  0
SECTION
  2
HEADER
  9
$ACADVER
  1
AC1014
  9
$ACADMAINTVER
 70
     9
  9
$DWGCODEPAGE
  3
UNDEFINED
  9
$INSBASE
 10
0.0
 20
0.0
 30
0.0
  9
$EXTMIN
 10
1.000000000000000E+20
 20
1.000000000000000E+20
 30
1.000000000000000E+20
  9
$EXTMAX
 10
-1.000000000000000E+20
 20
-1.000000000000000E+20
 30
-1.000000000000000E+20
  9
$LIMMIN
 10
0.0
 20
0.0
  9
$LIMMAX
 10
12.0
 20
9.0
  9
$ORTHOMODE
 70
     0
  9
$REGENMODE
 70
     1
  9
$FILLMODE
 70
     1
  9
$QTEXTMODE
 70
     0
  9
$MIRRTEXT
 70
     1
  9
$DRAGMODE
 70
     2
  9
$LTSCALE
 40
1.0
  9
$OSMODE
 70
    37
  9
$ATTMODE
 70
     1
  9
$TEXTSIZE
 40
0.2
  9
$TRACEWID
 40
0.05
  9
$TEXTSTYLE
  7
STANDARD
  9
$CLAYER
  8
0
  9
$CELTYPE
  6
BYLAYER
  9
$CECOLOR
 62
   256
  9
$CELTSCALE
 40
1.0
  9
$DELOBJ
 70
     1
  9
$DISPSILH
 70
     0
  9
$DIMSCALE
 40
1.0
  9
$DIMASZ
 40
0.18
  9
$DIMEXO
 40
0.0625
  9
$DIMDLI
 40
0.38
  9
$DIMRND
 40
0.0
  9
$DIMDLE
 40
0.0
  9
$DIMEXE
 40
0.18
  9
$DIMTP
 40
0.0
  9
$DIMTM
 40
0.0
  9
$DIMTXT
 40
0.18
  9
$DIMCEN
 40
0.09
  9
$DIMTSZ
 40
0.0
  9
$DIMTOL
 70
     0
  9
$DIMLIM
 70
     0
  9
$DIMTIH
 70
     1
  9
$DIMTOH
 70
     1
  9
$DIMSE1
 70
     0
  9
$DIMSE2
 70
     0
  9
$DIMTAD
 70
     0
  9
$DIMZIN
 70
     0
  9
$DIMBLK
  1

  9
$DIMASO
 70
     1
  9
$DIMSHO
 70
     1
  9
$DIMPOST
  1

  9
$DIMAPOST
  1

  9
$DIMALT
 70
     0
  9
$DIMALTD
 70
     2
  9
$DIMALTF
 40
25.4
  9
$DIMLFAC
 40
1.0
  9
$DIMTOFL
 70
     0
  9
$DIMTVP
 40
0.0
  9
$DIMTIX
 70
     0
  9
$DIMSOXD
 70
     0
  9
$DIMSAH
 70
     0
  9
$DIMBLK1
  1

  9
$DIMBLK2
  1

  9
$DIMSTYLE
  2
STANDARD
  9
$DIMCLRD
 70
     0
  9
$DIMCLRE
 70
     0
  9
$DIMCLRT
 70
     0
  9
$DIMTFAC
 40
1.0
  9
$DIMGAP
 40
0.09
  9
$DIMJUST
 70
     0
  9
$DIMSD1
 70
     0
  9
$DIMSD2
 70
     0
  9
$DIMTOLJ
 70
     1
  9
$DIMTZIN
 70
     0
  9
$DIMALTZ
 70
     0
  9
$DIMALTTZ
 70
     0
  9
$DIMFIT
 70
     3
  9
$DIMUPT
 70
     0
  9
$DIMUNIT
 70
     2
  9
$DIMDEC
 70
     4
  9
$DIMTDEC
 70
     4
  9
$DIMALTU
 70
     2
  9
$DIMALTTD
 70
     2
  9
$DIMTXSTY
  7
STANDARD
  9
$DIMAUNIT
 70
     0
  9
$LUNITS
 70
     2
  9
$LUPREC
 70
     4
  9
$SKETCHINC
 40
0.1
  9
$FILLETRAD
 40
0.5
  9
$AUNITS
 70
     0
  9
$AUPREC
 70
     0
  9
$MENU
  1
.
  9
$ELEVATION
 40
0.0
  9
$PELEVATION
 40
0.0
  9
$THICKNESS
 40
0.0
  9
$LIMCHECK
 70
     0
  9
$CHAMFERA
 40
0.5
  9
$CHAMFERB
 40
0.5
  9
$CHAMFERC
 40
1.0
  9
$CHAMFERD
 40
0.0
  9
$SKPOLY
 70
     0
  9
$TDCREATE
 40
2457956.603009259
  9
$TDUPDATE
 40
2457956.603009259
  9
$TDINDWG
 40
0.0000000116
  9
$TDUSRTIMER
 40
0.0000000116
  9
$USRTIMER
 70
     1
  9
$ANGBASE
 50
0.0
  9
$ANGDIR
 70
     0
  9
$PDMODE
 70
     0
  9
$PDSIZE
 40
0.0
  9
$PLINEWID
 40
0.0
  9
$COORDS
 70
     1
  9
$SPLFRAME
 70
     0
  9
$SPLINETYPE
 70
     6
  9
$SPLINESEGS
 70
     8
  9
$ATTDIA
 70
     0
  9
$ATTREQ
 70
     1
  9
$HANDLING
 70
     1
  9
$HANDSEED
  5
164
  9
$SURFTAB1
 70
     6
  9
$SURFTAB2
 70
     6
  9
$SURFTYPE
 70
     6
  9
$SURFU
 70
     6
  9
$SURFV
 70
     6
  9
$UCSNAME
  2

  9
$UCSORG
 10
0.0
 20
0.0
 30
0.0
  9
$UCSXDIR
 10
1.0
 20
0.0
 30
0.0
  9
$UCSYDIR
 10
0.0
 20
1.0
 30
0.0
  9
$PUCSNAME
  2

  9
$PUCSORG
 10
0.0
 20
0.0
 30
0.0
  9
$PUCSXDIR
 10
1.0
 20
0.0
 30
0.0
  9
$PUCSYDIR
 10
0.0
 20
1.0
 30
0.0
  9
$USERI1
 70
     0
  9
$USERI2
 70
     0
  9
$USERI3
 70
     0
  9
$USERI4
 70
     0
  9
$USERI5
 70
     0
  9
$USERR1
 40
0.0
  9
$USERR2
 40
0.0
  9
$USERR3
 40
0.0
  9
$USERR4
 40
0.0
  9
$USERR5
 40
0.0
  9
$WORLDVIEW
 70
     1
  9
$SHADEDGE
 70
     3
  9
$SHADEDIF
 70
    70
  9
$TILEMODE
 70
     1
  9
$MAXACTVP
 70
    64
  9
$PINSBASE
 10
0.0
 20
0.0
 30
0.0
  9
$PLIMCHECK
 70
     0
  9
$PEXTMIN
 10
1.000000000000000E+20
 20
1.000000000000000E+20
 30
1.000000000000000E+20
  9
$PEXTMAX
 10
-1.000000000000000E+20
 20
-1.000000000000000E+20
 30
-1.000000000000000E+20
  9
$PLIMMIN
 10
0.0
 20
0.0
  9
$PLIMMAX
 10
12.0
 20
9.0
  9
$UNITMODE
 70
     0
  9
$VISRETAIN
 70
     1
  9
$PLINEGEN
 70
     0
  9
$PSLTSCALE
 70
     1
  9
$TREEDEPTH
 70
  3020
  9
$PICKSTYLE
 70
     1
  9
$CMLSTYLE
  2
STANDARD
  9
$CMLJUST
 70
     0
  9
$CMLSCALE
 40
1.0
  9
$PROXYGRAPHICS
 70
     1
  9
$MEASUREMENT
 70
     0
  0
ENDSEC
  0
SECTION
  2
CLASSES
  0
CLASS
  1
ACDBDICTIONARYWDFLT
  2
AcDbDictionaryWithDefault
  3
ObjectDBX Classes
 90
        0
280
     0
281
     0
  0
CLASS
  1
VISUALSTYLE
  2
AcDbVisualStyle
  3
ObjectDBX Classes
 90
     4095
280
     0
281
     0
  0
CLASS
  1
MATERIAL
  2
AcDbMaterial
  3
ObjectDBX Classes
 90
     1153
280
     0
281
     0
  0
CLASS
  1
SUN
  2
AcDbSun
  3
SCENEOE
 90
     1024
280
     0
281
     0
  0
CLASS
  1
DICTIONARYVAR
  2
AcDbDictionaryVar
  3
ObjectDBX Classes
 90
        0
280
     0
281
     0
  0
CLASS
  1
XRECORD
  2
AcDbXrecord
  3
AutoCAD 2000
 90
        0
280
     0
281
     0
  0
CLASS
  1
LWPOLYLINE
  2
AcDbPolyline
  3
AutoCAD 2000
 90
        0
280
     0
281
     1
  0
CLASS
  1
HATCH
  2
AcDbHatch
  3
AutoCAD 2000
 90
        0
280
     0
281
     1
  0
CLASS
  1
ACDBPLACEHOLDER
  2
AcDbPlaceHolder
  3
ObjectDBX Classes
 90
        0
280
     0
281
     0
  0
CLASS
  1
LAYOUT
  2
AcDbLayout
  3
ObjectDBX Classes
 90
        0
280
     0
281
     0
  0
ENDSEC
  0
SECTION
  2
TABLES
  0
TABLE
  2
VPORT
  5
8
330
0
100
AcDbSymbolTable
 70
     1
  0
VPORT
  5
29
330
8
100
AcDbSymbolTableRecord
100
AcDbViewportTableRecord
  2
*ACTIVE
 70
     0
 10
0.0
 20
0.0
 11
1.0
 21
1.0
 12
0.0
 22
0.0
 13
0.0
 23
0.0
 14
0.5
 24
0.5
 15
0.5
 25
0.5
 16
0.0
 26
0.0
 36
1.0
 17
109.0083333060814
 27
-38.98194443469896
 37
0.0
 40
77.96388886939792
 41
2.093514328808448
 42
50.0
 43
0.0
 44
0.0
 50
0.0
 51
0.0
 71
     0
 72
   100
 73
     1
 74
     3
 75
     0
 76
     0
 77
     0
 78
     0
  0
ENDTAB
  0
TABLE
  2
LTYPE
  5
5
330
0
100
AcDbSymbolTable
 70
     1
  0
LTYPE
  5
14
330
5
100
AcDbSymbolTableRecord
100
AcDbLinetypeTableRecord
  2
BYBLOCK
 70
     0
  3

 72
    65
 73
     0
 40
0.0
  0
LTYPE
  5
15
330
5
100
AcDbSymbolTableRecord
100
AcDbLinetypeTableRecord
  2
BYLAYER
 70
     0
  3

 72
    65
 73
     0
 40
0.0
  0
LTYPE
  5
16
330
5
100
AcDbSymbolTableRecord
100
AcDbLinetypeTableRecord
  2
CONTINUOUS
 70
     0
  3
Solid line
 72
    65
 73
     0
 40
0.0
  0
ENDTAB
  0
TABLE
  2
LAYER
  5
2
330
0
100
AcDbSymbolTable
 70
     3
  0
LAYER
  5
10
330
2
100
AcDbSymbolTableRecord
100
AcDbLayerTableRecord
  2
0
 70
     0
 62
     7
  6
CONTINUOUS
  0
LAYER
  5
40
330
2
100
AcDbSymbolTableRecord
100
AcDbLayerTableRecord
  2
_U_30EC_U_30A4_U_30E4_U_30
 70
     0
 62
     7
  6
CONTINUOUS
  0
LAYER
  5
138
330
2
100
AcDbSymbolTableRecord
100
AcDbLayerTableRecord
  2
_U_30EC_U_30A4_U_30E4_U_31
 70
     0
 62
     7
  6
CONTINUOUS
  0
ENDTAB
  0
TABLE
  2
STYLE
  5
3
330
0
100
AcDbSymbolTable
 70
     1
  0
STYLE
  5
11
330
3
100
AcDbSymbolTableRecord
100
AcDbTextStyleTableRecord
  2
STANDARD
 70
     0
 40
0.0
 41
1.0
 50
0.0
 71
     0
 42
0.2
  3
txt
  4

  0
ENDTAB
  0
TABLE
  2
VIEW
  5
6
330
0
100
AcDbSymbolTable
 70
     0
  0
ENDTAB
  0
TABLE
  2
UCS
  5
7
330
0
100
AcDbSymbolTable
 70
     0
  0
ENDTAB
  0
TABLE
  2
APPID
  5
9
330
0
100
AcDbSymbolTable
 70
     1
  0
APPID
  5
12
330
9
100
AcDbSymbolTableRecord
100
AcDbRegAppTableRecord
  2
ACAD
 70
     0
  0
ENDTAB
  0
TABLE
  2
DIMSTYLE
  5
A
330
0
100
AcDbSymbolTable
 70
     1
  0
DIMSTYLE
105
27
330
A
100
AcDbSymbolTableRecord
100
AcDbDimStyleTableRecord
  2
STANDARD
 70
     0
  3

  4

  5

  6

  7

 40
1.0
 41
0.18
 42
0.0625
 43
0.38
 44
0.18
 45
0.0
 46
0.0
 47
0.0
 48
0.0
140
0.18
141
0.09
142
0.0
143
25.4
144
1.0
145
0.0
146
1.0
147
0.09
 71
     0
 72
     0
 73
     1
 74
     1
 75
     0
 76
     0
 77
     0
 78
     0
170
     0
171
     2
172
     0
173
     0
174
     0
175
     0
176
     0
177
     0
178
     0
270
     2
271
     4
272
     4
273
     2
274
     2
340
11
275
     0
280
     0
281
     0
282
     0
283
     1
284
     0
285
     0
286
     0
287
     3
288
     0
  0
ENDTAB
  0
TABLE
  2
BLOCK_RECORD
  5
1
330
0
100
AcDbSymbolTable
 70
     2
  0
BLOCK_RECORD
  5
1F
330
1
100
AcDbSymbolTableRecord
100
AcDbBlockTableRecord
  2
*MODEL_SPACE
  0
BLOCK_RECORD
  5
1B
330
1
100
AcDbSymbolTableRecord
100
AcDbBlockTableRecord
  2
*PAPER_SPACE
  0
BLOCK_RECORD
  5
41
330
1
100
AcDbSymbolTableRecord
100
AcDbBlockTableRecord
  2
BLOCK_2
  0
ENDTAB
  0
ENDSEC
  0
SECTION
  2
BLOCKS
  0
BLOCK
  5
20
330
1F
100
AcDbEntity
  8
0
100
AcDbBlockBegin
  2
*MODEL_SPACE
 70
     0
 10
0.0
 20
0.0
 30
0.0
  3
*MODEL_SPACE
  1

  0
ENDBLK
  5
21
330
1F
100
AcDbEntity
  8
0
100
AcDbBlockEnd
  0
BLOCK
  5
1C
330
1B
100
AcDbEntity
 67
     1
  8
0
100
AcDbBlockBegin
  2
*PAPER_SPACE
 70
     0
 10
0.0
 20
0.0
 30
0.0
  3
*PAPER_SPACE
  1

  0
ENDBLK
  5
1D
330
1B
100
AcDbEntity
 67
     1
  8
0
100
AcDbBlockEnd
  0
BLOCK
  5
43
330
41
100
AcDbEntity
  8
0
100
AcDbBlockBegin
  2
BLOCK_2
 70
     0
 10
0.0
 20
0.0
 30
0.0
  3
BLOCK_2
  1

  0
SPLINE
  5
45
330
41
100
AcDbEntity
  8
_U_30EC_U_30A4_U_30E4_U_30
100
AcDbSpline
210
0.0
220
0.0
230
1.0
 70
    11
 71
     3
 72
   152
 73
   148
 74
     0
 42
0.0000000001
 43
0.0000000001
 12
1.0
 22
0.0
 32
0.0
 13
1.0
 23
0.0
 33
0.0
 40
0.0
 40
0.0
 40
0.0
 40
0.0
 40
1.0
 40
1.0
 40
1.0
 40
2.0
 40
2.0
 40
2.0
 40
3.0
 40
3.0
 40
3.0
 40
4.0
 40
4.0
 40
4.0
 40
5.0
 40
5.0
 40
5.0
 40
6.0
 40
6.0
 40
6.0
 40
7.0
 40
7.0
 40
7.0
 40
8.0
 40
8.0
 40
8.0
 40
9.0
 40
9.0
 40
9.0
 40
10.0
 40
10.0
 40
10.0
 40
11.0
 40
11.0
 40
11.0
 40
12.0
 40
12.0
 40
12.0
 40
13.0
 40
13.0
 40
13.0
 40
14.0
 40
14.0
 40
14.0
 40
15.0
 40
15.0
 40
15.0
 40
16.0
 40
16.0
 40
16.0
 40
17.0
 40
17.0
 40
17.0
 40
18.0
 40
18.0
 40
18.0
 40
19.0
 40
19.0
 40
19.0
 40
20.0
 40
20.0
 40
20.0
 40
21.0
 40
21.0
 40
21.0
 40
22.0
 40
22.0
 40
22.0
 40
23.0
 40
23.0
 40
23.0
 40
24.0
 40
24.0
 40
24.0
 40
25.0
 40
25.0
 40
25.0
 40
26.0
 40
26.0
 40
26.0
 40
27.0
 40
27.0
 40
27.0
 40
28.0
 40
28.0
 40
28.0
 40
29.0
 40
29.0
 40
29.0
 40
30.0
 40
30.0
 40
30.0
 40
31.0
 40
31.0
 40
31.0
 40
32.0
 40
32.0
 40
32.0
 40
33.0
 40
33.0
 40
33.0
 40
34.0
 40
34.0
 40
34.0
 40
35.0
 40
35.0
 40
35.0
 40
36.0
 40
36.0
 40
36.0
 40
37.0
 40
37.0
 40
37.0
 40
38.0
 40
38.0
 40
38.0
 40
39.0
 40
39.0
 40
39.0
 40
40.0
 40
40.0
 40
40.0
 40
41.0
 40
41.0
 40
41.0
 40
42.0
 40
42.0
 40
42.0
 40
43.0
 40
43.0
 40
43.0
 40
44.0
 40
44.0
 40
44.0
 40
45.0
 40
45.0
 40
45.0
 40
46.0
 40
46.0
 40
46.0
 40
47.0
 40
47.0
 40
47.0
 40
48.0
 40
48.0
 40
48.0
 40
49.0
 40
49.0
 40
49.0
 40
49.0
 10
188.955914649639
 20
-19.84797048357397
 30
0.0
 10
188.955914649639
 20
-19.84797048357397
 30
0.0
 10
52.04428000942946
 20
-19.84797048357397
 30
0.0
 10
52.04428000942946
 20
-19.84797048357397
 30
0.0
 10
52.04428000942946
 20
-19.90677402935817
 30
0.0
 10
51.99601165100729
 20
-19.9550423877813
 30
0.0
 10
51.93505806698643
 20
-19.9550423877813
 30
0.0
 10
51.93505806698643
 20
-19.9550423877813
 30
0.0
 10
51.93505806698643
 20
-22.78750276129366
 30
0.0
 10
51.93505806698643
 20
-22.78750276129366
 30
0.0
 10
51.97074870172167
 20
-22.78750276129366
 30
0.0
 10
51.99805418733283
 20
-22.80642309777913
 30
0.0
 10
52.01804954293791
 20
-22.83372858339061
 30
0.0
 10
52.01804954293791
 20
-22.83372858339061
 30
0.0
 10
53.96759671439797
 20
-21.37234759365629
 30
0.0
 10
53.96759671439797
 20
-21.37234759365629
 30
0.0
 10
53.96759671439797
 20
-21.37234759365629
 30
0.0
 10
56.0000278598987
 20
-22.89457466549938
 30
0.0
 10
56.0000278598987
 20
-22.89457466549938
 30
0.0
 10
56.0000278598987
 20
-22.89457466549938
 30
0.0
 10
58.03041646907262
 20
-21.37234759365629
 30
0.0
 10
58.03041646907262
 20
-21.37234759365629
 30
0.0
 10
58.03041646907262
 20
-21.37234759365629
 30
0.0
 10
60.06284761457239
 20
-22.89457466549938
 30
0.0
 10
60.06284761457239
 20
-22.89457466549938
 30
0.0
 10
60.06284761457239
 20
-22.89457466549938
 30
0.0
 10
62.0932362237476
 20
-21.37234759365629
 30
0.0
 10
62.0932362237476
 20
-21.37234759365629
 30
0.0
 10
62.0932362237476
 20
-21.37234759365629
 30
0.0
 10
64.12566736924673
 20
-22.89457466549938
 30
0.0
 10
64.12566736924673
 20
-22.89457466549938
 30
0.0
 10
64.12566736924673
 20
-22.89457466549938
 30
0.0
 10
66.15594847650983
 20
-21.37234759365629
 30
0.0
 10
66.15594847650983
 20
-21.37234759365629
 30
0.0
 10
66.15594847650983
 20
-21.37234759365629
 30
0.0
 10
68.1884871239217
 20
-22.89457466549938
 30
0.0
 10
68.1884871239217
 20
-22.89457466549938
 30
0.0
 10
68.1884871239217
 20
-22.89457466549938
 30
0.0
 10
70.21876823118481
 20
-21.37234759365629
 30
0.0
 10
70.21876823118481
 20
-21.37234759365629
 30
0.0
 10
70.21876823118481
 20
-21.37234759365629
 30
0.0
 10
72.25130687859667
 20
-22.89457466549938
 30
0.0
 10
72.25130687859667
 20
-22.89457466549938
 30
0.0
 10
72.25130687859667
 20
-22.89457466549938
 30
0.0
 10
74.28373802409548
 20
-21.37234759365629
 30
0.0
 10
74.28373802409548
 20
-21.37234759365629
 30
0.0
 10
74.28373802409548
 20
-21.37234759365629
 30
0.0
 10
76.31412663327067
 20
-22.89457466549938
 30
0.0
 10
76.31412663327067
 20
-22.89457466549938
 30
0.0
 10
76.31412663327067
 20
-22.89457466549938
 30
0.0
 10
78.34655777877045
 20
-21.37234759365629
 30
0.0
 10
78.34655777877045
 20
-21.37234759365629
 30
0.0
 10
78.34655777877045
 20
-21.37234759365629
 30
0.0
 10
80.37694638794565
 20
-22.89457466549938
 30
0.0
 10
80.37694638794565
 20
-22.89457466549938
 30
0.0
 10
80.37694638794565
 20
-22.89457466549938
 30
0.0
 10
82.40937753344542
 20
-21.37234759365629
 30
0.0
 10
82.40937753344542
 20
-21.37234759365629
 30
0.0
 10
82.40937753344542
 20
-21.37234759365629
 30
0.0
 10
84.4397661426203
 20
-22.89457466549938
 30
0.0
 10
84.4397661426203
 20
-22.89457466549938
 30
0.0
 10
84.4397661426203
 20
-22.89457466549938
 30
0.0
 10
86.47219728811943
 20
-21.37234759365629
 30
0.0
 10
86.47219728811943
 20
-21.37234759365629
 30
0.0
 10
86.47219728811943
 20
-21.37234759365629
 30
0.0
 10
88.5046284336192
 20
-22.89457466549938
 30
0.0
 10
88.5046284336192
 20
-22.89457466549938
 30
0.0
 10
88.5046284336192
 20
-22.89457466549938
 30
0.0
 10
90.53501428257862
 20
-21.37234759365629
 30
0.0
 10
90.53501428257862
 20
-21.37234759365629
 30
0.0
 10
90.53501428257862
 20
-21.37234759365629
 30
0.0
 10
92.56744537673444
 20
-22.89457466549938
 30
0.0
 10
92.56744537673444
 20
-22.89457466549938
 30
0.0
 10
92.56744537673444
 20
-22.89457466549938
 30
0.0
 10
94.59783393461703
 20
-21.37234759365629
 30
0.0
 10
94.59783393461703
 20
-21.37234759365629
 30
0.0
 10
94.59783393461703
 20
-21.37234759365629
 30
0.0
 10
96.63026502877382
 20
-22.89457466549938
 30
0.0
 10
96.63026502877382
 20
-22.89457466549938
 30
0.0
 10
96.63026502877382
 20
-22.89457466549938
 30
0.0
 10
98.66065358665641
 20
-21.37234759365629
 30
0.0
 10
98.66065358665641
 20
-21.37234759365629
 30
0.0
 10
98.66065358665641
 20
-21.37234759365629
 30
0.0
 10
100.6930846808132
 20
-22.89457466549938
 30
0.0
 10
100.6930846808132
 20
-22.89457466549938
 30
0.0
 10
100.6930846808132
 20
-22.89457466549938
 30
0.0
 10
185.9093105446784
 20
-22.89457466549938
 30
0.0
 10
185.9093105446784
 20
-22.89457466549938
 30
0.0
 10
185.9093105446784
 20
-22.83577111971454
 30
0.0
 10
185.9576864037905
 20
-22.78750276129366
 30
0.0
 10
186.0163824461796
 20
-22.78750276129366
 30
0.0
 10
186.0773360286601
 20
-22.78750276129366
 30
0.0
 10
186.1256043858637
 20
-22.83577111971454
 30
0.0
 10
186.1256043858637
 20
-22.89457466549938
 30
0.0
 10
186.1256043858637
 20
-22.95542074760815
 30
0.0
 10
186.0773360286601
 20
-23.00379660794209
 30
0.0
 10
186.0163824461796
 20
-23.00379660794209
 30
0.0
 10
186.0163824461796
 20
-23.00379660794209
 30
0.0
 10
186.0163824461796
 20
-53.36889413195806
 30
0.0
 10
186.0163824461796
 20
-53.36889413195806
 30
0.0
 10
186.0163824461796
 20
-53.36889413195806
 30
0.0
 10
179.9232817381669
 20
-53.36889413195806
 30
0.0
 10
179.9232817381669
 20
-53.36889413195806
 30
0.0
 10
179.9232817381669
 20
-53.36889413195806
 30
0.0
 10
179.9232817381669
 20
-56.41539081197009
 30
0.0
 10
179.9232817381669
 20
-56.41539081197009
 30
0.0
 10
179.9232817381669
 20
-56.41539081197009
 30
0.0
 10
186.0163824461796
 20
-56.41539081197009
 30
0.0
 10
186.0163824461796
 20
-56.41539081197009
 30
0.0
 10
186.0163824461796
 20
-56.41539081197009
 30
0.0
 10
186.0163824461796
 20
-59.46199499389549
 30
0.0
 10
186.0163824461796
 20
-59.46199499389549
 30
0.0
 10
186.0163824461796
 20
-59.46199499389549
 30
0.0
 10
161.6395720358538
 20
-59.46199499389549
 30
0.0
 10
161.6395720358538
 20
-59.46199499389549
 30
0.0
 10
161.6395720358538
 20
-59.46199499389549
 30
0.0
 10
161.6395720358538
 20
-56.41539081197009
 30
0.0
 10
161.6395720358538
 20
-56.41539081197009
 30
0.0
 10
161.6395720358538
 20
-56.41539081197009
 30
0.0
 10
167.7326727438673
 20
-56.41539081197009
 30
0.0
 10
167.7326727438673
 20
-56.41539081197009
 30
0.0
 10
167.7326727438673
 20
-56.41539081197009
 30
0.0
 10
167.7326727438673
 20
-53.36889413195806
 30
0.0
 10
167.7326727438673
 20
-53.36889413195806
 30
0.0
 10
167.7326727438673
 20
-53.36889413195806
 30
0.0
 10
158.7000398323945
 20
-53.36889413195806
 30
0.0
 10
158.7000398323945
 20
-53.36889413195806
 30
0.0
 10
158.7000398323945
 20
-53.4275901758292
 30
0.0
 10
158.6517714751922
 20
-53.47596603616346
 30
0.0
 10
158.590817892711
 20
-53.47596603616346
 30
0.0
 10
158.590817892711
 20
-53.47596603616346
 30
0.0
 10
158.590817892711
 20
-62.40367730985088
 30
0.0
 10
158.590817892711
 20
-62.40367730985088
 30
0.0
 10
158.6517714751922
 20
-62.40367730985088
 30
0.0
 10
158.7000398323945
 20
-62.44979563003446
 30
0.0
 10
158.7000398323945
 20
-62.51074921405628
 30
0.0
 10
158.7000398323945
 20
-62.51074921405628
 30
0.0
 10
188.955914649639
 20
-62.51074921405628
 30
0.0
 10
188.955914649639
 20
-62.51074921405628
 30
0.0
 10
188.955914649639
 20
-62.44979563003446
 30
0.0
 10
189.0041830068426
 20
-62.40367730985088
 30
0.0
 10
189.0651365893231
 20
-62.40367730985088
 30
0.0
 10
189.0651365893231
 20
-62.40367730985088
 30
0.0
 10
189.0651365893231
 20
-19.9550423877813
 30
0.0
 10
189.0651365893231
 20
-19.9550423877813
 30
0.0
 10
189.0041830068426
 20
-19.9550423877813
 30
0.0
 10
188.955914649639
 20
-19.90677402935817
 30
0.0
 10
188.955914649639
 20
-19.84797048357397
 30
0.0
  0
HATCH
  5
46
330
41
100
AcDbEntity
  8
_U_30EC_U_30A4_U_30E4_U_30
 62
   254
100
AcDbHatch
 10
0.0
 20
0.0
 30
0.0
210
0.0
220
0.0
230
1.0
  2
SOLID
 70
     1
 71
     0
 91
        1
 92
        1
 93
        1
 72
     4
 94
        3
 73
     0
 74
     1
 95
      152
 96
      148
 40
0.0
 40
0.0
 40
0.0
 40
0.0
 40
1.0
 40
1.0
 40
1.0
 40
2.0
 40
2.0
 40
2.0
 40
3.0
 40
3.0
 40
3.0
 40
4.0
 40
4.0
 40
4.0
 40
5.0
 40
5.0
 40
5.0
 40
6.0
 40
6.0
 40
6.0
 40
7.0
 40
7.0
 40
7.0
 40
8.0
 40
8.0
 40
8.0
 40
9.0
 40
9.0
 40
9.0
 40
10.0
 40
10.0
 40
10.0
 40
11.0
 40
11.0
 40
11.0
 40
12.0
 40
12.0
 40
12.0
 40
13.0
 40
13.0
 40
13.0
 40
14.0
 40
14.0
 40
14.0
 40
15.0
 40
15.0
 40
15.0
 40
16.0
 40
16.0
 40
16.0
 40
17.0
 40
17.0
 40
17.0
 40
18.0
 40
18.0
 40
18.0
 40
19.0
 40
19.0
 40
19.0
 40
20.0
 40
20.0
 40
20.0
 40
21.0
 40
21.0
 40
21.0
 40
22.0
 40
22.0
 40
22.0
 40
23.0
 40
23.0
 40
23.0
 40
24.0
 40
24.0
 40
24.0
 40
25.0
 40
25.0
 40
25.0
 40
26.0
 40
26.0
 40
26.0
 40
27.0
 40
27.0
 40
27.0
 40
28.0
 40
28.0
 40
28.0
 40
29.0
 40
29.0
 40
29.0
 40
30.0
 40
30.0
 40
30.0
 40
31.0
 40
31.0
 40
31.0
 40
32.0
 40
32.0
 40
32.0
 40
33.0
 40
33.0
 40
33.0
 40
34.0
 40
34.0
 40
34.0
 40
35.0
 40
35.0
 40
35.0
 40
36.0
 40
36.0
 40
36.0
 40
37.0
 40
37.0
 40
37.0
 40
38.0
 40
38.0
 40
38.0
 40
39.0
 40
39.0
 40
39.0
 40
40.0
 40
40.0
 40
40.0
 40
41.0
 40
41.0
 40
41.0
 40
42.0
 40
42.0
 40
42.0
 40
43.0
 40
43.0
 40
43.0
 40
44.0
 40
44.0
 40
44.0
 40
45.0
 40
45.0
 40
45.0
 40
46.0
 40
46.0
 40
46.0
 40
47.0
 40
47.0
 40
47.0
 40
48.0
 40
48.0
 40
48.0
 40
49.0
 40
49.0
 40
49.0
 40
49.0
 10
188.955914649639
 20
-19.84797048357397
 10
188.955914649639
 20
-19.84797048357397
 10
52.04428000942946
 20
-19.84797048357397
 10
52.04428000942946
 20
-19.84797048357397
 10
52.04428000942946
 20
-19.90677402935817
 10
51.99601165100729
 20
-19.9550423877813
 10
51.93505806698643
 20
-19.9550423877813
 10
51.93505806698643
 20
-19.9550423877813
 10
51.93505806698643
 20
-22.78750276129366
 10
51.93505806698643
 20
-22.78750276129366
 10
51.97074870172167
 20
-22.78750276129366
 10
51.99805418733283
 20
-22.80642309777913
 10
52.01804954293791
 20
-22.83372858339061
 10
52.01804954293791
 20
-22.83372858339061
 10
53.96759671439797
 20
-21.37234759365629
 10
53.96759671439797
 20
-21.37234759365629
 10
53.96759671439797
 20
-21.37234759365629
 10
56.0000278598987
 20
-22.89457466549938
 10
56.0000278598987
 20
-22.89457466549938
 10
56.0000278598987
 20
-22.89457466549938
 10
58.03041646907262
 20
-21.37234759365629
 10
58.03041646907262
 20
-21.37234759365629
 10
58.03041646907262
 20
-21.37234759365629
 10
60.06284761457239
 20
-22.89457466549938
 10
60.06284761457239
 20
-22.89457466549938
 10
60.06284761457239
 20
-22.89457466549938
 10
62.0932362237476
 20
-21.37234759365629
 10
62.0932362237476
 20
-21.37234759365629
 10
62.0932362237476
 20
-21.37234759365629
 10
64.12566736924673
 20
-22.89457466549938
 10
64.12566736924673
 20
-22.89457466549938
 10
64.12566736924673
 20
-22.89457466549938
 10
66.15594847650983
 20
-21.37234759365629
 10
66.15594847650983
 20
-21.37234759365629
 10
66.15594847650983
 20
-21.37234759365629
 10
68.1884871239217
 20
-22.89457466549938
 10
68.1884871239217
 20
-22.89457466549938
 10
68.1884871239217
 20
-22.89457466549938
 10
70.21876823118481
 20
-21.37234759365629
 10
70.21876823118481
 20
-21.37234759365629
 10
70.21876823118481
 20
-21.37234759365629
 10
72.25130687859667
 20
-22.89457466549938
 10
72.25130687859667
 20
-22.89457466549938
 10
72.25130687859667
 20
-22.89457466549938
 10
74.28373802409548
 20
-21.37234759365629
 10
74.28373802409548
 20
-21.37234759365629
 10
74.28373802409548
 20
-21.37234759365629
 10
76.31412663327067
 20
-22.89457466549938
 10
76.31412663327067
 20
-22.89457466549938
 10
76.31412663327067
 20
-22.89457466549938
 10
78.34655777877045
 20
-21.37234759365629
 10
78.34655777877045
 20
-21.37234759365629
 10
78.34655777877045
 20
-21.37234759365629
 10
80.37694638794565
 20
-22.89457466549938
 10
80.37694638794565
 20
-22.89457466549938
 10
80.37694638794565
 20
-22.89457466549938
 10
82.40937753344542
 20
-21.37234759365629
 10
82.40937753344542
 20
-21.37234759365629
 10
82.40937753344542
 20
-21.37234759365629
 10
84.4397661426203
 20
-22.89457466549938
 10
84.4397661426203
 20
-22.89457466549938
 10
84.4397661426203
 20
-22.89457466549938
 10
86.47219728811943
 20
-21.37234759365629
 10
86.47219728811943
 20
-21.37234759365629
 10
86.47219728811943
 20
-21.37234759365629
 10
88.5046284336192
 20
-22.89457466549938
 10
88.5046284336192
 20
-22.89457466549938
 10
88.5046284336192
 20
-22.89457466549938
 10
90.53501428257862
 20
-21.37234759365629
 10
90.53501428257862
 20
-21.37234759365629
 10
90.53501428257862
 20
-21.37234759365629
 10
92.56744537673444
 20
-22.89457466549938
 10
92.56744537673444
 20
-22.89457466549938
 10
92.56744537673444
 20
-22.89457466549938
 10
94.59783393461703
 20
-21.37234759365629
 10
94.59783393461703
 20
-21.37234759365629
 10
94.59783393461703
 20
-21.37234759365629
 10
96.63026502877382
 20
-22.89457466549938
 10
96.63026502877382
 20
-22.89457466549938
 10
96.63026502877382
 20
-22.89457466549938
 10
98.66065358665641
 20
-21.37234759365629
 10
98.66065358665641
 20
-21.37234759365629
 10
98.66065358665641
 20
-21.37234759365629
 10
100.6930846808132
 20
-22.89457466549938
 10
100.6930846808132
 20
-22.89457466549938
 10
100.6930846808132
 20
-22.89457466549938
 10
185.9093105446784
 20
-22.89457466549938
 10
185.9093105446784
 20
-22.89457466549938
 10
185.9093105446784
 20
-22.83577111971454
 10
185.9576864037905
 20
-22.78750276129366
 10
186.0163824461796
 20
-22.78750276129366
 10
186.0773360286601
 20
-22.78750276129366
 10
186.1256043858637
 20
-22.83577111971454
 10
186.1256043858637
 20
-22.89457466549938
 10
186.1256043858637
 20
-22.95542074760815
 10
186.0773360286601
 20
-23.00379660794209
 10
186.0163824461796
 20
-23.00379660794209
 10
186.0163824461796
 20
-23.00379660794209
 10
186.0163824461796
 20
-53.36889413195806
 10
186.0163824461796
 20
-53.36889413195806
 10
186.0163824461796
 20
-53.36889413195806
 10
179.9232817381669
 20
-53.36889413195806
 10
179.9232817381669
 20
-53.36889413195806
 10
179.9232817381669
 20
-53.36889413195806
 10
179.9232817381669
 20
-56.41539081197009
 10
179.9232817381669
 20
-56.41539081197009
 10
179.9232817381669
 20
-56.41539081197009
 10
186.0163824461796
 20
-56.41539081197009
 10
186.0163824461796
 20
-56.41539081197009
 10
186.0163824461796
 20
-56.41539081197009
 10
186.0163824461796
 20
-59.46199499389549
 10
186.0163824461796
 20
-59.46199499389549
 10
186.0163824461796
 20
-59.46199499389549
 10
161.6395720358538
 20
-59.46199499389549
 10
161.6395720358538
 20
-59.46199499389549
 10
161.6395720358538
 20
-59.46199499389549
 10
161.6395720358538
 20
-56.41539081197009
 10
161.6395720358538
 20
-56.41539081197009
 10
161.6395720358538
 20
-56.41539081197009
 10
167.7326727438673
 20
-56.41539081197009
 10
167.7326727438673
 20
-56.41539081197009
 10
167.7326727438673
 20
-56.41539081197009
 10
167.7326727438673
 20
-53.36889413195806
 10
167.7326727438673
 20
-53.36889413195806
 10
167.7326727438673
 20
-53.36889413195806
 10
158.7000398323945
 20
-53.36889413195806
 10
158.7000398323945
 20
-53.36889413195806
 10
158.7000398323945
 20
-53.4275901758292
 10
158.6517714751922
 20
-53.47596603616346
 10
158.590817892711
 20
-53.47596603616346
 10
158.590817892711
 20
-53.47596603616346
 10
158.590817892711
 20
-62.40367730985088
 10
158.590817892711
 20
-62.40367730985088
 10
158.6517714751922
 20
-62.40367730985088
 10
158.7000398323945
 20
-62.44979563003446
 10
158.7000398323945
 20
-62.51074921405628
 10
158.7000398323945
 20
-62.51074921405628
 10
188.955914649639
 20
-62.51074921405628
 10
188.955914649639
 20
-62.51074921405628
 10
188.955914649639
 20
-62.44979563003446
 10
189.0041830068426
 20
-62.40367730985088
 10
189.0651365893231
 20
-62.40367730985088
 10
189.0651365893231
 20
-62.40367730985088
 10
189.0651365893231
 20
-19.9550423877813
 10
189.0651365893231
 20
-19.9550423877813
 10
189.0041830068426
 20
-19.9550423877813
 10
188.955914649639
 20
-19.90677402935817
 10
188.955914649639
 20
-19.84797048357397
 97
        0
 75
     2
 76
     1
 98
        0
  0
POLYLINE
  5
47
330
41
100
AcDbEntity
  8
_U_30EC_U_30A4_U_30E4_U_30
 62
    29
100
AcDb2dPolyline
 66
     1
 10
0.0
 20
0.0
 30
0.0
  0
VERTEX
  5
48
330
47
100
AcDbEntity
  8
_U_30EC_U_30A4_U_30E4_U_30
 62
    29
100
AcDbVertex
100
AcDb2dVertex
 10
51.93505806698643
 20
-19.84797048357397
 30
0.0
  0
VERTEX
  5
49
330
47
100
AcDbEntity
  8
_U_30EC_U_30A4_U_30E4_U_30
 62
    29
100
AcDbVertex
100
AcDb2dVertex
 10
189.0651365893231
 20
-19.84797048357397
 30
0.0
  0
SEQEND
  5
4A
330
47
100
AcDbEntity
  8
_U_30EC_U_30A4_U_30E4_U_30
 62
    29
  0
POLYLINE
  5
4B
330
41
100
AcDbEntity
  8
_U_30EC_U_30A4_U_30E4_U_30
 62
    29
100
AcDb2dPolyline
 66
     1
 10
0.0
 20
0.0
 30
0.0
  0
VERTEX
  5
4C
330
4B
100
AcDbEntity
  8
_U_30EC_U_30A4_U_30E4_U_30
 62
    29
100
AcDbVertex
100
AcDb2dVertex
 10
51.93505806698643
 20
-19.84797048357397
 30
0.0
  0
VERTEX
  5
4D
330
4B
100
AcDbEntity
  8
_U_30EC_U_30A4_U_30E4_U_30
 62
    29
100
AcDbVertex
100
AcDb2dVertex
 10
51.93505806698643
 20
-22.89457466549938
 30
0.0
  0
SEQEND
  5
4E
330
4B
100
AcDbEntity
  8
_U_30EC_U_30A4_U_30E4_U_30
 62
    29
  0
POLYLINE
  5
4F
330
41
100
AcDbEntity
  8
_U_30EC_U_30A4_U_30E4_U_30
 62
    29
100
AcDb2dPolyline
 66
     1
 10
0.0
 20
0.0
 30
0.0
  0
VERTEX
  5
50
330
4F
100
AcDbEntity
  8
_U_30EC_U_30A4_U_30E4_U_30
 62
    29
100
AcDbVertex
100
AcDb2dVertex
 10
189.0651365893231
 20
-19.84797048357397
 30
0.0
  0
VERTEX
  5
51
330
4F
100
AcDbEntity
  8
_U_30EC_U_30A4_U_30E4_U_30
 62
    29
100
AcDbVertex
100
AcDb2dVertex
 10
189.0651365893231
 20
-62.51074921405628
 30
0.0
  0
SEQEND
  5
52
330
4F
100
AcDbEntity
  8
_U_30EC_U_30A4_U_30E4_U_30
 62
    29
  0
POLYLINE
  5
53
330
41
100
AcDbEntity
  8
_U_30EC_U_30A4_U_30E4_U_30
 62
    29
100
AcDb2dPolyline
 66
     1
 10
0.0
 20
0.0
 30
0.0
  0
VERTEX
  5
54
330
53
100
AcDbEntity
  8
_U_30EC_U_30A4_U_30E4_U_30
 62
    29
100
AcDbVertex
100
AcDb2dVertex
 10
158.590817892711
 20
-53.36889413195806
 30
0.0
  0
VERTEX
  5
55
330
53
100
AcDbEntity
  8
_U_30EC_U_30A4_U_30E4_U_30
 62
    29
100
AcDbVertex
100
AcDb2dVertex
 10
167.7326727438673
 20
-53.36889413195806
 30
0.0
  0
SEQEND
  5
56
330
53
100
AcDbEntity
  8
_U_30EC_U_30A4_U_30E4_U_30
 62
    29
  0
POLYLINE
  5
57
330
41
100
AcDbEntity
  8
_U_30EC_U_30A4_U_30E4_U_30
 62
    29
100
AcDb2dPolyline
 66
     1
 10
0.0
 20
0.0
 30
0.0
  0
VERTEX
  5
58
330
57
100
AcDbEntity
  8
_U_30EC_U_30A4_U_30E4_U_30
 62
    29
100
AcDbVertex
100
AcDb2dVertex
 10
158.590817892711
 20
-62.51074921405628
 30
0.0
  0
VERTEX
  5
59
330
57
100
AcDbEntity
  8
_U_30EC_U_30A4_U_30E4_U_30
 62
    29
100
AcDbVertex
100
AcDb2dVertex
 10
189.0651365893231
 20
-62.51074921405628
 30
0.0
  0
SEQEND
  5
5A
330
57
100
AcDbEntity
  8
_U_30EC_U_30A4_U_30E4_U_30
 62
    29
  0
POLYLINE
  5
5B
330
41
100
AcDbEntity
  8
_U_30EC_U_30A4_U_30E4_U_30
 62
    29
100
AcDb2dPolyline
 66
     1
 10
0.0
 20
0.0
 30
0.0
  0
VERTEX
  5
5C
330
5B
100
AcDbEntity
  8
_U_30EC_U_30A4_U_30E4_U_30
 62
    29
100
AcDbVertex
100
AcDb2dVertex
 10
158.590817892711
 20
-53.36889413195806
 30
0.0
  0
VERTEX
  5
5D
330
5B
100
AcDbEntity
  8
_U_30EC_U_30A4_U_30E4_U_30
 62
    29
100
AcDbVertex
100
AcDb2dVertex
 10
158.590817892711
 20
-62.51074921405628
 30
0.0
  0
SEQEND
  5
5E
330
5B
100
AcDbEntity
  8
_U_30EC_U_30A4_U_30E4_U_30
 62
    29
  0
POLYLINE
  5
5F
330
41
100
AcDbEntity
  8
_U_30EC_U_30A4_U_30E4_U_30
 62
    29
100
AcDb2dPolyline
 66
     1
 10
0.0
 20
0.0
 30
0.0
  0
VERTEX
  5
60
330
5F
100
AcDbEntity
  8
_U_30EC_U_30A4_U_30E4_U_30
 62
    29
100
AcDbVertex
100
AcDb2dVertex
 10
100.6930846808132
 20
-22.89457466549938
 30
0.0
  0
VERTEX
  5
61
330
5F
100
AcDbEntity
  8
_U_30EC_U_30A4_U_30E4_U_30
 62
    29
100
AcDbVertex
100
AcDb2dVertex
 10
186.0163824461796
 20
-22.89457466549938
 30
0.0
  0
SEQEND
  5
62
330
5F
100
AcDbEntity
  8
_U_30EC_U_30A4_U_30E4_U_30
 62
    29
  0
POLYLINE
  5
63
330
41
100
AcDbEntity
  8
_U_30EC_U_30A4_U_30E4_U_30
 62
    29
100
AcDb2dPolyline
 66
     1
 10
0.0
 20
0.0
 30
0.0
  0
VERTEX
  5
64
330
63
100
AcDbEntity
  8
_U_30EC_U_30A4_U_30E4_U_30
 62
    29
100
AcDbVertex
100
AcDb2dVertex
 10
186.0163824461796
 20
-56.41539081197009
 30
0.0
  0
VERTEX
  5
65
330
63
100
AcDbEntity
  8
_U_30EC_U_30A4_U_30E4_U_30
 62
    29
100
AcDbVertex
100
AcDb2dVertex
 10
186.0163824461796
 20
-59.46199499389549
 30
0.0
  0
SEQEND
  5
66
330
63
100
AcDbEntity
  8
_U_30EC_U_30A4_U_30E4_U_30
 62
    29
  0
POLYLINE
  5
67
330
41
100
AcDbEntity
  8
_U_30EC_U_30A4_U_30E4_U_30
 62
    29
100
AcDb2dPolyline
 66
     1
 10
0.0
 20
0.0
 30
0.0
  0
VERTEX
  5
68
330
67
100
AcDbEntity
  8
_U_30EC_U_30A4_U_30E4_U_30
 62
    29
100
AcDbVertex
100
AcDb2dVertex
 10
161.6395720358538
 20
-59.46199499389549
 30
0.0
  0
VERTEX
  5
69
330
67
100
AcDbEntity
  8
_U_30EC_U_30A4_U_30E4_U_30
 62
    29
100
AcDbVertex
100
AcDb2dVertex
 10
186.0163824461796
 20
-59.46199499389549
 30
0.0
  0
SEQEND
  5
6A
330
67
100
AcDbEntity
  8
_U_30EC_U_30A4_U_30E4_U_30
 62
    29
  0
POLYLINE
  5
6B
330
41
100
AcDbEntity
  8
_U_30EC_U_30A4_U_30E4_U_30
 62
    29
100
AcDb2dPolyline
 66
     1
 10
0.0
 20
0.0
 30
0.0
  0
VERTEX
  5
6C
330
6B
100
AcDbEntity
  8
_U_30EC_U_30A4_U_30E4_U_30
 62
    29
100
AcDbVertex
100
AcDb2dVertex
 10
161.6395720358538
 20
-56.41539081197009
 30
0.0
  0
VERTEX
  5
6D
330
6B
100
AcDbEntity
  8
_U_30EC_U_30A4_U_30E4_U_30
 62
    29
100
AcDbVertex
100
AcDb2dVertex
 10
161.6395720358538
 20
-59.46199499389549
 30
0.0
  0
SEQEND
  5
6E
330
6B
100
AcDbEntity
  8
_U_30EC_U_30A4_U_30E4_U_30
 62
    29
  0
POLYLINE
  5
6F
330
41
100
AcDbEntity
  8
_U_30EC_U_30A4_U_30E4_U_30
 62
    29
100
AcDb2dPolyline
 66
     1
 10
0.0
 20
0.0
 30
0.0
  0
VERTEX
  5
70
330
6F
100
AcDbEntity
  8
_U_30EC_U_30A4_U_30E4_U_30
 62
    29
100
AcDbVertex
100
AcDb2dVertex
 10
167.7326727438673
 20
-53.36889413195806
 30
0.0
  0
VERTEX
  5
71
330
6F
100
AcDbEntity
  8
_U_30EC_U_30A4_U_30E4_U_30
 62
    29
100
AcDbVertex
100
AcDb2dVertex
 10
167.7326727438673
 20
-56.41539081197009
 30
0.0
  0
SEQEND
  5
72
330
6F
100
AcDbEntity
  8
_U_30EC_U_30A4_U_30E4_U_30
 62
    29
  0
POLYLINE
  5
73
330
41
100
AcDbEntity
  8
_U_30EC_U_30A4_U_30E4_U_30
 62
    29
100
AcDb2dPolyline
 66
     1
 10
0.0
 20
0.0
 30
0.0
  0
VERTEX
  5
74
330
73
100
AcDbEntity
  8
_U_30EC_U_30A4_U_30E4_U_30
 62
    29
100
AcDbVertex
100
AcDb2dVertex
 10
179.9232817381669
 20
-53.36889413195806
 30
0.0
  0
VERTEX
  5
75
330
73
100
AcDbEntity
  8
_U_30EC_U_30A4_U_30E4_U_30
 62
    29
100
AcDbVertex
100
AcDb2dVertex
 10
179.9232817381669
 20
-56.41539081197009
 30
0.0
  0
SEQEND
  5
76
330
73
100
AcDbEntity
  8
_U_30EC_U_30A4_U_30E4_U_30
 62
    29
  0
POLYLINE
  5
77
330
41
100
AcDbEntity
  8
_U_30EC_U_30A4_U_30E4_U_30
 62
    29
100
AcDb2dPolyline
 66
     1
 10
0.0
 20
0.0
 30
0.0
  0
VERTEX
  5
78
330
77
100
AcDbEntity
  8
_U_30EC_U_30A4_U_30E4_U_30
 62
    29
100
AcDbVertex
100
AcDb2dVertex
 10
161.6395720358538
 20
-56.41539081197009
 30
0.0
  0
VERTEX
  5
79
330
77
100
AcDbEntity
  8
_U_30EC_U_30A4_U_30E4_U_30
 62
    29
100
AcDbVertex
100
AcDb2dVertex
 10
167.7326727438673
 20
-56.41539081197009
 30
0.0
  0
SEQEND
  5
7A
330
77
100
AcDbEntity
  8
_U_30EC_U_30A4_U_30E4_U_30
 62
    29
  0
POLYLINE
  5
7B
330
41
100
AcDbEntity
  8
_U_30EC_U_30A4_U_30E4_U_30
 62
    29
100
AcDb2dPolyline
 66
     1
 10
0.0
 20
0.0
 30
0.0
  0
VERTEX
  5
7C
330
7B
100
AcDbEntity
  8
_U_30EC_U_30A4_U_30E4_U_30
 62
    29
100
AcDbVertex
100
AcDb2dVertex
 10
179.9232817381669
 20
-56.41539081197009
 30
0.0
  0
VERTEX
  5
7D
330
7B
100
AcDbEntity
  8
_U_30EC_U_30A4_U_30E4_U_30
 62
    29
100
AcDbVertex
100
AcDb2dVertex
 10
186.0163824461796
 20
-56.41539081197009
 30
0.0
  0
SEQEND
  5
7E
330
7B
100
AcDbEntity
  8
_U_30EC_U_30A4_U_30E4_U_30
 62
    29
  0
POLYLINE
  5
7F
330
41
100
AcDbEntity
  8
_U_30EC_U_30A4_U_30E4_U_30
 62
    29
100
AcDb2dPolyline
 66
     1
 10
0.0
 20
0.0
 30
0.0
  0
VERTEX
  5
80
330
7F
100
AcDbEntity
  8
_U_30EC_U_30A4_U_30E4_U_30
 62
    29
100
AcDbVertex
100
AcDb2dVertex
 10
179.9232817381669
 20
-53.36889413195806
 30
0.0
  0
VERTEX
  5
81
330
7F
100
AcDbEntity
  8
_U_30EC_U_30A4_U_30E4_U_30
 62
    29
100
AcDbVertex
100
AcDb2dVertex
 10
186.0163824461796
 20
-53.36889413195806
 30
0.0
  0
SEQEND
  5
82
330
7F
100
AcDbEntity
  8
_U_30EC_U_30A4_U_30E4_U_30
 62
    29
  0
POLYLINE
  5
83
330
41
100
AcDbEntity
  8
_U_30EC_U_30A4_U_30E4_U_30
 62
    29
100
AcDb2dPolyline
 66
     1
 10
0.0
 20
0.0
 30
0.0
  0
VERTEX
  5
84
330
83
100
AcDbEntity
  8
_U_30EC_U_30A4_U_30E4_U_30
 62
    29
100
AcDbVertex
100
AcDb2dVertex
 10
186.0163824461796
 20
-22.89457466549938
 30
0.0
  0
VERTEX
  5
85
330
83
100
AcDbEntity
  8
_U_30EC_U_30A4_U_30E4_U_30
 62
    29
100
AcDbVertex
100
AcDb2dVertex
 10
186.0163824461796
 20
-53.36889413195806
 30
0.0
  0
SEQEND
  5
86
330
83
100
AcDbEntity
  8
_U_30EC_U_30A4_U_30E4_U_30
 62
    29
  0
POLYLINE
  5
87
330
41
100
AcDbEntity
  8
_U_30EC_U_30A4_U_30E4_U_30
 62
    29
100
AcDb2dPolyline
 66
     1
 10
0.0
 20
0.0
 30
0.0
  0
VERTEX
  5
88
330
87
100
AcDbEntity
  8
_U_30EC_U_30A4_U_30E4_U_30
 62
    29
100
AcDbVertex
100
AcDb2dVertex
 10
96.63026502877382
 20
-22.89457466549938
 30
0.0
  0
VERTEX
  5
89
330
87
100
AcDbEntity
  8
_U_30EC_U_30A4_U_30E4_U_30
 62
    29
100
AcDbVertex
100
AcDb2dVertex
 10
98.66065358665641
 20
-21.37234759365629
 30
0.0
  0
SEQEND
  5
8A
330
87
100
AcDbEntity
  8
_U_30EC_U_30A4_U_30E4_U_30
 62
    29
  0
POLYLINE
  5
8B
330
41
100
AcDbEntity
  8
_U_30EC_U_30A4_U_30E4_U_30
 62
    29
100
AcDb2dPolyline
 66
     1
 10
0.0
 20
0.0
 30
0.0
  0
VERTEX
  5
8C
330
8B
100
AcDbEntity
  8
_U_30EC_U_30A4_U_30E4_U_30
 62
    29
100
AcDbVertex
100
AcDb2dVertex
 10
98.66065358665641
 20
-21.37234759365629
 30
0.0
  0
VERTEX
  5
8D
330
8B
100
AcDbEntity
  8
_U_30EC_U_30A4_U_30E4_U_30
 62
    29
100
AcDbVertex
100
AcDb2dVertex
 10
100.6930846808132
 20
-22.89457466549938
 30
0.0
  0
SEQEND
  5
8E
330
8B
100
AcDbEntity
  8
_U_30EC_U_30A4_U_30E4_U_30
 62
    29
  0
POLYLINE
  5
8F
330
41
100
AcDbEntity
  8
_U_30EC_U_30A4_U_30E4_U_30
 62
    29
100
AcDb2dPolyline
 66
     1
 10
0.0
 20
0.0
 30
0.0
  0
VERTEX
  5
90
330
8F
100
AcDbEntity
  8
_U_30EC_U_30A4_U_30E4_U_30
 62
    29
100
AcDbVertex
100
AcDb2dVertex
 10
96.63026502877382
 20
-22.89457466549938
 30
0.0
  0
VERTEX
  5
91
330
8F
100
AcDbEntity
  8
_U_30EC_U_30A4_U_30E4_U_30
 62
    29
100
AcDbVertex
100
AcDb2dVertex
 10
94.59783393461703
 20
-21.37234759365629
 30
0.0
  0
SEQEND
  5
92
330
8F
100
AcDbEntity
  8
_U_30EC_U_30A4_U_30E4_U_30
 62
    29
  0
POLYLINE
  5
93
330
41
100
AcDbEntity
  8
_U_30EC_U_30A4_U_30E4_U_30
 62
    29
100
AcDb2dPolyline
 66
     1
 10
0.0
 20
0.0
 30
0.0
  0
VERTEX
  5
94
330
93
100
AcDbEntity
  8
_U_30EC_U_30A4_U_30E4_U_30
 62
    29
100
AcDbVertex
100
AcDb2dVertex
 10
94.59783393461703
 20
-21.37234759365629
 30
0.0
  0
VERTEX
  5
95
330
93
100
AcDbEntity
  8
_U_30EC_U_30A4_U_30E4_U_30
 62
    29
100
AcDbVertex
100
AcDb2dVertex
 10
92.56744537673444
 20
-22.89457466549938
 30
0.0
  0
SEQEND
  5
96
330
93
100
AcDbEntity
  8
_U_30EC_U_30A4_U_30E4_U_30
 62
    29
  0
POLYLINE
  5
97
330
41
100
AcDbEntity
  8
_U_30EC_U_30A4_U_30E4_U_30
 62
    29
100
AcDb2dPolyline
 66
     1
 10
0.0
 20
0.0
 30
0.0
  0
VERTEX
  5
98
330
97
100
AcDbEntity
  8
_U_30EC_U_30A4_U_30E4_U_30
 62
    29
100
AcDbVertex
100
AcDb2dVertex
 10
88.5046284336192
 20
-22.89457466549938
 30
0.0
  0
VERTEX
  5
99
330
97
100
AcDbEntity
  8
_U_30EC_U_30A4_U_30E4_U_30
 62
    29
100
AcDbVertex
100
AcDb2dVertex
 10
86.47219728811943
 20
-21.37234759365629
 30
0.0
  0
SEQEND
  5
9A
330
97
100
AcDbEntity
  8
_U_30EC_U_30A4_U_30E4_U_30
 62
    29
  0
POLYLINE
  5
9B
330
41
100
AcDbEntity
  8
_U_30EC_U_30A4_U_30E4_U_30
 62
    29
100
AcDb2dPolyline
 66
     1
 10
0.0
 20
0.0
 30
0.0
  0
VERTEX
  5
9C
330
9B
100
AcDbEntity
  8
_U_30EC_U_30A4_U_30E4_U_30
 62
    29
100
AcDbVertex
100
AcDb2dVertex
 10
86.47219728811943
 20
-21.37234759365629
 30
0.0
  0
VERTEX
  5
9D
330
9B
100
AcDbEntity
  8
_U_30EC_U_30A4_U_30E4_U_30
 62
    29
100
AcDbVertex
100
AcDb2dVertex
 10
84.4397661426203
 20
-22.89457466549938
 30
0.0
  0
SEQEND
  5
9E
330
9B
100
AcDbEntity
  8
_U_30EC_U_30A4_U_30E4_U_30
 62
    29
  0
POLYLINE
  5
9F
330
41
100
AcDbEntity
  8
_U_30EC_U_30A4_U_30E4_U_30
 62
    29
100
AcDb2dPolyline
 66
     1
 10
0.0
 20
0.0
 30
0.0
  0
VERTEX
  5
A0
330
9F
100
AcDbEntity
  8
_U_30EC_U_30A4_U_30E4_U_30
 62
    29
100
AcDbVertex
100
AcDb2dVertex
 10
88.5046284336192
 20
-22.89457466549938
 30
0.0
  0
VERTEX
  5
A1
330
9F
100
AcDbEntity
  8
_U_30EC_U_30A4_U_30E4_U_30
 62
    29
100
AcDbVertex
100
AcDb2dVertex
 10
90.53501428257862
 20
-21.37234759365629
 30
0.0
  0
SEQEND
  5
A2
330
9F
100
AcDbEntity
  8
_U_30EC_U_30A4_U_30E4_U_30
 62
    29
  0
POLYLINE
  5
A3
330
41
100
AcDbEntity
  8
_U_30EC_U_30A4_U_30E4_U_30
 62
    29
100
AcDb2dPolyline
 66
     1
 10
0.0
 20
0.0
 30
0.0
  0
VERTEX
  5
A4
330
A3
100
AcDbEntity
  8
_U_30EC_U_30A4_U_30E4_U_30
 62
    29
100
AcDbVertex
100
AcDb2dVertex
 10
90.53501428257862
 20
-21.37234759365629
 30
0.0
  0
VERTEX
  5
A5
330
A3
100
AcDbEntity
  8
_U_30EC_U_30A4_U_30E4_U_30
 62
    29
100
AcDbVertex
100
AcDb2dVertex
 10
92.56744537673444
 20
-22.89457466549938
 30
0.0
  0
SEQEND
  5
A6
330
A3
100
AcDbEntity
  8
_U_30EC_U_30A4_U_30E4_U_30
 62
    29
  0
POLYLINE
  5
A7
330
41
100
AcDbEntity
  8
_U_30EC_U_30A4_U_30E4_U_30
 62
    29
100
AcDb2dPolyline
 66
     1
 10
0.0
 20
0.0
 30
0.0
  0
VERTEX
  5
A8
330
A7
100
AcDbEntity
  8
_U_30EC_U_30A4_U_30E4_U_30
 62
    29
100
AcDbVertex
100
AcDb2dVertex
 10
72.25130687859667
 20
-22.89457466549938
 30
0.0
  0
VERTEX
  5
A9
330
A7
100
AcDbEntity
  8
_U_30EC_U_30A4_U_30E4_U_30
 62
    29
100
AcDbVertex
100
AcDb2dVertex
 10
70.21876823118481
 20
-21.37234759365629
 30
0.0
  0
SEQEND
  5
AA
330
A7
100
AcDbEntity
  8
_U_30EC_U_30A4_U_30E4_U_30
 62
    29
  0
POLYLINE
  5
AB
330
41
100
AcDbEntity
  8
_U_30EC_U_30A4_U_30E4_U_30
 62
    29
100
AcDb2dPolyline
 66
     1
 10
0.0
 20
0.0
 30
0.0
  0
VERTEX
  5
AC
330
AB
100
AcDbEntity
  8
_U_30EC_U_30A4_U_30E4_U_30
 62
    29
100
AcDbVertex
100
AcDb2dVertex
 10
70.21876823118481
 20
-21.37234759365629
 30
0.0
  0
VERTEX
  5
AD
330
AB
100
AcDbEntity
  8
_U_30EC_U_30A4_U_30E4_U_30
 62
    29
100
AcDbVertex
100
AcDb2dVertex
 10
68.1884871239217
 20
-22.89457466549938
 30
0.0
  0
SEQEND
  5
AE
330
AB
100
AcDbEntity
  8
_U_30EC_U_30A4_U_30E4_U_30
 62
    29
  0
POLYLINE
  5
AF
330
41
100
AcDbEntity
  8
_U_30EC_U_30A4_U_30E4_U_30
 62
    29
100
AcDb2dPolyline
 66
     1
 10
0.0
 20
0.0
 30
0.0
  0
VERTEX
  5
B0
330
AF
100
AcDbEntity
  8
_U_30EC_U_30A4_U_30E4_U_30
 62
    29
100
AcDbVertex
100
AcDb2dVertex
 10
72.25130687859667
 20
-22.89457466549938
 30
0.0
  0
VERTEX
  5
B1
330
AF
100
AcDbEntity
  8
_U_30EC_U_30A4_U_30E4_U_30
 62
    29
100
AcDbVertex
100
AcDb2dVertex
 10
74.28373802409548
 20
-21.37234759365629
 30
0.0
  0
SEQEND
  5
B2
330
AF
100
AcDbEntity
  8
_U_30EC_U_30A4_U_30E4_U_30
 62
    29
  0
POLYLINE
  5
B3
330
41
100
AcDbEntity
  8
_U_30EC_U_30A4_U_30E4_U_30
 62
    29
100
AcDb2dPolyline
 66
     1
 10
0.0
 20
0.0
 30
0.0
  0
VERTEX
  5
B4
330
B3
100
AcDbEntity
  8
_U_30EC_U_30A4_U_30E4_U_30
 62
    29
100
AcDbVertex
100
AcDb2dVertex
 10
74.28373802409548
 20
-21.37234759365629
 30
0.0
  0
VERTEX
  5
B5
330
B3
100
AcDbEntity
  8
_U_30EC_U_30A4_U_30E4_U_30
 62
    29
100
AcDbVertex
100
AcDb2dVertex
 10
76.31412663327067
 20
-22.89457466549938
 30
0.0
  0
SEQEND
  5
B6
330
B3
100
AcDbEntity
  8
_U_30EC_U_30A4_U_30E4_U_30
 62
    29
  0
POLYLINE
  5
B7
330
41
100
AcDbEntity
  8
_U_30EC_U_30A4_U_30E4_U_30
 62
    29
100
AcDb2dPolyline
 66
     1
 10
0.0
 20
0.0
 30
0.0
  0
VERTEX
  5
B8
330
B7
100
AcDbEntity
  8
_U_30EC_U_30A4_U_30E4_U_30
 62
    29
100
AcDbVertex
100
AcDb2dVertex
 10
80.37694638794565
 20
-22.89457466549938
 30
0.0
  0
VERTEX
  5
B9
330
B7
100
AcDbEntity
  8
_U_30EC_U_30A4_U_30E4_U_30
 62
    29
100
AcDbVertex
100
AcDb2dVertex
 10
82.40937753344542
 20
-21.37234759365629
 30
0.0
  0
SEQEND
  5
BA
330
B7
100
AcDbEntity
  8
_U_30EC_U_30A4_U_30E4_U_30
 62
    29
  0
POLYLINE
  5
BB
330
41
100
AcDbEntity
  8
_U_30EC_U_30A4_U_30E4_U_30
 62
    29
100
AcDb2dPolyline
 66
     1
 10
0.0
 20
0.0
 30
0.0
  0
VERTEX
  5
BC
330
BB
100
AcDbEntity
  8
_U_30EC_U_30A4_U_30E4_U_30
 62
    29
100
AcDbVertex
100
AcDb2dVertex
 10
82.40937753344542
 20
-21.37234759365629
 30
0.0
  0
VERTEX
  5
BD
330
BB
100
AcDbEntity
  8
_U_30EC_U_30A4_U_30E4_U_30
 62
    29
100
AcDbVertex
100
AcDb2dVertex
 10
84.4397661426203
 20
-22.89457466549938
 30
0.0
  0
SEQEND
  5
BE
330
BB
100
AcDbEntity
  8
_U_30EC_U_30A4_U_30E4_U_30
 62
    29
  0
POLYLINE
  5
BF
330
41
100
AcDbEntity
  8
_U_30EC_U_30A4_U_30E4_U_30
 62
    29
100
AcDb2dPolyline
 66
     1
 10
0.0
 20
0.0
 30
0.0
  0
VERTEX
  5
C0
330
BF
100
AcDbEntity
  8
_U_30EC_U_30A4_U_30E4_U_30
 62
    29
100
AcDbVertex
100
AcDb2dVertex
 10
80.37694638794565
 20
-22.89457466549938
 30
0.0
  0
VERTEX
  5
C1
330
BF
100
AcDbEntity
  8
_U_30EC_U_30A4_U_30E4_U_30
 62
    29
100
AcDbVertex
100
AcDb2dVertex
 10
78.34655777877045
 20
-21.37234759365629
 30
0.0
  0
SEQEND
  5
C2
330
BF
100
AcDbEntity
  8
_U_30EC_U_30A4_U_30E4_U_30
 62
    29
  0
POLYLINE
  5
C3
330
41
100
AcDbEntity
  8
_U_30EC_U_30A4_U_30E4_U_30
 62
    29
100
AcDb2dPolyline
 66
     1
 10
0.0
 20
0.0
 30
0.0
  0
VERTEX
  5
C4
330
C3
100
AcDbEntity
  8
_U_30EC_U_30A4_U_30E4_U_30
 62
    29
100
AcDbVertex
100
AcDb2dVertex
 10
78.34655777877045
 20
-21.37234759365629
 30
0.0
  0
VERTEX
  5
C5
330
C3
100
AcDbEntity
  8
_U_30EC_U_30A4_U_30E4_U_30
 62
    29
100
AcDbVertex
100
AcDb2dVertex
 10
76.31412663327067
 20
-22.89457466549938
 30
0.0
  0
SEQEND
  5
C6
330
C3
100
AcDbEntity
  8
_U_30EC_U_30A4_U_30E4_U_30
 62
    29
  0
POLYLINE
  5
C7
330
41
100
AcDbEntity
  8
_U_30EC_U_30A4_U_30E4_U_30
 62
    29
100
AcDb2dPolyline
 66
     1
 10
0.0
 20
0.0
 30
0.0
  0
VERTEX
  5
C8
330
C7
100
AcDbEntity
  8
_U_30EC_U_30A4_U_30E4_U_30
 62
    29
100
AcDbVertex
100
AcDb2dVertex
 10
64.12566736924673
 20
-22.89457466549938
 30
0.0
  0
VERTEX
  5
C9
330
C7
100
AcDbEntity
  8
_U_30EC_U_30A4_U_30E4_U_30
 62
    29
100
AcDbVertex
100
AcDb2dVertex
 10
66.15594847650983
 20
-21.37234759365629
 30
0.0
  0
SEQEND
  5
CA
330
C7
100
AcDbEntity
  8
_U_30EC_U_30A4_U_30E4_U_30
 62
    29
  0
POLYLINE
  5
CB
330
41
100
AcDbEntity
  8
_U_30EC_U_30A4_U_30E4_U_30
 62
    29
100
AcDb2dPolyline
 66
     1
 10
0.0
 20
0.0
 30
0.0
  0
VERTEX
  5
CC
330
CB
100
AcDbEntity
  8
_U_30EC_U_30A4_U_30E4_U_30
 62
    29
100
AcDbVertex
100
AcDb2dVertex
 10
66.15594847650983
 20
-21.37234759365629
 30
0.0
  0
VERTEX
  5
CD
330
CB
100
AcDbEntity
  8
_U_30EC_U_30A4_U_30E4_U_30
 62
    29
100
AcDbVertex
100
AcDb2dVertex
 10
68.1884871239217
 20
-22.89457466549938
 30
0.0
  0
SEQEND
  5
CE
330
CB
100
AcDbEntity
  8
_U_30EC_U_30A4_U_30E4_U_30
 62
    29
  0
POLYLINE
  5
CF
330
41
100
AcDbEntity
  8
_U_30EC_U_30A4_U_30E4_U_30
 62
    29
100
AcDb2dPolyline
 66
     1
 10
0.0
 20
0.0
 30
0.0
  0
VERTEX
  5
D0
330
CF
100
AcDbEntity
  8
_U_30EC_U_30A4_U_30E4_U_30
 62
    29
100
AcDbVertex
100
AcDb2dVertex
 10
64.12566736924673
 20
-22.89457466549938
 30
0.0
  0
VERTEX
  5
D1
330
CF
100
AcDbEntity
  8
_U_30EC_U_30A4_U_30E4_U_30
 62
    29
100
AcDbVertex
100
AcDb2dVertex
 10
62.0932362237476
 20
-21.37234759365629
 30
0.0
  0
SEQEND
  5
D2
330
CF
100
AcDbEntity
  8
_U_30EC_U_30A4_U_30E4_U_30
 62
    29
  0
POLYLINE
  5
D3
330
41
100
AcDbEntity
  8
_U_30EC_U_30A4_U_30E4_U_30
 62
    29
100
AcDb2dPolyline
 66
     1
 10
0.0
 20
0.0
 30
0.0
  0
VERTEX
  5
D4
330
D3
100
AcDbEntity
  8
_U_30EC_U_30A4_U_30E4_U_30
 62
    29
100
AcDbVertex
100
AcDb2dVertex
 10
62.0932362237476
 20
-21.37234759365629
 30
0.0
  0
VERTEX
  5
D5
330
D3
100
AcDbEntity
  8
_U_30EC_U_30A4_U_30E4_U_30
 62
    29
100
AcDbVertex
100
AcDb2dVertex
 10
60.06284761457239
 20
-22.89457466549938
 30
0.0
  0
SEQEND
  5
D6
330
D3
100
AcDbEntity
  8
_U_30EC_U_30A4_U_30E4_U_30
 62
    29
  0
POLYLINE
  5
D7
330
41
100
AcDbEntity
  8
_U_30EC_U_30A4_U_30E4_U_30
 62
    29
100
AcDb2dPolyline
 66
     1
 10
0.0
 20
0.0
 30
0.0
  0
VERTEX
  5
D8
330
D7
100
AcDbEntity
  8
_U_30EC_U_30A4_U_30E4_U_30
 62
    29
100
AcDbVertex
100
AcDb2dVertex
 10
56.0000278598987
 20
-22.89457466549938
 30
0.0
  0
VERTEX
  5
D9
330
D7
100
AcDbEntity
  8
_U_30EC_U_30A4_U_30E4_U_30
 62
    29
100
AcDbVertex
100
AcDb2dVertex
 10
53.96759671439797
 20
-21.37234759365629
 30
0.0
  0
SEQEND
  5
DA
330
D7
100
AcDbEntity
  8
_U_30EC_U_30A4_U_30E4_U_30
 62
    29
  0
POLYLINE
  5
DB
330
41
100
AcDbEntity
  8
_U_30EC_U_30A4_U_30E4_U_30
 62
    29
100
AcDb2dPolyline
 66
     1
 10
0.0
 20
0.0
 30
0.0
  0
VERTEX
  5
DC
330
DB
100
AcDbEntity
  8
_U_30EC_U_30A4_U_30E4_U_30
 62
    29
100
AcDbVertex
100
AcDb2dVertex
 10
53.96759671439797
 20
-21.37234759365629
 30
0.0
  0
VERTEX
  5
DD
330
DB
100
AcDbEntity
  8
_U_30EC_U_30A4_U_30E4_U_30
 62
    29
100
AcDbVertex
100
AcDb2dVertex
 10
51.93505806698643
 20
-22.89457466549938
 30
0.0
  0
SEQEND
  5
DE
330
DB
100
AcDbEntity
  8
_U_30EC_U_30A4_U_30E4_U_30
 62
    29
  0
POLYLINE
  5
DF
330
41
100
AcDbEntity
  8
_U_30EC_U_30A4_U_30E4_U_30
 62
    29
100
AcDb2dPolyline
 66
     1
 10
0.0
 20
0.0
 30
0.0
  0
VERTEX
  5
E0
330
DF
100
AcDbEntity
  8
_U_30EC_U_30A4_U_30E4_U_30
 62
    29
100
AcDbVertex
100
AcDb2dVertex
 10
56.0000278598987
 20
-22.89457466549938
 30
0.0
  0
VERTEX
  5
E1
330
DF
100
AcDbEntity
  8
_U_30EC_U_30A4_U_30E4_U_30
 62
    29
100
AcDbVertex
100
AcDb2dVertex
 10
58.03041646907262
 20
-21.37234759365629
 30
0.0
  0
SEQEND
  5
E2
330
DF
100
AcDbEntity
  8
_U_30EC_U_30A4_U_30E4_U_30
 62
    29
  0
POLYLINE
  5
E3
330
41
100
AcDbEntity
  8
_U_30EC_U_30A4_U_30E4_U_30
 62
    29
100
AcDb2dPolyline
 66
     1
 10
0.0
 20
0.0
 30
0.0
  0
VERTEX
  5
E4
330
E3
100
AcDbEntity
  8
_U_30EC_U_30A4_U_30E4_U_30
 62
    29
100
AcDbVertex
100
AcDb2dVertex
 10
58.03041646907262
 20
-21.37234759365629
 30
0.0
  0
VERTEX
  5
E5
330
E3
100
AcDbEntity
  8
_U_30EC_U_30A4_U_30E4_U_30
 62
    29
100
AcDbVertex
100
AcDb2dVertex
 10
60.06284761457239
 20
-22.89457466549938
 30
0.0
  0
SEQEND
  5
E6
330
E3
100
AcDbEntity
  8
_U_30EC_U_30A4_U_30E4_U_30
 62
    29
  0
SPLINE
  5
E7
330
41
100
AcDbEntity
  8
_U_30EC_U_30A4_U_30E4_U_30
 62
    29
100
AcDbSpline
210
0.0
220
0.0
230
1.0
 70
    11
 71
     3
 72
    17
 73
    13
 74
     0
 42
0.0000000001
 43
0.0000000001
 12
1.0
 22
0.0
 32
0.0
 13
1.0
 23
0.0
 33
0.0
 40
0.0
 40
0.0
 40
0.0
 40
0.0
 40
1.0
 40
1.0
 40
1.0
 40
2.0
 40
2.0
 40
2.0
 40
3.0
 40
3.0
 40
3.0
 40
4.0
 40
4.0
 40
4.0
 40
4.0
 10
40.05104421733211
 20
-19.84797048357397
 30
0.0
 10
40.05104421733211
 20
-19.68005249725948
 30
0.0
 10
39.9146242911897
 20
-19.54352506920529
 30
0.0
 10
39.74659880296343
 20
-19.54352506920529
 30
0.0
 10
39.57868081664829
 20
-19.54352506920529
 30
0.0
 10
39.44215338859475
 20
-19.68005249725948
 30
0.0
 10
39.44215338859475
 20
-19.84797048357397
 30
0.0
 10
39.44215338859475
 20
-20.0159959718012
 30
0.0
 10
39.57868081664829
 20
-20.15241589794265
 30
0.0
 10
39.74659880296343
 20
-20.15241589794265
 30
0.0
 10
39.9146242911897
 20
-20.15241589794265
 30
0.0
 10
40.05104421733211
 20
-20.0159959718012
 30
0.0
 10
40.05104421733211
 20
-19.84797048357397
 30
0.0
  0
SPLINE
  5
E8
330
41
100
AcDbEntity
  8
_U_30EC_U_30A4_U_30E4_U_30
 62
    29
100
AcDbSpline
210
0.0
220
0.0
230
1.0
 70
    11
 71
     3
 72
    17
 73
    13
 74
     0
 42
0.0000000001
 43
0.0000000001
 12
1.0
 22
0.0
 32
0.0
 13
1.0
 23
0.0
 33
0.0
 40
0.0
 40
0.0
 40
0.0
 40
0.0
 40
1.0
 40
1.0
 40
1.0
 40
2.0
 40
2.0
 40
2.0
 40
3.0
 40
3.0
 40
3.0
 40
4.0
 40
4.0
 40
4.0
 40
4.0
 10
40.05104421733211
 20
-22.89457466549938
 30
0.0
 10
40.05104421733211
 20
-22.72654917727151
 30
0.0
 10
39.9146242911897
 20
-22.59012925113069
 30
0.0
 10
39.74659880296343
 20
-22.59012925113069
 30
0.0
 10
39.57868081664829
 20
-22.59012925113069
 30
0.0
 10
39.44215338859475
 20
-22.72654917727151
 30
0.0
 10
39.44215338859475
 20
-22.89457466549938
 30
0.0
 10
39.44215338859475
 20
-23.06464269005086
 30
0.0
 10
39.57868081664829
 20
-23.20117011810504
 30
0.0
 10
39.74659880296343
 20
-23.20117011810504
 30
0.0
 10
39.9146242911897
 20
-23.20117011810504
 30
0.0
 10
40.05104421733211
 20
-23.06464269005086
 30
0.0
 10
40.05104421733211
 20
-22.89457466549938
 30
0.0
  0
SPLINE
  5
E9
330
41
100
AcDbEntity
  8
_U_30EC_U_30A4_U_30E4_U_30
 62
    29
100
AcDbSpline
210
0.0
220
0.0
230
1.0
 70
    11
 71
     3
 72
    17
 73
    13
 74
     0
 42
0.0000000001
 43
0.0000000001
 12
1.0
 22
0.0
 32
0.0
 13
1.0
 23
0.0
 33
0.0
 40
0.0
 40
0.0
 40
0.0
 40
0.0
 40
1.0
 40
1.0
 40
1.0
 40
2.0
 40
2.0
 40
2.0
 40
3.0
 40
3.0
 40
3.0
 40
4.0
 40
4.0
 40
4.0
 40
4.0
 10
52.24165351959241
 20
-7.659511219551941
 30
0.0
 10
52.24165351959241
 20
-7.4915932332352
 30
0.0
 10
52.10512609153822
 20
-7.355065805181334
 30
0.0
 10
51.93505806698643
 20
-7.355065805181334
 30
0.0
 10
51.76714008067193
 20
-7.355065805181334
 30
0.0
 10
51.63061265261774
 20
-7.4915932332352
 30
0.0
 10
51.63061265261774
 20
-7.659511219551941
 30
0.0
 10
51.63061265261774
 20
-7.827536707777242
 30
0.0
 10
51.76714008067193
 20
-7.963956633920622
 30
0.0
 10
51.93505806698643
 20
-7.963956633920622
 30
0.0
 10
52.10512609153822
 20
-7.963956633920622
 30
0.0
 10
52.24165351959241
 20
-7.827536707777242
 30
0.0
 10
52.24165351959241
 20
-7.659511219551941
 30
0.0
  0
SPLINE
  5
EA
330
41
100
AcDbEntity
  8
_U_30EC_U_30A4_U_30E4_U_30
 62
    29
100
AcDbSpline
210
0.0
220
0.0
230
1.0
 70
    11
 71
     3
 72
    17
 73
    13
 74
     0
 42
0.0000000001
 43
0.0000000001
 12
1.0
 22
0.0
 32
0.0
 13
1.0
 23
0.0
 33
0.0
 40
0.0
 40
0.0
 40
0.0
 40
0.0
 40
1.0
 40
1.0
 40
1.0
 40
2.0
 40
2.0
 40
2.0
 40
3.0
 40
3.0
 40
3.0
 40
4.0
 40
4.0
 40
4.0
 40
4.0
 10
189.369581996001
 20
-7.659511219551941
 30
0.0
 10
189.369581996001
 20
-7.4915932332352
 30
0.0
 10
189.2330545713956
 20
-7.355065805181334
 30
0.0
 10
189.0651365893231
 20
-7.355065805181334
 30
0.0
 10
188.8971111053413
 20
-7.355065805181334
 30
0.0
 10
188.7606911826458
 20
-7.4915932332352
 30
0.0
 10
188.7606911826458
 20
-7.659511219551941
 30
0.0
 10
188.7606911826458
 20
-7.827536707777242
 30
0.0
 10
188.8971111053413
 20
-7.963956633920622
 30
0.0
 10
189.0651365893231
 20
-7.963956633920622
 30
0.0
 10
189.2330545713956
 20
-7.963956633920622
 30
0.0
 10
189.369581996001
 20
-7.827536707777242
 30
0.0
 10
189.369581996001
 20
-7.659511219551941
 30
0.0
  0
SPLINE
  5
EB
330
41
100
AcDbEntity
  8
_U_30EC_U_30A4_U_30E4_U_30
 62
    29
100
AcDbSpline
210
0.0
220
0.0
230
1.0
 70
    11
 71
     3
 72
    17
 73
    13
 74
     0
 42
0.0000000001
 43
0.0000000001
 12
1.0
 22
0.0
 32
0.0
 13
1.0
 23
0.0
 33
0.0
 40
0.0
 40
0.0
 40
0.0
 40
0.0
 40
1.0
 40
1.0
 40
1.0
 40
2.0
 40
2.0
 40
2.0
 40
3.0
 40
3.0
 40
3.0
 40
4.0
 40
4.0
 40
4.0
 40
4.0
 10
146.7068043432721
 20
-22.89457466549938
 30
0.0
 10
146.7068043432721
 20
-22.72654917727151
 30
0.0
 10
146.5703844205759
 20
-22.59012925113069
 30
0.0
 10
146.4023589365942
 20
-22.59012925113069
 30
0.0
 10
146.234440954521
 20
-22.59012925113069
 30
0.0
 10
146.0979135299156
 20
-22.72654917727151
 30
0.0
 10
146.0979135299156
 20
-22.89457466549938
 30
0.0
 10
146.0979135299156
 20
-23.06464269005086
 30
0.0
 10
146.234440954521
 20
-23.20117011810504
 30
0.0
 10
146.4023589365942
 20
-23.20117011810504
 30
0.0
 10
146.5703844205759
 20
-23.20117011810504
 30
0.0
 10
146.7068043432721
 20
-23.06464269005086
 30
0.0
 10
146.7068043432721
 20
-22.89457466549938
 30
0.0
  0
SPLINE
  5
EC
330
41
100
AcDbEntity
  8
_U_30EC_U_30A4_U_30E4_U_30
 62
    29
100
AcDbSpline
210
0.0
220
0.0
230
1.0
 70
    11
 71
     3
 72
    17
 73
    13
 74
     0
 42
0.0000000001
 43
0.0000000001
 12
1.0
 22
0.0
 32
0.0
 13
1.0
 23
0.0
 33
0.0
 40
0.0
 40
0.0
 40
0.0
 40
0.0
 40
1.0
 40
1.0
 40
1.0
 40
2.0
 40
2.0
 40
2.0
 40
3.0
 40
3.0
 40
3.0
 40
4.0
 40
4.0
 40
4.0
 40
4.0
 10
146.7068043432721
 20
-53.36889413195806
 30
0.0
 10
146.7068043432721
 20
-53.20086864373019
 30
0.0
 10
146.5703844205759
 20
-53.06444871758937
 30
0.0
 10
146.4023589365942
 20
-53.06444871758937
 30
0.0
 10
146.234440954521
 20
-53.06444871758937
 30
0.0
 10
146.0979135299156
 20
-53.20086864373019
 30
0.0
 10
146.0979135299156
 20
-53.36889413195806
 30
0.0
 10
146.0979135299156
 20
-53.53681211827223
 30
0.0
 10
146.234440954521
 20
-53.67333954632642
 30
0.0
 10
146.4023589365942
 20
-53.67333954632642
 30
0.0
 10
146.5703844205759
 20
-53.67333954632642
 30
0.0
 10
146.7068043432721
 20
-53.53681211827223
 30
0.0
 10
146.7068043432721
 20
-53.36889413195806
 30
0.0
  0
SPLINE
  5
ED
330
41
100
AcDbEntity
  8
_U_30EC_U_30A4_U_30E4_U_30
 62
    29
100
AcDbSpline
210
0.0
220
0.0
230
1.0
 70
    11
 71
     3
 72
    17
 73
    13
 74
     0
 42
0.0000000001
 43
0.0000000001
 12
1.0
 22
0.0
 32
0.0
 13
1.0
 23
0.0
 33
0.0
 40
0.0
 40
0.0
 40
0.0
 40
0.0
 40
1.0
 40
1.0
 40
1.0
 40
2.0
 40
2.0
 40
2.0
 40
3.0
 40
3.0
 40
3.0
 40
4.0
 40
4.0
 40
4.0
 40
4.0
 10
146.7068043432721
 20
-62.51074921405628
 30
0.0
 10
146.7068043432721
 20
-62.34272372582906
 30
0.0
 10
146.5703844205759
 20
-62.2063037996876
 30
0.0
 10
146.4023589365942
 20
-62.2063037996876
 30
0.0
 10
146.234440954521
 20
-62.2063037996876
 30
0.0
 10
146.0979135299156
 20
-62.34272372582906
 30
0.0
 10
146.0979135299156
 20
-62.51074921405628
 30
0.0
 10
146.0979135299156
 20
-62.67866720037046
 30
0.0
 10
146.234440954521
 20
-62.81519462842497
 30
0.0
 10
146.4023589365942
 20
-62.81519462842497
 30
0.0
 10
146.5703844205759
 20
-62.81519462842497
 30
0.0
 10
146.7068043432721
 20
-62.67866720037046
 30
0.0
 10
146.7068043432721
 20
-62.51074921405628
 30
0.0
  0
SPLINE
  5
EE
330
41
100
AcDbEntity
  8
_U_30EC_U_30A4_U_30E4_U_30
 62
    29
100
AcDbSpline
210
0.0
220
0.0
230
1.0
 70
    11
 71
     3
 72
    17
 73
    13
 74
     0
 42
0.0000000001
 43
0.0000000001
 12
1.0
 22
0.0
 32
0.0
 13
1.0
 23
0.0
 33
0.0
 40
0.0
 40
0.0
 40
0.0
 40
0.0
 40
1.0
 40
1.0
 40
1.0
 40
2.0
 40
2.0
 40
2.0
 40
3.0
 40
3.0
 40
3.0
 40
4.0
 40
4.0
 40
4.0
 40
4.0
 10
158.8952677865311
 20
-74.69920847808056
 30
0.0
 10
158.8952677865311
 20
-74.5311829898527
 30
0.0
 10
158.7588433766928
 20
-74.3946555617985
 30
0.0
 10
158.590817892711
 20
-74.3946555617985
 30
0.0
 10
158.4228999106372
 20
-74.3946555617985
 30
0.0
 10
158.2863724860331
 20
-74.5311829898527
 30
0.0
 10
158.2863724860331
 20
-74.69920847808056
 30
0.0
 10
158.2863724860331
 20
-74.86712646439473
 30
0.0
 10
158.4228999106372
 20
-75.0036538924486
 30
0.0
 10
158.590817892711
 20
-75.0036538924486
 30
0.0
 10
158.7588433766928
 20
-75.0036538924486
 30
0.0
 10
158.8952677865311
 20
-74.86712646439473
 30
0.0
 10
158.8952677865311
 20
-74.69920847808056
 30
0.0
  0
SPLINE
  5
EF
330
41
100
AcDbEntity
  8
_U_30EC_U_30A4_U_30E4_U_30
 62
    29
100
AcDbSpline
210
0.0
220
0.0
230
1.0
 70
    11
 71
     3
 72
    17
 73
    13
 74
     0
 42
0.0000000001
 43
0.0000000001
 12
1.0
 22
0.0
 32
0.0
 13
1.0
 23
0.0
 33
0.0
 40
0.0
 40
0.0
 40
0.0
 40
0.0
 40
1.0
 40
1.0
 40
1.0
 40
2.0
 40
2.0
 40
2.0
 40
3.0
 40
3.0
 40
3.0
 40
4.0
 40
4.0
 40
4.0
 40
4.0
 10
189.369581996001
 20
-74.69920847808056
 30
0.0
 10
189.369581996001
 20
-74.5311829898527
 30
0.0
 10
189.2330545713956
 20
-74.3946555617985
 30
0.0
 10
189.0651365893231
 20
-74.3946555617985
 30
0.0
 10
188.8971111053413
 20
-74.3946555617985
 30
0.0
 10
188.7606911826458
 20
-74.5311829898527
 30
0.0
 10
188.7606911826458
 20
-74.69920847808056
 30
0.0
 10
188.7606911826458
 20
-74.86712646439473
 30
0.0
 10
188.8971111053413
 20
-75.0036538924486
 30
0.0
 10
189.0651365893231
 20
-75.0036538924486
 30
0.0
 10
189.2330545713956
 20
-75.0036538924486
 30
0.0
 10
189.369581996001
 20
-74.86712646439473
 30
0.0
 10
189.369581996001
 20
-74.69920847808056
 30
0.0
  0
POLYLINE
  5
F0
330
41
100
AcDbEntity
  8
_U_30EC_U_30A4_U_30E4_U_30
 62
    29
100
AcDb2dPolyline
 66
     1
 10
0.0
 20
0.0
 30
0.0
  0
VERTEX
  5
F1
330
F0
100
AcDbEntity
  8
_U_30EC_U_30A4_U_30E4_U_30
 62
    29
100
AcDbVertex
100
AcDb2dVertex
 10
51.93505806698643
 20
-7.659511219551941
 30
0.0
  0
VERTEX
  5
F2
330
F0
100
AcDbEntity
  8
_U_30EC_U_30A4_U_30E4_U_30
 62
    29
100
AcDbVertex
100
AcDb2dVertex
 10
189.0651365893231
 20
-7.659511219551941
 30
0.0
  0
SEQEND
  5
F3
330
F0
100
AcDbEntity
  8
_U_30EC_U_30A4_U_30E4_U_30
 62
    29
  0
POLYLINE
  5
F4
330
41
100
AcDbEntity
  8
_U_30EC_U_30A4_U_30E4_U_30
 62
    29
100
AcDb2dPolyline
 66
     1
 10
0.0
 20
0.0
 30
0.0
  0
VERTEX
  5
F5
330
F4
100
AcDbEntity
  8
_U_30EC_U_30A4_U_30E4_U_30
 62
    29
100
AcDbVertex
100
AcDb2dVertex
 10
51.93505806698643
 20
-12.10869284542682
 30
0.0
  0
VERTEX
  5
F6
330
F4
100
AcDbEntity
  8
_U_30EC_U_30A4_U_30E4_U_30
 62
    29
100
AcDbVertex
100
AcDb2dVertex
 10
51.93505806698643
 20
-4.610864501301959
 30
0.0
  0
SEQEND
  5
F7
330
F4
100
AcDbEntity
  8
_U_30EC_U_30A4_U_30E4_U_30
 62
    29
  0
POLYLINE
  5
F8
330
41
100
AcDbEntity
  8
_U_30EC_U_30A4_U_30E4_U_30
 62
    29
100
AcDb2dPolyline
 66
     1
 10
0.0
 20
0.0
 30
0.0
  0
VERTEX
  5
F9
330
F8
100
AcDbEntity
  8
_U_30EC_U_30A4_U_30E4_U_30
 62
    29
100
AcDbVertex
100
AcDb2dVertex
 10
189.0651365893231
 20
-12.10869284542682
 30
0.0
  0
VERTEX
  5
FA
330
F8
100
AcDbEntity
  8
_U_30EC_U_30A4_U_30E4_U_30
 62
    29
100
AcDbVertex
100
AcDb2dVertex
 10
189.0651365893231
 20
-4.610864501301959
 30
0.0
  0
SEQEND
  5
FB
330
F8
100
AcDbEntity
  8
_U_30EC_U_30A4_U_30E4_U_30
 62
    29
  0
MTEXT
  5
FC
330
41
100
AcDbEntity
  8
_U_30EC_U_30A4_U_30E4_U_30
 62
    29
100
AcDbMText
 10
116.6674695888887
 20
-6.523116046546305
 30
0.0
 40
4.566680951756991
 41
0.0
 71
     7
 72
     1
  1
\fA-OTF Futo Go B101 Pro|b1|i0|c0|p34;\W1.06875;45
  0
SPLINE
  5
FD
330
41
100
AcDbEntity
  8
_U_30EC_U_30A4_U_30E4_U_30
 62
    29
100
AcDbSpline
210
0.0
220
0.0
230
1.0
 70
    11
 71
     3
 72
    17
 73
    13
 74
     0
 42
0.0000000001
 43
0.0000000001
 12
1.0
 22
0.0
 32
0.0
 13
1.0
 23
0.0
 33
0.0
 40
0.0
 40
0.0
 40
0.0
 40
0.0
 40
1.0
 40
1.0
 40
1.0
 40
2.0
 40
2.0
 40
2.0
 40
3.0
 40
3.0
 40
3.0
 40
4.0
 40
4.0
 40
4.0
 40
4.0
 10
52.04428000942946
 20
-19.84797048357397
 30
0.0
 10
52.04428000942946
 20
-19.90677402935817
 30
0.0
 10
51.99601165100729
 20
-19.9550423877813
 30
0.0
 10
51.93505806698643
 20
-19.9550423877813
 30
0.0
 10
51.87625452120287
 20
-19.9550423877813
 30
0.0
 10
51.8279861627807
 20
-19.90677402935817
 30
0.0
 10
51.8279861627807
 20
-19.84797048357397
 30
0.0
 10
51.8279861627807
 20
-19.78916693779138
 30
0.0
 10
51.87625452120287
 20
-19.74089857936857
 30
0.0
 10
51.93505806698643
 20
-19.74089857936857
 30
0.0
 10
51.99601165100729
 20
-19.74089857936857
 30
0.0
 10
52.04428000942946
 20
-19.78916693779138
 30
0.0
 10
52.04428000942946
 20
-19.84797048357397
 30
0.0
  0
SPLINE
  5
FE
330
41
100
AcDbEntity
  8
_U_30EC_U_30A4_U_30E4_U_30
 62
    29
100
AcDbSpline
210
0.0
220
0.0
230
1.0
 70
    11
 71
     3
 72
    17
 73
    13
 74
     0
 42
0.0000000001
 43
0.0000000001
 12
1.0
 22
0.0
 32
0.0
 13
1.0
 23
0.0
 33
0.0
 40
0.0
 40
0.0
 40
0.0
 40
0.0
 40
1.0
 40
1.0
 40
1.0
 40
2.0
 40
2.0
 40
2.0
 40
3.0
 40
3.0
 40
3.0
 40
4.0
 40
4.0
 40
4.0
 40
4.0
 10
189.1722084908243
 20
-19.84797048357397
 30
0.0
 10
189.1722084908243
 20
-19.90677402935817
 30
0.0
 10
189.1239401336214
 20
-19.9550423877813
 30
0.0
 10
189.0651365893231
 20
-19.9550423877813
 30
0.0
 10
189.0041830068426
 20
-19.9550423877813
 30
0.0
 10
188.955914649639
 20
-19.90677402935817
 30
0.0
 10
188.955914649639
 20
-19.84797048357397
 30
0.0
 10
188.955914649639
 20
-19.78916693779138
 30
0.0
 10
189.0041830068426
 20
-19.74089857936857
 30
0.0
 10
189.0651365893231
 20
-19.74089857936857
 30
0.0
 10
189.1239401336214
 20
-19.74089857936857
 30
0.0
 10
189.1722084908243
 20
-19.78916693779138
 30
0.0
 10
189.1722084908243
 20
-19.84797048357397
 30
0.0
  0
SPLINE
  5
FF
330
41
100
AcDbEntity
  8
_U_30EC_U_30A4_U_30E4_U_30
 62
    29
100
AcDbSpline
210
0.0
220
0.0
230
1.0
 70
    11
 71
     3
 72
    17
 73
    13
 74
     0
 42
0.0000000001
 43
0.0000000001
 12
1.0
 22
0.0
 32
0.0
 13
1.0
 23
0.0
 33
0.0
 40
0.0
 40
0.0
 40
0.0
 40
0.0
 40
1.0
 40
1.0
 40
1.0
 40
2.0
 40
2.0
 40
2.0
 40
3.0
 40
3.0
 40
3.0
 40
4.0
 40
4.0
 40
4.0
 40
4.0
 10
189.1722084908243
 20
-7.659511219551941
 30
0.0
 10
189.1722084908243
 20
-7.718314765334213
 30
0.0
 10
189.1239401336214
 20
-7.766583123757343
 30
0.0
 10
189.0651365893231
 20
-7.766583123757343
 30
0.0
 10
189.0041830068426
 20
-7.766583123757343
 30
0.0
 10
188.955914649639
 20
-7.718314765334213
 30
0.0
 10
188.955914649639
 20
-7.659511219551941
 30
0.0
 10
188.955914649639
 20
-7.598665137443168
 30
0.0
 10
189.0041830068426
 20
-7.55039677902004
 30
0.0
 10
189.0651365893231
 20
-7.55039677902004
 30
0.0
 10
189.1239401336214
 20
-7.55039677902004
 30
0.0
 10
189.1722084908243
 20
-7.598665137443168
 30
0.0
 10
189.1722084908243
 20
-7.659511219551941
 30
0.0
  0
POLYLINE
  5
100
330
41
100
AcDbEntity
  8
_U_30EC_U_30A4_U_30E4_U_30
 62
    29
100
AcDb2dPolyline
 66
     1
 10
0.0
 20
0.0
 30
0.0
  0
VERTEX
  5
101
330
100
100
AcDbEntity
  8
_U_30EC_U_30A4_U_30E4_U_30
 62
    29
100
AcDbVertex
100
AcDb2dVertex
 10
158.590817892711
 20
-74.69920847808056
 30
0.0
  0
VERTEX
  5
102
330
100
100
AcDbEntity
  8
_U_30EC_U_30A4_U_30E4_U_30
 62
    29
100
AcDbVertex
100
AcDb2dVertex
 10
189.0651365893231
 20
-74.69920847808056
 30
0.0
  0
SEQEND
  5
103
330
100
100
AcDbEntity
  8
_U_30EC_U_30A4_U_30E4_U_30
 62
    29
  0
POLYLINE
  5
104
330
41
100
AcDbEntity
  8
_U_30EC_U_30A4_U_30E4_U_30
 62
    29
100
AcDb2dPolyline
 66
     1
 10
0.0
 20
0.0
 30
0.0
  0
VERTEX
  5
105
330
104
100
AcDbEntity
  8
_U_30EC_U_30A4_U_30E4_U_30
 62
    29
100
AcDbVertex
100
AcDb2dVertex
 10
158.590817892711
 20
-70.25002685220343
 30
0.0
  0
VERTEX
  5
106
330
104
100
AcDbEntity
  8
_U_30EC_U_30A4_U_30E4_U_30
 62
    29
100
AcDbVertex
100
AcDb2dVertex
 10
158.590817892711
 20
-77.74570515809259
 30
0.0
  0
SEQEND
  5
107
330
104
100
AcDbEntity
  8
_U_30EC_U_30A4_U_30E4_U_30
 62
    29
  0
POLYLINE
  5
108
330
41
100
AcDbEntity
  8
_U_30EC_U_30A4_U_30E4_U_30
 62
    29
100
AcDb2dPolyline
 66
     1
 10
0.0
 20
0.0
 30
0.0
  0
VERTEX
  5
109
330
108
100
AcDbEntity
  8
_U_30EC_U_30A4_U_30E4_U_30
 62
    29
100
AcDbVertex
100
AcDb2dVertex
 10
189.0651365893231
 20
-70.25002685220343
 30
0.0
  0
VERTEX
  5
10A
330
108
100
AcDbEntity
  8
_U_30EC_U_30A4_U_30E4_U_30
 62
    29
100
AcDbVertex
100
AcDb2dVertex
 10
189.0651365893231
 20
-77.74570515809259
 30
0.0
  0
SEQEND
  5
10B
330
108
100
AcDbEntity
  8
_U_30EC_U_30A4_U_30E4_U_30
 62
    29
  0
MTEXT
  5
10C
330
41
100
AcDbEntity
  8
_U_30EC_U_30A4_U_30E4_U_30
 62
    29
100
AcDbMText
 10
169.9951361337165
 20
-73.56467418950814
 30
0.0
 40
4.566680951756991
 41
0.0
 71
     7
 72
     1
  1
\fA-OTF Futo Go B101 Pro|b1|i0|c0|p34;\W1.06875;10
  0
SPLINE
  5
10D
330
41
100
AcDbEntity
  8
_U_30EC_U_30A4_U_30E4_U_30
 62
    29
100
AcDbSpline
210
0.0
220
0.0
230
1.0
 70
    11
 71
     3
 72
    17
 73
    13
 74
     0
 42
0.0000000001
 43
0.0000000001
 12
1.0
 22
0.0
 32
0.0
 13
1.0
 23
0.0
 33
0.0
 40
0.0
 40
0.0
 40
0.0
 40
0.0
 40
1.0
 40
1.0
 40
1.0
 40
2.0
 40
2.0
 40
2.0
 40
3.0
 40
3.0
 40
3.0
 40
4.0
 40
4.0
 40
4.0
 40
4.0
 10
158.7000398323945
 20
-62.51074921405628
 30
0.0
 10
158.7000398323945
 20
-62.56944525792807
 30
0.0
 10
158.6517714751922
 20
-62.61782111826169
 30
0.0
 10
158.590817892711
 20
-62.61782111826169
 30
0.0
 10
158.5320143484127
 20
-62.61782111826169
 30
0.0
 10
158.4837459912104
 20
-62.56944525792807
 30
0.0
 10
158.4837459912104
 20
-62.51074921405628
 30
0.0
 10
158.4837459912104
 20
-62.44979563003446
 30
0.0
 10
158.5320143484127
 20
-62.40367730985088
 30
0.0
 10
158.590817892711
 20
-62.40367730985088
 30
0.0
 10
158.6517714751922
 20
-62.40367730985088
 30
0.0
 10
158.7000398323945
 20
-62.44979563003446
 30
0.0
 10
158.7000398323945
 20
-62.51074921405628
 30
0.0
  0
SPLINE
  5
10E
330
41
100
AcDbEntity
  8
_U_30EC_U_30A4_U_30E4_U_30
 62
    29
100
AcDbSpline
210
0.0
220
0.0
230
1.0
 70
    11
 71
     3
 72
    17
 73
    13
 74
     0
 42
0.0000000001
 43
0.0000000001
 12
1.0
 22
0.0
 32
0.0
 13
1.0
 23
0.0
 33
0.0
 40
0.0
 40
0.0
 40
0.0
 40
0.0
 40
1.0
 40
1.0
 40
1.0
 40
2.0
 40
2.0
 40
2.0
 40
3.0
 40
3.0
 40
3.0
 40
4.0
 40
4.0
 40
4.0
 40
4.0
 10
189.1722084908243
 20
-62.51074921405628
 30
0.0
 10
189.1722084908243
 20
-62.56944525792807
 30
0.0
 10
189.1239401336214
 20
-62.61782111826169
 30
0.0
 10
189.0651365893231
 20
-62.61782111826169
 30
0.0
 10
189.0041830068426
 20
-62.61782111826169
 30
0.0
 10
188.955914649639
 20
-62.56944525792807
 30
0.0
 10
188.955914649639
 20
-62.51074921405628
 30
0.0
 10
188.955914649639
 20
-62.44979563003446
 30
0.0
 10
189.0041830068426
 20
-62.40367730985088
 30
0.0
 10
189.0651365893231
 20
-62.40367730985088
 30
0.0
 10
189.1239401336214
 20
-62.40367730985088
 30
0.0
 10
189.1722084908243
 20
-62.44979563003446
 30
0.0
 10
189.1722084908243
 20
-62.51074921405628
 30
0.0
  0
SPLINE
  5
10F
330
41
100
AcDbEntity
  8
_U_30EC_U_30A4_U_30E4_U_30
 62
    29
100
AcDbSpline
210
0.0
220
0.0
230
1.0
 70
    11
 71
     3
 72
    17
 73
    13
 74
     0
 42
0.0000000001
 43
0.0000000001
 12
1.0
 22
0.0
 32
0.0
 13
1.0
 23
0.0
 33
0.0
 40
0.0
 40
0.0
 40
0.0
 40
0.0
 40
1.0
 40
1.0
 40
1.0
 40
2.0
 40
2.0
 40
2.0
 40
3.0
 40
3.0
 40
3.0
 40
4.0
 40
4.0
 40
4.0
 40
4.0
 10
189.1722084908243
 20
-74.69920847808056
 30
0.0
 10
189.1722084908243
 20
-74.7579045219517
 30
0.0
 10
189.1239401336214
 20
-74.80628038228596
 30
0.0
 10
189.0651365893231
 20
-74.80628038228596
 30
0.0
 10
189.0041830068426
 20
-74.80628038228596
 30
0.0
 10
188.955914649639
 20
-74.7579045219517
 30
0.0
 10
188.955914649639
 20
-74.69920847808056
 30
0.0
 10
188.955914649639
 20
-74.64040493229572
 30
0.0
 10
189.0041830068426
 20
-74.59202907196179
 30
0.0
 10
189.0651365893231
 20
-74.59202907196179
 30
0.0
 10
189.1239401336214
 20
-74.59202907196179
 30
0.0
 10
189.1722084908243
 20
-74.64040493229572
 30
0.0
 10
189.1722084908243
 20
-74.69920847808056
 30
0.0
  0
POLYLINE
  5
110
330
41
100
AcDbEntity
  8
_U_30EC_U_30A4_U_30E4_U_30
 62
    29
100
AcDb2dPolyline
 66
     1
 10
0.0
 20
0.0
 30
0.0
  0
VERTEX
  5
111
330
110
100
AcDbEntity
  8
_U_30EC_U_30A4_U_30E4_U_30
 62
    29
100
AcDbVertex
100
AcDb2dVertex
 10
39.74659880296343
 20
-16.80136630165017
 30
0.0
  0
VERTEX
  5
112
330
110
100
AcDbEntity
  8
_U_30EC_U_30A4_U_30E4_U_30
 62
    29
100
AcDbVertex
100
AcDb2dVertex
 10
39.74659880296343
 20
-25.94322138374904
 30
0.0
  0
SEQEND
  5
113
330
110
100
AcDbEntity
  8
_U_30EC_U_30A4_U_30E4_U_30
 62
    29
  0
POLYLINE
  5
114
330
41
100
AcDbEntity
  8
_U_30EC_U_30A4_U_30E4_U_30
 62
    29
100
AcDb2dPolyline
 66
     1
 10
0.0
 20
0.0
 30
0.0
  0
VERTEX
  5
115
330
114
100
AcDbEntity
  8
_U_30EC_U_30A4_U_30E4_U_30
 62
    29
100
AcDbVertex
100
AcDb2dVertex
 10
44.19578042883832
 20
-19.84797048357397
 30
0.0
  0
VERTEX
  5
116
330
114
100
AcDbEntity
  8
_U_30EC_U_30A4_U_30E4_U_30
 62
    29
100
AcDbVertex
100
AcDb2dVertex
 10
36.70010212295044
 20
-19.84797048357397
 30
0.0
  0
SEQEND
  5
117
330
114
100
AcDbEntity
  8
_U_30EC_U_30A4_U_30E4_U_30
 62
    29
  0
POLYLINE
  5
118
330
41
100
AcDbEntity
  8
_U_30EC_U_30A4_U_30E4_U_30
 62
    29
100
AcDb2dPolyline
 66
     1
 10
0.0
 20
0.0
 30
0.0
  0
VERTEX
  5
119
330
118
100
AcDbEntity
  8
_U_30EC_U_30A4_U_30E4_U_30
 62
    29
100
AcDbVertex
100
AcDb2dVertex
 10
44.19578042883832
 20
-22.89457466549938
 30
0.0
  0
VERTEX
  5
11A
330
118
100
AcDbEntity
  8
_U_30EC_U_30A4_U_30E4_U_30
 62
    29
100
AcDbVertex
100
AcDb2dVertex
 10
36.70010212295044
 20
-22.89457466549938
 30
0.0
  0
SEQEND
  5
11B
330
118
100
AcDbEntity
  8
_U_30EC_U_30A4_U_30E4_U_30
 62
    29
  0
MTEXT
  5
11C
330
41
100
AcDbEntity
  8
_U_30EC_U_30A4_U_30E4_U_30
 62
    29
100
AcDbMText
 10
35.02818060105199
 20
-23.28850097074038
 30
0.0
 40
4.566680951756991
 41
0.0
 71
     7
 72
     1
  1
\fA-OTF Futo Go B101 Pro|b1|i0|c0|p34;\W1.06875;1
 11
6.123233995736766E-17
 21
1.0
 31
0.0
  0
SPLINE
  5
11D
330
41
100
AcDbEntity
  8
_U_30EC_U_30A4_U_30E4_U_30
 62
    29
100
AcDbSpline
210
0.0
220
0.0
230
1.0
 70
    11
 71
     3
 72
    17
 73
    13
 74
     0
 42
0.0000000001
 43
0.0000000001
 12
1.0
 22
0.0
 32
0.0
 13
1.0
 23
0.0
 33
0.0
 40
0.0
 40
0.0
 40
0.0
 40
0.0
 40
1.0
 40
1.0
 40
1.0
 40
2.0
 40
2.0
 40
2.0
 40
3.0
 40
3.0
 40
3.0
 40
4.0
 40
4.0
 40
4.0
 40
4.0
 10
52.04428000942946
 20
-19.84797048357397
 30
0.0
 10
52.04428000942946
 20
-19.90677402935817
 30
0.0
 10
51.99601165100729
 20
-19.9550423877813
 30
0.0
 10
51.93505806698643
 20
-19.9550423877813
 30
0.0
 10
51.87625452120287
 20
-19.9550423877813
 30
0.0
 10
51.8279861627807
 20
-19.90677402935817
 30
0.0
 10
51.8279861627807
 20
-19.84797048357397
 30
0.0
 10
51.8279861627807
 20
-19.78916693779138
 30
0.0
 10
51.87625452120287
 20
-19.74089857936857
 30
0.0
 10
51.93505806698643
 20
-19.74089857936857
 30
0.0
 10
51.99601165100729
 20
-19.74089857936857
 30
0.0
 10
52.04428000942946
 20
-19.78916693779138
 30
0.0
 10
52.04428000942946
 20
-19.84797048357397
 30
0.0
  0
SPLINE
  5
11E
330
41
100
AcDbEntity
  8
_U_30EC_U_30A4_U_30E4_U_30
 62
    29
100
AcDbSpline
210
0.0
220
0.0
230
1.0
 70
    11
 71
     3
 72
    17
 73
    13
 74
     0
 42
0.0000000001
 43
0.0000000001
 12
1.0
 22
0.0
 32
0.0
 13
1.0
 23
0.0
 33
0.0
 40
0.0
 40
0.0
 40
0.0
 40
0.0
 40
1.0
 40
1.0
 40
1.0
 40
2.0
 40
2.0
 40
2.0
 40
3.0
 40
3.0
 40
3.0
 40
4.0
 40
4.0
 40
4.0
 40
4.0
 10
52.04428000942946
 20
-22.89457466549938
 30
0.0
 10
52.04428000942946
 20
-22.95542074760815
 30
0.0
 10
51.99601165100729
 20
-23.00379660794209
 30
0.0
 10
51.93505806698643
 20
-23.00379660794209
 30
0.0
 10
51.87625452120287
 20
-23.00379660794209
 30
0.0
 10
51.8279861627807
 20
-22.95542074760815
 30
0.0
 10
51.8279861627807
 20
-22.89457466549938
 30
0.0
 10
51.8279861627807
 20
-22.83577111971454
 30
0.0
 10
51.87625452120287
 20
-22.78750276129366
 30
0.0
 10
51.93505806698643
 20
-22.78750276129366
 30
0.0
 10
51.99601165100729
 20
-22.78750276129366
 30
0.0
 10
52.04428000942946
 20
-22.83577111971454
 30
0.0
 10
52.04428000942946
 20
-22.89457466549938
 30
0.0
  0
SPLINE
  5
11F
330
41
100
AcDbEntity
  8
_U_30EC_U_30A4_U_30E4_U_30
 62
    29
100
AcDbSpline
210
0.0
220
0.0
230
1.0
 70
    11
 71
     3
 72
    17
 73
    13
 74
     0
 42
0.0000000001
 43
0.0000000001
 12
1.0
 22
0.0
 32
0.0
 13
1.0
 23
0.0
 33
0.0
 40
0.0
 40
0.0
 40
0.0
 40
0.0
 40
1.0
 40
1.0
 40
1.0
 40
2.0
 40
2.0
 40
2.0
 40
3.0
 40
3.0
 40
3.0
 40
4.0
 40
4.0
 40
4.0
 40
4.0
 10
39.85377820908092
 20
-25.94322138374904
 30
0.0
 10
39.85377820908092
 20
-26.00202492953323
 30
0.0
 10
39.80540234874731
 20
-26.05029328795444
 30
0.0
 10
39.74659880296343
 20
-26.05029328795444
 30
0.0
 10
39.68790275909132
 20
-26.05029328795444
 30
0.0
 10
39.63952689875707
 20
-26.00202492953323
 30
0.0
 10
39.63952689875707
 20
-25.94322138374904
 30
0.0
 10
39.63952689875707
 20
-25.88237530164027
 30
0.0
 10
39.68790275909132
 20
-25.83614947954364
 30
0.0
 10
39.74659880296343
 20
-25.83614947954364
 30
0.0
 10
39.80540234874731
 20
-25.83614947954364
 30
0.0
 10
39.85377820908092
 20
-25.88237530164027
 30
0.0
 10
39.85377820908092
 20
-25.94322138374904
 30
0.0
  0
POLYLINE
  5
120
330
41
100
AcDbEntity
  8
_U_30EC_U_30A4_U_30E4_U_30
 62
    29
100
AcDb2dPolyline
 66
     1
 10
0.0
 20
0.0
 30
0.0
  0
VERTEX
  5
121
330
120
100
AcDbEntity
  8
_U_30EC_U_30A4_U_30E4_U_30
 62
    29
100
AcDbVertex
100
AcDb2dVertex
 10
146.4023589365942
 20
-53.36889413195806
 30
0.0
  0
VERTEX
  5
122
330
120
100
AcDbEntity
  8
_U_30EC_U_30A4_U_30E4_U_30
 62
    29
100
AcDbVertex
100
AcDb2dVertex
 10
146.4023589365942
 20
-62.51074921405628
 30
0.0
  0
SEQEND
  5
123
330
120
100
AcDbEntity
  8
_U_30EC_U_30A4_U_30E4_U_30
 62
    29
  0
POLYLINE
  5
124
330
41
100
AcDbEntity
  8
_U_30EC_U_30A4_U_30E4_U_30
 62
    29
100
AcDb2dPolyline
 66
     1
 10
0.0
 20
0.0
 30
0.0
  0
VERTEX
  5
125
330
124
100
AcDbEntity
  8
_U_30EC_U_30A4_U_30E4_U_30
 62
    29
100
AcDbVertex
100
AcDb2dVertex
 10
150.8515404500729
 20
-53.36889413195806
 30
0.0
  0
VERTEX
  5
126
330
124
100
AcDbEntity
  8
_U_30EC_U_30A4_U_30E4_U_30
 62
    29
100
AcDbVertex
100
AcDb2dVertex
 10
143.3557548316329
 20
-53.36889413195806
 30
0.0
  0
SEQEND
  5
127
330
124
100
AcDbEntity
  8
_U_30EC_U_30A4_U_30E4_U_30
 62
    29
  0
POLYLINE
  5
128
330
41
100
AcDbEntity
  8
_U_30EC_U_30A4_U_30E4_U_30
 62
    29
100
AcDb2dPolyline
 66
     1
 10
0.0
 20
0.0
 30
0.0
  0
VERTEX
  5
129
330
128
100
AcDbEntity
  8
_U_30EC_U_30A4_U_30E4_U_30
 62
    29
100
AcDbVertex
100
AcDb2dVertex
 10
150.8515404500729
 20
-62.51074921405628
 30
0.0
  0
VERTEX
  5
12A
330
128
100
AcDbEntity
  8
_U_30EC_U_30A4_U_30E4_U_30
 62
    29
100
AcDbVertex
100
AcDb2dVertex
 10
143.3557548316329
 20
-62.51074921405628
 30
0.0
  0
SEQEND
  5
12B
330
128
100
AcDbEntity
  8
_U_30EC_U_30A4_U_30E4_U_30
 62
    29
  0
MTEXT
  5
12C
330
41
100
AcDbEntity
  8
_U_30EC_U_30A4_U_30E4_U_30
 62
    29
100
AcDbMText
 10
145.2655517214961
 20
-59.85612248937625
 30
0.0
 40
4.566680951756991
 41
0.0
 71
     7
 72
     1
  1
\fA-OTF Futo Go B101 Pro|b1|i0|c0|p34;\W1.06875;3
 11
6.123233995736766E-17
 21
1.0
 31
0.0
  0
SPLINE
  5
12D
330
41
100
AcDbEntity
  8
_U_30EC_U_30A4_U_30E4_U_30
 62
    29
100
AcDbSpline
210
0.0
220
0.0
230
1.0
 70
    11
 71
     3
 72
    17
 73
    13
 74
     0
 42
0.0000000001
 43
0.0000000001
 12
1.0
 22
0.0
 32
0.0
 13
1.0
 23
0.0
 33
0.0
 40
0.0
 40
0.0
 40
0.0
 40
0.0
 40
1.0
 40
1.0
 40
1.0
 40
2.0
 40
2.0
 40
2.0
 40
3.0
 40
3.0
 40
3.0
 40
4.0
 40
4.0
 40
4.0
 40
4.0
 10
158.7000398323945
 20
-53.36889413195806
 30
0.0
 10
158.7000398323945
 20
-53.4275901758292
 30
0.0
 10
158.6517714751922
 20
-53.47596603616346
 30
0.0
 10
158.590817892711
 20
-53.47596603616346
 30
0.0
 10
158.5320143484127
 20
-53.47596603616346
 30
0.0
 10
158.4837459912104
 20
-53.4275901758292
 30
0.0
 10
158.4837459912104
 20
-53.36889413195806
 30
0.0
 10
158.4837459912104
 20
-53.30794054793591
 30
0.0
 10
158.5320143484127
 20
-53.26171472583896
 30
0.0
 10
158.590817892711
 20
-53.26171472583896
 30
0.0
 10
158.6517714751922
 20
-53.26171472583896
 30
0.0
 10
158.7000398323945
 20
-53.30794054793591
 30
0.0
 10
158.7000398323945
 20
-53.36889413195806
 30
0.0
  0
SPLINE
  5
12E
330
41
100
AcDbEntity
  8
_U_30EC_U_30A4_U_30E4_U_30
 62
    29
100
AcDbSpline
210
0.0
220
0.0
230
1.0
 70
    11
 71
     3
 72
    17
 73
    13
 74
     0
 42
0.0000000001
 43
0.0000000001
 12
1.0
 22
0.0
 32
0.0
 13
1.0
 23
0.0
 33
0.0
 40
0.0
 40
0.0
 40
0.0
 40
0.0
 40
1.0
 40
1.0
 40
1.0
 40
2.0
 40
2.0
 40
2.0
 40
3.0
 40
3.0
 40
3.0
 40
4.0
 40
4.0
 40
4.0
 40
4.0
 10
158.7000398323945
 20
-62.51074921405628
 30
0.0
 10
158.7000398323945
 20
-62.56944525792807
 30
0.0
 10
158.6517714751922
 20
-62.61782111826169
 30
0.0
 10
158.590817892711
 20
-62.61782111826169
 30
0.0
 10
158.5320143484127
 20
-62.61782111826169
 30
0.0
 10
158.4837459912104
 20
-62.56944525792807
 30
0.0
 10
158.4837459912104
 20
-62.51074921405628
 30
0.0
 10
158.4837459912104
 20
-62.44979563003446
 30
0.0
 10
158.5320143484127
 20
-62.40367730985088
 30
0.0
 10
158.590817892711
 20
-62.40367730985088
 30
0.0
 10
158.6517714751922
 20
-62.40367730985088
 30
0.0
 10
158.7000398323945
 20
-62.44979563003446
 30
0.0
 10
158.7000398323945
 20
-62.51074921405628
 30
0.0
  0
SPLINE
  5
12F
330
41
100
AcDbEntity
  8
_U_30EC_U_30A4_U_30E4_U_30
 62
    29
100
AcDbSpline
210
0.0
220
0.0
230
1.0
 70
    11
 71
     3
 72
    17
 73
    13
 74
     0
 42
0.0000000001
 43
0.0000000001
 12
1.0
 22
0.0
 32
0.0
 13
1.0
 23
0.0
 33
0.0
 40
0.0
 40
0.0
 40
0.0
 40
0.0
 40
1.0
 40
1.0
 40
1.0
 40
2.0
 40
2.0
 40
2.0
 40
3.0
 40
3.0
 40
3.0
 40
4.0
 40
4.0
 40
4.0
 40
4.0
 10
146.5094308380948
 20
-62.51074921405628
 30
0.0
 10
146.5094308380948
 20
-62.56944525792807
 30
0.0
 10
146.4611624808925
 20
-62.61782111826169
 30
0.0
 10
146.4023589365942
 20
-62.61782111826169
 30
0.0
 10
146.3435553922959
 20
-62.61782111826169
 30
0.0
 10
146.2952870350923
 20
-62.56944525792807
 30
0.0
 10
146.2952870350923
 20
-62.51074921405628
 30
0.0
 10
146.2952870350923
 20
-62.44979563003446
 30
0.0
 10
146.3435553922959
 20
-62.40367730985088
 30
0.0
 10
146.4023589365942
 20
-62.40367730985088
 30
0.0
 10
146.4611624808925
 20
-62.40367730985088
 30
0.0
 10
146.5094308380948
 20
-62.44979563003446
 30
0.0
 10
146.5094308380948
 20
-62.51074921405628
 30
0.0
  0
POLYLINE
  5
130
330
41
100
AcDbEntity
  8
_U_30EC_U_30A4_U_30E4_U_30
 62
    29
100
AcDb2dPolyline
 66
     1
 10
0.0
 20
0.0
 30
0.0
  0
VERTEX
  5
131
330
130
100
AcDbEntity
  8
_U_30EC_U_30A4_U_30E4_U_30
 62
    29
100
AcDbVertex
100
AcDb2dVertex
 10
146.4023589365942
 20
-53.36889413195806
 30
0.0
  0
VERTEX
  5
132
330
130
100
AcDbEntity
  8
_U_30EC_U_30A4_U_30E4_U_30
 62
    29
100
AcDbVertex
100
AcDb2dVertex
 10
146.4023589365942
 20
-22.89457466549938
 30
0.0
  0
SEQEND
  5
133
330
130
100
AcDbEntity
  8
_U_30EC_U_30A4_U_30E4_U_30
 62
    29
  0
MTEXT
  5
134
330
41
100
AcDbEntity
  8
_U_30EC_U_30A4_U_30E4_U_30
 62
    29
100
AcDbMText
 10
145.2655517214961
 20
-41.96505261537679
 30
0.0
 40
4.566680951756991
 41
0.0
 71
     7
 72
     1
  1
\fA-OTF Futo Go B101 Pro|b1|i0|c0|p34;\W1.06875;10
 11
6.123233995736766E-17
 21
1.0
 31
0.0
  0
SPLINE
  5
135
330
41
100
AcDbEntity
  8
_U_30EC_U_30A4_U_30E4_U_30
 62
    29
100
AcDbSpline
210
0.0
220
0.0
230
1.0
 70
    11
 71
     3
 72
    17
 73
    13
 74
     0
 42
0.0000000001
 43
0.0000000001
 12
1.0
 22
0.0
 32
0.0
 13
1.0
 23
0.0
 33
0.0
 40
0.0
 40
0.0
 40
0.0
 40
0.0
 40
1.0
 40
1.0
 40
1.0
 40
2.0
 40
2.0
 40
2.0
 40
3.0
 40
3.0
 40
3.0
 40
4.0
 40
4.0
 40
4.0
 40
4.0
 10
158.7000398323945
 20
-53.36889413195806
 30
0.0
 10
158.7000398323945
 20
-53.4275901758292
 30
0.0
 10
158.6517714751922
 20
-53.47596603616346
 30
0.0
 10
158.590817892711
 20
-53.47596603616346
 30
0.0
 10
158.5320143484127
 20
-53.47596603616346
 30
0.0
 10
158.4837459912104
 20
-53.4275901758292
 30
0.0
 10
158.4837459912104
 20
-53.36889413195806
 30
0.0
 10
158.4837459912104
 20
-53.30794054793591
 30
0.0
 10
158.5320143484127
 20
-53.26171472583896
 30
0.0
 10
158.590817892711
 20
-53.26171472583896
 30
0.0
 10
158.6517714751922
 20
-53.26171472583896
 30
0.0
 10
158.7000398323945
 20
-53.30794054793591
 30
0.0
 10
158.7000398323945
 20
-53.36889413195806
 30
0.0
  0
SPLINE
  5
136
330
41
100
AcDbEntity
  8
_U_30EC_U_30A4_U_30E4_U_30
 62
    29
100
AcDbSpline
210
0.0
220
0.0
230
1.0
 70
    11
 71
     3
 72
    17
 73
    13
 74
     0
 42
0.0000000001
 43
0.0000000001
 12
1.0
 22
0.0
 32
0.0
 13
1.0
 23
0.0
 33
0.0
 40
0.0
 40
0.0
 40
0.0
 40
0.0
 40
1.0
 40
1.0
 40
1.0
 40
2.0
 40
2.0
 40
2.0
 40
3.0
 40
3.0
 40
3.0
 40
4.0
 40
4.0
 40
4.0
 40
4.0
 10
186.1256043858637
 20
-22.89457466549938
 30
0.0
 10
186.1256043858637
 20
-22.95542074760815
 30
0.0
 10
186.0773360286601
 20
-23.00379660794209
 30
0.0
 10
186.0163824461796
 20
-23.00379660794209
 30
0.0
 10
185.9576864037905
 20
-23.00379660794209
 30
0.0
 10
185.9093105446784
 20
-22.95542074760815
 30
0.0
 10
185.9093105446784
 20
-22.89457466549938
 30
0.0
 10
185.9093105446784
 20
-22.83577111971454
 30
0.0
 10
185.9576864037905
 20
-22.78750276129366
 30
0.0
 10
186.0163824461796
 20
-22.78750276129366
 30
0.0
 10
186.0773360286601
 20
-22.78750276129366
 30
0.0
 10
186.1256043858637
 20
-22.83577111971454
 30
0.0
 10
186.1256043858637
 20
-22.89457466549938
 30
0.0
  0
SPLINE
  5
137
330
41
100
AcDbEntity
  8
_U_30EC_U_30A4_U_30E4_U_30
 62
    29
100
AcDbSpline
210
0.0
220
0.0
230
1.0
 70
    11
 71
     3
 72
    17
 73
    13
 74
     0
 42
0.0000000001
 43
0.0000000001
 12
1.0
 22
0.0
 32
0.0
 13
1.0
 23
0.0
 33
0.0
 40
0.0
 40
0.0
 40
0.0
 40
0.0
 40
1.0
 40
1.0
 40
1.0
 40
2.0
 40
2.0
 40
2.0
 40
3.0
 40
3.0
 40
3.0
 40
4.0
 40
4.0
 40
4.0
 40
4.0
 10
146.5094308380948
 20
-22.89457466549938
 30
0.0
 10
146.5094308380948
 20
-22.95542074760815
 30
0.0
 10
146.4611624808925
 20
-23.00379660794209
 30
0.0
 10
146.4023589365942
 20
-23.00379660794209
 30
0.0
 10
146.3435553922959
 20
-23.00379660794209
 30
0.0
 10
146.2952870350923
 20
-22.95542074760815
 30
0.0
 10
146.2952870350923
 20
-22.89457466549938
 30
0.0
 10
146.2952870350923
 20
-22.83577111971454
 30
0.0
 10
146.3435553922959
 20
-22.78750276129366
 30
0.0
 10
146.4023589365942
 20
-22.78750276129366
 30
0.0
 10
146.4611624808925
 20
-22.78750276129366
 30
0.0
 10
146.5094308380948
 20
-22.83577111971454
 30
0.0
 10
146.5094308380948
 20
-22.89457466549938
 30
0.0
  0
ENDBLK
  5
44
330
41
100
AcDbEntity
  8
0
100
AcDbBlockEnd
  0
ENDSEC
  0
SECTION
  2
ENTITIES
  0
INSERT
  5
42
330
1F
100
AcDbEntity
  8
_U_30EC_U_30A4_U_30E4_U_30
100
AcDbBlockReference
  2
BLOCK_2
 10
0.0
 20
0.0
 30
0.0
  0
ENDSEC
  0
SECTION
  2
OBJECTS
  0
DICTIONARY
  5
C
330
0
100
AcDbDictionary
  3
ACAD_GROUP
350
D
  3
ACAD_LAYOUT
350
1A
  3
ACAD_MATERIAL
350
3B
  3
ACAD_MLEADERSTYLE
350
15B
  3
ACAD_MLINESTYLE
350
17
  3
ACAD_PLOTSETTINGS
350
19
  3
ACAD_VISUALSTYLE
350
2A
  3
ACDBHEADERROUNDTRIPXREC
350
139
  3
ACDBVARIABLEDICTIONARY
350
159
  0
DICTIONARY
  5
D
102
{ACAD_REACTORS
330
C
102
}
330
C
100
AcDbDictionary
  0
DICTIONARY
  5
1A
102
{ACAD_REACTORS
330
C
102
}
330
C
100
AcDbDictionary
  0
DICTIONARY
  5
3B
102
{ACAD_REACTORS
330
C
102
}
330
C
100
AcDbDictionary
  3
BYBLOCK
350
3D
  3
BYLAYER
350
3C
  3
GLOBAL
350
3E
  0
DICTIONARY
  5
15B
102
{ACAD_REACTORS
330
C
102
}
330
C
100
AcDbDictionary
  0
DICTIONARY
  5
17
102
{ACAD_REACTORS
330
C
102
}
330
C
100
AcDbDictionary
  3
STANDARD
350
18
  0
DICTIONARY
  5
19
102
{ACAD_REACTORS
330
C
102
}
330
C
100
AcDbDictionary
  0
DICTIONARY
  5
2A
102
{ACAD_REACTORS
330
C
102
}
330
C
100
AcDbDictionary
  3
2DWIREFRAME
350
2F
  3
3DWIREFRAME
350
30
  3
3D_HIDDEN
350
31
  3
BASIC
350
32
  3
BRIGHTEN
350
36
  3
COLORCHANGE
350
3A
  3
CONCEPTUAL
350
34
  3
DIM
350
35
  3
FACEPATTERN
350
39
  3
FLAT
350
2B
  3
FLATWITHEDGES
350
2C
  3
GOURAUD
350
2D
  3
GOURAUDWITHEDGES
350
2E
  3
LINEPATTERN
350
38
  3
REALISTIC
350
33
  3
THICKEN
350
37
  0
DICTIONARY
  5
139
102
{ACAD_REACTORS
330
C
102
}
330
C
100
AcDbDictionary
  3
CEPSNTYPE
350
142
  3
DIMSTYLEDATA
350
158
  3
FINGERPRINTGUID
350
143
  3
HYPERLINKBASE
350
13C
  3
INSUNITS
350
141
  3
LAYOUTDICT
350
13E
  3
LWETCUNION
350
140
  3
PLOTSETDICT
350
13F
  3
PSVPSCALE
350
145
  3
PUCSBASE
350
148
  3
PUCSORGBACK
350
14E
  3
PUCSORGBOTTOM
350
14A
  3
PUCSORGFRONT
350
14D
  3
PUCSORGLEFT
350
14B
  3
PUCSORGRIGHT
350
14C
  3
PUCSORGTOP
350
149
  3
PUCSORTHOREF
350
146
  3
PUCSORTHOVIEW
350
147
  3
STYLESHEET
350
13D
  3
TSTACKALIGN
350
13A
  3
TSTACKSIZE
350
13B
  3
UCSBASE
350
151
  3
UCSORGBACK
350
157
  3
UCSORGBOTTOM
350
153
  3
UCSORGFRONT
350
156
  3
UCSORGLEFT
350
154
  3
UCSORGRIGHT
350
155
  3
UCSORGTOP
350
152
  3
UCSORTHOREF
350
14F
  3
UCSORTHOVIEW
350
150
  3
VERSIONGUID
350
144
  0
DICTIONARY
  5
159
102
{ACAD_REACTORS
330
C
102
}
330
C
100
AcDbDictionary
  3
DIMASSOC
350
15C
  3
HIDETEXT
350
15D
  0
MATERIAL
  5
3D
102
{ACAD_REACTORS
330
3B
102
}
102
{ACAD_XDICTIONARY
360
160
102
}
330
3B
100
AcDbMaterial
  1
ByBlock
  0
MATERIAL
  5
3C
102
{ACAD_REACTORS
330
3B
102
}
102
{ACAD_XDICTIONARY
360
15E
102
}
330
3B
100
AcDbMaterial
  1
ByLayer
  0
MATERIAL
  5
3E
102
{ACAD_REACTORS
330
3B
102
}
102
{ACAD_XDICTIONARY
360
162
102
}
330
3B
100
AcDbMaterial
  1
Global
  0
MLINESTYLE
  5
18
102
{ACAD_REACTORS
330
17
102
}
330
17
100
AcDbMlineStyle
  2
Standard
 70
     0
  3

 62
   256
 51
90.0
 52
90.0
 71
     2
 49
0.5
 62
   256
  6
BYLAYER
 49
-0.5
 62
   256
  6
BYLAYER
  0
ACAD_PROXY_OBJECT
  5
2F
102
{ACAD_REACTORS
330
2A
102
}
330
2A
100
AcDbProxyObject
 90
      499
 91
      501
 93
      436
310
42CC9915DA5C99599C985B595049028333333333333E3BF0000000000000FB0107901411070040501600405405064090741402480A0340
1001
ACAD
1000
AcDbSavedByObjectVersion
1070
     0
  0
ACAD_PROXY_OBJECT
  5
30
102
{ACAD_REACTORS
330
2A
102
}
330
2A
100
AcDbProxyObject
 90
      499
 91
      501
 93
      436
310
42CCD915DA5C99599C985B595059028333333333333E3BF0000000000000FB0107901411070040501600405405064090741402480A0340
1001
ACAD
1000
AcDbSavedByObjectVersion
1070
     0
  0
ACAD_PROXY_OBJECT
  5
31
102
{ACAD_REACTORS
330
2A
102
}
330
2A
100
AcDbProxyObject
 90
      499
 91
      501
 93
      500
310
424CD108121A5919195B90640502408333333333333E3BF0000000000000FB01079024090700405020000000000001110200405405064090740C02480A0340
1001
ACAD
1000
AcDbSavedByObjectVersion
1070
     0
  0
ACAD_PROXY_OBJECT
  5
32
102
{ACAD_REACTORS
330
2A
102
}
330
2A
100
AcDbProxyObject
 90
      499
 91
      501
 93
      388
310
4150985CDA58D07406404333333333333E3BF0000000000000FB0107A41107004050150841D405064090741402480A0350
1001
ACAD
1000
AcDbSavedByObjectVersion
1070
     0
  0
ACAD_PROXY_OBJECT
  5
36
102
{ACAD_REACTORS
330
2A
102
}
330
2A
100
AcDbProxyObject
 90
      499
 91
      501
 93
      428
310
42109C9A59DA1D195B90C409028333333333333E3BF0000000000000FB010790141107004050150841D405064090741402480A029950
1001
ACAD
1000
AcDbSavedByObjectVersion
1070
     0
  0
ACAD_PROXY_OBJECT
  5
3A
102
{ACAD_REACTORS
330
2A
102
}
330
2A
100
AcDbProxyObject
 90
      499
 91
      501
 93
      452
310
42D0DBDB1BDC90DA185B99D95104090240C333333333333E3BF0000000000000FB0108901411070040501508421405064090741402480A0350
1001
ACAD
1000
AcDbSavedByObjectVersion
1070
     0
  0
ACAD_PROXY_OBJECT
  5
34
102
{ACAD_REACTORS
330
2A
102
}
330
2A
100
AcDbProxyObject
 90
      499
 91
      501
 93
      500
310
4290DBDB98D95C1D1D585B10940D028333333333333E3BF0000000000000FB0107902409070040501000000000000111010841D405064090740C02480A0340
1001
ACAD
1000
AcDbSavedByObjectVersion
1070
     0
  0
ACAD_PROXY_OBJECT
  5
35
102
{ACAD_REACTORS
330
2A
102
}
330
2A
100
AcDbProxyObject
 90
      499
 91
      501
 93
      412
310
40D11A5B50B409028333333333333E3BF0000000000000FB010790141107004050150841D405064090741402480A02677FFFFFD0
1001
ACAD
1000
AcDbSavedByObjectVersion
1070
     0
  0
ACAD_PROXY_OBJECT
  5
39
102
{ACAD_REACTORS
330
2A
102
}
330
2A
100
AcDbProxyObject
 90
      499
 91
      501
 93
      444
310
42D19858D95C185D1D195C9B90F409028333333333333E3BF0000000000000FB010790141107004050150841D405064090741402480A0350
1001
ACAD
1000
AcDbSavedByObjectVersion
1070
     0
  0
ACAD_PROXY_OBJECT
  5
2B
102
{ACAD_REACTORS
330
2A
102
}
330
2A
100
AcDbProxyObject
 90
      499
 91
      501
 93
      388
310
41119B185D240901404333333333333E3BF0000000000000F9010740A41107004050150841D405064090741402480A1B50
1001
ACAD
1000
AcDbSavedByObjectVersion
1070
     0
  0
ACAD_PROXY_OBJECT
  5
2C
102
{ACAD_REACTORS
330
2A
102
}
330
2A
100
AcDbProxyObject
 90
      499
 91
      501
 93
      476
310
43519B185D15DA5D1A115919D95CD0140901404333333333333E3BF0000000000000F9010740901411070040501600405405064090741402480A1B50
1001
ACAD
1000
AcDbSavedByObjectVersion
1070
     0
  0
ACAD_PROXY_OBJECT
  5
2D
102
{ACAD_REACTORS
330
2A
102
}
330
2A
100
AcDbProxyObject
 90
      499
 91
      501
 93
      412
310
41D1DBDD5C985D5910240902404333333333333E3BF0000000000000F9010740A411070040501641D405064090741402480A1B50
1001
ACAD
1000
AcDbSavedByObjectVersion
1070
     0
  0
ACAD_PROXY_OBJECT
  5
2E
102
{ACAD_REACTORS
330
2A
102
}
330
2A
100
AcDbProxyObject
 90
      499
 91
      501
 93
      500
310
4411DBDD5C985D5915DA5D1A115919D95CD0340902404333333333333E3BF0000000000000F9010740901411070040501600405405064090741402480A1B50
1001
ACAD
1000
AcDbSavedByObjectVersion
1070
     0
  0
ACAD_PROXY_OBJECT
  5
38
102
{ACAD_REACTORS
330
2A
102
}
330
2A
100
AcDbProxyObject
 90
      499
 91
      501
 93
      444
310
42D31A5B995C185D1D195C9B90E409028333333333333E3BF0000000000000FB010790141107004050750841D405064090741402483A0350
1001
ACAD
1000
AcDbSavedByObjectVersion
1070
     0
  0
ACAD_PROXY_OBJECT
  5
33
102
{ACAD_REACTORS
330
2A
102
}
330
2A
100
AcDbProxyObject
 90
      499
 91
      501
 93
      420
310
425499585B1A5CDD1A58D08409028333333333333E3BF0000000000000FB01079019070040501508421405064090741402480A1B40
1001
ACAD
1000
AcDbSavedByObjectVersion
1070
     0
  0
ACAD_PROXY_OBJECT
  5
37
102
{ACAD_REACTORS
330
2A
102
}
330
2A
100
AcDbProxyObject
 90
      499
 91
      501
 93
      412
310
41D51A1A58DAD95B90D409028333333333333E3BF0000000000000FB010790141107004050150C41D405064090741402480A0350
1001
ACAD
1000
AcDbSavedByObjectVersion
1070
     0
  0
XRECORD
  5
142
102
{ACAD_REACTORS
330
139
102
}
330
139
100
AcDbXrecord
 90
        0
  0
XRECORD
  5
158
102
{ACAD_REACTORS
330
139
102
}
330
139
100
AcDbXrecord
1000
DSTYLE
1002
{
1070
   340
340
11
1002
}
  0
XRECORD
  5
143
102
{ACAD_REACTORS
330
139
102
}
330
139
100
AcDbXrecord
  1
{0F991E7E-B849-FBC1-D83D-70AE1A9D247F}
  0
XRECORD
  5
13C
102
{ACAD_REACTORS
330
139
102
}
330
139
100
AcDbXrecord
  1

  0
XRECORD
  5
141
102
{ACAD_REACTORS
330
139
102
}
330
139
100
AcDbXrecord
 90
        1
  0
XRECORD
  5
13E
102
{ACAD_REACTORS
330
139
102
}
330
139
100
AcDbXrecord
340
1A
  0
XRECORD
  5
140
102
{ACAD_REACTORS
330
139
102
}
330
139
100
AcDbXrecord
 90
    10269
  0
XRECORD
  5
13F
102
{ACAD_REACTORS
330
139
102
}
330
139
100
AcDbXrecord
340
19
  0
XRECORD
  5
145
102
{ACAD_REACTORS
330
139
102
}
330
139
100
AcDbXrecord
 40
0.0
  0
XRECORD
  5
148
102
{ACAD_REACTORS
330
139
102
}
330
139
100
AcDbXrecord
340
0
  0
XRECORD
  5
14E
102
{ACAD_REACTORS
330
139
102
}
330
139
100
AcDbXrecord
 10
0.0
 20
0.0
 30
0.0
  0
XRECORD
  5
14A
102
{ACAD_REACTORS
330
139
102
}
330
139
100
AcDbXrecord
 10
0.0
 20
0.0
 30
0.0
  0
XRECORD
  5
14D
102
{ACAD_REACTORS
330
139
102
}
330
139
100
AcDbXrecord
 10
0.0
 20
0.0
 30
0.0
  0
XRECORD
  5
14B
102
{ACAD_REACTORS
330
139
102
}
330
139
100
AcDbXrecord
 10
0.0
 20
0.0
 30
0.0
  0
XRECORD
  5
14C
102
{ACAD_REACTORS
330
139
102
}
330
139
100
AcDbXrecord
 10
0.0
 20
0.0
 30
0.0
  0
XRECORD
  5
149
102
{ACAD_REACTORS
330
139
102
}
330
139
100
AcDbXrecord
 10
0.0
 20
0.0
 30
0.0
  0
XRECORD
  5
146
102
{ACAD_REACTORS
330
139
102
}
330
139
100
AcDbXrecord
340
0
  0
XRECORD
  5
147
102
{ACAD_REACTORS
330
139
102
}
330
139
100
AcDbXrecord
 70
     0
  0
XRECORD
  5
13D
102
{ACAD_REACTORS
330
139
102
}
330
139
100
AcDbXrecord
  1

  0
XRECORD
  5
13A
102
{ACAD_REACTORS
330
139
102
}
330
139
100
AcDbXrecord
 90
        1
  0
XRECORD
  5
13B
102
{ACAD_REACTORS
330
139
102
}
330
139
100
AcDbXrecord
 90
       70
  0
XRECORD
  5
151
102
{ACAD_REACTORS
330
139
102
}
330
139
100
AcDbXrecord
340
0
  0
XRECORD
  5
157
102
{ACAD_REACTORS
330
139
102
}
330
139
100
AcDbXrecord
 10
0.0
 20
0.0
 30
0.0
  0
XRECORD
  5
153
102
{ACAD_REACTORS
330
139
102
}
330
139
100
AcDbXrecord
 10
0.0
 20
0.0
 30
0.0
  0
XRECORD
  5
156
102
{ACAD_REACTORS
330
139
102
}
330
139
100
AcDbXrecord
 10
0.0
 20
0.0
 30
0.0
  0
XRECORD
  5
154
102
{ACAD_REACTORS
330
139
102
}
330
139
100
AcDbXrecord
 10
0.0
 20
0.0
 30
0.0
  0
XRECORD
  5
155
102
{ACAD_REACTORS
330
139
102
}
330
139
100
AcDbXrecord
 10
0.0
 20
0.0
 30
0.0
  0
XRECORD
  5
152
102
{ACAD_REACTORS
330
139
102
}
330
139
100
AcDbXrecord
 10
0.0
 20
0.0
 30
0.0
  0
XRECORD
  5
14F
102
{ACAD_REACTORS
330
139
102
}
330
139
100
AcDbXrecord
340
0
  0
XRECORD
  5
150
102
{ACAD_REACTORS
330
139
102
}
330
139
100
AcDbXrecord
 70
     0
  0
XRECORD
  5
144
102
{ACAD_REACTORS
330
139
102
}
330
139
100
AcDbXrecord
  1
{FAEB1C32-E019-11D5-929B-00C0DF256EC4}
  0
DICTIONARYVAR
  5
15C
102
{ACAD_REACTORS
330
159
102
}
330
159
100
DictionaryVariables
280
     0
  1
2
  0
DICTIONARYVAR
  5
15D
102
{ACAD_REACTORS
330
159
102
}
330
159
100
DictionaryVariables
280
     0
  1
1
  0
DICTIONARY
  5
160
330
3D
100
AcDbDictionary
280
     1
  3
ACAD_XREC_ROUNDTRIP
360
161
  0
DICTIONARY
  5
15E
330
3C
100
AcDbDictionary
280
     1
  3
ACAD_XREC_ROUNDTRIP
360
15F
  0
DICTIONARY
  5
162
330
3E
100
AcDbDictionary
280
     1
  3
ACAD_XREC_ROUNDTRIP
360
163
  0
XRECORD
  5
161
102
{ACAD_REACTORS
330
160
102
}
330
160
100
AcDbXrecord
102
MATERIAL
148
0.0
149
0.0
149
0.0
 93
        0
 94
      127
282
     0
 72
     1
 77
     1
171
     1
175
     1
179
     1
273
     0
  0
XRECORD
  5
15F
102
{ACAD_REACTORS
330
15E
102
}
330
15E
100
AcDbXrecord
102
MATERIAL
148
0.0
149
0.0
149
0.0
 93
        0
 94
      127
282
     0
 72
     1
 77
     1
171
     1
175
     1
179
     1
273
     0
  0
XRECORD
  5
163
102
{ACAD_REACTORS
330
162
102
}
330
162
100
AcDbXrecord
102
MATERIAL
148
0.0
149
0.0
149
0.0
 93
        0
 94
      127
282
     0
 72
     1
 77
     1
171
     1
175
     1
179
     1
273
     0
  0
ENDSEC
  0
EOF
