  0
SECTION
  2
HEADER
  9
$ACADVER
  1
AC1024
  9
$ACADMAINTVER
 70
     6
  9
$DWGCODEPAGE
  3
UNDEFINED
  9
$INSBASE
 10
0.0
 20
0.0
 30
0.0
  9
$EXTMIN
 10
1.000000000000000E+20
 20
1.000000000000000E+20
 30
1.000000000000000E+20
  9
$EXTMAX
 10
-1.000000000000000E+20
 20
-1.000000000000000E+20
 30
-1.000000000000000E+20
  9
$LIMMIN
 10
0.0
 20
0.0
  9
$LIMMAX
 10
12.0
 20
9.0
  9
$ORTHOMODE
 70
     0
  9
$REGENMODE
 70
     1
  9
$FILLMODE
 70
     1
  9
$QTEXTMODE
 70
     0
  9
$MIRRTEXT
 70
     1
  9
$LTSCALE
 40
1.0
  9
$ATTMODE
 70
     1
  9
$TEXTSIZE
 40
0.2
  9
$TRACEWID
 40
0.05
  9
$TEXTSTYLE
  7
Standard
  9
$CLAYER
  8
0
  9
$CELTYPE
  6
ByLayer
  9
$CECOLOR
 62
   256
  9
$CELTSCALE
 40
1.0
  9
$DISPSILH
 70
     0
  9
$DIMSCALE
 40
1.0
  9
$DIMASZ
 40
0.18
  9
$DIMEXO
 40
0.0625
  9
$DIMDLI
 40
0.38
  9
$DIMRND
 40
0.0
  9
$DIMDLE
 40
0.0
  9
$DIMEXE
 40
0.18
  9
$DIMTP
 40
0.0
  9
$DIMTM
 40
0.0
  9
$DIMTXT
 40
0.18
  9
$DIMCEN
 40
0.09
  9
$DIMTSZ
 40
0.0
  9
$DIMTOL
 70
     0
  9
$DIMLIM
 70
     0
  9
$DIMTIH
 70
     1
  9
$DIMTOH
 70
     1
  9
$DIMSE1
 70
     0
  9
$DIMSE2
 70
     0
  9
$DIMTAD
 70
     0
  9
$DIMZIN
 70
     0
  9
$DIMBLK
  1

  9
$DIMASO
 70
     1
  9
$DIMSHO
 70
     1
  9
$DIMPOST
  1

  9
$DIMAPOST
  1

  9
$DIMALT
 70
     0
  9
$DIMALTD
 70
     2
  9
$DIMALTF
 40
25.4
  9
$DIMLFAC
 40
1.0
  9
$DIMTOFL
 70
     0
  9
$DIMTVP
 40
0.0
  9
$DIMTIX
 70
     0
  9
$DIMSOXD
 70
     0
  9
$DIMSAH
 70
     0
  9
$DIMBLK1
  1

  9
$DIMBLK2
  1

  9
$DIMSTYLE
  2
Standard
  9
$DIMCLRD
 70
     0
  9
$DIMCLRE
 70
     0
  9
$DIMCLRT
 70
     0
  9
$DIMTFAC
 40
1.0
  9
$DIMGAP
 40
0.09
  9
$DIMJUST
 70
     0
  9
$DIMSD1
 70
     0
  9
$DIMSD2
 70
     0
  9
$DIMTOLJ
 70
     1
  9
$DIMTZIN
 70
     0
  9
$DIMALTZ
 70
     0
  9
$DIMALTTZ
 70
     0
  9
$DIMUPT
 70
     0
  9
$DIMDEC
 70
     4
  9
$DIMTDEC
 70
     4
  9
$DIMALTU
 70
     2
  9
$DIMALTTD
 70
     2
  9
$DIMTXSTY
  7
Standard
  9
$DIMAUNIT
 70
     0
  9
$DIMADEC
 70
     0
  9
$DIMALTRND
 40
0.0
  9
$DIMAZIN
 70
     0
  9
$DIMDSEP
 70
    46
  9
$DIMATFIT
 70
     3
  9
$DIMFRAC
 70
     0
  9
$DIMLDRBLK
  1

  9
$DIMLUNIT
 70
     2
  9
$DIMLWD
 70
    -2
  9
$DIMLWE
 70
    -2
  9
$DIMTMOVE
 70
     0
  9
$DIMFXL
 40
1.0
  9
$DIMFXLON
 70
     0
  9
$DIMJOGANG
 40
0.7853981633974483
  9
$DIMTFILL
 70
     0
  9
$DIMTFILLCLR
 70
     0
  9
$DIMARCSYM
 70
     0
  9
$DIMLTYPE
  6

  9
$DIMLTEX1
  6

  9
$DIMLTEX2
  6

  9
$DIMTXTDIRECTION
 70
     0
  9
$LUNITS
 70
     2
  9
$LUPREC
 70
     4
  9
$SKETCHINC
 40
0.1
  9
$FILLETRAD
 40
0.5
  9
$AUNITS
 70
     0
  9
$AUPREC
 70
     0
  9
$MENU
  1
.
  9
$ELEVATION
 40
0.0
  9
$PELEVATION
 40
0.0
  9
$THICKNESS
 40
0.0
  9
$LIMCHECK
 70
     0
  9
$CHAMFERA
 40
0.5
  9
$CHAMFERB
 40
0.5
  9
$CHAMFERC
 40
1.0
  9
$CHAMFERD
 40
0.0
  9
$SKPOLY
 70
     0
  9
$TDCREATE
 40
2457917.613796285
  9
$TDUCREATE
 40
2457917.238796296
  9
$TDUPDATE
 40
2457917.613796285
  9
$TDUUPDATE
 40
2457917.238796296
  9
$TDINDWG
 40
0.0000000116
  9
$TDUSRTIMER
 40
0.0000000116
  9
$USRTIMER
 70
     1
  9
$ANGBASE
 50
0.0
  9
$ANGDIR
 70
     0
  9
$PDMODE
 70
     0
  9
$PDSIZE
 40
0.0
  9
$PLINEWID
 40
0.0
  9
$SPLFRAME
 70
     0
  9
$SPLINETYPE
 70
     6
  9
$SPLINESEGS
 70
     8
  9
$HANDSEED
  5
FC
  9
$SURFTAB1
 70
     6
  9
$SURFTAB2
 70
     6
  9
$SURFTYPE
 70
     6
  9
$SURFU
 70
     6
  9
$SURFV
 70
     6
  9
$UCSBASE
  2

  9
$UCSNAME
  2

  9
$UCSORG
 10
0.0
 20
0.0
 30
0.0
  9
$UCSXDIR
 10
1.0
 20
0.0
 30
0.0
  9
$UCSYDIR
 10
0.0
 20
1.0
 30
0.0
  9
$UCSORTHOREF
  2

  9
$UCSORTHOVIEW
 70
     0
  9
$UCSORGTOP
 10
0.0
 20
0.0
 30
0.0
  9
$UCSORGBOTTOM
 10
0.0
 20
0.0
 30
0.0
  9
$UCSORGLEFT
 10
0.0
 20
0.0
 30
0.0
  9
$UCSORGRIGHT
 10
0.0
 20
0.0
 30
0.0
  9
$UCSORGFRONT
 10
0.0
 20
0.0
 30
0.0
  9
$UCSORGBACK
 10
0.0
 20
0.0
 30
0.0
  9
$PUCSBASE
  2

  9
$PUCSNAME
  2

  9
$PUCSORG
 10
0.0
 20
0.0
 30
0.0
  9
$PUCSXDIR
 10
1.0
 20
0.0
 30
0.0
  9
$PUCSYDIR
 10
0.0
 20
1.0
 30
0.0
  9
$PUCSORTHOREF
  2

  9
$PUCSORTHOVIEW
 70
     0
  9
$PUCSORGTOP
 10
0.0
 20
0.0
 30
0.0
  9
$PUCSORGBOTTOM
 10
0.0
 20
0.0
 30
0.0
  9
$PUCSORGLEFT
 10
0.0
 20
0.0
 30
0.0
  9
$PUCSORGRIGHT
 10
0.0
 20
0.0
 30
0.0
  9
$PUCSORGFRONT
 10
0.0
 20
0.0
 30
0.0
  9
$PUCSORGBACK
 10
0.0
 20
0.0
 30
0.0
  9
$USERI1
 70
     0
  9
$USERI2
 70
     0
  9
$USERI3
 70
     0
  9
$USERI4
 70
     0
  9
$USERI5
 70
     0
  9
$USERR1
 40
0.0
  9
$USERR2
 40
0.0
  9
$USERR3
 40
0.0
  9
$USERR4
 40
0.0
  9
$USERR5
 40
0.0
  9
$WORLDVIEW
 70
     1
  9
$SHADEDGE
 70
     3
  9
$SHADEDIF
 70
    70
  9
$TILEMODE
 70
     1
  9
$MAXACTVP
 70
    64
  9
$PINSBASE
 10
0.0
 20
0.0
 30
0.0
  9
$PLIMCHECK
 70
     0
  9
$PEXTMIN
 10
1.000000000000000E+20
 20
1.000000000000000E+20
 30
1.000000000000000E+20
  9
$PEXTMAX
 10
-1.000000000000000E+20
 20
-1.000000000000000E+20
 30
-1.000000000000000E+20
  9
$PLIMMIN
 10
0.0
 20
0.0
  9
$PLIMMAX
 10
12.0
 20
9.0
  9
$UNITMODE
 70
     0
  9
$VISRETAIN
 70
     1
  9
$PLINEGEN
 70
     0
  9
$PSLTSCALE
 70
     1
  9
$TREEDEPTH
 70
  3020
  9
$CMLSTYLE
  2
Standard
  9
$CMLJUST
 70
     0
  9
$CMLSCALE
 40
1.0
  9
$PROXYGRAPHICS
 70
     1
  9
$MEASUREMENT
 70
     0
  9
$CELWEIGHT
370
    -1
  9
$ENDCAPS
280
     0
  9
$JOINSTYLE
280
     0
  9
$LWDISPLAY
290
     1
  9
$INSUNITS
 70
     1
  9
$HYPERLINKBASE
  1

  9
$STYLESHEET
  1

  9
$XEDIT
290
     1
  9
$CEPSNTYPE
380
     0
  9
$PSTYLEMODE
290
     1
  9
$FINGERPRINTGUID
  2
{68F6BF7F-BC49-8F33-20B9-794EF524477B}
  9
$VERSIONGUID
  2
{FAEB1C32-E019-11D5-929B-00C0DF256EC4}
  9
$EXTNAMES
290
     1
  9
$PSVPSCALE
 40
0.0
  9
$OLESTARTUP
290
     0
  9
$SORTENTS
280
   127
  9
$INDEXCTL
280
     0
  9
$HIDETEXT
280
     1
  9
$XCLIPFRAME
280
     2
  9
$HALOGAP
280
     0
  9
$OBSCOLOR
 70
   257
  9
$OBSLTYPE
280
     0
  9
$INTERSECTIONDISPLAY
280
     0
  9
$INTERSECTIONCOLOR
 70
   257
  9
$DIMASSOC
280
     2
  9
$PROJECTNAME
  1

  9
$CAMERADISPLAY
290
     0
  9
$LENSLENGTH
 40
50.0
  9
$CAMERAHEIGHT
 40
0.0
  9
$STEPSPERSEC
 40
2.0
  9
$STEPSIZE
 40
6.0
  9
$3DDWFPREC
 40
2.0
  9
$PSOLWIDTH
 40
0.25
  9
$PSOLHEIGHT
 40
4.0
  9
$LOFTANG1
 40
1.570796326794897
  9
$LOFTANG2
 40
1.570796326794897
  9
$LOFTMAG1
 40
0.0
  9
$LOFTMAG2
 40
0.0
  9
$LOFTPARAM
 70
     7
  9
$LOFTNORMALS
280
     1
  9
$LATITUDE
 40
37.795
  9
$LONGITUDE
 40
-122.394
  9
$NORTHDIRECTION
 40
0.0
  9
$TIMEZONE
 70
 -8000
  9
$LIGHTGLYPHDISPLAY
280
     1
  9
$TILEMODELIGHTSYNCH
280
     1
  9
$CMATERIAL
347
3C
  9
$SOLIDHIST
280
     1
  9
$SHOWHIST
280
     1
  9
$DWFFRAME
280
     2
  9
$DGNFRAME
280
     2
  9
$REALWORLDSCALE
290
     1
  9
$INTERFERECOLOR
 62
   256
  9
$CSHADOW
280
     0
  9
$SHADOWPLANELOCATION
 40
0.0
  0
ENDSEC
  0
SECTION
  2
CLASSES
  0
CLASS
  1
ACDBDICTIONARYWDFLT
  2
AcDbDictionaryWithDefault
  3
ObjectDBX Classes
 90
        0
 91
        4
280
     0
281
     0
  0
CLASS
  1
VISUALSTYLE
  2
AcDbVisualStyle
  3
ObjectDBX Classes
 90
     4095
 91
        4
280
     0
281
     0
  0
CLASS
  1
MATERIAL
  2
AcDbMaterial
  3
ObjectDBX Classes
 90
     1153
 91
        4
280
     0
281
     0
  0
CLASS
  1
SUN
  2
AcDbSun
  3
SCENEOE
 90
     1024
 91
        4
280
     0
281
     0
  0
ENDSEC
  0
SECTION
  2
TABLES
  0
TABLE
  2
VPORT
  5
8
330
0
100
AcDbSymbolTable
 70
     1
  0
VPORT
  5
29
330
8
100
AcDbSymbolTableRecord
100
AcDbViewportTableRecord
  2
*Active
 70
     0
 10
0.0
 20
0.0
 11
1.0
 21
1.0
 12
0.0
 22
0.0
 13
0.0
 23
0.0
 14
0.5
 24
0.5
 15
0.5
 25
0.5
 16
0.0
 26
0.0
 36
1.0
 17
91.00082462281999
 27
-128.4993055234307
 37
0.0
 40
256.9986110468615
 41
0.7081814508812795
 42
50.0
 43
0.0
 44
0.0
 50
0.0
 51
0.0
 71
     0
 72
   100
 73
     1
 74
     3
 75
     0
 76
     0
 77
     0
 78
     0
281
     0
 65
     1
110
0.0
120
0.0
130
0.0
111
1.0
121
0.0
131
0.0
112
0.0
122
1.0
132
0.0
 79
     0
146
0.0
 60
     3
 61
     5
292
     1
282
     1
141
0.0
142
0.0
 63
   250
361
3F
  0
ENDTAB
  0
TABLE
  2
LTYPE
  5
5
330
0
100
AcDbSymbolTable
 70
     1
  0
LTYPE
  5
14
330
5
100
AcDbSymbolTableRecord
100
AcDbLinetypeTableRecord
  2
ByBlock
 70
     0
  3

 72
    65
 73
     0
 40
0.0
  0
LTYPE
  5
15
330
5
100
AcDbSymbolTableRecord
100
AcDbLinetypeTableRecord
  2
ByLayer
 70
     0
  3

 72
    65
 73
     0
 40
0.0
  0
LTYPE
  5
16
330
5
100
AcDbSymbolTableRecord
100
AcDbLinetypeTableRecord
  2
Continuous
 70
     0
  3
Solid line
 72
    65
 73
     0
 40
0.0
  0
ENDTAB
  0
TABLE
  2
LAYER
  5
2
330
0
100
AcDbSymbolTable
 70
     2
  0
LAYER
  5
10
330
2
100
AcDbSymbolTableRecord
100
AcDbLayerTableRecord
  2
0
 70
     0
 62
     7
  6
Continuous
370
    -3
390
F
347
3E
  0
LAYER
  5
40
330
2
100
AcDbSymbolTableRecord
100
AcDbLayerTableRecord
  2
_U+30EC_U+30A4_U+30E4_U+30FC 1
 70
     0
 62
     7
  6
Continuous
370
    -3
390
F
347
3E
  0
ENDTAB
  0
TABLE
  2
STYLE
  5
3
330
0
100
AcDbSymbolTable
 70
     1
  0
STYLE
  5
11
330
3
100
AcDbSymbolTableRecord
100
AcDbTextStyleTableRecord
  2
Standard
 70
     0
 40
0.0
 41
1.0
 50
0.0
 71
     0
 42
0.2
  3
txt
  4

  0
ENDTAB
  0
TABLE
  2
VIEW
  5
6
330
0
100
AcDbSymbolTable
 70
     0
  0
ENDTAB
  0
TABLE
  2
UCS
  5
7
330
0
100
AcDbSymbolTable
 70
     0
  0
ENDTAB
  0
TABLE
  2
APPID
  5
9
330
0
100
AcDbSymbolTable
 70
     1
  0
APPID
  5
12
330
9
100
AcDbSymbolTableRecord
100
AcDbRegAppTableRecord
  2
ACAD
 70
     0
  0
ENDTAB
  0
TABLE
  2
DIMSTYLE
  5
A
330
0
100
AcDbSymbolTable
 70
     1
100
AcDbDimStyleTable
  0
DIMSTYLE
105
27
330
A
100
AcDbSymbolTableRecord
100
AcDbDimStyleTableRecord
  2
Standard
 70
     0
178
     0
340
11
  0
ENDTAB
  0
TABLE
  2
BLOCK_RECORD
  5
1
330
0
100
AcDbSymbolTable
 70
     9
  0
BLOCK_RECORD
  5
1F
330
1
100
AcDbSymbolTableRecord
100
AcDbBlockTableRecord
  2
*Model_Space
340
22
 70
     0
280
     1
281
     0
  0
BLOCK_RECORD
  5
1B
330
1
100
AcDbSymbolTableRecord
100
AcDbBlockTableRecord
  2
*Paper_Space
340
1E
 70
     0
280
     1
281
     0
  0
BLOCK_RECORD
  5
23
330
1
100
AcDbSymbolTableRecord
100
AcDbBlockTableRecord
  2
*Paper_Space0
340
26
 70
     0
280
     1
281
     0
  0
BLOCK_RECORD
  5
4F
330
1
100
AcDbSymbolTableRecord
100
AcDbBlockTableRecord
  2
block 2
340
0
102
{BLKREFS
331
50
102
}
 70
     0
280
     1
281
     0
  0
BLOCK_RECORD
  5
7A
330
1
100
AcDbSymbolTableRecord
100
AcDbBlockTableRecord
  2
block 3
340
0
102
{BLKREFS
331
7B
102
}
 70
     0
280
     1
281
     0
  0
BLOCK_RECORD
  5
92
330
1
100
AcDbSymbolTableRecord
100
AcDbBlockTableRecord
  2
block 4
340
0
102
{BLKREFS
331
93
102
}
 70
     0
280
     1
281
     0
  0
BLOCK_RECORD
  5
B6
330
1
100
AcDbSymbolTableRecord
100
AcDbBlockTableRecord
  2
block 5
340
0
102
{BLKREFS
331
B7
102
}
 70
     0
280
     1
281
     0
  0
BLOCK_RECORD
  5
E3
330
1
100
AcDbSymbolTableRecord
100
AcDbBlockTableRecord
  2
block 6
340
0
102
{BLKREFS
331
E4
102
}
 70
     0
280
     1
281
     0
  0
BLOCK_RECORD
  5
E9
330
1
100
AcDbSymbolTableRecord
100
AcDbBlockTableRecord
  2
block 7
340
0
102
{BLKREFS
331
EA
102
}
 70
     0
280
     1
281
     0
  0
BLOCK_RECORD
  5
ED
330
1
100
AcDbSymbolTableRecord
100
AcDbBlockTableRecord
  2
block 8
340
0
102
{BLKREFS
331
EE
102
}
 70
     0
280
     1
281
     0
  0
BLOCK_RECORD
  5
F4
330
1
100
AcDbSymbolTableRecord
100
AcDbBlockTableRecord
  2
block 9
340
0
102
{BLKREFS
331
F5
102
}
 70
     0
280
     1
281
     0
  0
ENDTAB
  0
ENDSEC
  0
SECTION
  2
BLOCKS
  0
BLOCK
  5
20
330
1F
100
AcDbEntity
  8
0
100
AcDbBlockBegin
  2
*Model_Space
 70
     0
 10
0.0
 20
0.0
 30
0.0
  3
*Model_Space
  1

  0
ENDBLK
  5
21
330
1F
100
AcDbEntity
  8
0
100
AcDbBlockEnd
  0
BLOCK
  5
1C
330
1B
100
AcDbEntity
 67
     1
  8
0
100
AcDbBlockBegin
  2
*Paper_Space
 70
     0
 10
0.0
 20
0.0
 30
0.0
  3
*Paper_Space
  1

  0
ENDBLK
  5
1D
330
1B
100
AcDbEntity
 67
     1
  8
0
100
AcDbBlockEnd
  0
BLOCK
  5
24
330
23
100
AcDbEntity
  8
0
100
AcDbBlockBegin
  2
*Paper_Space0
 70
     0
 10
0.0
 20
0.0
 30
0.0
  3
*Paper_Space0
  1

  0
ENDBLK
  5
25
330
23
100
AcDbEntity
  8
0
100
AcDbBlockEnd
  0
BLOCK
  5
51
330
4F
100
AcDbEntity
  8
0
100
AcDbBlockBegin
  2
block 2
 70
     0
 10
0.0
 20
0.0
 30
0.0
  3
block 2
  1

  0
SPLINE
  5
53
330
4F
100
AcDbEntity
  8
_U+30EC_U+30A4_U+30E4_U+30FC 1
370
     0
100
AcDbSpline
210
0.0
220
0.0
230
1.0
 70
    11
 71
     3
 72
    26
 73
    22
 74
     0
 42
0.0000000001
 43
0.0000000001
 12
1.0
 22
0.0
 32
0.0
 13
1.0
 23
0.0
 33
0.0
 40
0.0
 40
0.0
 40
0.0
 40
0.0
 40
1.0
 40
1.0
 40
1.0
 40
2.0
 40
2.0
 40
2.0
 40
3.0
 40
3.0
 40
3.0
 40
4.0
 40
4.0
 40
4.0
 40
5.0
 40
5.0
 40
5.0
 40
6.0
 40
6.0
 40
6.0
 40
7.0
 40
7.0
 40
7.0
 40
7.0
 10
76.42772079252502
 20
-142.6965440181453
 30
0.0
 10
76.42772079252502
 20
-142.6965440181453
 30
0.0
 10
76.42772079252502
 20
-141.5923909151227
 30
0.0
 10
76.42772079252502
 20
-141.5923909151227
 30
0.0
 10
76.42772079252502
 20
-141.5923909151227
 30
0.0
 10
76.09768064503808
 20
-141.5923909151227
 30
0.0
 10
76.09768064503808
 20
-141.5923909151227
 30
0.0
 10
76.09768064503808
 20
-141.5923909151227
 30
0.0
 10
76.09768064503808
 20
-141.444251809257
 30
0.0
 10
76.09768064503808
 20
-141.444251809257
 30
0.0
 10
76.42978784981617
 20
-141.4294378986704
 30
0.0
 10
76.47629663886704
 20
-141.2664848822181
 30
0.0
 10
76.50592446004019
 20
-141.1521077121078
 30
0.0
 10
76.50592446004019
 20
-141.1521077121078
 30
0.0
 10
76.65199650861479
 20
-141.1521077121078
 30
0.0
 10
76.65199650861479
 20
-141.1521077121078
 30
0.0
 10
76.65199650861479
 20
-141.1521077121078
 30
0.0
 10
76.65199650861479
 20
-142.6965440181453
 30
0.0
 10
76.65199650861479
 20
-142.6965440181453
 30
0.0
 10
76.65199650861479
 20
-142.6965440181453
 30
0.0
 10
76.42772079252502
 20
-142.6965440181453
 30
0.0
 10
76.42772079252502
 20
-142.6965440181453
 30
0.0
  0
HATCH
  5
54
330
4F
100
AcDbEntity
  8
_U+30EC_U+30A4_U+30E4_U+30FC 1
 62
   179
420
  2234388
100
AcDbHatch
 10
0.0
 20
0.0
 30
0.0
210
0.0
220
0.0
230
1.0
  2
SOLID
 70
     1
 71
     0
 91
        1
 92
        1
 93
        1
 72
     4
 94
        3
 73
     0
 74
     1
 95
       26
 96
       22
 40
0.0
 40
0.0
 40
0.0
 40
0.0
 40
1.0
 40
1.0
 40
1.0
 40
2.0
 40
2.0
 40
2.0
 40
3.0
 40
3.0
 40
3.0
 40
4.0
 40
4.0
 40
4.0
 40
5.0
 40
5.0
 40
5.0
 40
6.0
 40
6.0
 40
6.0
 40
7.0
 40
7.0
 40
7.0
 40
7.0
 10
76.42772079252502
 20
-142.6965440181453
 10
76.42772079252502
 20
-142.6965440181453
 10
76.42772079252502
 20
-141.5923909151227
 10
76.42772079252502
 20
-141.5923909151227
 10
76.42772079252502
 20
-141.5923909151227
 10
76.09768064503808
 20
-141.5923909151227
 10
76.09768064503808
 20
-141.5923909151227
 10
76.09768064503808
 20
-141.5923909151227
 10
76.09768064503808
 20
-141.444251809257
 10
76.09768064503808
 20
-141.444251809257
 10
76.42978784981617
 20
-141.4294378986704
 10
76.47629663886704
 20
-141.2664848822181
 10
76.50592446004019
 20
-141.1521077121078
 10
76.50592446004019
 20
-141.1521077121078
 10
76.65199650861479
 20
-141.1521077121078
 10
76.65199650861479
 20
-141.1521077121078
 10
76.65199650861479
 20
-141.1521077121078
 10
76.65199650861479
 20
-142.6965440181453
 10
76.65199650861479
 20
-142.6965440181453
 10
76.65199650861479
 20
-142.6965440181453
 10
76.42772079252502
 20
-142.6965440181453
 10
76.42772079252502
 20
-142.6965440181453
 97
        0
 97
        0
 75
     2
 76
     1
 98
        0
  0
SPLINE
  5
55
330
4F
100
AcDbEntity
  8
_U+30EC_U+30A4_U+30E4_U+30FC 1
370
     0
100
AcDbSpline
210
0.0
220
0.0
230
1.0
 70
    11
 71
     3
 72
    29
 73
    25
 74
     0
 42
0.0000000001
 43
0.0000000001
 12
1.0
 22
0.0
 32
0.0
 13
1.0
 23
0.0
 33
0.0
 40
0.0
 40
0.0
 40
0.0
 40
0.0
 40
1.0
 40
1.0
 40
1.0
 40
2.0
 40
2.0
 40
2.0
 40
3.0
 40
3.0
 40
3.0
 40
4.0
 40
4.0
 40
4.0
 40
5.0
 40
5.0
 40
5.0
 40
6.0
 40
6.0
 40
6.0
 40
7.0
 40
7.0
 40
7.0
 40
8.0
 40
8.0
 40
8.0
 40
8.0
 10
78.05104978517474
 20
-142.5187770911064
 30
0.0
 10
77.9428737869379
 20
-142.7282388966096
 30
0.0
 10
77.76958548402983
 20
-142.7471869217785
 30
0.0
 10
77.65314125662839
 20
-142.7471869217785
 30
0.0
 10
77.49225529746722
 20
-142.7471869217785
 30
0.0
 10
77.35066187302345
 20
-142.7006781327276
 30
0.0
 10
77.25557723763055
 20
-142.5187770911064
 30
0.0
 10
77.15187986352453
 20
-142.3241291961898
 30
0.0
 10
77.13293183835566
 20
-142.0874511363531
 30
0.0
 10
77.13293183835566
 20
-141.9244981199008
 30
0.0
 10
77.13293183835566
 20
-141.7804931286174
 30
0.0
 10
77.14981280623338
 20
-141.5286566486456
 30
0.0
 10
77.25557723763055
 20
-141.3298746391467
 30
0.0
 10
77.36340872631888
 20
-141.1269585150655
 30
0.0
 10
77.52429468548004
 20
-141.1035318657658
 30
0.0
 10
77.65314125662839
 20
-141.1035318657658
 30
0.0
 10
77.81196015849841
 20
-141.1035318657658
 30
0.0
 10
77.95562064023332
 20
-141.1479735975255
 30
0.0
 10
78.05104978517474
 20
-141.3298746391467
 30
0.0
 10
78.15026853514993
 20
-141.5224554767722
 30
0.0
 10
78.17369518444964
 20
-141.7508653074442
 30
0.0
 10
78.17369518444964
 20
-141.9244981199008
 30
0.0
 10
78.17369518444964
 20
-142.0957193655177
 30
0.0
 10
78.15233559244109
 20
-142.326196253481
 30
0.0
 10
78.05104978517474
 20
-142.5187770911064
 30
0.0
  0
SPLINE
  5
56
330
4F
100
AcDbEntity
  8
_U+30EC_U+30A4_U+30E4_U+30FC 1
370
     0
100
AcDbSpline
210
0.0
220
0.0
230
1.0
 70
    11
 71
     3
 72
    17
 73
    13
 74
     0
 42
0.0000000001
 43
0.0000000001
 12
1.0
 22
0.0
 32
0.0
 13
1.0
 23
0.0
 33
0.0
 40
0.0
 40
0.0
 40
0.0
 40
0.0
 40
1.0
 40
1.0
 40
1.0
 40
2.0
 40
2.0
 40
2.0
 40
3.0
 40
3.0
 40
3.0
 40
4.0
 40
4.0
 40
4.0
 40
4.0
 10
77.65314125662839
 20
-141.2961127033913
 30
0.0
 10
77.4037163434963
 20
-141.2961127033913
 30
0.0
 10
77.3568630448969
 20
-141.5796440618273
 30
0.0
 10
77.3568630448969
 20
-141.9244981199008
 30
0.0
 10
77.3568630448969
 20
-142.2438584713835
 30
0.0
 10
77.39303654749202
 20
-142.5525390268619
 30
0.0
 10
77.65314125662839
 20
-142.5525390268619
 30
0.0
 10
77.90084362201785
 20
-142.5525390268619
 30
0.0
 10
77.94941946835988
 20
-142.2714192352655
 30
0.0
 10
77.94941946835988
 20
-141.9244981199008
 30
0.0
 10
77.94941946835988
 20
-141.6047932588696
 30
0.0
 10
77.9111789084736
 20
-141.2961127033913
 30
0.0
 10
77.65314125662839
 20
-141.2961127033913
 30
0.0
  0
HATCH
  5
57
330
4F
100
AcDbEntity
  8
_U+30EC_U+30A4_U+30E4_U+30FC 1
 62
   179
420
  2234388
100
AcDbHatch
 10
0.0
 20
0.0
 30
0.0
210
0.0
220
0.0
230
1.0
  2
SOLID
 70
     1
 71
     0
 91
        2
 92
        1
 93
        1
 72
     4
 94
        3
 73
     0
 74
     1
 95
       29
 96
       25
 40
0.0
 40
0.0
 40
0.0
 40
0.0
 40
1.0
 40
1.0
 40
1.0
 40
2.0
 40
2.0
 40
2.0
 40
3.0
 40
3.0
 40
3.0
 40
4.0
 40
4.0
 40
4.0
 40
5.0
 40
5.0
 40
5.0
 40
6.0
 40
6.0
 40
6.0
 40
7.0
 40
7.0
 40
7.0
 40
8.0
 40
8.0
 40
8.0
 40
8.0
 10
78.05104978517474
 20
-142.5187770911064
 10
77.9428737869379
 20
-142.7282388966096
 10
77.76958548402983
 20
-142.7471869217785
 10
77.65314125662839
 20
-142.7471869217785
 10
77.49225529746722
 20
-142.7471869217785
 10
77.35066187302345
 20
-142.7006781327276
 10
77.25557723763055
 20
-142.5187770911064
 10
77.15187986352453
 20
-142.3241291961898
 10
77.13293183835566
 20
-142.0874511363531
 10
77.13293183835566
 20
-141.9244981199008
 10
77.13293183835566
 20
-141.7804931286174
 10
77.14981280623338
 20
-141.5286566486456
 10
77.25557723763055
 20
-141.3298746391467
 10
77.36340872631888
 20
-141.1269585150655
 10
77.52429468548004
 20
-141.1035318657658
 10
77.65314125662839
 20
-141.1035318657658
 10
77.81196015849841
 20
-141.1035318657658
 10
77.95562064023332
 20
-141.1479735975255
 10
78.05104978517474
 20
-141.3298746391467
 10
78.15026853514993
 20
-141.5224554767722
 10
78.17369518444964
 20
-141.7508653074442
 10
78.17369518444964
 20
-141.9244981199008
 10
78.17369518444964
 20
-142.0957193655177
 10
78.15233559244109
 20
-142.326196253481
 10
78.05104978517474
 20
-142.5187770911064
 97
        0
 97
        0
 92
        1
 93
        1
 72
     4
 94
        3
 73
     0
 74
     1
 95
       17
 96
       13
 40
0.0
 40
0.0
 40
0.0
 40
0.0
 40
1.0
 40
1.0
 40
1.0
 40
2.0
 40
2.0
 40
2.0
 40
3.0
 40
3.0
 40
3.0
 40
4.0
 40
4.0
 40
4.0
 40
4.0
 10
77.65314125662839
 20
-141.2961127033913
 10
77.4037163434963
 20
-141.2961127033913
 10
77.3568630448969
 20
-141.5796440618273
 10
77.3568630448969
 20
-141.9244981199008
 10
77.3568630448969
 20
-142.2438584713835
 10
77.39303654749202
 20
-142.5525390268619
 10
77.65314125662839
 20
-142.5525390268619
 10
77.90084362201785
 20
-142.5525390268619
 10
77.94941946835988
 20
-142.2714192352655
 10
77.94941946835988
 20
-141.9244981199008
 10
77.94941946835988
 20
-141.6047932588696
 10
77.9111789084736
 20
-141.2961127033913
 10
77.65314125662839
 20
-141.2961127033913
 97
        0
 97
        0
 75
     2
 76
     1
 98
        0
  0
ENDBLK
  5
52
330
4F
100
AcDbEntity
  8
0
100
AcDbBlockEnd
  0
BLOCK
  5
7C
330
7A
100
AcDbEntity
  8
0
100
AcDbBlockBegin
  2
block 3
 70
     0
 10
0.0
 20
0.0
 30
0.0
  3
block 3
  1

  0
SPLINE
  5
7E
330
7A
100
AcDbEntity
  8
_U+30EC_U+30A4_U+30E4_U+30FC 1
370
     0
100
AcDbSpline
210
0.0
220
0.0
230
1.0
 70
    11
 71
     3
 72
    62
 73
    58
 74
     0
 42
0.0000000001
 43
0.0000000001
 12
1.0
 22
0.0
 32
0.0
 13
1.0
 23
0.0
 33
0.0
 40
0.0
 40
0.0
 40
0.0
 40
0.0
 40
1.0
 40
1.0
 40
1.0
 40
2.0
 40
2.0
 40
2.0
 40
3.0
 40
3.0
 40
3.0
 40
4.0
 40
4.0
 40
4.0
 40
5.0
 40
5.0
 40
5.0
 40
6.0
 40
6.0
 40
6.0
 40
7.0
 40
7.0
 40
7.0
 40
8.0
 40
8.0
 40
8.0
 40
9.0
 40
9.0
 40
9.0
 40
10.0
 40
10.0
 40
10.0
 40
11.0
 40
11.0
 40
11.0
 40
12.0
 40
12.0
 40
12.0
 40
13.0
 40
13.0
 40
13.0
 40
14.0
 40
14.0
 40
14.0
 40
15.0
 40
15.0
 40
15.0
 40
16.0
 40
16.0
 40
16.0
 40
17.0
 40
17.0
 40
17.0
 40
18.0
 40
18.0
 40
18.0
 40
19.0
 40
19.0
 40
19.0
 40
19.0
 10
73.51454805019776
 20
-117.9431884470767
 30
0.0
 10
73.41911890525634
 20
-117.9431884470767
 30
0.0
 10
73.20138887058854
 20
-117.9221733646167
 30
0.0
 10
73.07633190447397
 20
-117.7361382084132
 30
0.0
 10
73.0022623515411
 20
-117.623828095594
 30
0.0
 10
72.9981282369588
 20
-117.5246093456189
 30
0.0
 10
72.9939941223765
 20
-117.4398599966817
 30
0.0
 10
72.9939941223765
 20
-117.4398599966817
 30
0.0
 10
73.21413572388397
 20
-117.4398599966817
 30
0.0
 10
73.21413572388397
 20
-117.4398599966817
 30
0.0
 10
73.21620278117511
 20
-117.5139295496146
 30
0.0
 10
73.22653806763087
 20
-117.7485405521601
 30
0.0
 10
73.51006942606693
 20
-117.7485405521601
 30
0.0
 10
73.6475287359284
 20
-117.7485405521601
 30
0.0
 10
73.80014646592497
 20
-117.6789496233581
 30
0.0
 10
73.80014646592497
 20
-117.450539792686
 30
0.0
 10
73.80014646592497
 20
-117.3340955652845
 30
0.0
 10
73.76190590603869
 20
-117.2855197189425
 30
0.0
 10
73.7302110275744
 20
-117.2538248404782
 30
0.0
 10
73.65614147464153
 20
-117.1797552875453
 30
0.0
 10
73.53969724724008
 20
-117.1670084342499
 30
0.0
 10
73.48492022902461
 20
-117.1670084342499
 30
0.0
 10
73.4656276943072
 20
-117.1670084342499
 30
0.0
 10
73.42979870126061
 20
-117.1690754915411
 30
0.0
 10
73.40223793737862
 20
-117.1732096061234
 30
0.0
 10
73.40223793737862
 20
-117.1732096061234
 30
0.0
 10
73.40223793737862
 20
-116.9785617112068
 30
0.0
 10
73.40223793737862
 20
-116.9785617112068
 30
0.0
 10
73.44047849726488
 20
-116.9851073926287
 30
0.0
 10
73.48250866218493
 20
-116.9871744499199
 30
0.0
 10
73.48905434360691
 20
-116.9871744499199
 30
0.0
 10
73.55451115782665
 20
-116.9871744499199
 30
0.0
 10
73.75329316732557
 20
-116.9658148579113
 30
0.0
 10
73.75329316732557
 20
-116.7291367980747
 30
0.0
 10
73.75329316732557
 20
-116.5513698710358
 30
0.0
 10
73.62237953888608
 20
-116.4962483432718
 30
0.0
 10
73.51213648335808
 20
-116.4962483432718
 30
0.0
 10
73.24789765963942
 20
-116.4962483432718
 30
0.0
 10
73.2392849209263
 20
-116.7291367980747
 30
0.0
 10
73.235150806344
 20
-116.8007947841679
 30
0.0
 10
73.235150806344
 20
-116.8007947841679
 30
0.0
 10
73.03189017271426
 20
-116.8007947841679
 30
0.0
 10
73.03189017271426
 20
-116.8007947841679
 30
0.0
 10
73.04050291142738
 20
-116.6760823276018
 30
0.0
 10
73.06806367530938
 20
-116.299533391064
 30
0.0
 10
73.5248833366535
 20
-116.299533391064
 30
0.0
 10
73.74915905274327
 20
-116.299533391064
 30
0.0
 10
73.99031573671076
 20
-116.4266574144697
 30
0.0
 10
73.99031573671076
 20
-116.7225911166527
 30
0.0
 10
73.99031573671076
 20
-116.9089707824047
 30
0.0
 10
73.89523110131786
 20
-116.9913085645022
 30
0.0
 10
73.79566784179414
 20
-117.0526312641396
 30
0.0
 10
73.85699054143159
 20
-117.0801920280216
 30
0.0
 10
74.03889158305277
 20
-117.1604627528279
 30
0.0
 10
74.03889158305277
 20
-117.4377929393906
 30
0.0
 10
74.03889158305277
 20
-117.7761013160421
 30
0.0
 10
73.79153372721184
 20
-117.9431884470767
 30
0.0
 10
73.51454805019776
 20
-117.9431884470767
 30
0.0
  0
HATCH
  5
7F
330
7A
100
AcDbEntity
  8
_U+30EC_U+30A4_U+30E4_U+30FC 1
 62
   179
420
  2234388
100
AcDbHatch
 10
0.0
 20
0.0
 30
0.0
210
0.0
220
0.0
230
1.0
  2
SOLID
 70
     1
 71
     0
 91
        1
 92
        1
 93
        1
 72
     4
 94
        3
 73
     0
 74
     1
 95
       62
 96
       58
 40
0.0
 40
0.0
 40
0.0
 40
0.0
 40
1.0
 40
1.0
 40
1.0
 40
2.0
 40
2.0
 40
2.0
 40
3.0
 40
3.0
 40
3.0
 40
4.0
 40
4.0
 40
4.0
 40
5.0
 40
5.0
 40
5.0
 40
6.0
 40
6.0
 40
6.0
 40
7.0
 40
7.0
 40
7.0
 40
8.0
 40
8.0
 40
8.0
 40
9.0
 40
9.0
 40
9.0
 40
10.0
 40
10.0
 40
10.0
 40
11.0
 40
11.0
 40
11.0
 40
12.0
 40
12.0
 40
12.0
 40
13.0
 40
13.0
 40
13.0
 40
14.0
 40
14.0
 40
14.0
 40
15.0
 40
15.0
 40
15.0
 40
16.0
 40
16.0
 40
16.0
 40
17.0
 40
17.0
 40
17.0
 40
18.0
 40
18.0
 40
18.0
 40
19.0
 40
19.0
 40
19.0
 40
19.0
 10
73.51454805019776
 20
-117.9431884470767
 10
73.41911890525634
 20
-117.9431884470767
 10
73.20138887058854
 20
-117.9221733646167
 10
73.07633190447397
 20
-117.7361382084132
 10
73.0022623515411
 20
-117.623828095594
 10
72.9981282369588
 20
-117.5246093456189
 10
72.9939941223765
 20
-117.4398599966817
 10
72.9939941223765
 20
-117.4398599966817
 10
73.21413572388397
 20
-117.4398599966817
 10
73.21413572388397
 20
-117.4398599966817
 10
73.21620278117511
 20
-117.5139295496146
 10
73.22653806763087
 20
-117.7485405521601
 10
73.51006942606693
 20
-117.7485405521601
 10
73.6475287359284
 20
-117.7485405521601
 10
73.80014646592497
 20
-117.6789496233581
 10
73.80014646592497
 20
-117.450539792686
 10
73.80014646592497
 20
-117.3340955652845
 10
73.76190590603869
 20
-117.2855197189425
 10
73.7302110275744
 20
-117.2538248404782
 10
73.65614147464153
 20
-117.1797552875453
 10
73.53969724724008
 20
-117.1670084342499
 10
73.48492022902461
 20
-117.1670084342499
 10
73.4656276943072
 20
-117.1670084342499
 10
73.42979870126061
 20
-117.1690754915411
 10
73.40223793737862
 20
-117.1732096061234
 10
73.40223793737862
 20
-117.1732096061234
 10
73.40223793737862
 20
-116.9785617112068
 10
73.40223793737862
 20
-116.9785617112068
 10
73.44047849726488
 20
-116.9851073926287
 10
73.48250866218493
 20
-116.9871744499199
 10
73.48905434360691
 20
-116.9871744499199
 10
73.55451115782665
 20
-116.9871744499199
 10
73.75329316732557
 20
-116.9658148579113
 10
73.75329316732557
 20
-116.7291367980747
 10
73.75329316732557
 20
-116.5513698710358
 10
73.62237953888608
 20
-116.4962483432718
 10
73.51213648335808
 20
-116.4962483432718
 10
73.24789765963942
 20
-116.4962483432718
 10
73.2392849209263
 20
-116.7291367980747
 10
73.235150806344
 20
-116.8007947841679
 10
73.235150806344
 20
-116.8007947841679
 10
73.03189017271426
 20
-116.8007947841679
 10
73.03189017271426
 20
-116.8007947841679
 10
73.04050291142738
 20
-116.6760823276018
 10
73.06806367530938
 20
-116.299533391064
 10
73.5248833366535
 20
-116.299533391064
 10
73.74915905274327
 20
-116.299533391064
 10
73.99031573671076
 20
-116.4266574144697
 10
73.99031573671076
 20
-116.7225911166527
 10
73.99031573671076
 20
-116.9089707824047
 10
73.89523110131786
 20
-116.9913085645022
 10
73.79566784179414
 20
-117.0526312641396
 10
73.85699054143159
 20
-117.0801920280216
 10
74.03889158305277
 20
-117.1604627528279
 10
74.03889158305277
 20
-117.4377929393906
 10
74.03889158305277
 20
-117.7761013160421
 10
73.79153372721184
 20
-117.9431884470767
 10
73.51454805019776
 20
-117.9431884470767
 97
        0
 97
        0
 75
     2
 76
     1
 98
        0
  0
ENDBLK
  5
7D
330
7A
100
AcDbEntity
  8
0
100
AcDbBlockEnd
  0
BLOCK
  5
94
330
92
100
AcDbEntity
  8
0
100
AcDbBlockBegin
  2
block 4
 70
     0
 10
0.0
 20
0.0
 30
0.0
  3
block 4
  1

  0
POLYLINE
  5
96
330
92
100
AcDbEntity
  8
_U+30EC_U+30A4_U+30E4_U+30FC 1
370
     0
100
AcDb2dPolyline
 66
     1
 10
0.0
 20
0.0
 30
0.0
  0
VERTEX
  5
97
330
96
100
AcDbEntity
  8
_U+30EC_U+30A4_U+30E4_U+30FC 1
370
     0
100
AcDbVertex
100
AcDb2dVertex
 10
91.80042586680685
 20
-114.5263427448059
 30
0.0
  0
VERTEX
  5
98
330
96
100
AcDbEntity
  8
_U+30EC_U+30A4_U+30E4_U+30FC 1
370
     0
100
AcDbVertex
100
AcDb2dVertex
 10
91.80042586680685
 20
-114.8732638601706
 30
0.0
  0
VERTEX
  5
99
330
96
100
AcDbEntity
  8
_U+30EC_U+30A4_U+30E4_U+30FC 1
370
     0
100
AcDbVertex
100
AcDb2dVertex
 10
91.58269583213905
 20
-114.8732638601706
 30
0.0
  0
VERTEX
  5
9A
330
96
100
AcDbEntity
  8
_U+30EC_U+30A4_U+30E4_U+30FC 1
370
     0
100
AcDbVertex
100
AcDb2dVertex
 10
91.58269583213905
 20
-114.5263427448059
 30
0.0
  0
VERTEX
  5
9B
330
96
100
AcDbEntity
  8
_U+30EC_U+30A4_U+30E4_U+30FC 1
370
     0
100
AcDbVertex
100
AcDb2dVertex
 10
90.92674965174749
 20
-114.5263427448059
 30
0.0
  0
VERTEX
  5
9C
330
96
100
AcDbEntity
  8
_U+30EC_U+30A4_U+30E4_U+30FC 1
370
     0
100
AcDbVertex
100
AcDb2dVertex
 10
90.92674965174749
 20
-114.3020670287162
 30
0.0
  0
VERTEX
  5
9D
330
96
100
AcDbEntity
  8
_U+30EC_U+30A4_U+30E4_U+30FC 1
370
     0
100
AcDbVertex
100
AcDb2dVertex
 10
91.60577797189022
 20
-113.3288275541331
 30
0.0
  0
VERTEX
  5
9E
330
96
100
AcDbEntity
  8
_U+30EC_U+30A4_U+30E4_U+30FC 1
370
     0
100
AcDbVertex
100
AcDb2dVertex
 10
91.80042586680685
 20
-113.3288275541331
 30
0.0
  0
VERTEX
  5
9F
330
96
100
AcDbEntity
  8
_U+30EC_U+30A4_U+30E4_U+30FC 1
370
     0
100
AcDbVertex
100
AcDb2dVertex
 10
91.80042586680685
 20
-114.327560735307
 30
0.0
  0
VERTEX
  5
A0
330
96
100
AcDbEntity
  8
_U+30EC_U+30A4_U+30E4_U+30FC 1
370
     0
100
AcDbVertex
100
AcDb2dVertex
 10
92.00782061501889
 20
-114.327560735307
 30
0.0
  0
VERTEX
  5
A1
330
96
100
AcDbEntity
  8
_U+30EC_U+30A4_U+30E4_U+30FC 1
370
     0
100
AcDbVertex
100
AcDb2dVertex
 10
92.00782061501889
 20
-114.5263427448059
 30
0.0
  0
VERTEX
  5
A2
330
96
100
AcDbEntity
  8
_U+30EC_U+30A4_U+30E4_U+30FC 1
370
     0
100
AcDbVertex
100
AcDb2dVertex
 10
91.80042586680685
 20
-114.5263427448059
 30
0.0
  0
SEQEND
  5
A3
330
96
100
AcDbEntity
  8
_U+30EC_U+30A4_U+30E4_U+30FC 1
370
     0
  0
POLYLINE
  5
A4
330
92
100
AcDbEntity
  8
_U+30EC_U+30A4_U+30E4_U+30FC 1
370
     0
100
AcDb2dPolyline
 66
     1
 10
0.0
 20
0.0
 30
0.0
  0
VERTEX
  5
A5
330
A4
100
AcDbEntity
  8
_U+30EC_U+30A4_U+30E4_U+30FC 1
370
     0
100
AcDbVertex
100
AcDb2dVertex
 10
91.58269583213905
 20
-113.6716145549154
 30
0.0
  0
VERTEX
  5
A6
330
A4
100
AcDbEntity
  8
_U+30EC_U+30A4_U+30E4_U+30FC 1
370
     0
100
AcDbVertex
100
AcDb2dVertex
 10
91.1255316612464
 20
-114.327560735307
 30
0.0
  0
VERTEX
  5
A7
330
A4
100
AcDbEntity
  8
_U+30EC_U+30A4_U+30E4_U+30FC 1
370
     0
100
AcDbVertex
100
AcDb2dVertex
 10
91.58269583213905
 20
-114.327560735307
 30
0.0
  0
VERTEX
  5
A8
330
A4
100
AcDbEntity
  8
_U+30EC_U+30A4_U+30E4_U+30FC 1
370
     0
100
AcDbVertex
100
AcDb2dVertex
 10
91.58269583213905
 20
-113.6716145549154
 30
0.0
  0
SEQEND
  5
A9
330
A4
100
AcDbEntity
  8
_U+30EC_U+30A4_U+30E4_U+30FC 1
370
     0
  0
HATCH
  5
AA
330
92
100
AcDbEntity
  8
_U+30EC_U+30A4_U+30E4_U+30FC 1
 62
   179
420
  2234388
100
AcDbHatch
 10
0.0
 20
0.0
 30
0.0
210
0.0
220
0.0
230
1.0
  2
SOLID
 70
     1
 71
     0
 91
        2
 92
        1
 93
       11
 72
     1
 10
91.80042586680685
 20
-114.5263427448059
 11
91.80042586680685
 21
-114.8732638601706
 72
     1
 10
91.80042586680685
 20
-114.8732638601706
 11
91.58269583213905
 21
-114.8732638601706
 72
     1
 10
91.58269583213905
 20
-114.8732638601706
 11
91.58269583213905
 21
-114.5263427448059
 72
     1
 10
91.58269583213905
 20
-114.5263427448059
 11
90.92674965174749
 21
-114.5263427448059
 72
     1
 10
90.92674965174749
 20
-114.5263427448059
 11
90.92674965174749
 21
-114.3020670287162
 72
     1
 10
90.92674965174749
 20
-114.3020670287162
 11
91.60577797189022
 21
-113.3288275541331
 72
     1
 10
91.60577797189022
 20
-113.3288275541331
 11
91.80042586680685
 21
-113.3288275541331
 72
     1
 10
91.80042586680685
 20
-113.3288275541331
 11
91.80042586680685
 21
-114.327560735307
 72
     1
 10
91.80042586680685
 20
-114.327560735307
 11
92.00782061501889
 21
-114.327560735307
 72
     1
 10
92.00782061501889
 20
-114.327560735307
 11
92.00782061501889
 21
-114.5263427448059
 72
     1
 10
92.00782061501889
 20
-114.5263427448059
 11
91.80042586680685
 21
-114.5263427448059
 97
        0
 92
        1
 93
        3
 72
     1
 10
91.58269583213905
 20
-113.6716145549154
 11
91.1255316612464
 21
-114.327560735307
 72
     1
 10
91.1255316612464
 20
-114.327560735307
 11
91.58269583213905
 21
-114.327560735307
 72
     1
 10
91.58269583213905
 20
-114.327560735307
 11
91.58269583213905
 21
-113.6716145549154
 97
        0
 75
     2
 76
     1
 98
        0
  0
SPLINE
  5
AB
330
92
100
AcDbEntity
  8
_U+30EC_U+30A4_U+30E4_U+30FC 1
370
     0
100
AcDbSpline
210
0.0
220
0.0
230
1.0
 70
    11
 71
     3
 72
    29
 73
    25
 74
     0
 42
0.0000000001
 43
0.0000000001
 12
1.0
 22
0.0
 32
0.0
 13
1.0
 23
0.0
 33
0.0
 40
0.0
 40
0.0
 40
0.0
 40
0.0
 40
1.0
 40
1.0
 40
1.0
 40
2.0
 40
2.0
 40
2.0
 40
3.0
 40
3.0
 40
3.0
 40
4.0
 40
4.0
 40
4.0
 40
5.0
 40
5.0
 40
5.0
 40
6.0
 40
6.0
 40
6.0
 40
7.0
 40
7.0
 40
7.0
 40
8.0
 40
8.0
 40
8.0
 40
8.0
 10
93.04307180833646
 20
-114.6954969331317
 30
0.0
 10
92.93489581009962
 20
-114.9049587386349
 30
0.0
 10
92.76160750719154
 20
-114.9239067638038
 30
0.0
 10
92.6451632797901
 20
-114.9239067638038
 30
0.0
 10
92.48427732062893
 20
-114.9239067638038
 30
0.0
 10
92.34268389618516
 20
-114.8773979747529
 30
0.0
 10
92.24759926079227
 20
-114.6954969331317
 30
0.0
 10
92.14390188668625
 20
-114.5008490382151
 30
0.0
 10
92.12460935196886
 20
-114.2641709783784
 30
0.0
 10
92.12460935196886
 20
-114.1012179619261
 30
0.0
 10
92.12460935196886
 20
-113.9572129706426
 30
0.0
 10
92.1418348293951
 20
-113.7053764906709
 30
0.0
 10
92.24759926079227
 20
-113.506594481172
 30
0.0
 10
92.35543074948059
 20
-113.3036783570907
 30
0.0
 10
92.51631670864175
 20
-113.2802517077911
 30
0.0
 10
92.6451632797901
 20
-113.2802517077911
 30
0.0
 10
92.80398218166012
 20
-113.2802517077911
 30
0.0
 10
92.94764266339504
 20
-113.3246934395508
 30
0.0
 10
93.04307180833646
 20
-113.506594481172
 30
0.0
 10
93.14229055831166
 20
-113.6991753187974
 30
0.0
 10
93.16571720761135
 20
-113.9275851494695
 30
0.0
 10
93.16571720761135
 20
-114.1012179619261
 30
0.0
 10
93.16571720761135
 20
-114.272439207543
 30
0.0
 10
93.1443576156028
 20
-114.5029160955062
 30
0.0
 10
93.04307180833646
 20
-114.6954969331317
 30
0.0
  0
SPLINE
  5
AC
330
92
100
AcDbEntity
  8
_U+30EC_U+30A4_U+30E4_U+30FC 1
370
     0
100
AcDbSpline
210
0.0
220
0.0
230
1.0
 70
    11
 71
     3
 72
    17
 73
    13
 74
     0
 42
0.0000000001
 43
0.0000000001
 12
1.0
 22
0.0
 32
0.0
 13
1.0
 23
0.0
 33
0.0
 40
0.0
 40
0.0
 40
0.0
 40
0.0
 40
1.0
 40
1.0
 40
1.0
 40
2.0
 40
2.0
 40
2.0
 40
3.0
 40
3.0
 40
3.0
 40
4.0
 40
4.0
 40
4.0
 40
4.0
 10
92.6451632797901
 20
-113.4728325454165
 30
0.0
 10
92.39539385710948
 20
-113.4728325454165
 30
0.0
 10
92.34888506805862
 20
-113.7563639038526
 30
0.0
 10
92.34888506805862
 20
-114.1012179619261
 30
0.0
 10
92.34888506805862
 20
-114.4205783134088
 30
0.0
 10
92.38505857065374
 20
-114.7292588688871
 30
0.0
 10
92.6451632797901
 20
-114.7292588688871
 30
0.0
 10
92.89286564517957
 20
-114.7292588688871
 30
0.0
 10
92.94144149152159
 20
-114.4481390772907
 30
0.0
 10
92.94144149152159
 20
-114.1012179619261
 30
0.0
 10
92.94144149152159
 20
-113.7815131008949
 30
0.0
 10
92.90320093163531
 20
-113.4728325454165
 30
0.0
 10
92.6451632797901
 20
-113.4728325454165
 30
0.0
  0
HATCH
  5
AD
330
92
100
AcDbEntity
  8
_U+30EC_U+30A4_U+30E4_U+30FC 1
 62
   179
420
  2234388
100
AcDbHatch
 10
0.0
 20
0.0
 30
0.0
210
0.0
220
0.0
230
1.0
  2
SOLID
 70
     1
 71
     0
 91
        2
 92
        1
 93
        1
 72
     4
 94
        3
 73
     0
 74
     1
 95
       29
 96
       25
 40
0.0
 40
0.0
 40
0.0
 40
0.0
 40
1.0
 40
1.0
 40
1.0
 40
2.0
 40
2.0
 40
2.0
 40
3.0
 40
3.0
 40
3.0
 40
4.0
 40
4.0
 40
4.0
 40
5.0
 40
5.0
 40
5.0
 40
6.0
 40
6.0
 40
6.0
 40
7.0
 40
7.0
 40
7.0
 40
8.0
 40
8.0
 40
8.0
 40
8.0
 10
93.04307180833646
 20
-114.6954969331317
 10
92.93489581009962
 20
-114.9049587386349
 10
92.76160750719154
 20
-114.9239067638038
 10
92.6451632797901
 20
-114.9239067638038
 10
92.48427732062893
 20
-114.9239067638038
 10
92.34268389618516
 20
-114.8773979747529
 10
92.24759926079227
 20
-114.6954969331317
 10
92.14390188668625
 20
-114.5008490382151
 10
92.12460935196886
 20
-114.2641709783784
 10
92.12460935196886
 20
-114.1012179619261
 10
92.12460935196886
 20
-113.9572129706426
 10
92.1418348293951
 20
-113.7053764906709
 10
92.24759926079227
 20
-113.506594481172
 10
92.35543074948059
 20
-113.3036783570907
 10
92.51631670864175
 20
-113.2802517077911
 10
92.6451632797901
 20
-113.2802517077911
 10
92.80398218166012
 20
-113.2802517077911
 10
92.94764266339504
 20
-113.3246934395508
 10
93.04307180833646
 20
-113.506594481172
 10
93.14229055831166
 20
-113.6991753187974
 10
93.16571720761135
 20
-113.9275851494695
 10
93.16571720761135
 20
-114.1012179619261
 10
93.16571720761135
 20
-114.272439207543
 10
93.1443576156028
 20
-114.5029160955062
 10
93.04307180833646
 20
-114.6954969331317
 97
        0
 97
        0
 92
        1
 93
        1
 72
     4
 94
        3
 73
     0
 74
     1
 95
       17
 96
       13
 40
0.0
 40
0.0
 40
0.0
 40
0.0
 40
1.0
 40
1.0
 40
1.0
 40
2.0
 40
2.0
 40
2.0
 40
3.0
 40
3.0
 40
3.0
 40
4.0
 40
4.0
 40
4.0
 40
4.0
 10
92.6451632797901
 20
-113.4728325454165
 10
92.39539385710948
 20
-113.4728325454165
 10
92.34888506805862
 20
-113.7563639038526
 10
92.34888506805862
 20
-114.1012179619261
 10
92.34888506805862
 20
-114.4205783134088
 10
92.38505857065374
 20
-114.7292588688871
 10
92.6451632797901
 20
-114.7292588688871
 10
92.89286564517957
 20
-114.7292588688871
 10
92.94144149152159
 20
-114.4481390772907
 10
92.94144149152159
 20
-114.1012179619261
 10
92.94144149152159
 20
-113.7815131008949
 10
92.90320093163531
 20
-113.4728325454165
 10
92.6451632797901
 20
-113.4728325454165
 97
        0
 97
        0
 75
     2
 76
     1
 98
        0
  0
ENDBLK
  5
95
330
92
100
AcDbEntity
  8
0
100
AcDbBlockEnd
  0
BLOCK
  5
B8
330
B6
100
AcDbEntity
  8
0
100
AcDbBlockBegin
  2
block 5
 70
     0
 10
0.0
 20
0.0
 30
0.0
  3
block 5
  1

  0
SPLINE
  5
BA
330
B6
100
AcDbEntity
  8
_U+30EC_U+30A4_U+30E4_U+30FC 1
370
     0
100
AcDbSpline
210
0.0
220
0.0
230
1.0
 70
    11
 71
     3
 72
    26
 73
    22
 74
     0
 42
0.0000000001
 43
0.0000000001
 12
1.0
 22
0.0
 32
0.0
 13
1.0
 23
0.0
 33
0.0
 40
0.0
 40
0.0
 40
0.0
 40
0.0
 40
1.0
 40
1.0
 40
1.0
 40
2.0
 40
2.0
 40
2.0
 40
3.0
 40
3.0
 40
3.0
 40
4.0
 40
4.0
 40
4.0
 40
5.0
 40
5.0
 40
5.0
 40
6.0
 40
6.0
 40
6.0
 40
7.0
 40
7.0
 40
7.0
 40
7.0
 10
66.5461534121829
 20
-131.5616509002693
 30
0.0
 10
66.5461534121829
 20
-131.5616509002693
 30
0.0
 10
65.44182805438608
 20
-131.5616509002693
 30
0.0
 10
65.44182805438608
 20
-131.5616509002693
 30
0.0
 10
65.44182805438608
 20
-131.5616509002693
 30
0.0
 10
65.44182805438608
 20
-131.8916910477562
 30
0.0
 10
65.44182805438608
 20
-131.8916910477562
 30
0.0
 10
65.44182805438608
 20
-131.8916910477562
 30
0.0
 10
65.2938612032946
 20
-131.8916910477562
 30
0.0
 10
65.2938612032946
 20
-131.8916910477562
 30
0.0
 10
65.27904729270801
 20
-131.5595838429782
 30
0.0
 10
65.11609427625571
 20
-131.5130750539273
 30
0.0
 10
65.00188936091968
 20
-131.4834472327541
 30
0.0
 10
65.00188936091968
 20
-131.4834472327541
 30
0.0
 10
65.00188936091968
 20
-131.3373751841796
 30
0.0
 10
65.00188936091968
 20
-131.3373751841796
 30
0.0
 10
65.00188936091968
 20
-131.3373751841796
 30
0.0
 10
66.5461534121829
 20
-131.3373751841796
 30
0.0
 10
66.5461534121829
 20
-131.3373751841796
 30
0.0
 10
66.5461534121829
 20
-131.3373751841796
 30
0.0
 10
66.5461534121829
 20
-131.5616509002693
 30
0.0
 10
66.5461534121829
 20
-131.5616509002693
 30
0.0
  0
HATCH
  5
BB
330
B6
100
AcDbEntity
  8
_U+30EC_U+30A4_U+30E4_U+30FC 1
 62
   179
420
  2234388
100
AcDbHatch
 10
0.0
 20
0.0
 30
0.0
210
0.0
220
0.0
230
1.0
  2
SOLID
 70
     1
 71
     0
 91
        1
 92
        1
 93
        1
 72
     4
 94
        3
 73
     0
 74
     1
 95
       26
 96
       22
 40
0.0
 40
0.0
 40
0.0
 40
0.0
 40
1.0
 40
1.0
 40
1.0
 40
2.0
 40
2.0
 40
2.0
 40
3.0
 40
3.0
 40
3.0
 40
4.0
 40
4.0
 40
4.0
 40
5.0
 40
5.0
 40
5.0
 40
6.0
 40
6.0
 40
6.0
 40
7.0
 40
7.0
 40
7.0
 40
7.0
 10
66.5461534121829
 20
-131.5616509002693
 10
66.5461534121829
 20
-131.5616509002693
 10
65.44182805438608
 20
-131.5616509002693
 10
65.44182805438608
 20
-131.5616509002693
 10
65.44182805438608
 20
-131.5616509002693
 10
65.44182805438608
 20
-131.8916910477562
 10
65.44182805438608
 20
-131.8916910477562
 10
65.44182805438608
 20
-131.8916910477562
 10
65.2938612032946
 20
-131.8916910477562
 10
65.2938612032946
 20
-131.8916910477562
 10
65.27904729270801
 20
-131.5595838429782
 10
65.11609427625571
 20
-131.5130750539273
 10
65.00188936091968
 20
-131.4834472327541
 10
65.00188936091968
 20
-131.4834472327541
 10
65.00188936091968
 20
-131.3373751841796
 10
65.00188936091968
 20
-131.3373751841796
 10
65.00188936091968
 20
-131.3373751841796
 10
66.5461534121829
 20
-131.3373751841796
 10
66.5461534121829
 20
-131.3373751841796
 10
66.5461534121829
 20
-131.3373751841796
 10
66.5461534121829
 20
-131.5616509002693
 10
66.5461534121829
 20
-131.5616509002693
 97
        0
 97
        0
 75
     2
 76
     1
 98
        0
  0
SPLINE
  5
BC
330
B6
100
AcDbEntity
  8
_U+30EC_U+30A4_U+30E4_U+30FC 1
370
     0
100
AcDbSpline
210
0.0
220
0.0
230
1.0
 70
    11
 71
     3
 72
    26
 73
    22
 74
     0
 42
0.0000000001
 43
0.0000000001
 12
1.0
 22
0.0
 32
0.0
 13
1.0
 23
0.0
 33
0.0
 40
0.0
 40
0.0
 40
0.0
 40
0.0
 40
1.0
 40
1.0
 40
1.0
 40
2.0
 40
2.0
 40
2.0
 40
3.0
 40
3.0
 40
3.0
 40
4.0
 40
4.0
 40
4.0
 40
5.0
 40
5.0
 40
5.0
 40
6.0
 40
6.0
 40
6.0
 40
7.0
 40
7.0
 40
7.0
 40
7.0
 10
66.5461534121829
 20
-130.4251138996854
 30
0.0
 10
66.5461534121829
 20
-130.4251138996854
 30
0.0
 10
66.5461534121829
 20
-130.6621364690706
 30
0.0
 10
66.5461534121829
 20
-130.6621364690706
 30
0.0
 10
66.23730060193026
 20
-130.6366427624797
 30
0.0
 10
65.71898598617442
 20
-130.4440619248543
 30
0.0
 10
65.21341822371402
 20
-130.0378851671433
 30
0.0
 10
65.21341822371402
 20
-130.0378851671433
 30
0.0
 10
65.21341822371402
 20
-130.8757323891561
 30
0.0
 10
65.21341822371402
 20
-130.8757323891561
 30
0.0
 10
65.21341822371402
 20
-130.8757323891561
 30
0.0
 10
65.00188936091968
 20
-130.8757323891561
 30
0.0
 10
65.00188936091968
 20
-130.8757323891561
 30
0.0
 10
65.00188936091968
 20
-130.8757323891561
 30
0.0
 10
65.00188936091968
 20
-129.8008625977581
 30
0.0
 10
65.00188936091968
 20
-129.8008625977581
 30
0.0
 10
65.00188936091968
 20
-129.8008625977581
 30
0.0
 10
65.21341822371402
 20
-129.8008625977581
 30
0.0
 10
65.21341822371402
 20
-129.8008625977581
 30
0.0
 10
65.50315075402352
 20
-130.1247015733716
 30
0.0
 10
66.09553492271223
 20
-130.3913519639299
 30
0.0
 10
66.5461534121829
 20
-130.4251138996854
 30
0.0
  0
HATCH
  5
BD
330
B6
100
AcDbEntity
  8
_U+30EC_U+30A4_U+30E4_U+30FC 1
 62
   179
420
  2234388
100
AcDbHatch
 10
0.0
 20
0.0
 30
0.0
210
0.0
220
0.0
230
1.0
  2
SOLID
 70
     1
 71
     0
 91
        1
 92
        1
 93
        1
 72
     4
 94
        3
 73
     0
 74
     1
 95
       26
 96
       22
 40
0.0
 40
0.0
 40
0.0
 40
0.0
 40
1.0
 40
1.0
 40
1.0
 40
2.0
 40
2.0
 40
2.0
 40
3.0
 40
3.0
 40
3.0
 40
4.0
 40
4.0
 40
4.0
 40
5.0
 40
5.0
 40
5.0
 40
6.0
 40
6.0
 40
6.0
 40
7.0
 40
7.0
 40
7.0
 40
7.0
 10
66.5461534121829
 20
-130.4251138996854
 10
66.5461534121829
 20
-130.4251138996854
 10
66.5461534121829
 20
-130.6621364690706
 10
66.5461534121829
 20
-130.6621364690706
 10
66.23730060193026
 20
-130.6366427624797
 10
65.71898598617442
 20
-130.4440619248543
 10
65.21341822371402
 20
-130.0378851671433
 10
65.21341822371402
 20
-130.0378851671433
 10
65.21341822371402
 20
-130.8757323891561
 10
65.21341822371402
 20
-130.8757323891561
 10
65.21341822371402
 20
-130.8757323891561
 10
65.00188936091968
 20
-130.8757323891561
 10
65.00188936091968
 20
-130.8757323891561
 10
65.00188936091968
 20
-130.8757323891561
 10
65.00188936091968
 20
-129.8008625977581
 10
65.00188936091968
 20
-129.8008625977581
 10
65.00188936091968
 20
-129.8008625977581
 10
65.21341822371402
 20
-129.8008625977581
 10
65.21341822371402
 20
-129.8008625977581
 10
65.50315075402352
 20
-130.1247015733716
 10
66.09553492271223
 20
-130.3913519639299
 10
66.5461534121829
 20
-130.4251138996854
 97
        0
 97
        0
 75
     2
 76
     1
 98
        0
  0
ENDBLK
  5
B9
330
B6
100
AcDbEntity
  8
0
100
AcDbBlockEnd
  0
BLOCK
  5
E5
330
E3
100
AcDbEntity
  8
0
100
AcDbBlockBegin
  2
block 6
 70
     0
 10
0.0
 20
0.0
 30
0.0
  3
block 6
  1

  0
SPLINE
  5
E7
330
E3
100
AcDbEntity
  8
_U+30EC_U+30A4_U+30E4_U+30FC 1
370
     0
100
AcDbSpline
210
0.0
220
0.0
230
1.0
 70
    11
 71
     3
 72
    62
 73
    58
 74
     0
 42
0.0000000001
 43
0.0000000001
 12
1.0
 22
0.0
 32
0.0
 13
1.0
 23
0.0
 33
0.0
 40
0.0
 40
0.0
 40
0.0
 40
0.0
 40
1.0
 40
1.0
 40
1.0
 40
2.0
 40
2.0
 40
2.0
 40
3.0
 40
3.0
 40
3.0
 40
4.0
 40
4.0
 40
4.0
 40
5.0
 40
5.0
 40
5.0
 40
6.0
 40
6.0
 40
6.0
 40
7.0
 40
7.0
 40
7.0
 40
8.0
 40
8.0
 40
8.0
 40
9.0
 40
9.0
 40
9.0
 40
10.0
 40
10.0
 40
10.0
 40
11.0
 40
11.0
 40
11.0
 40
12.0
 40
12.0
 40
12.0
 40
13.0
 40
13.0
 40
13.0
 40
14.0
 40
14.0
 40
14.0
 40
15.0
 40
15.0
 40
15.0
 40
16.0
 40
16.0
 40
16.0
 40
17.0
 40
17.0
 40
17.0
 40
18.0
 40
18.0
 40
18.0
 40
19.0
 40
19.0
 40
19.0
 40
19.0
 10
114.5886989730889
 20
-137.8014078431538
 30
0.0
 10
114.5886989730889
 20
-137.9030381599687
 30
0.0
 10
114.5676838906289
 20
-138.1359266147716
 30
0.0
 10
114.3816487344254
 20
-138.2692518100507
 30
0.0
 10
114.2693386216063
 20
-138.3484890062115
 30
0.0
 10
114.1701198716311
 20
-138.3529676303423
 30
0.0
 10
114.0853705226939
 20
-138.3574462544731
 30
0.0
 10
114.0853705226939
 20
-138.3574462544731
 30
0.0
 10
114.0853705226939
 20
-138.1224907423791
 30
0.0
 10
114.0853705226939
 20
-138.1224907423791
 30
0.0
 10
114.1594400756268
 20
-138.1200791755394
 30
0.0
 10
114.3940510781723
 20
-138.1087103604381
 30
0.0
 10
114.3940510781723
 20
-137.8058864672846
 30
0.0
 10
114.3940510781723
 20
-137.6587808900645
 30
0.0
 10
114.3244601493703
 20
-137.4961723831607
 30
0.0
 10
114.0960503186982
 20
-137.4961723831607
 30
0.0
 10
113.9796060912968
 20
-137.4961723831607
 30
0.0
 10
113.9310302449547
 20
-137.5368245098866
 30
0.0
 10
113.8993353664904
 20
-137.5709309551906
 30
0.0
 10
113.8252658135576
 20
-137.6498236418028
 30
0.0
 10
113.8125189602622
 20
-137.7741915888203
 30
0.0
 10
113.8125189602622
 20
-137.8331027216181
 30
0.0
 10
113.8125189602622
 20
-137.8534287849811
 30
0.0
 10
113.8145860175533
 20
-137.8916693448674
 30
0.0
 10
113.8187201321356
 20
-137.9212971660405
 30
0.0
 10
113.8187201321356
 20
-137.9212971660405
 30
0.0
 10
113.624072237219
 20
-137.9212971660405
 30
0.0
 10
113.624072237219
 20
-137.9212971660405
 30
0.0
 10
113.630617918641
 20
-137.8806450393146
 30
0.0
 10
113.6326849759321
 20
-137.8351697789093
 30
0.0
 10
113.6326849759321
 20
-137.8286240974873
 30
0.0
 10
113.6326849759321
 20
-137.7583441495882
 30
0.0
 10
113.6113253839236
 20
-137.5457817581483
 30
0.0
 10
113.3746473240869
 20
-137.5457817581483
 30
0.0
 10
113.196880397048
 20
-137.5457817581483
 30
0.0
 10
113.141758869284
 20
-137.685997144398
 30
0.0
 10
113.141758869284
 20
-137.803474900445
 30
0.0
 10
113.141758869284
 20
-138.086317239784
 30
0.0
 10
113.3746473240869
 20
-138.0952744880456
 30
0.0
 10
113.4463053101801
 20
-138.0997531121764
 30
0.0
 10
113.4463053101801
 20
-138.0997531121764
 30
0.0
 10
113.4463053101801
 20
-138.3167941277472
 30
0.0
 10
113.4463053101801
 20
-138.3167941277472
 30
0.0
 10
113.321592853614
 20
-138.3078368794855
 30
0.0
 10
112.9450439170762
 20
-138.2785535678609
 30
0.0
 10
112.9450439170762
 20
-137.7900390280525
 30
0.0
 10
112.9450439170762
 20
-137.5502603822791
 30
0.0
 10
113.072167940482
 20
-137.2925672399824
 30
0.0
 10
113.3681016426649
 20
-137.2925672399824
 30
0.0
 10
113.5544813084169
 20
-137.2925672399824
 30
0.0
 10
113.6368190905144
 20
-137.3945420663458
 30
0.0
 10
113.6981417901519
 20
-137.5006510072915
 30
0.0
 10
113.7257025540339
 20
-137.4351941930718
 30
0.0
 10
113.8059732788402
 20
-137.2405462981552
 30
0.0
 10
114.0833034654028
 20
-137.2405462981552
 30
0.0
 10
114.4216118420543
 20
-137.2405462981552
 30
0.0
 10
114.5886989730889
 20
-137.5051296314223
 30
0.0
 10
114.5886989730889
 20
-137.8014078431538
 30
0.0
  0
HATCH
  5
E8
330
E3
100
AcDbEntity
  8
_U+30EC_U+30A4_U+30E4_U+30FC 1
 62
   179
420
  2234388
100
AcDbHatch
 10
0.0
 20
0.0
 30
0.0
210
0.0
220
0.0
230
1.0
  2
SOLID
 70
     1
 71
     0
 91
        1
 92
        1
 93
        1
 72
     4
 94
        3
 73
     0
 74
     1
 95
       62
 96
       58
 40
0.0
 40
0.0
 40
0.0
 40
0.0
 40
1.0
 40
1.0
 40
1.0
 40
2.0
 40
2.0
 40
2.0
 40
3.0
 40
3.0
 40
3.0
 40
4.0
 40
4.0
 40
4.0
 40
5.0
 40
5.0
 40
5.0
 40
6.0
 40
6.0
 40
6.0
 40
7.0
 40
7.0
 40
7.0
 40
8.0
 40
8.0
 40
8.0
 40
9.0
 40
9.0
 40
9.0
 40
10.0
 40
10.0
 40
10.0
 40
11.0
 40
11.0
 40
11.0
 40
12.0
 40
12.0
 40
12.0
 40
13.0
 40
13.0
 40
13.0
 40
14.0
 40
14.0
 40
14.0
 40
15.0
 40
15.0
 40
15.0
 40
16.0
 40
16.0
 40
16.0
 40
17.0
 40
17.0
 40
17.0
 40
18.0
 40
18.0
 40
18.0
 40
19.0
 40
19.0
 40
19.0
 40
19.0
 10
114.5886989730889
 20
-137.8014078431538
 10
114.5886989730889
 20
-137.9030381599687
 10
114.5676838906289
 20
-138.1359266147716
 10
114.3816487344254
 20
-138.2692518100507
 10
114.2693386216063
 20
-138.3484890062115
 10
114.1701198716311
 20
-138.3529676303423
 10
114.0853705226939
 20
-138.3574462544731
 10
114.0853705226939
 20
-138.3574462544731
 10
114.0853705226939
 20
-138.1224907423791
 10
114.0853705226939
 20
-138.1224907423791
 10
114.1594400756268
 20
-138.1200791755394
 10
114.3940510781723
 20
-138.1087103604381
 10
114.3940510781723
 20
-137.8058864672846
 10
114.3940510781723
 20
-137.6587808900645
 10
114.3244601493703
 20
-137.4961723831607
 10
114.0960503186982
 20
-137.4961723831607
 10
113.9796060912968
 20
-137.4961723831607
 10
113.9310302449547
 20
-137.5368245098866
 10
113.8993353664904
 20
-137.5709309551906
 10
113.8252658135576
 20
-137.6498236418028
 10
113.8125189602622
 20
-137.7741915888203
 10
113.8125189602622
 20
-137.8331027216181
 10
113.8125189602622
 20
-137.8534287849811
 10
113.8145860175533
 20
-137.8916693448674
 10
113.8187201321356
 20
-137.9212971660405
 10
113.8187201321356
 20
-137.9212971660405
 10
113.624072237219
 20
-137.9212971660405
 10
113.624072237219
 20
-137.9212971660405
 10
113.630617918641
 20
-137.8806450393146
 10
113.6326849759321
 20
-137.8351697789093
 10
113.6326849759321
 20
-137.8286240974873
 10
113.6326849759321
 20
-137.7583441495882
 10
113.6113253839236
 20
-137.5457817581483
 10
113.3746473240869
 20
-137.5457817581483
 10
113.196880397048
 20
-137.5457817581483
 10
113.141758869284
 20
-137.685997144398
 10
113.141758869284
 20
-137.803474900445
 10
113.141758869284
 20
-138.086317239784
 10
113.3746473240869
 20
-138.0952744880456
 10
113.4463053101801
 20
-138.0997531121764
 10
113.4463053101801
 20
-138.0997531121764
 10
113.4463053101801
 20
-138.3167941277472
 10
113.4463053101801
 20
-138.3167941277472
 10
113.321592853614
 20
-138.3078368794855
 10
112.9450439170762
 20
-138.2785535678609
 10
112.9450439170762
 20
-137.7900390280525
 10
112.9450439170762
 20
-137.5502603822791
 10
113.072167940482
 20
-137.2925672399824
 10
113.3681016426649
 20
-137.2925672399824
 10
113.5544813084169
 20
-137.2925672399824
 10
113.6368190905144
 20
-137.3945420663458
 10
113.6981417901519
 20
-137.5006510072915
 10
113.7257025540339
 20
-137.4351941930718
 10
113.8059732788402
 20
-137.2405462981552
 10
114.0833034654028
 20
-137.2405462981552
 10
114.4216118420543
 20
-137.2405462981552
 10
114.5886989730889
 20
-137.5051296314223
 10
114.5886989730889
 20
-137.8014078431538
 97
        0
 97
        0
 75
     2
 76
     1
 98
        0
  0
ENDBLK
  5
E6
330
E3
100
AcDbEntity
  8
0
100
AcDbBlockEnd
  0
BLOCK
  5
EB
330
E9
100
AcDbEntity
  8
0
100
AcDbBlockBegin
  2
block 7
 70
     0
 10
0.0
 20
0.0
 30
0.0
  3
block 7
  1

  0
INSERT
  5
EE
330
E9
100
AcDbEntity
  8
_U+30EC_U+30A4_U+30E4_U+30FC 1
100
AcDbBlockReference
  2
block 8
 10
0.0
 20
0.0
 30
0.0
  0
ENDBLK
  5
EC
330
E9
100
AcDbEntity
  8
0
100
AcDbBlockEnd
  0
BLOCK
  5
EF
330
ED
100
AcDbEntity
  8
0
100
AcDbBlockBegin
  2
block 8
 70
     0
 10
0.0
 20
0.0
 30
0.0
  3
block 8
  1

  0
SPLINE
  5
F1
330
ED
100
AcDbEntity
  8
_U+30EC_U+30A4_U+30E4_U+30FC 1
370
     0
100
AcDbSpline
210
0.0
220
0.0
230
1.0
 70
    11
 71
     3
 72
    32
 73
    28
 74
     0
 42
0.0000000001
 43
0.0000000001
 12
1.0
 22
0.0
 32
0.0
 13
1.0
 23
0.0
 33
0.0
 40
0.0
 40
0.0
 40
0.0
 40
0.0
 40
1.0
 40
1.0
 40
1.0
 40
2.0
 40
2.0
 40
2.0
 40
3.0
 40
3.0
 40
3.0
 40
4.0
 40
4.0
 40
4.0
 40
5.0
 40
5.0
 40
5.0
 40
6.0
 40
6.0
 40
6.0
 40
7.0
 40
7.0
 40
7.0
 40
8.0
 40
8.0
 40
8.0
 40
9.0
 40
9.0
 40
9.0
 40
9.0
 10
114.5886989730889
 20
-133.287299228831
 30
0.0
 10
114.5886989730889
 20
-133.839203525568
 30
0.0
 10
114.0347276190608
 20
-133.8481607738296
 30
0.0
 10
113.8207871894268
 20
-133.8481607738296
 30
0.0
 10
113.5903103014635
 20
-133.8481607738296
 30
0.0
 10
112.9429768597851
 20
-133.8278347104666
 30
0.0
 10
112.9429768597851
 20
-133.246647102105
 30
0.0
 10
112.9429768597851
 20
-133.0613009649986
 30
0.0
 10
113.0129122981357
 20
-132.7991291985711
 30
0.0
 10
113.3450195029137
 20
-132.7584770718451
 30
0.0
 10
113.3450195029137
 20
-132.7584770718451
 30
0.0
 10
113.3450195029137
 20
-132.9868869025172
 30
0.0
 10
113.3450195029137
 20
-132.9868869025172
 30
0.0
 10
113.2878309178586
 20
-132.99791120807
 30
0.0
 10
113.1396918119929
 20
-133.0320176533739
 30
0.0
 10
113.1396918119929
 20
-133.2490586689447
 30
0.0
 10
113.1396918119929
 20
-133.5611843199083
 30
0.0
 10
113.4676649021886
 20
-133.6039035039254
 30
0.0
 10
113.672648083561
 20
-133.6176838858664
 30
0.0
 10
113.5944444160458
 20
-133.5181206263427
 30
0.0
 10
113.5351887736995
 20
-133.4457736211525
 30
0.0
 10
113.5351887736995
 20
-133.2514702357844
 30
0.0
 10
113.5351887736995
 20
-133.0592339077074
 30
0.0
 10
113.6433647719364
 20
-132.7357394416425
 30
0.0
 10
114.0495415296473
 20
-132.7357394416425
 30
0.0
 10
114.36890188113
 20
-132.7357394416425
 30
0.0
 10
114.5886989730889
 20
-132.9483018330824
 30
0.0
 10
114.5886989730889
 20
-133.287299228831
 30
0.0
  0
SPLINE
  5
F2
330
ED
100
AcDbEntity
  8
_U+30EC_U+30A4_U+30E4_U+30FC 1
370
     0
100
AcDbSpline
210
0.0
220
0.0
230
1.0
 70
    11
 71
     3
 72
    17
 73
    13
 74
     0
 42
0.0000000001
 43
0.0000000001
 12
1.0
 22
0.0
 32
0.0
 13
1.0
 23
0.0
 33
0.0
 40
0.0
 40
0.0
 40
0.0
 40
0.0
 40
1.0
 40
1.0
 40
1.0
 40
2.0
 40
2.0
 40
2.0
 40
3.0
 40
3.0
 40
3.0
 40
4.0
 40
4.0
 40
4.0
 40
4.0
 10
113.7298366686162
 20
-133.2693847323077
 30
0.0
 10
113.7298366686162
 20
-133.549815504807
 30
0.0
 10
113.9413655314105
 20
-133.5904676315329
 30
0.0
 10
114.0578097588119
 20
-133.5904676315329
 30
0.0
 10
114.2335096285597
 20
-133.5904676315329
 30
0.0
 10
114.396462645012
 20
-133.4888373147181
 30
0.0
 10
114.396462645012
 20
-133.2921223625103
 30
0.0
 10
114.396462645012
 20
-133.163275791362
 30
0.0
 10
114.3372070026657
 20
-132.9755180874158
 30
0.0
 10
114.0516085869385
 20
-132.9755180874158
 30
0.0
 10
113.8273328708487
 20
-132.9755180874158
 30
0.0
 10
113.7298366686162
 20
-133.1246907219272
 30
0.0
 10
113.7298366686162
 20
-133.2693847323077
 30
0.0
  0
HATCH
  5
F3
330
ED
100
AcDbEntity
  8
_U+30EC_U+30A4_U+30E4_U+30FC 1
 62
   179
420
  2234388
100
AcDbHatch
 10
0.0
 20
0.0
 30
0.0
210
0.0
220
0.0
230
1.0
  2
SOLID
 70
     1
 71
     0
 91
        2
 92
        1
 93
        1
 72
     4
 94
        3
 73
     0
 74
     1
 95
       32
 96
       28
 40
0.0
 40
0.0
 40
0.0
 40
0.0
 40
1.0
 40
1.0
 40
1.0
 40
2.0
 40
2.0
 40
2.0
 40
3.0
 40
3.0
 40
3.0
 40
4.0
 40
4.0
 40
4.0
 40
5.0
 40
5.0
 40
5.0
 40
6.0
 40
6.0
 40
6.0
 40
7.0
 40
7.0
 40
7.0
 40
8.0
 40
8.0
 40
8.0
 40
9.0
 40
9.0
 40
9.0
 40
9.0
 10
114.5886989730889
 20
-133.287299228831
 10
114.5886989730889
 20
-133.839203525568
 10
114.0347276190608
 20
-133.8481607738296
 10
113.8207871894268
 20
-133.8481607738296
 10
113.5903103014635
 20
-133.8481607738296
 10
112.9429768597851
 20
-133.8278347104666
 10
112.9429768597851
 20
-133.246647102105
 10
112.9429768597851
 20
-133.0613009649986
 10
113.0129122981357
 20
-132.7991291985711
 10
113.3450195029137
 20
-132.7584770718451
 10
113.3450195029137
 20
-132.7584770718451
 10
113.3450195029137
 20
-132.9868869025172
 10
113.3450195029137
 20
-132.9868869025172
 10
113.2878309178586
 20
-132.99791120807
 10
113.1396918119929
 20
-133.0320176533739
 10
113.1396918119929
 20
-133.2490586689447
 10
113.1396918119929
 20
-133.5611843199083
 10
113.4676649021886
 20
-133.6039035039254
 10
113.672648083561
 20
-133.6176838858664
 10
113.5944444160458
 20
-133.5181206263427
 10
113.5351887736995
 20
-133.4457736211525
 10
113.5351887736995
 20
-133.2514702357844
 10
113.5351887736995
 20
-133.0592339077074
 10
113.6433647719364
 20
-132.7357394416425
 10
114.0495415296473
 20
-132.7357394416425
 10
114.36890188113
 20
-132.7357394416425
 10
114.5886989730889
 20
-132.9483018330824
 10
114.5886989730889
 20
-133.287299228831
 97
        0
 97
        0
 92
        1
 93
        1
 72
     4
 94
        3
 73
     0
 74
     1
 95
       17
 96
       13
 40
0.0
 40
0.0
 40
0.0
 40
0.0
 40
1.0
 40
1.0
 40
1.0
 40
2.0
 40
2.0
 40
2.0
 40
3.0
 40
3.0
 40
3.0
 40
4.0
 40
4.0
 40
4.0
 40
4.0
 10
113.7298366686162
 20
-133.2693847323077
 10
113.7298366686162
 20
-133.549815504807
 10
113.9413655314105
 20
-133.5904676315329
 10
114.0578097588119
 20
-133.5904676315329
 10
114.2335096285597
 20
-133.5904676315329
 10
114.396462645012
 20
-133.4888373147181
 10
114.396462645012
 20
-133.2921223625103
 10
114.396462645012
 20
-133.163275791362
 10
114.3372070026657
 20
-132.9755180874158
 10
114.0516085869385
 20
-132.9755180874158
 10
113.8273328708487
 20
-132.9755180874158
 10
113.7298366686162
 20
-133.1246907219272
 10
113.7298366686162
 20
-133.2693847323077
 97
        0
 97
        0
 75
     2
 76
     1
 98
        0
  0
ENDBLK
  5
F0
330
ED
100
AcDbEntity
  8
0
100
AcDbBlockEnd
  0
BLOCK
  5
F6
330
F4
100
AcDbEntity
  8
0
100
AcDbBlockBegin
  2
block 9
 70
     0
 10
0.0
 20
0.0
 30
0.0
  3
block 9
  1

  0
SPLINE
  5
F8
330
F4
100
AcDbEntity
  8
_U+30EC_U+30A4_U+30E4_U+30FC 1
370
     0
100
AcDbSpline
210
0.0
220
0.0
230
1.0
 70
    11
 71
     3
 72
    26
 73
    22
 74
     0
 42
0.0000000001
 43
0.0000000001
 12
1.0
 22
0.0
 32
0.0
 13
1.0
 23
0.0
 33
0.0
 40
0.0
 40
0.0
 40
0.0
 40
0.0
 40
1.0
 40
1.0
 40
1.0
 40
2.0
 40
2.0
 40
2.0
 40
3.0
 40
3.0
 40
3.0
 40
4.0
 40
4.0
 40
4.0
 40
5.0
 40
5.0
 40
5.0
 40
6.0
 40
6.0
 40
6.0
 40
7.0
 40
7.0
 40
7.0
 40
7.0
 10
114.4832790512403
 20
-128.2042330951191
 30
0.0
 10
114.4832790512403
 20
-128.2042330951191
 30
0.0
 10
113.3791259482177
 20
-128.2042330951191
 30
0.0
 10
113.3791259482177
 20
-128.2042330951191
 30
0.0
 10
113.3791259482177
 20
-128.2042330951191
 30
0.0
 10
113.3791259482177
 20
-128.5570108728087
 30
0.0
 10
113.3791259482177
 20
-128.5570108728087
 30
0.0
 10
113.3791259482177
 20
-128.5570108728087
 30
0.0
 10
113.230986842352
 20
-128.5570108728087
 30
0.0
 10
113.230986842352
 20
-128.5570108728087
 30
0.0
 10
113.2161729317654
 20
-128.2019937830537
 30
0.0
 10
113.0532199153131
 20
-128.1522121532918
 30
0.0
 10
112.9388427452028
 20
-128.1206895296018
 30
0.0
 10
112.9388427452028
 20
-128.1206895296018
 30
0.0
 10
112.9388427452028
 20
-127.96462670412
 30
0.0
 10
112.9388427452028
 20
-127.96462670412
 30
0.0
 10
112.9388427452028
 20
-127.96462670412
 30
0.0
 10
114.4832790512403
 20
-127.96462670412
 30
0.0
 10
114.4832790512403
 20
-127.96462670412
 30
0.0
 10
114.4832790512403
 20
-127.96462670412
 30
0.0
 10
114.4832790512403
 20
-128.2042330951191
 30
0.0
 10
114.4832790512403
 20
-128.2042330951191
 30
0.0
  0
HATCH
  5
F9
330
F4
100
AcDbEntity
  8
_U+30EC_U+30A4_U+30E4_U+30FC 1
 62
     7
420
 16777215
100
AcDbHatch
 10
0.0
 20
0.0
 30
0.0
210
0.0
220
0.0
230
1.0
  2
SOLID
 70
     1
 71
     0
 91
        1
 92
        1
 93
        1
 72
     4
 94
        3
 73
     0
 74
     1
 95
       26
 96
       22
 40
0.0
 40
0.0
 40
0.0
 40
0.0
 40
1.0
 40
1.0
 40
1.0
 40
2.0
 40
2.0
 40
2.0
 40
3.0
 40
3.0
 40
3.0
 40
4.0
 40
4.0
 40
4.0
 40
5.0
 40
5.0
 40
5.0
 40
6.0
 40
6.0
 40
6.0
 40
7.0
 40
7.0
 40
7.0
 40
7.0
 10
114.4832790512403
 20
-128.2042330951191
 10
114.4832790512403
 20
-128.2042330951191
 10
113.3791259482177
 20
-128.2042330951191
 10
113.3791259482177
 20
-128.2042330951191
 10
113.3791259482177
 20
-128.2042330951191
 10
113.3791259482177
 20
-128.5570108728087
 10
113.3791259482177
 20
-128.5570108728087
 10
113.3791259482177
 20
-128.5570108728087
 10
113.230986842352
 20
-128.5570108728087
 10
113.230986842352
 20
-128.5570108728087
 10
113.2161729317654
 20
-128.2019937830537
 10
113.0532199153131
 20
-128.1522121532918
 10
112.9388427452028
 20
-128.1206895296018
 10
112.9388427452028
 20
-128.1206895296018
 10
112.9388427452028
 20
-127.96462670412
 10
112.9388427452028
 20
-127.96462670412
 10
112.9388427452028
 20
-127.96462670412
 10
114.4832790512403
 20
-127.96462670412
 10
114.4832790512403
 20
-127.96462670412
 10
114.4832790512403
 20
-127.96462670412
 10
114.4832790512403
 20
-128.2042330951191
 10
114.4832790512403
 20
-128.2042330951191
 97
        0
 97
        0
 75
     2
 76
     1
 98
        0
  0
ENDBLK
  5
F7
330
F4
100
AcDbEntity
  8
0
100
AcDbBlockEnd
  0
ENDSEC
  0
SECTION
  2
ENTITIES
  0
SPLINE
  5
41
330
1F
100
AcDbEntity
  8
_U+30EC_U+30A4_U+30E4_U+30FC 1
 62
   179
420
  2234388
370
     9
100
AcDbSpline
210
0.0
220
0.0
230
1.0
 70
    11
 71
     3
 72
    17
 73
    13
 74
     0
 42
0.0000000001
 43
0.0000000001
 12
1.0
 22
0.0
 32
0.0
 13
1.0
 23
0.0
 33
0.0
 40
0.0
 40
0.0
 40
0.0
 40
0.0
 40
1.0
 40
1.0
 40
1.0
 40
2.0
 40
2.0
 40
2.0
 40
3.0
 40
3.0
 40
3.0
 40
4.0
 40
4.0
 40
4.0
 40
4.0
 10
72.15769399243719
 20
-143.2932180197321
 30
0.0
 10
72.15769399243719
 20
-143.2381141308572
 30
0.0
 10
72.11292649357931
 20
-143.1933113530905
 30
0.0
 10
72.0570817727818
 20
-143.1933113530905
 30
0.0
 10
72.00197788529873
 20
-143.1933113530905
 30
0.0
 10
71.95717510866396
 20
-143.2381141308572
 30
0.0
 10
71.95717510866396
 20
-143.2932180197321
 30
0.0
 10
71.95717510866396
 20
-143.3483571863852
 30
0.0
 10
72.00197788529873
 20
-143.3931599641519
 30
0.0
 10
72.0570817727818
 20
-143.3931599641519
 30
0.0
 10
72.11292649357931
 20
-143.3931599641519
 30
0.0
 10
72.15769399243719
 20
-143.3483571863852
 30
0.0
 10
72.15769399243719
 20
-143.2932180197321
 30
0.0
  0
POLYLINE
  5
42
330
1F
100
AcDbEntity
  8
_U+30EC_U+30A4_U+30E4_U+30FC 1
 62
   179
420
  2234388
370
     9
100
AcDb2dPolyline
 66
     1
 10
0.0
 20
0.0
 30
0.0
  0
VERTEX
  5
43
330
42
100
AcDbEntity
  8
_U+30EC_U+30A4_U+30E4_U+30FC 1
 62
   179
420
  2234388
370
     9
100
AcDbVertex
100
AcDb2dVertex
 10
72.0570817727818
 20
-143.2932180197321
 30
0.0
  0
VERTEX
  5
44
330
42
100
AcDbEntity
  8
_U+30EC_U+30A4_U+30E4_U+30FC 1
 62
   179
420
  2234388
370
     9
100
AcDbVertex
100
AcDb2dVertex
 10
82.05716942393018
 20
-143.2932180197321
 30
0.0
  0
SEQEND
  5
45
330
42
100
AcDbEntity
  8
_U+30EC_U+30A4_U+30E4_U+30FC 1
 62
   179
420
  2234388
370
     9
  0
POLYLINE
  5
46
330
1F
100
AcDbEntity
  8
_U+30EC_U+30A4_U+30E4_U+30FC 1
 62
   179
420
  2234388
370
     9
100
AcDb2dPolyline
 66
     1
 10
0.0
 20
0.0
 30
0.0
  0
VERTEX
  5
47
330
46
100
AcDbEntity
  8
_U+30EC_U+30A4_U+30E4_U+30FC 1
 62
   179
420
  2234388
370
     9
100
AcDbVertex
100
AcDb2dVertex
 10
72.0570817727818
 20
-140.8320638536811
 30
0.0
  0
VERTEX
  5
48
330
46
100
AcDbEntity
  8
_U+30EC_U+30A4_U+30E4_U+30FC 1
 62
   179
420
  2234388
370
     9
100
AcDbVertex
100
AcDb2dVertex
 10
72.0570817727818
 20
-144.2929902417046
 30
0.0
  0
SEQEND
  5
49
330
46
100
AcDbEntity
  8
_U+30EC_U+30A4_U+30E4_U+30FC 1
 62
   179
420
  2234388
370
     9
  0
SPLINE
  5
4A
330
1F
100
AcDbEntity
  8
_U+30EC_U+30A4_U+30E4_U+30FC 1
 62
   179
420
  2234388
370
     9
100
AcDbSpline
210
0.0
220
0.0
230
1.0
 70
    11
 71
     3
 72
    17
 73
    13
 74
     0
 42
0.0000000001
 43
0.0000000001
 12
1.0
 22
0.0
 32
0.0
 13
1.0
 23
0.0
 33
0.0
 40
0.0
 40
0.0
 40
0.0
 40
0.0
 40
1.0
 40
1.0
 40
1.0
 40
2.0
 40
2.0
 40
2.0
 40
3.0
 40
3.0
 40
3.0
 40
4.0
 40
4.0
 40
4.0
 40
4.0
 10
82.1577795706471
 20
-143.2932180197321
 30
0.0
 10
82.1577795706471
 20
-143.2381141308572
 30
0.0
 10
82.11297679401233
 20
-143.1933113530905
 30
0.0
 10
82.05716942393018
 20
-143.1933113530905
 30
0.0
 10
82.00206346350862
 20
-143.1933113530905
 30
0.0
 10
81.95726068687387
 20
-143.2381141308572
 30
0.0
 10
81.95726068687387
 20
-143.2932180197321
 30
0.0
 10
81.95726068687387
 20
-143.3483571863852
 30
0.0
 10
82.00206346350862
 20
-143.3931599641519
 30
0.0
 10
82.05716942393018
 20
-143.3931599641519
 30
0.0
 10
82.11297679401233
 20
-143.3931599641519
 30
0.0
 10
82.1577795706471
 20
-143.3483571863852
 30
0.0
 10
82.1577795706471
 20
-143.2932180197321
 30
0.0
  0
POLYLINE
  5
4B
330
1F
100
AcDbEntity
  8
_U+30EC_U+30A4_U+30E4_U+30FC 1
 62
   179
420
  2234388
370
     9
100
AcDb2dPolyline
 66
     1
 10
0.0
 20
0.0
 30
0.0
  0
VERTEX
  5
4C
330
4B
100
AcDbEntity
  8
_U+30EC_U+30A4_U+30E4_U+30FC 1
 62
   179
420
  2234388
370
     9
100
AcDbVertex
100
AcDb2dVertex
 10
82.05716942393018
 20
-140.8320638536811
 30
0.0
  0
VERTEX
  5
4D
330
4B
100
AcDbEntity
  8
_U+30EC_U+30A4_U+30E4_U+30FC 1
 62
   179
420
  2234388
370
     9
100
AcDbVertex
100
AcDb2dVertex
 10
82.05716942393018
 20
-144.2929902417046
 30
0.0
  0
SEQEND
  5
4E
330
4B
100
AcDbEntity
  8
_U+30EC_U+30A4_U+30E4_U+30FC 1
 62
   179
420
  2234388
370
     9
  0
INSERT
  5
50
330
1F
100
AcDbEntity
  8
_U+30EC_U+30A4_U+30E4_U+30FC 1
100
AcDbBlockReference
  2
block 2
 10
0.0
 20
0.0
 30
0.0
  0
SPLINE
  5
58
330
1F
100
AcDbEntity
  8
_U+30EC_U+30A4_U+30E4_U+30FC 1
 62
   179
420
  2234388
370
     9
100
AcDbSpline
210
0.0
220
0.0
230
1.0
 70
    11
 71
     3
 72
    17
 73
    13
 74
     0
 42
0.0000000001
 43
0.0000000001
 12
1.0
 22
0.0
 32
0.0
 13
1.0
 23
0.0
 33
0.0
 40
0.0
 40
0.0
 40
0.0
 40
0.0
 40
1.0
 40
1.0
 40
1.0
 40
2.0
 40
2.0
 40
2.0
 40
3.0
 40
3.0
 40
3.0
 40
4.0
 40
4.0
 40
4.0
 40
4.0
 10
115.9398492643502
 20
-139.2921182985105
 30
0.0
 10
115.9398492643502
 20
-139.3472221873854
 30
0.0
 10
115.984652040985
 20
-139.3920249651521
 30
0.0
 10
116.0397559284681
 20
-139.3920249651521
 30
0.0
 10
116.094895093728
 20
-139.3920249651521
 30
0.0
 10
116.1396625925859
 20
-139.3472221873854
 30
0.0
 10
116.1396625925859
 20
-139.2921182985105
 30
0.0
 10
116.1396625925859
 20
-139.2369791318574
 30
0.0
 10
116.094895093728
 20
-139.1921763540907
 30
0.0
 10
116.0397559284681
 20
-139.1921763540907
 30
0.0
 10
115.984652040985
 20
-139.1921763540907
 30
0.0
 10
115.9398492643502
 20
-139.2369791318574
 30
0.0
 10
115.9398492643502
 20
-139.2921182985105
 30
0.0
  0
SPLINE
  5
59
330
1F
100
AcDbEntity
  8
_U+30EC_U+30A4_U+30E4_U+30FC 1
 62
   179
420
  2234388
370
     9
100
AcDbSpline
210
0.0
220
0.0
230
1.0
 70
    11
 71
     3
 72
    17
 73
    13
 74
     0
 42
0.0000000001
 43
0.0000000001
 12
1.0
 22
0.0
 32
0.0
 13
1.0
 23
0.0
 33
0.0
 40
0.0
 40
0.0
 40
0.0
 40
0.0
 40
1.0
 40
1.0
 40
1.0
 40
2.0
 40
2.0
 40
2.0
 40
3.0
 40
3.0
 40
3.0
 40
4.0
 40
4.0
 40
4.0
 40
4.0
 10
115.9398492643502
 20
-130.2921221896493
 30
0.0
 10
115.9398492643502
 20
-130.3472613563024
 30
0.0
 10
115.984652040985
 20
-130.3920288562909
 30
0.0
 10
116.0397559284681
 20
-130.3920288562909
 30
0.0
 10
116.094895093728
 20
-130.3920288562909
 30
0.0
 10
116.1396625925859
 20
-130.3472613563024
 30
0.0
 10
116.1396625925859
 20
-130.2921221896493
 30
0.0
 10
116.1396625925859
 20
-130.2363127452189
 30
0.0
 10
116.094895093728
 20
-130.1915452452297
 30
0.0
 10
116.0397559284681
 20
-130.1915452452297
 30
0.0
 10
115.984652040985
 20
-130.1915452452297
 30
0.0
 10
115.9398492643502
 20
-130.2363127452189
 30
0.0
 10
115.9398492643502
 20
-130.2921221896493
 30
0.0
  0
SPLINE
  5
5A
330
1F
100
AcDbEntity
  8
_U+30EC_U+30A4_U+30E4_U+30FC 1
 62
   179
420
  2234388
370
     9
100
AcDbSpline
210
0.0
220
0.0
230
1.0
 70
    11
 71
     3
 72
    17
 73
    13
 74
     0
 42
0.0000000001
 43
0.0000000001
 12
1.0
 22
0.0
 32
0.0
 13
1.0
 23
0.0
 33
0.0
 40
0.0
 40
0.0
 40
0.0
 40
0.0
 40
1.0
 40
1.0
 40
1.0
 40
2.0
 40
2.0
 40
2.0
 40
3.0
 40
3.0
 40
3.0
 40
4.0
 40
4.0
 40
4.0
 40
4.0
 10
115.9398492643502
 20
-129.2965127454536
 30
0.0
 10
115.9398492643502
 20
-129.3516166343285
 30
0.0
 10
115.984652040985
 20
-129.3964194120952
 30
0.0
 10
116.0397559284681
 20
-129.3964194120952
 30
0.0
 10
116.094895093728
 20
-129.3964194120952
 30
0.0
 10
116.1396625925859
 20
-129.3516166343285
 30
0.0
 10
116.1396625925859
 20
-129.2965127454536
 30
0.0
 10
116.1396625925859
 20
-129.2407033010232
 30
0.0
 10
116.094895093728
 20
-129.1959005232564
 30
0.0
 10
116.0397559284681
 20
-129.1959005232564
 30
0.0
 10
115.984652040985
 20
-129.1959005232564
 30
0.0
 10
115.9398492643502
 20
-129.2407033010232
 30
0.0
 10
115.9398492643502
 20
-129.2965127454536
 30
0.0
  0
POLYLINE
  5
5B
330
1F
100
AcDbEntity
  8
_U+30EC_U+30A4_U+30E4_U+30FC 1
 62
   179
420
  2234388
370
     9
100
AcDb2dPolyline
 66
     1
 10
0.0
 20
0.0
 30
0.0
  0
VERTEX
  5
5C
330
5B
100
AcDbEntity
  8
_U+30EC_U+30A4_U+30E4_U+30FC 1
 62
   179
420
  2234388
370
     9
100
AcDbVertex
100
AcDb2dVertex
 10
116.0397559284681
 20
-127.8452555235941
 30
0.0
  0
VERTEX
  5
5D
330
5B
100
AcDbEntity
  8
_U+30EC_U+30A4_U+30E4_U+30FC 1
 62
   179
420
  2234388
370
     9
100
AcDbVertex
100
AcDb2dVertex
 10
116.0397559284681
 20
-139.2921182985105
 30
0.0
  0
SEQEND
  5
5E
330
5B
100
AcDbEntity
  8
_U+30EC_U+30A4_U+30E4_U+30FC 1
 62
   179
420
  2234388
370
     9
  0
POLYLINE
  5
5F
330
1F
100
AcDbEntity
  8
_U+30EC_U+30A4_U+30E4_U+30FC 1
 62
   179
420
  2234388
370
     9
100
AcDb2dPolyline
 66
     1
 10
0.0
 20
0.0
 30
0.0
  0
VERTEX
  5
60
330
5F
100
AcDbEntity
  8
_U+30EC_U+30A4_U+30E4_U+30FC 1
 62
   179
420
  2234388
370
     9
100
AcDbVertex
100
AcDb2dVertex
 10
114.7158162400224
 20
-130.2921221896493
 30
0.0
  0
VERTEX
  5
61
330
5F
100
AcDbEntity
  8
_U+30EC_U+30A4_U+30E4_U+30FC 1
 62
   179
420
  2234388
370
     9
100
AcDbVertex
100
AcDb2dVertex
 10
117.039528125184
 20
-130.2921221896493
 30
0.0
  0
SEQEND
  5
62
330
5F
100
AcDbEntity
  8
_U+30EC_U+30A4_U+30E4_U+30FC 1
 62
   179
420
  2234388
370
     9
  0
POLYLINE
  5
63
330
1F
100
AcDbEntity
  8
_U+30EC_U+30A4_U+30E4_U+30FC 1
 62
   179
420
  2234388
370
     9
100
AcDb2dPolyline
 66
     1
 10
0.0
 20
0.0
 30
0.0
  0
VERTEX
  5
64
330
63
100
AcDbEntity
  8
_U+30EC_U+30A4_U+30E4_U+30FC 1
 62
   179
420
  2234388
370
     9
100
AcDbVertex
100
AcDb2dVertex
 10
114.7158162400224
 20
-129.2923499676768
 30
0.0
  0
VERTEX
  5
65
330
63
100
AcDbEntity
  8
_U+30EC_U+30A4_U+30E4_U+30FC 1
 62
   179
420
  2234388
370
     9
100
AcDbVertex
100
AcDb2dVertex
 10
117.039528125184
 20
-129.2923499676768
 30
0.0
  0
SEQEND
  5
66
330
63
100
AcDbEntity
  8
_U+30EC_U+30A4_U+30E4_U+30FC 1
 62
   179
420
  2234388
370
     9
  0
POLYLINE
  5
67
330
1F
100
AcDbEntity
  8
_U+30EC_U+30A4_U+30E4_U+30FC 1
 62
   179
420
  2234388
370
     9
100
AcDb2dPolyline
 66
     1
 10
0.0
 20
0.0
 30
0.0
  0
VERTEX
  5
68
330
67
100
AcDbEntity
  8
_U+30EC_U+30A4_U+30E4_U+30FC 1
 62
   179
420
  2234388
370
     9
100
AcDbVertex
100
AcDb2dVertex
 10
83.20715232165314
 20
-139.2921182985105
 30
0.0
  0
VERTEX
  5
69
330
67
100
AcDbEntity
  8
_U+30EC_U+30A4_U+30E4_U+30FC 1
 62
   179
420
  2234388
370
     9
100
AcDbVertex
100
AcDb2dVertex
 10
117.039528125184
 20
-139.2921182985105
 30
0.0
  0
SEQEND
  5
6A
330
67
100
AcDbEntity
  8
_U+30EC_U+30A4_U+30E4_U+30FC 1
 62
   179
420
  2234388
370
     9
  0
SPLINE
  5
6B
330
1F
100
AcDbEntity
  8
_U+30EC_U+30A4_U+30E4_U+30FC 1
 62
   179
420
  2234388
370
     9
100
AcDbSpline
210
0.0
220
0.0
230
1.0
 70
    11
 71
     3
 72
    17
 73
    13
 74
     0
 42
0.0000000001
 43
0.0000000001
 12
1.0
 22
0.0
 32
0.0
 13
1.0
 23
0.0
 33
0.0
 40
0.0
 40
0.0
 40
0.0
 40
0.0
 40
1.0
 40
1.0
 40
1.0
 40
2.0
 40
2.0
 40
2.0
 40
3.0
 40
3.0
 40
3.0
 40
4.0
 40
4.0
 40
4.0
 40
4.0
 10
115.9398492643502
 20
-136.292096077038
 30
0.0
 10
115.9398492643502
 20
-136.3472352436911
 30
0.0
 10
115.984652040985
 20
-136.3920027436796
 30
0.0
 10
116.0397559284681
 20
-136.3920027436796
 30
0.0
 10
116.094895093728
 20
-136.3920027436796
 30
0.0
 10
116.1396625925859
 20
-136.3472352436911
 30
0.0
 10
116.1396625925859
 20
-136.292096077038
 30
0.0
 10
116.1396625925859
 20
-136.2369921881631
 30
0.0
 10
116.094895093728
 20
-136.1921894103964
 30
0.0
 10
116.0397559284681
 20
-136.1921894103964
 30
0.0
 10
115.984652040985
 20
-136.1921894103964
 30
0.0
 10
115.9398492643502
 20
-136.2369921881631
 30
0.0
 10
115.9398492643502
 20
-136.292096077038
 30
0.0
  0
POLYLINE
  5
6C
330
1F
100
AcDbEntity
  8
_U+30EC_U+30A4_U+30E4_U+30FC 1
 62
   179
420
  2234388
370
     9
100
AcDb2dPolyline
 66
     1
 10
0.0
 20
0.0
 30
0.0
  0
VERTEX
  5
6D
330
6C
100
AcDbEntity
  8
_U+30EC_U+30A4_U+30E4_U+30FC 1
 62
   179
420
  2234388
370
     9
100
AcDbVertex
100
AcDb2dVertex
 10
83.20715232165314
 20
-136.292096077038
 30
0.0
  0
VERTEX
  5
6E
330
6C
100
AcDbEntity
  8
_U+30EC_U+30A4_U+30E4_U+30FC 1
 62
   179
420
  2234388
370
     9
100
AcDbVertex
100
AcDb2dVertex
 10
117.039528125184
 20
-136.292096077038
 30
0.0
  0
SEQEND
  5
6F
330
6C
100
AcDbEntity
  8
_U+30EC_U+30A4_U+30E4_U+30FC 1
 62
   179
420
  2234388
370
     9
  0
SPLINE
  5
70
330
1F
100
AcDbEntity
  8
_U+30EC_U+30A4_U+30E4_U+30FC 1
 62
   179
420
  2234388
370
     9
100
AcDbSpline
210
0.0
220
0.0
230
1.0
 70
    11
 71
     3
 72
    17
 73
    13
 74
     0
 42
0.0000000001
 43
0.0000000001
 12
1.0
 22
0.0
 32
0.0
 13
1.0
 23
0.0
 33
0.0
 40
0.0
 40
0.0
 40
0.0
 40
0.0
 40
1.0
 40
1.0
 40
1.0
 40
2.0
 40
2.0
 40
2.0
 40
3.0
 40
3.0
 40
3.0
 40
4.0
 40
4.0
 40
4.0
 40
4.0
 10
72.0570817727818
 20
-118.3714083037406
 30
0.0
 10
72.00197788529873
 20
-118.3714083037406
 30
0.0
 10
71.95717510866396
 20
-118.4162110815069
 30
0.0
 10
71.95717510866396
 20
-118.4713149703822
 30
0.0
 10
71.95717510866396
 20
-118.5264541370349
 30
0.0
 10
72.00197788529873
 20
-118.5712216370238
 30
0.0
 10
72.0570817727818
 20
-118.5712216370238
 30
0.0
 10
72.11222093804176
 20
-118.5712216370238
 30
0.0
 10
72.15702371467651
 20
-118.5264541370349
 30
0.0
 10
72.15702371467651
 20
-118.4713149703822
 30
0.0
 10
72.15702371467651
 20
-118.4162110815069
 30
0.0
 10
72.11222093804176
 20
-118.3714083037406
 30
0.0
 10
72.0570817727818
 20
-118.3714083037406
 30
0.0
  0
POLYLINE
  5
71
330
1F
100
AcDbEntity
  8
_U+30EC_U+30A4_U+30E4_U+30FC 1
 62
   179
420
  2234388
370
     9
100
AcDb2dPolyline
 66
     1
 10
0.0
 20
0.0
 30
0.0
  0
VERTEX
  5
72
330
71
100
AcDbEntity
  8
_U+30EC_U+30A4_U+30E4_U+30FC 1
 62
   179
420
  2234388
370
     9
100
AcDbVertex
100
AcDb2dVertex
 10
75.02641225258343
 20
-118.4713149703822
 30
0.0
  0
VERTEX
  5
73
330
71
100
AcDbEntity
  8
_U+30EC_U+30A4_U+30E4_U+30FC 1
 62
   179
420
  2234388
370
     9
100
AcDbVertex
100
AcDb2dVertex
 10
72.0570817727818
 20
-118.4713149703822
 30
0.0
  0
SEQEND
  5
74
330
71
100
AcDbEntity
  8
_U+30EC_U+30A4_U+30E4_U+30FC 1
 62
   179
420
  2234388
370
     9
  0
SPLINE
  5
75
330
1F
100
AcDbEntity
  8
_U+30EC_U+30A4_U+30E4_U+30FC 1
 62
   179
420
  2234388
370
     9
100
AcDbSpline
210
0.0
220
0.0
230
1.0
 70
    11
 71
     3
 72
    17
 73
    13
 74
     0
 42
0.0000000001
 43
0.0000000001
 12
1.0
 22
0.0
 32
0.0
 13
1.0
 23
0.0
 33
0.0
 40
0.0
 40
0.0
 40
0.0
 40
0.0
 40
1.0
 40
1.0
 40
1.0
 40
2.0
 40
2.0
 40
2.0
 40
3.0
 40
3.0
 40
3.0
 40
4.0
 40
4.0
 40
4.0
 40
4.0
 10
75.02641225258343
 20
-118.3714083037406
 30
0.0
 10
74.97130836510036
 20
-118.3714083037406
 30
0.0
 10
74.92650558846559
 20
-118.4162110815069
 30
0.0
 10
74.92650558846559
 20
-118.4713149703822
 30
0.0
 10
74.92650558846559
 20
-118.5264541370349
 30
0.0
 10
74.97130836510036
 20
-118.5712216370238
 30
0.0
 10
75.02641225258343
 20
-118.5712216370238
 30
0.0
 10
75.08155141784337
 20
-118.5712216370238
 30
0.0
 10
75.12631891670127
 20
-118.5264541370349
 30
0.0
 10
75.12631891670127
 20
-118.4713149703822
 30
0.0
 10
75.12631891670127
 20
-118.4162110815069
 30
0.0
 10
75.08155141784337
 20
-118.3714083037406
 30
0.0
 10
75.02641225258343
 20
-118.3714083037406
 30
0.0
  0
POLYLINE
  5
76
330
1F
100
AcDbEntity
  8
_U+30EC_U+30A4_U+30E4_U+30FC 1
 62
   179
420
  2234388
370
     9
100
AcDb2dPolyline
 66
     1
 10
0.0
 20
0.0
 30
0.0
  0
VERTEX
  5
77
330
76
100
AcDbEntity
  8
_U+30EC_U+30A4_U+30E4_U+30FC 1
 62
   179
420
  2234388
370
     9
100
AcDbVertex
100
AcDb2dVertex
 10
75.02641225258343
 20
-117.0112735818581
 30
0.0
  0
VERTEX
  5
78
330
76
100
AcDbEntity
  8
_U+30EC_U+30A4_U+30E4_U+30FC 1
 62
   179
420
  2234388
370
     9
100
AcDbVertex
100
AcDb2dVertex
 10
75.02641225258343
 20
-119.7518630256176
 30
0.0
  0
SEQEND
  5
79
330
76
100
AcDbEntity
  8
_U+30EC_U+30A4_U+30E4_U+30FC 1
 62
   179
420
  2234388
370
     9
  0
INSERT
  5
7B
330
1F
100
AcDbEntity
  8
_U+30EC_U+30A4_U+30E4_U+30FC 1
100
AcDbBlockReference
  2
block 3
 10
0.0
 20
0.0
 30
0.0
  0
SPLINE
  5
80
330
1F
100
AcDbEntity
  8
_U+30EC_U+30A4_U+30E4_U+30FC 1
 62
   179
420
  2234388
370
     9
100
AcDbSpline
210
0.0
220
0.0
230
1.0
 70
    11
 71
     3
 72
    17
 73
    13
 74
     0
 42
0.0000000001
 43
0.0000000001
 12
1.0
 22
0.0
 32
0.0
 13
1.0
 23
0.0
 33
0.0
 40
0.0
 40
0.0
 40
0.0
 40
0.0
 40
1.0
 40
1.0
 40
1.0
 40
2.0
 40
2.0
 40
2.0
 40
3.0
 40
3.0
 40
3.0
 40
4.0
 40
4.0
 40
4.0
 40
4.0
 10
72.0570817727818
 20
-115.3524771933841
 30
0.0
 10
72.00197788529873
 20
-115.3524771933841
 30
0.0
 10
71.95717510866396
 20
-115.3972799711505
 30
0.0
 10
71.95717510866396
 20
-115.4523838600258
 30
0.0
 10
71.95717510866396
 20
-115.5075230266785
 30
0.0
 10
72.00197788529873
 20
-115.5522905266674
 30
0.0
 10
72.0570817727818
 20
-115.5522905266674
 30
0.0
 10
72.11222093804176
 20
-115.5522905266674
 30
0.0
 10
72.15702371467651
 20
-115.5075230266785
 30
0.0
 10
72.15702371467651
 20
-115.4523838600258
 30
0.0
 10
72.15702371467651
 20
-115.3972799711505
 30
0.0
 10
72.11222093804176
 20
-115.3524771933841
 30
0.0
 10
72.0570817727818
 20
-115.3524771933841
 30
0.0
  0
POLYLINE
  5
81
330
1F
100
AcDbEntity
  8
_U+30EC_U+30A4_U+30E4_U+30FC 1
 62
   179
420
  2234388
370
     9
100
AcDb2dPolyline
 66
     1
 10
0.0
 20
0.0
 30
0.0
  0
VERTEX
  5
82
330
81
100
AcDbEntity
  8
_U+30EC_U+30A4_U+30E4_U+30FC 1
 62
   179
420
  2234388
370
     9
100
AcDbVertex
100
AcDb2dVertex
 10
112.057247696737
 20
-115.4523838600258
 30
0.0
  0
VERTEX
  5
83
330
81
100
AcDbEntity
  8
_U+30EC_U+30A4_U+30E4_U+30FC 1
 62
   179
420
  2234388
370
     9
100
AcDbVertex
100
AcDb2dVertex
 10
72.0570817727818
 20
-115.4523838600258
 30
0.0
  0
SEQEND
  5
84
330
81
100
AcDbEntity
  8
_U+30EC_U+30A4_U+30E4_U+30FC 1
 62
   179
420
  2234388
370
     9
  0
POLYLINE
  5
85
330
1F
100
AcDbEntity
  8
_U+30EC_U+30A4_U+30E4_U+30FC 1
 62
   179
420
  2234388
370
     9
100
AcDb2dPolyline
 66
     1
 10
0.0
 20
0.0
 30
0.0
  0
VERTEX
  5
86
330
85
100
AcDbEntity
  8
_U+30EC_U+30A4_U+30E4_U+30FC 1
 62
   179
420
  2234388
370
     9
100
AcDbVertex
100
AcDb2dVertex
 10
112.0472640858806
 20
-115.4525602489147
 30
0.0
  0
VERTEX
  5
87
330
85
100
AcDbEntity
  8
_U+30EC_U+30A4_U+30E4_U+30FC 1
 62
   179
420
  2234388
370
     9
100
AcDbVertex
100
AcDb2dVertex
 10
72.04709998198825
 20
-115.4525602489147
 30
0.0
  0
SEQEND
  5
88
330
85
100
AcDbEntity
  8
_U+30EC_U+30A4_U+30E4_U+30FC 1
 62
   179
420
  2234388
370
     9
  0
POLYLINE
  5
89
330
1F
100
AcDbEntity
  8
_U+30EC_U+30A4_U+30E4_U+30FC 1
 62
   179
420
  2234388
370
     9
100
AcDb2dPolyline
 66
     1
 10
0.0
 20
0.0
 30
0.0
  0
VERTEX
  5
8A
330
89
100
AcDbEntity
  8
_U+30EC_U+30A4_U+30E4_U+30FC 1
 62
   179
420
  2234388
370
     9
100
AcDbVertex
100
AcDb2dVertex
 10
72.0570817727818
 20
-113.9923424715021
 30
0.0
  0
VERTEX
  5
8B
330
89
100
AcDbEntity
  8
_U+30EC_U+30A4_U+30E4_U+30FC 1
 62
   179
420
  2234388
370
     9
100
AcDbVertex
100
AcDb2dVertex
 10
72.0570817727818
 20
-119.7518630256176
 30
0.0
  0
SEQEND
  5
8C
330
89
100
AcDbEntity
  8
_U+30EC_U+30A4_U+30E4_U+30FC 1
 62
   179
420
  2234388
370
     9
  0
SPLINE
  5
8D
330
1F
100
AcDbEntity
  8
_U+30EC_U+30A4_U+30E4_U+30FC 1
 62
   179
420
  2234388
370
     9
100
AcDbSpline
210
0.0
220
0.0
230
1.0
 70
    11
 71
     3
 72
    17
 73
    13
 74
     0
 42
0.0000000001
 43
0.0000000001
 12
1.0
 22
0.0
 32
0.0
 13
1.0
 23
0.0
 33
0.0
 40
0.0
 40
0.0
 40
0.0
 40
0.0
 40
1.0
 40
1.0
 40
1.0
 40
2.0
 40
2.0
 40
2.0
 40
3.0
 40
3.0
 40
3.0
 40
4.0
 40
4.0
 40
4.0
 40
4.0
 10
112.057247696737
 20
-115.3524771933841
 30
0.0
 10
112.002108531477
 20
-115.3524771933841
 30
0.0
 10
111.9573410326192
 20
-115.3972799711505
 30
0.0
 10
111.9573410326192
 20
-115.4523838600258
 30
0.0
 10
111.9573410326192
 20
-115.5075230266785
 30
0.0
 10
112.002108531477
 20
-115.5522905266674
 30
0.0
 10
112.057247696737
 20
-115.5522905266674
 30
0.0
 10
112.1123515842201
 20
-115.5522905266674
 30
0.0
 10
112.1571543608548
 20
-115.5075230266785
 30
0.0
 10
112.1571543608548
 20
-115.4523838600258
 30
0.0
 10
112.1571543608548
 20
-115.3972799711505
 30
0.0
 10
112.1123515842201
 20
-115.3524771933841
 30
0.0
 10
112.057247696737
 20
-115.3524771933841
 30
0.0
  0
POLYLINE
  5
8E
330
1F
100
AcDbEntity
  8
_U+30EC_U+30A4_U+30E4_U+30FC 1
 62
   179
420
  2234388
370
     9
100
AcDb2dPolyline
 66
     1
 10
0.0
 20
0.0
 30
0.0
  0
VERTEX
  5
8F
330
8E
100
AcDbEntity
  8
_U+30EC_U+30A4_U+30E4_U+30FC 1
 62
   179
420
  2234388
370
     9
100
AcDbVertex
100
AcDb2dVertex
 10
112.057247696737
 20
-113.9923424715021
 30
0.0
  0
VERTEX
  5
90
330
8E
100
AcDbEntity
  8
_U+30EC_U+30A4_U+30E4_U+30FC 1
 62
   179
420
  2234388
370
     9
100
AcDbVertex
100
AcDb2dVertex
 10
112.057247696737
 20
-126.3237249684189
 30
0.0
  0
SEQEND
  5
91
330
8E
100
AcDbEntity
  8
_U+30EC_U+30A4_U+30E4_U+30FC 1
 62
   179
420
  2234388
370
     9
  0
INSERT
  5
93
330
1F
100
AcDbEntity
  8
_U+30EC_U+30A4_U+30E4_U+30FC 1
100
AcDbBlockReference
  2
block 4
 10
0.0
 20
0.0
 30
0.0
  0
POLYLINE
  5
AE
330
1F
100
AcDbEntity
  8
_U+30EC_U+30A4_U+30E4_U+30FC 1
 62
   179
420
  2234388
370
     9
100
AcDb2dPolyline
 66
     1
 10
0.0
 20
0.0
 30
0.0
  0
VERTEX
  5
AF
330
AE
100
AcDbEntity
  8
_U+30EC_U+30A4_U+30E4_U+30FC 1
 62
   179
420
  2234388
370
     9
100
AcDbVertex
100
AcDb2dVertex
 10
67.28890217220598
 20
-139.2921182985105
 30
0.0
  0
VERTEX
  5
B0
330
AE
100
AcDbEntity
  8
_U+30EC_U+30A4_U+30E4_U+30FC 1
 62
   179
420
  2234388
370
     9
100
AcDbVertex
100
AcDb2dVertex
 10
67.28890217220598
 20
-122.2924627472048
 30
0.0
  0
SEQEND
  5
B1
330
AE
100
AcDbEntity
  8
_U+30EC_U+30A4_U+30E4_U+30FC 1
 62
   179
420
  2234388
370
     9
  0
POLYLINE
  5
B2
330
1F
100
AcDbEntity
  8
_U+30EC_U+30A4_U+30E4_U+30FC 1
 62
   179
420
  2234388
370
     9
100
AcDb2dPolyline
 66
     1
 10
0.0
 20
0.0
 30
0.0
  0
VERTEX
  5
B3
330
B2
100
AcDbEntity
  8
_U+30EC_U+30A4_U+30E4_U+30FC 1
 62
   179
420
  2234388
370
     9
100
AcDbVertex
100
AcDb2dVertex
 10
68.29075575775768
 20
-139.2921182985105
 30
0.0
  0
VERTEX
  5
B4
330
B2
100
AcDbEntity
  8
_U+30EC_U+30A4_U+30E4_U+30FC 1
 62
   179
420
  2234388
370
     9
100
AcDbVertex
100
AcDb2dVertex
 10
65.81647832088174
 20
-139.2921182985105
 30
0.0
  0
SEQEND
  5
B5
330
B2
100
AcDbEntity
  8
_U+30EC_U+30A4_U+30E4_U+30FC 1
 62
   179
420
  2234388
370
     9
  0
INSERT
  5
B7
330
1F
100
AcDbEntity
  8
_U+30EC_U+30A4_U+30E4_U+30FC 1
100
AcDbBlockReference
  2
block 5
 10
0.0
 20
0.0
 30
0.0
  0
SPLINE
  5
BE
330
1F
100
AcDbEntity
  8
_U+30EC_U+30A4_U+30E4_U+30FC 1
 62
   179
420
  2234388
370
     9
100
AcDbSpline
210
0.0
220
0.0
230
1.0
 70
    11
 71
     3
 72
    17
 73
    13
 74
     0
 42
0.0000000001
 43
0.0000000001
 12
1.0
 22
0.0
 32
0.0
 13
1.0
 23
0.0
 33
0.0
 40
0.0
 40
0.0
 40
0.0
 40
0.0
 40
1.0
 40
1.0
 40
1.0
 40
2.0
 40
2.0
 40
2.0
 40
3.0
 40
3.0
 40
3.0
 40
4.0
 40
4.0
 40
4.0
 40
4.0
 10
67.38263522537021
 20
-139.2907071873994
 30
0.0
 10
67.38263522537021
 20
-139.2356032985246
 30
0.0
 10
67.33818522650422
 20
-139.1915060763133
 30
0.0
 10
67.28272856125237
 20
-139.1915060763133
 30
0.0
 10
67.22758939599242
 20
-139.1915060763133
 30
0.0
 10
67.18282189713453
 20
-139.2356032985246
 30
0.0
 10
67.18282189713453
 20
-139.2907071873994
 30
0.0
 10
67.18282189713453
 20
-139.3465166318299
 30
0.0
 10
67.22758939599242
 20
-139.3913194095966
 30
0.0
 10
67.28272856125237
 20
-139.3913194095966
 30
0.0
 10
67.33818522650422
 20
-139.3913194095966
 30
0.0
 10
67.38263522537021
 20
-139.3465166318299
 30
0.0
 10
67.38263522537021
 20
-139.2907071873994
 30
0.0
  0
POLYLINE
  5
BF
330
1F
100
AcDbEntity
  8
_U+30EC_U+30A4_U+30E4_U+30FC 1
 62
   179
420
  2234388
370
     9
100
AcDb2dPolyline
 66
     1
 10
0.0
 20
0.0
 30
0.0
  0
VERTEX
  5
C0
330
BF
100
AcDbEntity
  8
_U+30EC_U+30A4_U+30E4_U+30FC 1
 62
   179
420
  2234388
370
     9
100
AcDbVertex
100
AcDb2dVertex
 10
68.29075575775768
 20
-122.2922863583159
 30
0.0
  0
VERTEX
  5
C1
330
BF
100
AcDbEntity
  8
_U+30EC_U+30A4_U+30E4_U+30FC 1
 62
   179
420
  2234388
370
     9
100
AcDbVertex
100
AcDb2dVertex
 10
65.81647832088174
 20
-122.2922863583159
 30
0.0
  0
SEQEND
  5
C2
330
BF
100
AcDbEntity
  8
_U+30EC_U+30A4_U+30E4_U+30FC 1
 62
   179
420
  2234388
370
     9
  0
SPLINE
  5
C3
330
1F
100
AcDbEntity
  8
_U+30EC_U+30A4_U+30E4_U+30FC 1
 62
   179
420
  2234388
370
     9
100
AcDbSpline
210
0.0
220
0.0
230
1.0
 70
    11
 71
     3
 72
    17
 73
    13
 74
     0
 42
0.0000000001
 43
0.0000000001
 12
1.0
 22
0.0
 32
0.0
 13
1.0
 23
0.0
 33
0.0
 40
0.0
 40
0.0
 40
0.0
 40
0.0
 40
1.0
 40
1.0
 40
1.0
 40
2.0
 40
2.0
 40
2.0
 40
3.0
 40
3.0
 40
3.0
 40
4.0
 40
4.0
 40
4.0
 40
4.0
 10
67.38263522537021
 20
-122.2909105249827
 30
0.0
 10
67.38263522537021
 20
-122.23577135833
 30
0.0
 10
67.33818522650422
 20
-122.191321358341
 30
0.0
 10
67.28272856125237
 20
-122.191321358341
 30
0.0
 10
67.22758939599242
 20
-122.191321358341
 30
0.0
 10
67.18282189713453
 20
-122.23577135833
 30
0.0
 10
67.18282189713453
 20
-122.2909105249827
 30
0.0
 10
67.18282189713453
 20
-122.3467199694132
 30
0.0
 10
67.22758939599242
 20
-122.3914874694021
 30
0.0
 10
67.28272856125237
 20
-122.3914874694021
 30
0.0
 10
67.33818522650422
 20
-122.3914874694021
 30
0.0
 10
67.38263522537021
 20
-122.3467199694132
 30
0.0
 10
67.38263522537021
 20
-122.2909105249827
 30
0.0
  0
POLYLINE
  5
C4
330
1F
100
AcDbEntity
  8
_U+30EC_U+30A4_U+30E4_U+30FC 1
 62
   179
420
  2234388
370
    25
100
AcDb2dPolyline
 66
     1
 10
0.0
 20
0.0
 30
0.0
  0
VERTEX
  5
C5
330
C4
100
AcDbEntity
  8
_U+30EC_U+30A4_U+30E4_U+30FC 1
 62
   179
420
  2234388
370
    25
100
AcDbVertex
100
AcDb2dVertex
 10
112.0568949189682
 20
-130.2921221896493
 30
0.0
  0
VERTEX
  5
C6
330
C4
100
AcDbEntity
  8
_U+30EC_U+30A4_U+30E4_U+30FC 1
 62
   179
420
  2234388
370
    25
100
AcDbVertex
100
AcDb2dVertex
 10
112.0568949189682
 20
-129.2923499676768
 30
0.0
  0
VERTEX
  5
C7
330
C4
100
AcDbEntity
  8
_U+30EC_U+30A4_U+30E4_U+30FC 1
 62
   179
420
  2234388
370
    25
100
AcDbVertex
100
AcDb2dVertex
 10
107.0570461576361
 20
-129.2923499676768
 30
0.0
  0
VERTEX
  5
C8
330
C4
100
AcDbEntity
  8
_U+30EC_U+30A4_U+30E4_U+30FC 1
 62
   179
420
  2234388
370
    25
100
AcDbVertex
100
AcDb2dVertex
 10
106.7569733875138
 20
-129.4921985787382
 30
0.0
  0
VERTEX
  5
C9
330
C4
100
AcDbEntity
  8
_U+30EC_U+30A4_U+30E4_U+30FC 1
 62
   179
420
  2234388
370
    25
100
AcDbVertex
100
AcDb2dVertex
 10
106.4569006173915
 20
-129.2923499676768
 30
0.0
  0
VERTEX
  5
CA
330
C4
100
AcDbEntity
  8
_U+30EC_U+30A4_U+30E4_U+30FC 1
 62
   179
420
  2234388
370
    25
100
AcDbVertex
100
AcDb2dVertex
 10
73.0570303583821
 20
-129.2923499676768
 30
0.0
  0
VERTEX
  5
CB
330
C4
100
AcDbEntity
  8
_U+30EC_U+30A4_U+30E4_U+30FC 1
 62
   179
420
  2234388
370
    25
100
AcDbVertex
100
AcDb2dVertex
 10
73.0570303583821
 20
-123.2921996913992
 30
0.0
  0
VERTEX
  5
CC
330
C4
100
AcDbEntity
  8
_U+30EC_U+30A4_U+30E4_U+30FC 1
 62
   179
420
  2234388
370
    25
100
AcDbVertex
100
AcDb2dVertex
 10
75.05710391846708
 20
-123.2921996913992
 30
0.0
  0
VERTEX
  5
CD
330
C4
100
AcDbEntity
  8
_U+30EC_U+30A4_U+30E4_U+30FC 1
 62
   179
420
  2234388
370
    25
100
AcDbVertex
100
AcDb2dVertex
 10
75.05710391846708
 20
-122.2922863583159
 30
0.0
  0
VERTEX
  5
CE
330
C4
100
AcDbEntity
  8
_U+30EC_U+30A4_U+30E4_U+30FC 1
 62
   179
420
  2234388
370
    25
100
AcDbVertex
100
AcDb2dVertex
 10
72.0570817727818
 20
-122.2922863583159
 30
0.0
  0
VERTEX
  5
CF
330
C4
100
AcDbEntity
  8
_U+30EC_U+30A4_U+30E4_U+30FC 1
 62
   179
420
  2234388
370
    25
100
AcDbVertex
100
AcDb2dVertex
 10
72.0570817727818
 20
-139.2921182985105
 30
0.0
  0
VERTEX
  5
D0
330
C4
100
AcDbEntity
  8
_U+30EC_U+30A4_U+30E4_U+30FC 1
 62
   179
420
  2234388
370
    25
100
AcDbVertex
100
AcDb2dVertex
 10
82.05716942393018
 20
-139.2921182985105
 30
0.0
  0
VERTEX
  5
D1
330
C4
100
AcDbEntity
  8
_U+30EC_U+30A4_U+30E4_U+30FC 1
 62
   179
420
  2234388
370
    25
100
AcDbVertex
100
AcDb2dVertex
 10
82.05716942393018
 20
-136.292096077038
 30
0.0
  0
VERTEX
  5
D2
330
C4
100
AcDbEntity
  8
_U+30EC_U+30A4_U+30E4_U+30FC 1
 62
   179
420
  2234388
370
    25
100
AcDbVertex
100
AcDb2dVertex
 10
79.0570040941989
 20
-136.292096077038
 30
0.0
  0
VERTEX
  5
D3
330
C4
100
AcDbEntity
  8
_U+30EC_U+30A4_U+30E4_U+30FC 1
 62
   179
420
  2234388
370
    25
100
AcDbVertex
100
AcDb2dVertex
 10
79.0570040941989
 20
-137.2925738545661
 30
0.0
  0
VERTEX
  5
D4
330
C4
100
AcDbEntity
  8
_U+30EC_U+30A4_U+30E4_U+30FC 1
 62
   179
420
  2234388
370
    25
100
AcDbVertex
100
AcDb2dVertex
 10
81.05725404316829
 20
-137.2925738545661
 30
0.0
  0
VERTEX
  5
D5
330
C4
100
AcDbEntity
  8
_U+30EC_U+30A4_U+30E4_U+30FC 1
 62
   179
420
  2234388
370
    25
100
AcDbVertex
100
AcDb2dVertex
 10
81.05725404316829
 20
-138.292346076538
 30
0.0
  0
VERTEX
  5
D6
330
C4
100
AcDbEntity
  8
_U+30EC_U+30A4_U+30E4_U+30FC 1
 62
   179
420
  2234388
370
    25
100
AcDbVertex
100
AcDb2dVertex
 10
73.0570303583821
 20
-138.292346076538
 30
0.0
  0
VERTEX
  5
D7
330
C4
100
AcDbEntity
  8
_U+30EC_U+30A4_U+30E4_U+30FC 1
 62
   179
420
  2234388
370
    25
100
AcDbVertex
100
AcDb2dVertex
 10
73.0570303583821
 20
-130.2921221896493
 30
0.0
  0
VERTEX
  5
D8
330
C4
100
AcDbEntity
  8
_U+30EC_U+30A4_U+30E4_U+30FC 1
 62
   179
420
  2234388
370
    25
100
AcDbVertex
100
AcDb2dVertex
 10
112.0568949189682
 20
-130.2921221896493
 30
0.0
  0
SEQEND
  5
DA
330
C4
100
AcDbEntity
  8
_U+30EC_U+30A4_U+30E4_U+30FC 1
 62
   179
420
  2234388
370
    25
  0
HATCH
  5
D9
330
1F
100
AcDbEntity
  8
_U+30EC_U+30A4_U+30E4_U+30FC 1
 62
     9
420
 13224394
100
AcDbHatch
 10
0.0
 20
0.0
 30
0.0
210
0.0
220
0.0
230
1.0
  2
SOLID
 70
     1
 71
     0
 91
        1
 92
        1
 93
       19
 72
     1
 10
112.0568949189682
 20
-130.2921221896493
 11
112.0568949189682
 21
-129.2923499676768
 72
     1
 10
112.0568949189682
 20
-129.2923499676768
 11
107.0570461576361
 21
-129.2923499676768
 72
     1
 10
107.0570461576361
 20
-129.2923499676768
 11
106.7569733875138
 21
-129.4921985787382
 72
     1
 10
106.7569733875138
 20
-129.4921985787382
 11
106.4569006173915
 21
-129.2923499676768
 72
     1
 10
106.4569006173915
 20
-129.2923499676768
 11
73.0570303583821
 21
-129.2923499676768
 72
     1
 10
73.0570303583821
 20
-129.2923499676768
 11
73.0570303583821
 21
-123.2921996913992
 72
     1
 10
73.0570303583821
 20
-123.2921996913992
 11
75.05710391846708
 21
-123.2921996913992
 72
     1
 10
75.05710391846708
 20
-123.2921996913992
 11
75.05710391846708
 21
-122.2922863583159
 72
     1
 10
75.05710391846708
 20
-122.2922863583159
 11
72.0570817727818
 21
-122.2922863583159
 72
     1
 10
72.0570817727818
 20
-122.2922863583159
 11
72.0570817727818
 21
-139.2921182985105
 72
     1
 10
72.0570817727818
 20
-139.2921182985105
 11
82.05716942393018
 21
-139.2921182985105
 72
     1
 10
82.05716942393018
 20
-139.2921182985105
 11
82.05716942393018
 21
-136.292096077038
 72
     1
 10
82.05716942393018
 20
-136.292096077038
 11
79.0570040941989
 21
-136.292096077038
 72
     1
 10
79.0570040941989
 20
-136.292096077038
 11
79.0570040941989
 21
-137.2925738545661
 72
     1
 10
79.0570040941989
 20
-137.2925738545661
 11
81.05725404316829
 21
-137.2925738545661
 72
     1
 10
81.05725404316829
 20
-137.2925738545661
 11
81.05725404316829
 21
-138.292346076538
 72
     1
 10
81.05725404316829
 20
-138.292346076538
 11
73.0570303583821
 21
-138.292346076538
 72
     1
 10
73.0570303583821
 20
-138.292346076538
 11
73.0570303583821
 21
-130.2921221896493
 72
     1
 10
73.0570303583821
 20
-130.2921221896493
 11
112.0568949189682
 21
-130.2921221896493
 97
        0
 75
     2
 76
     1
 98
        0
  0
POLYLINE
  5
DB
330
1F
100
AcDbEntity
  8
_U+30EC_U+30A4_U+30E4_U+30FC 1
 62
   179
420
  2234388
370
     9
100
AcDb2dPolyline
 66
     1
 10
0.0
 20
0.0
 30
0.0
  0
VERTEX
  5
DC
330
DB
100
AcDbEntity
  8
_U+30EC_U+30A4_U+30E4_U+30FC 1
 62
   179
420
  2234388
370
     9
100
AcDbVertex
100
AcDb2dVertex
 10
82.51486122820384
 20
-136.292096077038
 30
0.0
  0
VERTEX
  5
DD
330
DB
100
AcDbEntity
  8
_U+30EC_U+30A4_U+30E4_U+30FC 1
 62
   179
420
  2234388
370
     9
100
AcDbVertex
100
AcDb2dVertex
 10
116.1844653692207
 20
-136.292096077038
 30
0.0
  0
SEQEND
  5
DE
330
DB
100
AcDbEntity
  8
_U+30EC_U+30A4_U+30E4_U+30FC 1
 62
   179
420
  2234388
370
     9
  0
POLYLINE
  5
DF
330
1F
100
AcDbEntity
  8
_U+30EC_U+30A4_U+30E4_U+30FC 1
 62
   179
420
  2234388
370
     9
100
AcDb2dPolyline
 66
     1
 10
0.0
 20
0.0
 30
0.0
  0
VERTEX
  5
E0
330
DF
100
AcDbEntity
  8
_U+30EC_U+30A4_U+30E4_U+30FC 1
 62
   179
420
  2234388
370
     9
100
AcDbVertex
100
AcDb2dVertex
 10
82.51486122820384
 20
-139.2921182985105
 30
0.0
  0
VERTEX
  5
E1
330
DF
100
AcDbEntity
  8
_U+30EC_U+30A4_U+30E4_U+30FC 1
 62
   179
420
  2234388
370
     9
100
AcDbVertex
100
AcDb2dVertex
 10
116.1844653692207
 20
-139.2921182985105
 30
0.0
  0
SEQEND
  5
E2
330
DF
100
AcDbEntity
  8
_U+30EC_U+30A4_U+30E4_U+30FC 1
 62
   179
420
  2234388
370
     9
  0
INSERT
  5
E4
330
1F
100
AcDbEntity
  8
_U+30EC_U+30A4_U+30E4_U+30FC 1
100
AcDbBlockReference
  2
block 6
 10
0.0
 20
0.0
 30
0.0
  0
INSERT
  5
EA
330
1F
100
AcDbEntity
  8
_U+30EC_U+30A4_U+30E4_U+30FC 1
100
AcDbBlockReference
  2
block 7
 10
0.0
 20
0.0
 30
0.0
  0
INSERT
  5
F5
330
1F
100
AcDbEntity
  8
_U+30EC_U+30A4_U+30E4_U+30FC 1
100
AcDbBlockReference
  2
block 9
 10
0.0
 20
0.0
 30
0.0
  0
ENDSEC
  0
SECTION
  2
OBJECTS
  0
DICTIONARY
  5
C
330
0
100
AcDbDictionary
281
     1
  3
ACAD_GROUP
350
D
  3
ACAD_LAYOUT
350
1A
  3
ACAD_MATERIAL
350
3B
  3
ACAD_MLEADERSTYLE
350
FB
  3
ACAD_MLINESTYLE
350
17
  3
ACAD_PLOTSETTINGS
350
19
  3
ACAD_PLOTSTYLENAME
350
E
  3
ACAD_TABLESTYLE
350
FA
  3
ACAD_VISUALSTYLE
350
2A
  0
SUN
  5
3F
330
29
100
AcDbSun
 90
        1
290
     0
 63
     7
421
 16777215
 40
1.0
291
     1
 91
  2455826
 92
 54000000
292
     0
 70
     2
 71
   256
280
     1
  0
DICTIONARY
  5
D
102
{ACAD_REACTORS
330
C
102
}
330
C
100
AcDbDictionary
281
     1
  0
DICTIONARY
  5
1A
102
{ACAD_REACTORS
330
C
102
}
330
C
100
AcDbDictionary
281
     1
  3
Layout1
350
1E
  3
Layout2
350
26
  3
Model
350
22
  0
DICTIONARY
  5
3B
102
{ACAD_REACTORS
330
C
102
}
330
C
100
AcDbDictionary
281
     1
  3
ByBlock
350
3D
  3
ByLayer
350
3C
  3
Global
350
3E
  0
DICTIONARY
  5
FB
102
{ACAD_REACTORS
330
C
102
}
330
C
100
AcDbDictionary
281
     1
  0
DICTIONARY
  5
17
102
{ACAD_REACTORS
330
C
102
}
330
C
100
AcDbDictionary
281
     1
  3
Standard
350
18
  0
DICTIONARY
  5
19
102
{ACAD_REACTORS
330
C
102
}
330
C
100
AcDbDictionary
281
     1
  0
ACDBDICTIONARYWDFLT
  5
E
102
{ACAD_REACTORS
330
C
102
}
330
C
100
AcDbDictionary
281
     1
  3
Normal
350
F
100
AcDbDictionaryWithDefault
340
F
  0
DICTIONARY
  5
FA
102
{ACAD_REACTORS
330
C
102
}
330
C
100
AcDbDictionary
281
     1
  0
DICTIONARY
  5
2A
102
{ACAD_REACTORS
330
C
102
}
330
C
100
AcDbDictionary
281
     1
  3
2dWireframe
350
2F
  3
3D Hidden
350
31
  3
3dWireframe
350
30
  3
Basic
350
32
  3
Brighten
350
36
  3
ColorChange
350
3A
  3
Conceptual
350
34
  3
Dim
350
35
  3
Facepattern
350
39
  3
Flat
350
2B
  3
FlatWithEdges
350
2C
  3
Gouraud
350
2D
  3
GouraudWithEdges
350
2E
  3
Linepattern
350
38
  3
Realistic
350
33
  3
Thicken
350
37
  0
LAYOUT
  5
1E
102
{ACAD_REACTORS
330
1A
102
}
330
1A
100
AcDbPlotSettings
  1

  2
none_device
  4

  6

 40
0.0
 41
0.0
 42
0.0
 43
0.0
 44
0.0
 45
0.0
 46
0.0
 47
0.0
 48
0.0
 49
0.0
140
0.0
141
0.0
142
1.0
143
1.0
 70
   688
 72
     0
 73
     0
 74
     5
  7

 75
    16
 76
     0
 77
     2
 78
   300
147
1.0
148
0.0
149
0.0
100
AcDbLayout
  1
Layout1
 70
     1
 71
     1
 10
0.0
 20
0.0
 11
12.0
 21
9.0
 12
0.0
 22
0.0
 32
0.0
 14
1.000000000000000E+20
 24
1.000000000000000E+20
 34
1.000000000000000E+20
 15
-1.000000000000000E+20
 25
-1.000000000000000E+20
 35
-1.000000000000000E+20
146
0.0
 13
0.0
 23
0.0
 33
0.0
 16
1.0
 26
0.0
 36
0.0
 17
0.0
 27
1.0
 37
0.0
 76
     0
330
1B
  0
LAYOUT
  5
26
102
{ACAD_REACTORS
330
1A
102
}
330
1A
100
AcDbPlotSettings
  1

  2
none_device
  4

  6

 40
0.0
 41
0.0
 42
0.0
 43
0.0
 44
0.0
 45
0.0
 46
0.0
 47
0.0
 48
0.0
 49
0.0
140
0.0
141
0.0
142
1.0
143
1.0
 70
   688
 72
     0
 73
     0
 74
     5
  7

 75
    16
 76
     0
 77
     2
 78
   300
147
1.0
148
0.0
149
0.0
100
AcDbLayout
  1
Layout2
 70
     1
 71
     2
 10
0.0
 20
0.0
 11
0.0
 21
0.0
 12
0.0
 22
0.0
 32
0.0
 14
0.0
 24
0.0
 34
0.0
 15
0.0
 25
0.0
 35
0.0
146
0.0
 13
0.0
 23
0.0
 33
0.0
 16
1.0
 26
0.0
 36
0.0
 17
0.0
 27
1.0
 37
0.0
 76
     0
330
23
  0
LAYOUT
  5
22
102
{ACAD_REACTORS
330
1A
102
}
330
1A
100
AcDbPlotSettings
  1

  2
none_device
  4

  6

 40
0.0
 41
0.0
 42
0.0
 43
0.0
 44
0.0
 45
0.0
 46
0.0
 47
0.0
 48
0.0
 49
0.0
140
0.0
141
0.0
142
1.0
143
1.0
 70
  1712
 72
     0
 73
     0
 74
     0
  7

 75
     0
 76
     0
 77
     2
 78
   300
147
1.0
148
0.0
149
0.0
100
AcDbLayout
  1
Model
 70
     1
 71
     0
 10
0.0
 20
0.0
 11
12.0
 21
9.0
 12
0.0
 22
0.0
 32
0.0
 14
1.000000000000000E+20
 24
1.000000000000000E+20
 34
1.000000000000000E+20
 15
-1.000000000000000E+20
 25
-1.000000000000000E+20
 35
-1.000000000000000E+20
146
0.0
 13
0.0
 23
0.0
 33
0.0
 16
1.0
 26
0.0
 36
0.0
 17
0.0
 27
1.0
 37
0.0
 76
     0
330
1F
331
29
  0
MATERIAL
  5
3D
102
{ACAD_REACTORS
330
3B
102
}
330
3B
100
AcDbMaterial
  1
ByBlock
 72
     1
 94
      127
  0
MATERIAL
  5
3C
102
{ACAD_REACTORS
330
3B
102
}
330
3B
100
AcDbMaterial
  1
ByLayer
 72
     1
 94
      127
  0
MATERIAL
  5
3E
102
{ACAD_REACTORS
330
3B
102
}
330
3B
100
AcDbMaterial
  1
Global
 72
     1
 94
      127
  0
MLINESTYLE
  5
18
102
{ACAD_REACTORS
330
17
102
}
330
17
100
AcDbMlineStyle
  2
Standard
 70
     0
  3

 62
   256
 51
90.0
 52
90.0
 71
     2
 49
0.5
 62
   256
  6
BYLAYER
 49
-0.5
 62
   256
  6
BYLAYER
  0
ACDBPLACEHOLDER
  5
F
102
{ACAD_REACTORS
330
E
102
}
330
E
  0
VISUALSTYLE
  5
2F
102
{ACAD_REACTORS
330
2A
102
}
330
2A
100
AcDbVisualStyle
  2
2dWireframe
 70
     4
177
     2
291
     0
 71
     0
176
     1
 72
     2
176
     1
 73
     0
176
     1
 90
        0
176
     1
 40
-0.6
176
     1
 41
-30.0
176
     1
 62
     5
 63
     7
421
 16777215
176
     1
 74
     1
176
     1
 91
        4
176
     1
 64
     7
176
     1
 65
   257
176
     1
 75
     1
176
     1
175
     1
176
     1
 42
1.0
176
     1
 92
        0
176
     1
 66
   257
176
     1
 43
1.0
176
     1
 76
     1
176
     1
 77
     6
176
     1
 78
     2
176
     1
 67
     7
176
     1
 79
     5
176
     1
170
     0
176
     1
171
     0
176
     1
290
     0
176
     1
 93
        1
176
     1
 44
0.0
176
     1
173
     0
176
     1
  0
VISUALSTYLE
  5
31
102
{ACAD_REACTORS
330
2A
102
}
330
2A
100
AcDbVisualStyle
  2
3D Hidden
 70
     6
177
     2
291
     0
 71
     1
176
     1
 72
     2
176
     1
 73
     2
176
     1
 90
        0
176
     1
 40
-0.6
176
     1
 41
-30.0
176
     1
 62
     5
 63
     7
421
 16777215
176
     1
 74
     2
176
     1
 91
        2
176
     1
 64
     7
176
     1
 65
   257
176
     1
 75
     2
176
     1
175
     1
176
     1
 42
40.0
176
     1
 92
        0
176
     1
 66
   257
176
     1
 43
1.0
176
     1
 76
     1
176
     1
 77
     6
176
     1
 78
     2
176
     1
 67
     7
176
     1
 79
     3
176
     1
170
     0
176
     1
171
     0
176
     1
290
     0
176
     1
 93
        1
176
     1
 44
0.0
176
     1
173
     0
176
     1
  0
VISUALSTYLE
  5
30
102
{ACAD_REACTORS
330
2A
102
}
330
2A
100
AcDbVisualStyle
  2
3dWireframe
 70
     5
177
     2
291
     0
 71
     0
176
     1
 72
     2
176
     1
 73
     0
176
     1
 90
        0
176
     1
 40
-0.6
176
     1
 41
-30.0
176
     1
 62
     5
 63
     7
421
 16777215
176
     1
 74
     1
176
     1
 91
        4
176
     1
 64
     7
176
     1
 65
   257
176
     1
 75
     1
176
     1
175
     1
176
     1
 42
1.0
176
     1
 92
        0
176
     1
 66
   257
176
     1
 43
1.0
176
     1
 76
     1
176
     1
 77
     6
176
     1
 78
     2
176
     1
 67
     7
176
     1
 79
     5
176
     1
170
     0
176
     1
171
     0
176
     1
290
     0
176
     1
 93
        1
176
     1
 44
0.0
176
     1
173
     0
176
     1
  0
VISUALSTYLE
  5
32
102
{ACAD_REACTORS
330
2A
102
}
330
2A
100
AcDbVisualStyle
  2
Basic
 70
     7
177
     2
291
     1
 71
     1
176
     1
 72
     0
176
     1
 73
     1
176
     1
 90
        0
176
     1
 40
-0.6
176
     1
 41
-30.0
176
     1
 62
     5
 63
     7
421
 16777215
176
     1
 74
     0
176
     1
 91
        4
176
     1
 64
     7
176
     1
 65
   257
176
     1
 75
     1
176
     1
175
     1
176
     1
 42
1.0
176
     1
 92
        8
176
     1
 66
     7
176
     1
 43
1.0
176
     1
 76
     1
176
     1
 77
     6
176
     1
 78
     2
176
     1
 67
     7
176
     1
 79
     5
176
     1
170
     0
176
     1
171
     0
176
     1
290
     0
176
     1
 93
        1
176
     1
 44
0.0
176
     1
173
     0
176
     1
  0
VISUALSTYLE
  5
36
102
{ACAD_REACTORS
330
2A
102
}
330
2A
100
AcDbVisualStyle
  2
Brighten
 70
    12
177
     2
291
     1
 71
     2
176
     1
 72
     2
176
     1
 73
     0
176
     1
 90
        0
176
     1
 40
-0.6
176
     1
 41
-30.0
176
     1
 62
     5
 63
     7
421
 16777215
176
     1
 74
     1
176
     1
 91
        4
176
     1
 64
     7
176
     1
 65
   257
176
     1
 75
     1
176
     1
175
     1
176
     1
 42
1.0
176
     1
 92
        8
176
     1
 66
     7
176
     1
 43
1.0
176
     1
 76
     1
176
     1
 77
     6
176
     1
 78
     2
176
     1
 67
     7
176
     1
 79
     5
176
     1
170
     0
176
     1
171
     0
176
     1
290
     0
176
     1
 93
        1
176
     1
 44
50.0
176
     1
173
     0
176
     1
  0
VISUALSTYLE
  5
3A
102
{ACAD_REACTORS
330
2A
102
}
330
2A
100
AcDbVisualStyle
  2
ColorChange
 70
    16
177
     2
291
     1
 71
     2
176
     1
 72
     2
176
     1
 73
     3
176
     1
 90
        0
176
     1
 40
-0.6
176
     1
 41
-30.0
176
     1
 62
     5
 63
     8
421
  8421504
176
     1
 74
     1
176
     1
 91
        4
176
     1
 64
     7
176
     1
 65
   257
176
     1
 75
     1
176
     1
175
     1
176
     1
 42
1.0
176
     1
 92
        8
176
     1
 66
     8
424
  8421504
176
     1
 43
1.0
176
     1
 76
     1
176
     1
 77
     6
176
     1
 78
     2
176
     1
 67
     7
176
     1
 79
     5
176
     1
170
     0
176
     1
171
     0
176
     1
290
     0
176
     1
 93
        1
176
     1
 44
0.0
176
     1
173
     0
176
     1
  0
VISUALSTYLE
  5
34
102
{ACAD_REACTORS
330
2A
102
}
330
2A
100
AcDbVisualStyle
  2
Conceptual
 70
     9
177
     2
291
     0
 71
     3
176
     1
 72
     2
176
     1
 73
     0
176
     1
 90
        0
176
     1
 40
-0.6
176
     1
 41
-30.0
176
     1
 62
     5
 63
     7
421
 16777215
176
     1
 74
     2
176
     1
 91
        2
176
     1
 64
     7
176
     1
 65
   257
176
     1
 75
     1
176
     1
175
     1
176
     1
 42
40.0
176
     1
 92
        8
176
     1
 66
     7
176
     1
 43
1.0
176
     1
 76
     1
176
     1
 77
     6
176
     1
 78
     2
176
     1
 67
     7
176
     1
 79
     3
176
     1
170
     0
176
     1
171
     0
176
     1
290
     0
176
     1
 93
        1
176
     1
 44
0.0
176
     1
173
     0
176
     1
  0
VISUALSTYLE
  5
35
102
{ACAD_REACTORS
330
2A
102
}
330
2A
100
AcDbVisualStyle
  2
Dim
 70
    11
177
     2
291
     1
 71
     2
176
     1
 72
     2
176
     1
 73
     0
176
     1
 90
        0
176
     1
 40
-0.6
176
     1
 41
-30.0
176
     1
 62
     5
 63
     7
421
 16777215
176
     1
 74
     1
176
     1
 91
        4
176
     1
 64
     7
176
     1
 65
   257
176
     1
 75
     1
176
     1
175
     1
176
     1
 42
1.0
176
     1
 92
        8
176
     1
 66
     7
176
     1
 43
1.0
176
     1
 76
     1
176
     1
 77
     6
176
     1
 78
     2
176
     1
 67
     7
176
     1
 79
     5
176
     1
170
     0
176
     1
171
     0
176
     1
290
     0
176
     1
 93
        1
176
     1
 44
-50.0
176
     1
173
     0
176
     1
  0
VISUALSTYLE
  5
39
102
{ACAD_REACTORS
330
2A
102
}
330
2A
100
AcDbVisualStyle
  2
Facepattern
 70
    15
177
     2
291
     1
 71
     2
176
     1
 72
     2
176
     1
 73
     0
176
     1
 90
        0
176
     1
 40
-0.6
176
     1
 41
-30.0
176
     1
 62
     5
 63
     7
421
 16777215
176
     1
 74
     1
176
     1
 91
        4
176
     1
 64
     7
176
     1
 65
   257
176
     1
 75
     1
176
     1
175
     1
176
     1
 42
1.0
176
     1
 92
        8
176
     1
 66
     7
176
     1
 43
1.0
176
     1
 76
     1
176
     1
 77
     6
176
     1
 78
     2
176
     1
 67
     7
176
     1
 79
     5
176
     1
170
     0
176
     1
171
     0
176
     1
290
     0
176
     1
 93
        1
176
     1
 44
0.0
176
     1
173
     0
176
     1
  0
VISUALSTYLE
  5
2B
102
{ACAD_REACTORS
330
2A
102
}
330
2A
100
AcDbVisualStyle
  2
Flat
 70
     0
177
     2
291
     1
 71
     2
176
     1
 72
     1
176
     1
 73
     1
176
     1
 90
        2
176
     1
 40
-0.6
176
     1
 41
30.0
176
     1
 62
     5
 63
     7
421
 16777215
176
     1
 74
     0
176
     1
 91
        4
176
     1
 64
     7
176
     1
 65
   257
176
     1
 75
     1
176
     1
175
     1
176
     1
 42
1.0
176
     1
 92
        8
176
     1
 66
     7
176
     1
 43
1.0
176
     1
 76
     1
176
     1
 77
     6
176
     1
 78
     2
176
     1
 67
     7
176
     1
 79
     5
176
     1
170
     0
176
     1
171
     0
176
     1
290
     0
176
     1
 93
       13
176
     1
 44
0.0
176
     1
173
     0
176
     1
  0
VISUALSTYLE
  5
2C
102
{ACAD_REACTORS
330
2A
102
}
330
2A
100
AcDbVisualStyle
  2
FlatWithEdges
 70
     1
177
     2
291
     1
 71
     2
176
     1
 72
     1
176
     1
 73
     1
176
     1
 90
        2
176
     1
 40
-0.6
176
     1
 41
30.0
176
     1
 62
     5
 63
     7
421
 16777215
176
     1
 74
     1
176
     1
 91
        4
176
     1
 64
     7
176
     1
 65
   257
176
     1
 75
     1
176
     1
175
     1
176
     1
 42
1.0
176
     1
 92
        0
176
     1
 66
   257
176
     1
 43
1.0
176
     1
 76
     1
176
     1
 77
     6
176
     1
 78
     2
176
     1
 67
     7
176
     1
 79
     5
176
     1
170
     0
176
     1
171
     0
176
     1
290
     0
176
     1
 93
       13
176
     1
 44
0.0
176
     1
173
     0
176
     1
  0
VISUALSTYLE
  5
2D
102
{ACAD_REACTORS
330
2A
102
}
330
2A
100
AcDbVisualStyle
  2
Gouraud
 70
     2
177
     2
291
     1
 71
     2
176
     1
 72
     2
176
     1
 73
     1
176
     1
 90
        2
176
     1
 40
-0.6
176
     1
 41
30.0
176
     1
 62
     5
 63
     7
421
 16777215
176
     1
 74
     0
176
     1
 91
        4
176
     1
 64
     7
176
     1
 65
   257
176
     1
 75
     1
176
     1
175
     1
176
     1
 42
1.0
176
     1
 92
        0
176
     1
 66
     7
176
     1
 43
1.0
176
     1
 76
     1
176
     1
 77
     6
176
     1
 78
     2
176
     1
 67
     7
176
     1
 79
     5
176
     1
170
     0
176
     1
171
     0
176
     1
290
     0
176
     1
 93
       13
176
     1
 44
0.0
176
     1
173
     0
176
     1
  0
VISUALSTYLE
  5
2E
102
{ACAD_REACTORS
330
2A
102
}
330
2A
100
AcDbVisualStyle
  2
GouraudWithEdges
 70
     3
177
     2
291
     1
 71
     2
176
     1
 72
     2
176
     1
 73
     1
176
     1
 90
        2
176
     1
 40
-0.6
176
     1
 41
30.0
176
     1
 62
     5
 63
     7
421
 16777215
176
     1
 74
     1
176
     1
 91
        4
176
     1
 64
     7
176
     1
 65
   257
176
     1
 75
     1
176
     1
175
     1
176
     1
 42
1.0
176
     1
 92
        0
176
     1
 66
   257
176
     1
 43
1.0
176
     1
 76
     1
176
     1
 77
     6
176
     1
 78
     2
176
     1
 67
     7
176
     1
 79
     5
176
     1
170
     0
176
     1
171
     0
176
     1
290
     0
176
     1
 93
       13
176
     1
 44
0.0
176
     1
173
     0
176
     1
  0
VISUALSTYLE
  5
38
102
{ACAD_REACTORS
330
2A
102
}
330
2A
100
AcDbVisualStyle
  2
Linepattern
 70
    14
177
     2
291
     1
 71
     2
176
     1
 72
     2
176
     1
 73
     0
176
     1
 90
        0
176
     1
 40
-0.6
176
     1
 41
-30.0
176
     1
 62
     5
 63
     7
421
 16777215
176
     1
 74
     1
176
     1
 91
        4
176
     1
 64
     7
176
     1
 65
   257
176
     1
 75
     7
176
     1
175
     7
176
     1
 42
1.0
176
     1
 92
        8
176
     1
 66
     7
176
     1
 43
1.0
176
     1
 76
     1
176
     1
 77
     6
176
     1
 78
     2
176
     1
 67
     7
176
     1
 79
     5
176
     1
170
     0
176
     1
171
     0
176
     1
290
     0
176
     1
 93
        1
176
     1
 44
0.0
176
     1
173
     0
176
     1
  0
VISUALSTYLE
  5
33
102
{ACAD_REACTORS
330
2A
102
}
330
2A
100
AcDbVisualStyle
  2
Realistic
 70
     8
177
     2
291
     0
 71
     2
176
     1
 72
     2
176
     1
 73
     0
176
     1
 90
        0
176
     1
 40
-0.6
176
     1
 41
-30.0
176
     1
 62
     5
 63
     7
421
 16777215
176
     1
 74
     1
176
     1
 91
        0
176
     1
 64
     7
176
     1
 65
   257
176
     1
 75
     1
176
     1
175
     1
176
     1
 42
1.0
176
     1
 92
        8
176
     1
 66
     8
424
  7895160
176
     1
 43
1.0
176
     1
 76
     1
176
     1
 77
     6
176
     1
 78
     2
176
     1
 67
     7
176
     1
 79
     5
176
     1
170
     0
176
     1
171
     0
176
     1
290
     0
176
     1
 93
       13
176
     1
 44
0.0
176
     1
173
     0
176
     1
  0
VISUALSTYLE
  5
37
102
{ACAD_REACTORS
330
2A
102
}
330
2A
100
AcDbVisualStyle
  2
Thicken
 70
    13
177
     2
291
     1
 71
     2
176
     1
 72
     2
176
     1
 73
     0
176
     1
 90
        0
176
     1
 40
-0.6
176
     1
 41
-30.0
176
     1
 62
     5
 63
     7
421
 16777215
176
     1
 74
     1
176
     1
 91
        4
176
     1
 64
     7
176
     1
 65
   257
176
     1
 75
     1
176
     1
175
     1
176
     1
 42
1.0
176
     1
 92
       12
176
     1
 66
     7
176
     1
 43
1.0
176
     1
 76
     1
176
     1
 77
     6
176
     1
 78
     2
176
     1
 67
     7
176
     1
 79
     5
176
     1
170
     0
176
     1
171
     0
176
     1
290
     0
176
     1
 93
        1
176
     1
 44
0.0
176
     1
173
     0
176
     1
  0
ENDSEC
  0
EOF
