  0
SECTION
  2
HEADER
  9
$ACADVER
  1
AC1024
  9
$ACADMAINTVER
 70
     6
  9
$DWGCODEPAGE
  3
UNDEFINED
  9
$INSBASE
 10
0.0
 20
0.0
 30
0.0
  9
$EXTMIN
 10
1.000000000000000E+20
 20
1.000000000000000E+20
 30
1.000000000000000E+20
  9
$EXTMAX
 10
-1.000000000000000E+20
 20
-1.000000000000000E+20
 30
-1.000000000000000E+20
  9
$LIMMIN
 10
0.0
 20
0.0
  9
$LIMMAX
 10
12.0
 20
9.0
  9
$ORTHOMODE
 70
     0
  9
$REGENMODE
 70
     1
  9
$FILLMODE
 70
     1
  9
$QTEXTMODE
 70
     0
  9
$MIRRTEXT
 70
     1
  9
$LTSCALE
 40
1.0
  9
$ATTMODE
 70
     1
  9
$TEXTSIZE
 40
0.2
  9
$TRACEWID
 40
0.05
  9
$TEXTSTYLE
  7
Standard
  9
$CLAYER
  8
0
  9
$CELTYPE
  6
ByLayer
  9
$CECOLOR
 62
   256
  9
$CELTSCALE
 40
1.0
  9
$DISPSILH
 70
     0
  9
$DIMSCALE
 40
1.0
  9
$DIMASZ
 40
0.18
  9
$DIMEXO
 40
0.0625
  9
$DIMDLI
 40
0.38
  9
$DIMRND
 40
0.0
  9
$DIMDLE
 40
0.0
  9
$DIMEXE
 40
0.18
  9
$DIMTP
 40
0.0
  9
$DIMTM
 40
0.0
  9
$DIMTXT
 40
0.18
  9
$DIMCEN
 40
0.09
  9
$DIMTSZ
 40
0.0
  9
$DIMTOL
 70
     0
  9
$DIMLIM
 70
     0
  9
$DIMTIH
 70
     1
  9
$DIMTOH
 70
     1
  9
$DIMSE1
 70
     0
  9
$DIMSE2
 70
     0
  9
$DIMTAD
 70
     0
  9
$DIMZIN
 70
     0
  9
$DIMBLK
  1

  9
$DIMASO
 70
     1
  9
$DIMSHO
 70
     1
  9
$DIMPOST
  1

  9
$DIMAPOST
  1

  9
$DIMALT
 70
     0
  9
$DIMALTD
 70
     2
  9
$DIMALTF
 40
25.4
  9
$DIMLFAC
 40
1.0
  9
$DIMTOFL
 70
     0
  9
$DIMTVP
 40
0.0
  9
$DIMTIX
 70
     0
  9
$DIMSOXD
 70
     0
  9
$DIMSAH
 70
     0
  9
$DIMBLK1
  1

  9
$DIMBLK2
  1

  9
$DIMSTYLE
  2
Standard
  9
$DIMCLRD
 70
     0
  9
$DIMCLRE
 70
     0
  9
$DIMCLRT
 70
     0
  9
$DIMTFAC
 40
1.0
  9
$DIMGAP
 40
0.09
  9
$DIMJUST
 70
     0
  9
$DIMSD1
 70
     0
  9
$DIMSD2
 70
     0
  9
$DIMTOLJ
 70
     1
  9
$DIMTZIN
 70
     0
  9
$DIMALTZ
 70
     0
  9
$DIMALTTZ
 70
     0
  9
$DIMUPT
 70
     0
  9
$DIMDEC
 70
     4
  9
$DIMTDEC
 70
     4
  9
$DIMALTU
 70
     2
  9
$DIMALTTD
 70
     2
  9
$DIMTXSTY
  7
Standard
  9
$DIMAUNIT
 70
     0
  9
$DIMADEC
 70
     0
  9
$DIMALTRND
 40
0.0
  9
$DIMAZIN
 70
     0
  9
$DIMDSEP
 70
    46
  9
$DIMATFIT
 70
     3
  9
$DIMFRAC
 70
     0
  9
$DIMLDRBLK
  1

  9
$DIMLUNIT
 70
     2
  9
$DIMLWD
 70
    -2
  9
$DIMLWE
 70
    -2
  9
$DIMTMOVE
 70
     0
  9
$DIMFXL
 40
1.0
  9
$DIMFXLON
 70
     0
  9
$DIMJOGANG
 40
0.7853981633974483
  9
$DIMTFILL
 70
     0
  9
$DIMTFILLCLR
 70
     0
  9
$DIMARCSYM
 70
     0
  9
$DIMLTYPE
  6

  9
$DIMLTEX1
  6

  9
$DIMLTEX2
  6

  9
$DIMTXTDIRECTION
 70
     0
  9
$LUNITS
 70
     2
  9
$LUPREC
 70
     4
  9
$SKETCHINC
 40
0.1
  9
$FILLETRAD
 40
0.5
  9
$AUNITS
 70
     0
  9
$AUPREC
 70
     0
  9
$MENU
  1
.
  9
$ELEVATION
 40
0.0
  9
$PELEVATION
 40
0.0
  9
$THICKNESS
 40
0.0
  9
$LIMCHECK
 70
     0
  9
$CHAMFERA
 40
0.5
  9
$CHAMFERB
 40
0.5
  9
$CHAMFERC
 40
1.0
  9
$CHAMFERD
 40
0.0
  9
$SKPOLY
 70
     0
  9
$TDCREATE
 40
2457917.613773136
  9
$TDUCREATE
 40
2457917.238773148
  9
$TDUPDATE
 40
2457917.613773136
  9
$TDUUPDATE
 40
2457917.238773148
  9
$TDINDWG
 40
0.0000000116
  9
$TDUSRTIMER
 40
0.0000000116
  9
$USRTIMER
 70
     1
  9
$ANGBASE
 50
0.0
  9
$ANGDIR
 70
     0
  9
$PDMODE
 70
     0
  9
$PDSIZE
 40
0.0
  9
$PLINEWID
 40
0.0
  9
$SPLFRAME
 70
     0
  9
$SPLINETYPE
 70
     6
  9
$SPLINESEGS
 70
     8
  9
$HANDSEED
  5
232
  9
$SURFTAB1
 70
     6
  9
$SURFTAB2
 70
     6
  9
$SURFTYPE
 70
     6
  9
$SURFU
 70
     6
  9
$SURFV
 70
     6
  9
$UCSBASE
  2

  9
$UCSNAME
  2

  9
$UCSORG
 10
0.0
 20
0.0
 30
0.0
  9
$UCSXDIR
 10
1.0
 20
0.0
 30
0.0
  9
$UCSYDIR
 10
0.0
 20
1.0
 30
0.0
  9
$UCSORTHOREF
  2

  9
$UCSORTHOVIEW
 70
     0
  9
$UCSORGTOP
 10
0.0
 20
0.0
 30
0.0
  9
$UCSORGBOTTOM
 10
0.0
 20
0.0
 30
0.0
  9
$UCSORGLEFT
 10
0.0
 20
0.0
 30
0.0
  9
$UCSORGRIGHT
 10
0.0
 20
0.0
 30
0.0
  9
$UCSORGFRONT
 10
0.0
 20
0.0
 30
0.0
  9
$UCSORGBACK
 10
0.0
 20
0.0
 30
0.0
  9
$PUCSBASE
  2

  9
$PUCSNAME
  2

  9
$PUCSORG
 10
0.0
 20
0.0
 30
0.0
  9
$PUCSXDIR
 10
1.0
 20
0.0
 30
0.0
  9
$PUCSYDIR
 10
0.0
 20
1.0
 30
0.0
  9
$PUCSORTHOREF
  2

  9
$PUCSORTHOVIEW
 70
     0
  9
$PUCSORGTOP
 10
0.0
 20
0.0
 30
0.0
  9
$PUCSORGBOTTOM
 10
0.0
 20
0.0
 30
0.0
  9
$PUCSORGLEFT
 10
0.0
 20
0.0
 30
0.0
  9
$PUCSORGRIGHT
 10
0.0
 20
0.0
 30
0.0
  9
$PUCSORGFRONT
 10
0.0
 20
0.0
 30
0.0
  9
$PUCSORGBACK
 10
0.0
 20
0.0
 30
0.0
  9
$USERI1
 70
     0
  9
$USERI2
 70
     0
  9
$USERI3
 70
     0
  9
$USERI4
 70
     0
  9
$USERI5
 70
     0
  9
$USERR1
 40
0.0
  9
$USERR2
 40
0.0
  9
$USERR3
 40
0.0
  9
$USERR4
 40
0.0
  9
$USERR5
 40
0.0
  9
$WORLDVIEW
 70
     1
  9
$SHADEDGE
 70
     3
  9
$SHADEDIF
 70
    70
  9
$TILEMODE
 70
     1
  9
$MAXACTVP
 70
    64
  9
$PINSBASE
 10
0.0
 20
0.0
 30
0.0
  9
$PLIMCHECK
 70
     0
  9
$PEXTMIN
 10
1.000000000000000E+20
 20
1.000000000000000E+20
 30
1.000000000000000E+20
  9
$PEXTMAX
 10
-1.000000000000000E+20
 20
-1.000000000000000E+20
 30
-1.000000000000000E+20
  9
$PLIMMIN
 10
0.0
 20
0.0
  9
$PLIMMAX
 10
12.0
 20
9.0
  9
$UNITMODE
 70
     0
  9
$VISRETAIN
 70
     1
  9
$PLINEGEN
 70
     0
  9
$PSLTSCALE
 70
     1
  9
$TREEDEPTH
 70
  3020
  9
$CMLSTYLE
  2
Standard
  9
$CMLJUST
 70
     0
  9
$CMLSCALE
 40
1.0
  9
$PROXYGRAPHICS
 70
     1
  9
$MEASUREMENT
 70
     0
  9
$CELWEIGHT
370
    -1
  9
$ENDCAPS
280
     0
  9
$JOINSTYLE
280
     0
  9
$LWDISPLAY
290
     1
  9
$INSUNITS
 70
     1
  9
$HYPERLINKBASE
  1

  9
$STYLESHEET
  1

  9
$XEDIT
290
     1
  9
$CEPSNTYPE
380
     0
  9
$PSTYLEMODE
290
     1
  9
$FINGERPRINTGUID
  2
{9F8F9188-2704-60AD-152D-86A90E111AFD}
  9
$VERSIONGUID
  2
{FAEB1C32-E019-11D5-929B-00C0DF256EC4}
  9
$EXTNAMES
290
     1
  9
$PSVPSCALE
 40
0.0
  9
$OLESTARTUP
290
     0
  9
$SORTENTS
280
   127
  9
$INDEXCTL
280
     0
  9
$HIDETEXT
280
     1
  9
$XCLIPFRAME
280
     2
  9
$HALOGAP
280
     0
  9
$OBSCOLOR
 70
   257
  9
$OBSLTYPE
280
     0
  9
$INTERSECTIONDISPLAY
280
     0
  9
$INTERSECTIONCOLOR
 70
   257
  9
$DIMASSOC
280
     2
  9
$PROJECTNAME
  1

  9
$CAMERADISPLAY
290
     0
  9
$LENSLENGTH
 40
50.0
  9
$CAMERAHEIGHT
 40
0.0
  9
$STEPSPERSEC
 40
2.0
  9
$STEPSIZE
 40
6.0
  9
$3DDWFPREC
 40
2.0
  9
$PSOLWIDTH
 40
0.25
  9
$PSOLHEIGHT
 40
4.0
  9
$LOFTANG1
 40
1.570796326794897
  9
$LOFTANG2
 40
1.570796326794897
  9
$LOFTMAG1
 40
0.0
  9
$LOFTMAG2
 40
0.0
  9
$LOFTPARAM
 70
     7
  9
$LOFTNORMALS
280
     1
  9
$LATITUDE
 40
37.795
  9
$LONGITUDE
 40
-122.394
  9
$NORTHDIRECTION
 40
0.0
  9
$TIMEZONE
 70
 -8000
  9
$LIGHTGLYPHDISPLAY
280
     1
  9
$TILEMODELIGHTSYNCH
280
     1
  9
$CMATERIAL
347
3C
  9
$SOLIDHIST
280
     1
  9
$SHOWHIST
280
     1
  9
$DWFFRAME
280
     2
  9
$DGNFRAME
280
     2
  9
$REALWORLDSCALE
290
     1
  9
$INTERFERECOLOR
 62
   256
  9
$CSHADOW
280
     0
  9
$SHADOWPLANELOCATION
 40
0.0
  0
ENDSEC
  0
SECTION
  2
CLASSES
  0
CLASS
  1
ACDBDICTIONARYWDFLT
  2
AcDbDictionaryWithDefault
  3
ObjectDBX Classes
 90
        0
 91
        4
280
     0
281
     0
  0
CLASS
  1
VISUALSTYLE
  2
AcDbVisualStyle
  3
ObjectDBX Classes
 90
     4095
 91
        4
280
     0
281
     0
  0
CLASS
  1
MATERIAL
  2
AcDbMaterial
  3
ObjectDBX Classes
 90
     1153
 91
        4
280
     0
281
     0
  0
CLASS
  1
SUN
  2
AcDbSun
  3
SCENEOE
 90
     1024
 91
        4
280
     0
281
     0
  0
ENDSEC
  0
SECTION
  2
TABLES
  0
TABLE
  2
VPORT
  5
8
330
0
100
AcDbSymbolTable
 70
     1
  0
VPORT
  5
29
330
8
100
AcDbSymbolTableRecord
100
AcDbViewportTableRecord
  2
*Active
 70
     0
 10
0.0
 20
0.0
 11
1.0
 21
1.0
 12
0.0
 22
0.0
 13
0.0
 23
0.0
 14
0.5
 24
0.5
 15
0.5
 25
0.5
 16
0.0
 26
0.0
 36
1.0
 17
91.00082462281999
 27
-128.4993055234307
 37
0.0
 40
256.9986110468615
 41
0.7081814508812795
 42
50.0
 43
0.0
 44
0.0
 50
0.0
 51
0.0
 71
     0
 72
   100
 73
     1
 74
     3
 75
     0
 76
     0
 77
     0
 78
     0
281
     0
 65
     1
110
0.0
120
0.0
130
0.0
111
1.0
121
0.0
131
0.0
112
0.0
122
1.0
132
0.0
 79
     0
146
0.0
 60
     3
 61
     5
292
     1
282
     1
141
0.0
142
0.0
 63
   250
361
3F
  0
ENDTAB
  0
TABLE
  2
LTYPE
  5
5
330
0
100
AcDbSymbolTable
 70
     1
  0
LTYPE
  5
14
330
5
100
AcDbSymbolTableRecord
100
AcDbLinetypeTableRecord
  2
ByBlock
 70
     0
  3

 72
    65
 73
     0
 40
0.0
  0
LTYPE
  5
15
330
5
100
AcDbSymbolTableRecord
100
AcDbLinetypeTableRecord
  2
ByLayer
 70
     0
  3

 72
    65
 73
     0
 40
0.0
  0
LTYPE
  5
16
330
5
100
AcDbSymbolTableRecord
100
AcDbLinetypeTableRecord
  2
Continuous
 70
     0
  3
Solid line
 72
    65
 73
     0
 40
0.0
  0
ENDTAB
  0
TABLE
  2
LAYER
  5
2
330
0
100
AcDbSymbolTable
 70
     2
  0
LAYER
  5
10
330
2
100
AcDbSymbolTableRecord
100
AcDbLayerTableRecord
  2
0
 70
     0
 62
     7
  6
Continuous
370
    -3
390
F
347
3E
  0
LAYER
  5
40
330
2
100
AcDbSymbolTableRecord
100
AcDbLayerTableRecord
  2
_U+30EC_U+30A4_U+30E4_U+30FC 1
 70
     0
 62
     7
  6
Continuous
370
    -3
390
F
347
3E
  0
ENDTAB
  0
TABLE
  2
STYLE
  5
3
330
0
100
AcDbSymbolTable
 70
     1
  0
STYLE
  5
11
330
3
100
AcDbSymbolTableRecord
100
AcDbTextStyleTableRecord
  2
Standard
 70
     0
 40
0.0
 41
1.0
 50
0.0
 71
     0
 42
0.2
  3
txt
  4

  0
ENDTAB
  0
TABLE
  2
VIEW
  5
6
330
0
100
AcDbSymbolTable
 70
     0
  0
ENDTAB
  0
TABLE
  2
UCS
  5
7
330
0
100
AcDbSymbolTable
 70
     0
  0
ENDTAB
  0
TABLE
  2
APPID
  5
9
330
0
100
AcDbSymbolTable
 70
     1
  0
APPID
  5
12
330
9
100
AcDbSymbolTableRecord
100
AcDbRegAppTableRecord
  2
ACAD
 70
     0
  0
ENDTAB
  0
TABLE
  2
DIMSTYLE
  5
A
330
0
100
AcDbSymbolTable
 70
     1
100
AcDbDimStyleTable
  0
DIMSTYLE
105
27
330
A
100
AcDbSymbolTableRecord
100
AcDbDimStyleTableRecord
  2
Standard
 70
     0
178
     0
340
11
  0
ENDTAB
  0
TABLE
  2
BLOCK_RECORD
  5
1
330
0
100
AcDbSymbolTable
 70
    12
  0
BLOCK_RECORD
  5
1F
330
1
100
AcDbSymbolTableRecord
100
AcDbBlockTableRecord
  2
*Model_Space
340
22
 70
     0
280
     1
281
     0
  0
BLOCK_RECORD
  5
1B
330
1
100
AcDbSymbolTableRecord
100
AcDbBlockTableRecord
  2
*Paper_Space
340
1E
 70
     0
280
     1
281
     0
  0
BLOCK_RECORD
  5
23
330
1
100
AcDbSymbolTableRecord
100
AcDbBlockTableRecord
  2
*Paper_Space0
340
26
 70
     0
280
     1
281
     0
  0
BLOCK_RECORD
  5
1DD
330
1
100
AcDbSymbolTableRecord
100
AcDbBlockTableRecord
  2
block 2
340
0
102
{BLKREFS
331
1DE
102
}
 70
     0
280
     1
281
     0
  0
BLOCK_RECORD
  5
1E3
330
1
100
AcDbSymbolTableRecord
100
AcDbBlockTableRecord
  2
block 3
340
0
102
{BLKREFS
331
1E4
102
}
 70
     0
280
     1
281
     0
  0
BLOCK_RECORD
  5
1E9
330
1
100
AcDbSymbolTableRecord
100
AcDbBlockTableRecord
  2
block 4
340
0
102
{BLKREFS
331
1EA
102
}
 70
     0
280
     1
281
     0
  0
BLOCK_RECORD
  5
1F1
330
1
100
AcDbSymbolTableRecord
100
AcDbBlockTableRecord
  2
block 5
340
0
102
{BLKREFS
331
1F2
102
}
 70
     0
280
     1
281
     0
  0
BLOCK_RECORD
  5
1F7
330
1
100
AcDbSymbolTableRecord
100
AcDbBlockTableRecord
  2
block 6
340
0
102
{BLKREFS
331
1F8
102
}
 70
     0
280
     1
281
     0
  0
BLOCK_RECORD
  5
1FF
330
1
100
AcDbSymbolTableRecord
100
AcDbBlockTableRecord
  2
block 7
340
0
102
{BLKREFS
331
200
102
}
 70
     0
280
     1
281
     0
  0
BLOCK_RECORD
  5
208
330
1
100
AcDbSymbolTableRecord
100
AcDbBlockTableRecord
  2
block 8
340
0
102
{BLKREFS
331
209
102
}
 70
     0
280
     1
281
     0
  0
BLOCK_RECORD
  5
210
330
1
100
AcDbSymbolTableRecord
100
AcDbBlockTableRecord
  2
block 9
340
0
102
{BLKREFS
331
211
102
}
 70
     0
280
     1
281
     0
  0
BLOCK_RECORD
  5
218
330
1
100
AcDbSymbolTableRecord
100
AcDbBlockTableRecord
  2
block 10
340
0
102
{BLKREFS
331
219
102
}
 70
     0
280
     1
281
     0
  0
BLOCK_RECORD
  5
220
330
1
100
AcDbSymbolTableRecord
100
AcDbBlockTableRecord
  2
block 11
340
0
102
{BLKREFS
331
221
102
}
 70
     0
280
     1
281
     0
  0
BLOCK_RECORD
  5
228
330
1
100
AcDbSymbolTableRecord
100
AcDbBlockTableRecord
  2
block 12
340
0
102
{BLKREFS
331
229
102
}
 70
     0
280
     1
281
     0
  0
ENDTAB
  0
ENDSEC
  0
SECTION
  2
BLOCKS
  0
BLOCK
  5
20
330
1F
100
AcDbEntity
  8
0
100
AcDbBlockBegin
  2
*Model_Space
 70
     0
 10
0.0
 20
0.0
 30
0.0
  3
*Model_Space
  1

  0
ENDBLK
  5
21
330
1F
100
AcDbEntity
  8
0
100
AcDbBlockEnd
  0
BLOCK
  5
1C
330
1B
100
AcDbEntity
 67
     1
  8
0
100
AcDbBlockBegin
  2
*Paper_Space
 70
     0
 10
0.0
 20
0.0
 30
0.0
  3
*Paper_Space
  1

  0
ENDBLK
  5
1D
330
1B
100
AcDbEntity
 67
     1
  8
0
100
AcDbBlockEnd
  0
BLOCK
  5
24
330
23
100
AcDbEntity
  8
0
100
AcDbBlockBegin
  2
*Paper_Space0
 70
     0
 10
0.0
 20
0.0
 30
0.0
  3
*Paper_Space0
  1

  0
ENDBLK
  5
25
330
23
100
AcDbEntity
  8
0
100
AcDbBlockEnd
  0
BLOCK
  5
1DF
330
1DD
100
AcDbEntity
  8
0
100
AcDbBlockBegin
  2
block 2
 70
     0
 10
0.0
 20
0.0
 30
0.0
  3
block 2
  1

  0
SPLINE
  5
1E1
330
1DD
100
AcDbEntity
  8
_U+30EC_U+30A4_U+30E4_U+30FC 1
370
     0
100
AcDbSpline
210
0.0
220
0.0
230
1.0
 70
    11
 71
     3
 72
    26
 73
    22
 74
     0
 42
0.0000000001
 43
0.0000000001
 12
1.0
 22
0.0
 32
0.0
 13
1.0
 23
0.0
 33
0.0
 40
0.0
 40
0.0
 40
0.0
 40
0.0
 40
1.0
 40
1.0
 40
1.0
 40
2.0
 40
2.0
 40
2.0
 40
3.0
 40
3.0
 40
3.0
 40
4.0
 40
4.0
 40
4.0
 40
5.0
 40
5.0
 40
5.0
 40
6.0
 40
6.0
 40
6.0
 40
7.0
 40
7.0
 40
7.0
 40
7.0
 10
95.75229489793693
 20
-92.02504609244514
 30
0.0
 10
95.75229489793693
 20
-92.02504609244514
 30
0.0
 10
95.75229489793693
 20
-90.9207207346483
 30
0.0
 10
95.75229489793693
 20
-90.9207207346483
 30
0.0
 10
95.75229489793693
 20
-90.9207207346483
 30
0.0
 10
95.42225475045
 20
-90.9207207346483
 30
0.0
 10
95.42225475045
 20
-90.9207207346483
 30
0.0
 10
95.42225475045
 20
-90.9207207346483
 30
0.0
 10
95.42225475045
 20
-90.77275388355682
 30
0.0
 10
95.42225475045
 20
-90.77275388355682
 30
0.0
 10
95.75436195522808
 20
-90.75793997297023
 30
0.0
 10
95.80087074427895
 20
-90.59498695651793
 30
0.0
 10
95.8304985654521
 20
-90.4807820411819
 30
0.0
 10
95.8304985654521
 20
-90.4807820411819
 30
0.0
 10
95.9765706140267
 20
-90.4807820411819
 30
0.0
 10
95.9765706140267
 20
-90.4807820411819
 30
0.0
 10
95.9765706140267
 20
-90.4807820411819
 30
0.0
 10
95.9765706140267
 20
-92.02504609244514
 30
0.0
 10
95.9765706140267
 20
-92.02504609244514
 30
0.0
 10
95.9765706140267
 20
-92.02504609244514
 30
0.0
 10
95.75229489793693
 20
-92.02504609244514
 30
0.0
 10
95.75229489793693
 20
-92.02504609244514
 30
0.0
  0
HATCH
  5
1E2
330
1DD
100
AcDbEntity
  8
_U+30EC_U+30A4_U+30E4_U+30FC 1
 62
   179
420
  2234388
100
AcDbHatch
 10
0.0
 20
0.0
 30
0.0
210
0.0
220
0.0
230
1.0
  2
SOLID
 70
     1
 71
     0
 91
        1
 92
        1
 93
        1
 72
     4
 94
        3
 73
     0
 74
     1
 95
       26
 96
       22
 40
0.0
 40
0.0
 40
0.0
 40
0.0
 40
1.0
 40
1.0
 40
1.0
 40
2.0
 40
2.0
 40
2.0
 40
3.0
 40
3.0
 40
3.0
 40
4.0
 40
4.0
 40
4.0
 40
5.0
 40
5.0
 40
5.0
 40
6.0
 40
6.0
 40
6.0
 40
7.0
 40
7.0
 40
7.0
 40
7.0
 10
95.75229489793693
 20
-92.02504609244514
 10
95.75229489793693
 20
-92.02504609244514
 10
95.75229489793693
 20
-90.9207207346483
 10
95.75229489793693
 20
-90.9207207346483
 10
95.75229489793693
 20
-90.9207207346483
 10
95.42225475045
 20
-90.9207207346483
 10
95.42225475045
 20
-90.9207207346483
 10
95.42225475045
 20
-90.9207207346483
 10
95.42225475045
 20
-90.77275388355682
 10
95.42225475045
 20
-90.77275388355682
 10
95.75436195522808
 20
-90.75793997297023
 10
95.80087074427895
 20
-90.59498695651793
 10
95.8304985654521
 20
-90.4807820411819
 10
95.8304985654521
 20
-90.4807820411819
 10
95.9765706140267
 20
-90.4807820411819
 10
95.9765706140267
 20
-90.4807820411819
 10
95.9765706140267
 20
-90.4807820411819
 10
95.9765706140267
 20
-92.02504609244514
 10
95.9765706140267
 20
-92.02504609244514
 10
95.9765706140267
 20
-92.02504609244514
 10
95.75229489793693
 20
-92.02504609244514
 10
95.75229489793693
 20
-92.02504609244514
 97
        0
 97
        0
 75
     2
 76
     1
 98
        0
  0
ENDBLK
  5
1E0
330
1DD
100
AcDbEntity
  8
0
100
AcDbBlockEnd
  0
BLOCK
  5
1E5
330
1E3
100
AcDbEntity
  8
0
100
AcDbBlockBegin
  2
block 3
 70
     0
 10
0.0
 20
0.0
 30
0.0
  3
block 3
  1

  0
SPLINE
  5
1E7
330
1E3
100
AcDbEntity
  8
_U+30EC_U+30A4_U+30E4_U+30FC 1
370
     0
100
AcDbSpline
210
0.0
220
0.0
230
1.0
 70
    11
 71
     3
 72
    62
 73
    58
 74
     0
 42
0.0000000001
 43
0.0000000001
 12
1.0
 22
0.0
 32
0.0
 13
1.0
 23
0.0
 33
0.0
 40
0.0
 40
0.0
 40
0.0
 40
0.0
 40
1.0
 40
1.0
 40
1.0
 40
2.0
 40
2.0
 40
2.0
 40
3.0
 40
3.0
 40
3.0
 40
4.0
 40
4.0
 40
4.0
 40
5.0
 40
5.0
 40
5.0
 40
6.0
 40
6.0
 40
6.0
 40
7.0
 40
7.0
 40
7.0
 40
8.0
 40
8.0
 40
8.0
 40
9.0
 40
9.0
 40
9.0
 40
10.0
 40
10.0
 40
10.0
 40
11.0
 40
11.0
 40
11.0
 40
12.0
 40
12.0
 40
12.0
 40
13.0
 40
13.0
 40
13.0
 40
14.0
 40
14.0
 40
14.0
 40
15.0
 40
15.0
 40
15.0
 40
16.0
 40
16.0
 40
16.0
 40
17.0
 40
17.0
 40
17.0
 40
18.0
 40
18.0
 40
18.0
 40
19.0
 40
19.0
 40
19.0
 40
19.0
 10
77.29364554274257
 20
-133.0754258564881
 30
0.0
 10
77.19821639780115
 20
-133.0754258564881
 30
0.0
 10
76.98048636313335
 20
-133.0544107740281
 30
0.0
 10
76.85542939701878
 20
-132.8680311082761
 30
0.0
 10
76.78135984408591
 20
-132.7560655050054
 30
0.0
 10
76.77722572950361
 20
-132.6565022454817
 30
0.0
 10
76.77309161492131
 20
-132.5720974060931
 30
0.0
 10
76.77309161492131
 20
-132.5720974060931
 30
0.0
 10
76.99323321642878
 20
-132.5720974060931
 30
0.0
 10
76.99323321642878
 20
-132.5720974060931
 30
0.0
 10
76.99530027371993
 20
-132.646166959026
 30
0.0
 10
77.00563556017568
 20
-132.8807779615715
 30
0.0
 10
77.28916691861174
 20
-132.8807779615715
 30
0.0
 10
77.42662622847321
 20
-132.8807779615715
 30
0.0
 10
77.57924395846977
 20
-132.8111870327694
 30
0.0
 10
77.57924395846977
 20
-132.5824326925488
 30
0.0
 10
77.57924395846977
 20
-132.4663329746959
 30
0.0
 10
77.5410033985835
 20
-132.4174126188054
 30
0.0
 10
77.5093085201192
 20
-132.3857177403411
 30
0.0
 10
77.43523896718634
 20
-132.3116481874082
 30
0.0
 10
77.31879473978489
 20
-132.2992458436613
 30
0.0
 10
77.26401772156942
 20
-132.2992458436613
 30
0.0
 10
77.24472518685202
 20
-132.2992458436613
 30
0.0
 10
77.20889619380542
 20
-132.3013129009525
 30
0.0
 10
77.18133542992342
 20
-132.3054470155348
 30
0.0
 10
77.18133542992342
 20
-132.3054470155348
 30
0.0
 10
77.18133542992342
 20
-132.1107991206181
 30
0.0
 10
77.18133542992342
 20
-132.1107991206181
 30
0.0
 10
77.2195759898097
 20
-132.1170002924916
 30
0.0
 10
77.26160615472975
 20
-132.1194118593313
 30
0.0
 10
77.26815183615172
 20
-132.1194118593313
 30
0.0
 10
77.33360865037146
 20
-132.1194118593313
 30
0.0
 10
77.53239065987037
 20
-132.0980522673227
 30
0.0
 10
77.53239065987037
 20
-131.8610296979375
 30
0.0
 10
77.53239065987037
 20
-131.6836072804471
 30
0.0
 10
77.40147703143089
 20
-131.6284857526832
 30
0.0
 10
77.29123397590288
 20
-131.6284857526832
 30
0.0
 10
77.02699515218423
 20
-131.6284857526832
 30
0.0
 10
77.0183824134711
 20
-131.8610296979375
 30
0.0
 10
77.0142482988888
 20
-131.9330321935792
 30
0.0
 10
77.0142482988888
 20
-131.9330321935792
 30
0.0
 10
76.81098766525906
 20
-131.9330321935792
 30
0.0
 10
76.81098766525906
 20
-131.9330321935792
 30
0.0
 10
76.81960040397219
 20
-131.8083197370132
 30
0.0
 10
76.84716116785418
 20
-131.4317708004754
 30
0.0
 10
77.30398082919831
 20
-131.4317708004754
 30
0.0
 10
77.52825654528807
 20
-131.4317708004754
 30
0.0
 10
77.76941322925556
 20
-131.5585503143326
 30
0.0
 10
77.76941322925556
 20
-131.8548285260641
 30
0.0
 10
77.76941322925556
 20
-132.0408636822676
 30
0.0
 10
77.67432859386267
 20
-132.1235459739136
 30
0.0
 10
77.57476533433895
 20
-132.184868673551
 30
0.0
 10
77.63608803397639
 20
-132.212429437433
 30
0.0
 10
77.8179890755976
 20
-132.2927001622393
 30
0.0
 10
77.8179890755976
 20
-132.5700303488019
 30
0.0
 10
77.8179890755976
 20
-132.9083387254535
 30
0.0
 10
77.57063121975665
 20
-133.0754258564881
 30
0.0
 10
77.29364554274257
 20
-133.0754258564881
 30
0.0
  0
HATCH
  5
1E8
330
1E3
100
AcDbEntity
  8
_U+30EC_U+30A4_U+30E4_U+30FC 1
 62
   179
420
  2234388
100
AcDbHatch
 10
0.0
 20
0.0
 30
0.0
210
0.0
220
0.0
230
1.0
  2
SOLID
 70
     1
 71
     0
 91
        1
 92
        1
 93
        1
 72
     4
 94
        3
 73
     0
 74
     1
 95
       62
 96
       58
 40
0.0
 40
0.0
 40
0.0
 40
0.0
 40
1.0
 40
1.0
 40
1.0
 40
2.0
 40
2.0
 40
2.0
 40
3.0
 40
3.0
 40
3.0
 40
4.0
 40
4.0
 40
4.0
 40
5.0
 40
5.0
 40
5.0
 40
6.0
 40
6.0
 40
6.0
 40
7.0
 40
7.0
 40
7.0
 40
8.0
 40
8.0
 40
8.0
 40
9.0
 40
9.0
 40
9.0
 40
10.0
 40
10.0
 40
10.0
 40
11.0
 40
11.0
 40
11.0
 40
12.0
 40
12.0
 40
12.0
 40
13.0
 40
13.0
 40
13.0
 40
14.0
 40
14.0
 40
14.0
 40
15.0
 40
15.0
 40
15.0
 40
16.0
 40
16.0
 40
16.0
 40
17.0
 40
17.0
 40
17.0
 40
18.0
 40
18.0
 40
18.0
 40
19.0
 40
19.0
 40
19.0
 40
19.0
 10
77.29364554274257
 20
-133.0754258564881
 10
77.19821639780115
 20
-133.0754258564881
 10
76.98048636313335
 20
-133.0544107740281
 10
76.85542939701878
 20
-132.8680311082761
 10
76.78135984408591
 20
-132.7560655050054
 10
76.77722572950361
 20
-132.6565022454817
 10
76.77309161492131
 20
-132.5720974060931
 10
76.77309161492131
 20
-132.5720974060931
 10
76.99323321642878
 20
-132.5720974060931
 10
76.99323321642878
 20
-132.5720974060931
 10
76.99530027371993
 20
-132.646166959026
 10
77.00563556017568
 20
-132.8807779615715
 10
77.28916691861174
 20
-132.8807779615715
 10
77.42662622847321
 20
-132.8807779615715
 10
77.57924395846977
 20
-132.8111870327694
 10
77.57924395846977
 20
-132.5824326925488
 10
77.57924395846977
 20
-132.4663329746959
 10
77.5410033985835
 20
-132.4174126188054
 10
77.5093085201192
 20
-132.3857177403411
 10
77.43523896718634
 20
-132.3116481874082
 10
77.31879473978489
 20
-132.2992458436613
 10
77.26401772156942
 20
-132.2992458436613
 10
77.24472518685202
 20
-132.2992458436613
 10
77.20889619380542
 20
-132.3013129009525
 10
77.18133542992342
 20
-132.3054470155348
 10
77.18133542992342
 20
-132.3054470155348
 10
77.18133542992342
 20
-132.1107991206181
 10
77.18133542992342
 20
-132.1107991206181
 10
77.2195759898097
 20
-132.1170002924916
 10
77.26160615472975
 20
-132.1194118593313
 10
77.26815183615172
 20
-132.1194118593313
 10
77.33360865037146
 20
-132.1194118593313
 10
77.53239065987037
 20
-132.0980522673227
 10
77.53239065987037
 20
-131.8610296979375
 10
77.53239065987037
 20
-131.6836072804471
 10
77.40147703143089
 20
-131.6284857526832
 10
77.29123397590288
 20
-131.6284857526832
 10
77.02699515218423
 20
-131.6284857526832
 10
77.0183824134711
 20
-131.8610296979375
 10
77.0142482988888
 20
-131.9330321935792
 10
77.0142482988888
 20
-131.9330321935792
 10
76.81098766525906
 20
-131.9330321935792
 10
76.81098766525906
 20
-131.9330321935792
 10
76.81960040397219
 20
-131.8083197370132
 10
76.84716116785418
 20
-131.4317708004754
 10
77.30398082919831
 20
-131.4317708004754
 10
77.52825654528807
 20
-131.4317708004754
 10
77.76941322925556
 20
-131.5585503143326
 10
77.76941322925556
 20
-131.8548285260641
 10
77.76941322925556
 20
-132.0408636822676
 10
77.67432859386267
 20
-132.1235459739136
 10
77.57476533433895
 20
-132.184868673551
 10
77.63608803397639
 20
-132.212429437433
 10
77.8179890755976
 20
-132.2927001622393
 10
77.8179890755976
 20
-132.5700303488019
 10
77.8179890755976
 20
-132.9083387254535
 10
77.57063121975665
 20
-133.0754258564881
 10
77.29364554274257
 20
-133.0754258564881
 97
        0
 97
        0
 75
     2
 76
     1
 98
        0
  0
ENDBLK
  5
1E6
330
1E3
100
AcDbEntity
  8
0
100
AcDbBlockEnd
  0
BLOCK
  5
1EB
330
1E9
100
AcDbEntity
  8
0
100
AcDbBlockBegin
  2
block 4
 70
     0
 10
0.0
 20
0.0
 30
0.0
  3
block 4
  1

  0
SPLINE
  5
1ED
330
1E9
100
AcDbEntity
  8
_U+30EC_U+30A4_U+30E4_U+30FC 1
370
     0
100
AcDbSpline
210
0.0
220
0.0
230
1.0
 70
    11
 71
     3
 72
    29
 73
    25
 74
     0
 42
0.0000000001
 43
0.0000000001
 12
1.0
 22
0.0
 32
0.0
 13
1.0
 23
0.0
 33
0.0
 40
0.0
 40
0.0
 40
0.0
 40
0.0
 40
1.0
 40
1.0
 40
1.0
 40
2.0
 40
2.0
 40
2.0
 40
3.0
 40
3.0
 40
3.0
 40
4.0
 40
4.0
 40
4.0
 40
5.0
 40
5.0
 40
5.0
 40
6.0
 40
6.0
 40
6.0
 40
7.0
 40
7.0
 40
7.0
 40
8.0
 40
8.0
 40
8.0
 40
8.0
 10
78.27205266055351
 20
-166.0756510001478
 30
0.0
 10
78.00540226999519
 20
-166.0756510001478
 30
0.0
 10
77.75149873273227
 20
-165.9381916902863
 30
0.0
 10
77.75149873273227
 20
-165.5892035176305
 30
0.0
 10
77.75149873273227
 20
-165.3332329230764
 30
0.0
 10
77.89343666672455
 20
-165.2381482876835
 30
0.0
 10
77.99920109812173
 20
-165.1768255880461
 30
0.0
 10
77.87448864155569
 20
-165.1175699456998
 30
0.0
 10
77.79835203133166
 20
-165.0031927755895
 30
0.0
 10
77.79835203133166
 20
-164.8423068164283
 30
0.0
 10
77.79835203133166
 20
-164.5673881967054
 30
0.0
 10
77.99713404083059
 20
-164.4319959441351
 30
0.0
 10
78.27205266055351
 20
-164.4319959441351
 30
0.0
 10
78.55558401898958
 20
-164.4319959441351
 30
0.0
 10
78.74609779932389
 20
-164.5760009354185
 30
0.0
 10
78.74609779932389
 20
-164.8423068164283
 30
0.0
 10
78.74609779932389
 20
-165.0031927755895
 30
0.0
 10
78.6675496222602
 20
-165.1175699456998
 30
0.0
 10
78.54283716569415
 20
-165.1768255880461
 30
0.0
 10
78.6317206292136
 20
-165.2274684916792
 30
0.0
 10
78.79053953108362
 20
-165.3225531270722
 30
0.0
 10
78.79053953108362
 20
-165.5850694030482
 30
0.0
 10
78.79053953108362
 20
-165.9595512822949
 30
0.0
 10
78.51114228722986
 20
-166.0756510001478
 30
0.0
 10
78.27205266055351
 20
-166.0756510001478
 30
0.0
  0
SPLINE
  5
1EE
330
1E9
100
AcDbEntity
  8
_U+30EC_U+30A4_U+30E4_U+30FC 1
370
     0
100
AcDbSpline
210
0.0
220
0.0
230
1.0
 70
    11
 71
     3
 72
    17
 73
    13
 74
     0
 42
0.0000000001
 43
0.0000000001
 12
1.0
 22
0.0
 32
0.0
 13
1.0
 23
0.0
 33
0.0
 40
0.0
 40
0.0
 40
0.0
 40
0.0
 40
1.0
 40
1.0
 40
1.0
 40
2.0
 40
2.0
 40
2.0
 40
3.0
 40
3.0
 40
3.0
 40
4.0
 40
4.0
 40
4.0
 40
4.0
 10
78.27205266055351
 20
-165.2846570767344
 30
0.0
 10
78.1283921788186
 20
-165.2846570767344
 30
0.0
 10
77.97577444882204
 20
-165.3714734829627
 30
0.0
 10
77.97577444882204
 20
-165.5743896070439
 30
0.0
 10
77.97577444882204
 20
-165.7797172979648
 30
0.0
 10
78.10289847222775
 20
-165.8810031052311
 30
0.0
 10
78.27205266055351
 20
-165.8810031052311
 30
0.0
 10
78.45808781675701
 20
-165.8810031052311
 30
0.0
 10
78.568330872285
 20
-165.7583577059563
 30
0.0
 10
78.568330872285
 20
-165.5805907789174
 30
0.0
 10
78.568330872285
 20
-165.3587266296673
 30
0.0
 10
78.40537785583268
 20
-165.2846570767344
 30
0.0
 10
78.27205266055351
 20
-165.2846570767344
 30
0.0
  0
SPLINE
  5
1EF
330
1E9
100
AcDbEntity
  8
_U+30EC_U+30A4_U+30E4_U+30FC 1
370
     0
100
AcDbSpline
210
0.0
220
0.0
230
1.0
 70
    11
 71
     3
 72
    17
 73
    13
 74
     0
 42
0.0000000001
 43
0.0000000001
 12
1.0
 22
0.0
 32
0.0
 13
1.0
 23
0.0
 33
0.0
 40
0.0
 40
0.0
 40
0.0
 40
0.0
 40
1.0
 40
1.0
 40
1.0
 40
2.0
 40
2.0
 40
2.0
 40
3.0
 40
3.0
 40
3.0
 40
4.0
 40
4.0
 40
4.0
 40
4.0
 10
78.27205266055351
 20
-164.6245767817605
 30
0.0
 10
78.10703258681005
 20
-164.6245767817605
 30
0.0
 10
78.0222832378729
 20
-164.7196614171534
 30
0.0
 10
78.0222832378729
 20
-164.8550536697237
 30
0.0
 10
78.0222832378729
 20
-164.9776990689986
 30
0.0
 10
78.09428573351462
 20
-165.0962103536912
 30
0.0
 10
78.27205266055351
 20
-165.0962103536912
 30
0.0
 10
78.44981958759242
 20
-165.0962103536912
 30
0.0
 10
78.52182208323413
 20
-164.9776990689986
 30
0.0
 10
78.52182208323413
 20
-164.8550536697237
 30
0.0
 10
78.52182208323413
 20
-164.7196614171534
 30
0.0
 10
78.43500567700583
 20
-164.6245767817605
 30
0.0
 10
78.27205266055351
 20
-164.6245767817605
 30
0.0
  0
HATCH
  5
1F0
330
1E9
100
AcDbEntity
  8
_U+30EC_U+30A4_U+30E4_U+30FC 1
 62
   179
420
  2234388
100
AcDbHatch
 10
0.0
 20
0.0
 30
0.0
210
0.0
220
0.0
230
1.0
  2
SOLID
 70
     1
 71
     0
 91
        3
 92
        1
 93
        1
 72
     4
 94
        3
 73
     0
 74
     1
 95
       29
 96
       25
 40
0.0
 40
0.0
 40
0.0
 40
0.0
 40
1.0
 40
1.0
 40
1.0
 40
2.0
 40
2.0
 40
2.0
 40
3.0
 40
3.0
 40
3.0
 40
4.0
 40
4.0
 40
4.0
 40
5.0
 40
5.0
 40
5.0
 40
6.0
 40
6.0
 40
6.0
 40
7.0
 40
7.0
 40
7.0
 40
8.0
 40
8.0
 40
8.0
 40
8.0
 10
78.27205266055351
 20
-166.0756510001478
 10
78.00540226999519
 20
-166.0756510001478
 10
77.75149873273227
 20
-165.9381916902863
 10
77.75149873273227
 20
-165.5892035176305
 10
77.75149873273227
 20
-165.3332329230764
 10
77.89343666672455
 20
-165.2381482876835
 10
77.99920109812173
 20
-165.1768255880461
 10
77.87448864155569
 20
-165.1175699456998
 10
77.79835203133166
 20
-165.0031927755895
 10
77.79835203133166
 20
-164.8423068164283
 10
77.79835203133166
 20
-164.5673881967054
 10
77.99713404083059
 20
-164.4319959441351
 10
78.27205266055351
 20
-164.4319959441351
 10
78.55558401898958
 20
-164.4319959441351
 10
78.74609779932389
 20
-164.5760009354185
 10
78.74609779932389
 20
-164.8423068164283
 10
78.74609779932389
 20
-165.0031927755895
 10
78.6675496222602
 20
-165.1175699456998
 10
78.54283716569415
 20
-165.1768255880461
 10
78.6317206292136
 20
-165.2274684916792
 10
78.79053953108362
 20
-165.3225531270722
 10
78.79053953108362
 20
-165.5850694030482
 10
78.79053953108362
 20
-165.9595512822949
 10
78.51114228722986
 20
-166.0756510001478
 10
78.27205266055351
 20
-166.0756510001478
 97
        0
 97
        0
 92
        1
 93
        1
 72
     4
 94
        3
 73
     0
 74
     1
 95
       17
 96
       13
 40
0.0
 40
0.0
 40
0.0
 40
0.0
 40
1.0
 40
1.0
 40
1.0
 40
2.0
 40
2.0
 40
2.0
 40
3.0
 40
3.0
 40
3.0
 40
4.0
 40
4.0
 40
4.0
 40
4.0
 10
78.27205266055351
 20
-165.2846570767344
 10
78.1283921788186
 20
-165.2846570767344
 10
77.97577444882204
 20
-165.3714734829627
 10
77.97577444882204
 20
-165.5743896070439
 10
77.97577444882204
 20
-165.7797172979648
 10
78.10289847222775
 20
-165.8810031052311
 10
78.27205266055351
 20
-165.8810031052311
 10
78.45808781675701
 20
-165.8810031052311
 10
78.568330872285
 20
-165.7583577059563
 10
78.568330872285
 20
-165.5805907789174
 10
78.568330872285
 20
-165.3587266296673
 10
78.40537785583268
 20
-165.2846570767344
 10
78.27205266055351
 20
-165.2846570767344
 97
        0
 97
        0
 92
        1
 93
        1
 72
     4
 94
        3
 73
     0
 74
     1
 95
       17
 96
       13
 40
0.0
 40
0.0
 40
0.0
 40
0.0
 40
1.0
 40
1.0
 40
1.0
 40
2.0
 40
2.0
 40
2.0
 40
3.0
 40
3.0
 40
3.0
 40
4.0
 40
4.0
 40
4.0
 40
4.0
 10
78.27205266055351
 20
-164.6245767817605
 10
78.10703258681005
 20
-164.6245767817605
 10
78.0222832378729
 20
-164.7196614171534
 10
78.0222832378729
 20
-164.8550536697237
 10
78.0222832378729
 20
-164.9776990689986
 10
78.09428573351462
 20
-165.0962103536912
 10
78.27205266055351
 20
-165.0962103536912
 10
78.44981958759242
 20
-165.0962103536912
 10
78.52182208323413
 20
-164.9776990689986
 10
78.52182208323413
 20
-164.8550536697237
 10
78.52182208323413
 20
-164.7196614171534
 10
78.43500567700583
 20
-164.6245767817605
 10
78.27205266055351
 20
-164.6245767817605
 97
        0
 97
        0
 75
     2
 76
     1
 98
        0
  0
ENDBLK
  5
1EC
330
1E9
100
AcDbEntity
  8
0
100
AcDbBlockEnd
  0
BLOCK
  5
1F3
330
1F1
100
AcDbEntity
  8
0
100
AcDbBlockBegin
  2
block 5
 70
     0
 10
0.0
 20
0.0
 30
0.0
  3
block 5
  1

  0
SPLINE
  5
1F5
330
1F1
100
AcDbEntity
  8
_U+30EC_U+30A4_U+30E4_U+30FC 1
370
     0
100
AcDbSpline
210
0.0
220
0.0
230
1.0
 70
    11
 71
     3
 72
    62
 73
    58
 74
     0
 42
0.0000000001
 43
0.0000000001
 12
1.0
 22
0.0
 32
0.0
 13
1.0
 23
0.0
 33
0.0
 40
0.0
 40
0.0
 40
0.0
 40
0.0
 40
1.0
 40
1.0
 40
1.0
 40
2.0
 40
2.0
 40
2.0
 40
3.0
 40
3.0
 40
3.0
 40
4.0
 40
4.0
 40
4.0
 40
5.0
 40
5.0
 40
5.0
 40
6.0
 40
6.0
 40
6.0
 40
7.0
 40
7.0
 40
7.0
 40
8.0
 40
8.0
 40
8.0
 40
9.0
 40
9.0
 40
9.0
 40
10.0
 40
10.0
 40
10.0
 40
11.0
 40
11.0
 40
11.0
 40
12.0
 40
12.0
 40
12.0
 40
13.0
 40
13.0
 40
13.0
 40
14.0
 40
14.0
 40
14.0
 40
15.0
 40
15.0
 40
15.0
 40
16.0
 40
16.0
 40
16.0
 40
17.0
 40
17.0
 40
17.0
 40
18.0
 40
18.0
 40
18.0
 40
19.0
 40
19.0
 40
19.0
 40
19.0
 10
108.3448079156221
 20
-161.1801703156077
 30
0.0
 10
108.3448079156221
 20
-161.2755994605492
 30
0.0
 10
108.3237928331621
 20
-161.493329495217
 30
0.0
 10
108.1377576769586
 20
-161.6183864613315
 30
0.0
 10
108.0254475641395
 20
-161.6921115047159
 30
0.0
 10
107.9262288141643
 20
-161.6965901288467
 30
0.0
 10
107.8414794652271
 20
-161.700724243429
 30
0.0
 10
107.8414794652271
 20
-161.700724243429
 30
0.0
 10
107.8414794652271
 20
-161.4805826419215
 30
0.0
 10
107.8414794652271
 20
-161.4805826419215
 30
0.0
 10
107.91554901816
 20
-161.4785155846304
 30
0.0
 10
108.1501600207055
 20
-161.4681802981746
 30
0.0
 10
108.1501600207055
 20
-161.1846489397386
 30
0.0
 10
108.1501600207055
 20
-161.0471896298771
 30
0.0
 10
108.0805690919035
 20
-160.8945718998805
 30
0.0
 10
107.8521592612314
 20
-160.8945718998805
 30
0.0
 10
107.73571503383
 20
-160.8945718998805
 30
0.0
 10
107.6871391874879
 20
-160.9328124597668
 30
0.0
 10
107.6554443090237
 20
-160.9645073382311
 30
0.0
 10
107.5813747560908
 20
-161.038576891164
 30
0.0
 10
107.5686279027953
 20
-161.1550211185654
 30
0.0
 10
107.5686279027953
 20
-161.2097981367809
 30
0.0
 10
107.5686279027953
 20
-161.2290906714983
 30
0.0
 10
107.5706949600865
 20
-161.2649196645449
 30
0.0
 10
107.5748290746688
 20
-161.2924804284269
 30
0.0
 10
107.5748290746688
 20
-161.2924804284269
 30
0.0
 10
107.3801811797522
 20
-161.2924804284269
 30
0.0
 10
107.3801811797522
 20
-161.2924804284269
 30
0.0
 10
107.3867268611742
 20
-161.2542398685406
 30
0.0
 10
107.3887939184653
 20
-161.2122097036206
 30
0.0
 10
107.3887939184653
 20
-161.2056640221986
 30
0.0
 10
107.3887939184653
 20
-161.1402072079788
 30
0.0
 10
107.3674343264568
 20
-160.9414251984799
 30
0.0
 10
107.1307562666201
 20
-160.9414251984799
 30
0.0
 10
106.9529893395812
 20
-160.9414251984799
 30
0.0
 10
106.8978678118172
 20
-161.0723388269194
 30
0.0
 10
106.8978678118172
 20
-161.1825818824474
 30
0.0
 10
106.8978678118172
 20
-161.4468207061661
 30
0.0
 10
107.1307562666201
 20
-161.4554334448792
 30
0.0
 10
107.2024142527133
 20
-161.4595675594615
 30
0.0
 10
107.2024142527133
 20
-161.4595675594615
 30
0.0
 10
107.2024142527133
 20
-161.6628281930913
 30
0.0
 10
107.2024142527133
 20
-161.6628281930913
 30
0.0
 10
107.0777017961473
 20
-161.6542154543781
 30
0.0
 10
106.7011528596094
 20
-161.6266546904961
 30
0.0
 10
106.7011528596094
 20
-161.169835029152
 30
0.0
 10
106.7011528596094
 20
-160.9455593130622
 30
0.0
 10
106.8282768830152
 20
-160.7044026290947
 30
0.0
 10
107.1242105851981
 20
-160.7044026290947
 30
0.0
 10
107.3105902509501
 20
-160.7044026290947
 30
0.0
 10
107.3929280330476
 20
-160.7994872644876
 30
0.0
 10
107.4542507326851
 20
-160.8990505240114
 30
0.0
 10
107.481811496567
 20
-160.8377278243739
 30
0.0
 10
107.5620822213734
 20
-160.6558267827527
 30
0.0
 10
107.839412407936
 20
-160.6558267827527
 30
0.0
 10
108.1777207845875
 20
-160.6558267827527
 30
0.0
 10
108.3448079156221
 20
-160.9031846385936
 30
0.0
 10
108.3448079156221
 20
-161.1801703156077
 30
0.0
  0
HATCH
  5
1F6
330
1F1
100
AcDbEntity
  8
_U+30EC_U+30A4_U+30E4_U+30FC 1
 62
   179
420
  2234388
100
AcDbHatch
 10
0.0
 20
0.0
 30
0.0
210
0.0
220
0.0
230
1.0
  2
SOLID
 70
     1
 71
     0
 91
        1
 92
        1
 93
        1
 72
     4
 94
        3
 73
     0
 74
     1
 95
       62
 96
       58
 40
0.0
 40
0.0
 40
0.0
 40
0.0
 40
1.0
 40
1.0
 40
1.0
 40
2.0
 40
2.0
 40
2.0
 40
3.0
 40
3.0
 40
3.0
 40
4.0
 40
4.0
 40
4.0
 40
5.0
 40
5.0
 40
5.0
 40
6.0
 40
6.0
 40
6.0
 40
7.0
 40
7.0
 40
7.0
 40
8.0
 40
8.0
 40
8.0
 40
9.0
 40
9.0
 40
9.0
 40
10.0
 40
10.0
 40
10.0
 40
11.0
 40
11.0
 40
11.0
 40
12.0
 40
12.0
 40
12.0
 40
13.0
 40
13.0
 40
13.0
 40
14.0
 40
14.0
 40
14.0
 40
15.0
 40
15.0
 40
15.0
 40
16.0
 40
16.0
 40
16.0
 40
17.0
 40
17.0
 40
17.0
 40
18.0
 40
18.0
 40
18.0
 40
19.0
 40
19.0
 40
19.0
 40
19.0
 10
108.3448079156221
 20
-161.1801703156077
 10
108.3448079156221
 20
-161.2755994605492
 10
108.3237928331621
 20
-161.493329495217
 10
108.1377576769586
 20
-161.6183864613315
 10
108.0254475641395
 20
-161.6921115047159
 10
107.9262288141643
 20
-161.6965901288467
 10
107.8414794652271
 20
-161.700724243429
 10
107.8414794652271
 20
-161.700724243429
 10
107.8414794652271
 20
-161.4805826419215
 10
107.8414794652271
 20
-161.4805826419215
 10
107.91554901816
 20
-161.4785155846304
 10
108.1501600207055
 20
-161.4681802981746
 10
108.1501600207055
 20
-161.1846489397386
 10
108.1501600207055
 20
-161.0471896298771
 10
108.0805690919035
 20
-160.8945718998805
 10
107.8521592612314
 20
-160.8945718998805
 10
107.73571503383
 20
-160.8945718998805
 10
107.6871391874879
 20
-160.9328124597668
 10
107.6554443090237
 20
-160.9645073382311
 10
107.5813747560908
 20
-161.038576891164
 10
107.5686279027953
 20
-161.1550211185654
 10
107.5686279027953
 20
-161.2097981367809
 10
107.5686279027953
 20
-161.2290906714983
 10
107.5706949600865
 20
-161.2649196645449
 10
107.5748290746688
 20
-161.2924804284269
 10
107.5748290746688
 20
-161.2924804284269
 10
107.3801811797522
 20
-161.2924804284269
 10
107.3801811797522
 20
-161.2924804284269
 10
107.3867268611742
 20
-161.2542398685406
 10
107.3887939184653
 20
-161.2122097036206
 10
107.3887939184653
 20
-161.2056640221986
 10
107.3887939184653
 20
-161.1402072079788
 10
107.3674343264568
 20
-160.9414251984799
 10
107.1307562666201
 20
-160.9414251984799
 10
106.9529893395812
 20
-160.9414251984799
 10
106.8978678118172
 20
-161.0723388269194
 10
106.8978678118172
 20
-161.1825818824474
 10
106.8978678118172
 20
-161.4468207061661
 10
107.1307562666201
 20
-161.4554334448792
 10
107.2024142527133
 20
-161.4595675594615
 10
107.2024142527133
 20
-161.4595675594615
 10
107.2024142527133
 20
-161.6628281930913
 10
107.2024142527133
 20
-161.6628281930913
 10
107.0777017961473
 20
-161.6542154543781
 10
106.7011528596094
 20
-161.6266546904961
 10
106.7011528596094
 20
-161.169835029152
 10
106.7011528596094
 20
-160.9455593130622
 10
106.8282768830152
 20
-160.7044026290947
 10
107.1242105851981
 20
-160.7044026290947
 10
107.3105902509501
 20
-160.7044026290947
 10
107.3929280330476
 20
-160.7994872644876
 10
107.4542507326851
 20
-160.8990505240114
 10
107.481811496567
 20
-160.8377278243739
 10
107.5620822213734
 20
-160.6558267827527
 10
107.839412407936
 20
-160.6558267827527
 10
108.1777207845875
 20
-160.6558267827527
 10
108.3448079156221
 20
-160.9031846385936
 10
108.3448079156221
 20
-161.1801703156077
 97
        0
 97
        0
 75
     2
 76
     1
 98
        0
  0
ENDBLK
  5
1F4
330
1F1
100
AcDbEntity
  8
0
100
AcDbBlockEnd
  0
BLOCK
  5
1F9
330
1F7
100
AcDbEntity
  8
0
100
AcDbBlockBegin
  2
block 6
 70
     0
 10
0.0
 20
0.0
 30
0.0
  3
block 6
  1

  0
SPLINE
  5
1FB
330
1F7
100
AcDbEntity
  8
_U+30EC_U+30A4_U+30E4_U+30FC 1
370
     0
100
AcDbSpline
210
0.0
220
0.0
230
1.0
 70
    11
 71
     3
 72
    26
 73
    22
 74
     0
 42
0.0000000001
 43
0.0000000001
 12
1.0
 22
0.0
 32
0.0
 13
1.0
 23
0.0
 33
0.0
 40
0.0
 40
0.0
 40
0.0
 40
0.0
 40
1.0
 40
1.0
 40
1.0
 40
2.0
 40
2.0
 40
2.0
 40
3.0
 40
3.0
 40
3.0
 40
4.0
 40
4.0
 40
4.0
 40
5.0
 40
5.0
 40
5.0
 40
6.0
 40
6.0
 40
6.0
 40
7.0
 40
7.0
 40
7.0
 40
7.0
 10
108.2945095215375
 20
-153.8090440153672
 30
0.0
 10
108.2945095215375
 20
-153.8090440153672
 30
0.0
 10
107.1903564185149
 20
-153.8090440153672
 30
0.0
 10
107.1903564185149
 20
-153.8090440153672
 30
0.0
 10
107.1903564185149
 20
-153.8090440153672
 30
0.0
 10
107.1903564185149
 20
-154.1390841628541
 30
0.0
 10
107.1903564185149
 20
-154.1390841628541
 30
0.0
 10
107.1903564185149
 20
-154.1390841628541
 30
0.0
 10
107.0422173126492
 20
-154.1390841628541
 30
0.0
 10
107.0422173126492
 20
-154.1390841628541
 30
0.0
 10
107.0274034020626
 20
-153.806976958076
 30
0.0
 10
106.8644503856103
 20
-153.7604681690252
 30
0.0
 10
106.7500732155
 20
-153.730840347852
 30
0.0
 10
106.7500732155
 20
-153.730840347852
 30
0.0
 10
106.7500732155
 20
-153.5847682992774
 30
0.0
 10
106.7500732155
 20
-153.5847682992774
 30
0.0
 10
106.7500732155
 20
-153.5847682992774
 30
0.0
 10
108.2945095215375
 20
-153.5847682992774
 30
0.0
 10
108.2945095215375
 20
-153.5847682992774
 30
0.0
 10
108.2945095215375
 20
-153.5847682992774
 30
0.0
 10
108.2945095215375
 20
-153.8090440153672
 30
0.0
 10
108.2945095215375
 20
-153.8090440153672
 30
0.0
  0
HATCH
  5
1FC
330
1F7
100
AcDbEntity
  8
_U+30EC_U+30A4_U+30E4_U+30FC 1
 62
   179
420
  2234388
100
AcDbHatch
 10
0.0
 20
0.0
 30
0.0
210
0.0
220
0.0
230
1.0
  2
SOLID
 70
     1
 71
     0
 91
        1
 92
        1
 93
        1
 72
     4
 94
        3
 73
     0
 74
     1
 95
       26
 96
       22
 40
0.0
 40
0.0
 40
0.0
 40
0.0
 40
1.0
 40
1.0
 40
1.0
 40
2.0
 40
2.0
 40
2.0
 40
3.0
 40
3.0
 40
3.0
 40
4.0
 40
4.0
 40
4.0
 40
5.0
 40
5.0
 40
5.0
 40
6.0
 40
6.0
 40
6.0
 40
7.0
 40
7.0
 40
7.0
 40
7.0
 10
108.2945095215375
 20
-153.8090440153672
 10
108.2945095215375
 20
-153.8090440153672
 10
107.1903564185149
 20
-153.8090440153672
 10
107.1903564185149
 20
-153.8090440153672
 10
107.1903564185149
 20
-153.8090440153672
 10
107.1903564185149
 20
-154.1390841628541
 10
107.1903564185149
 20
-154.1390841628541
 10
107.1903564185149
 20
-154.1390841628541
 10
107.0422173126492
 20
-154.1390841628541
 10
107.0422173126492
 20
-154.1390841628541
 10
107.0274034020626
 20
-153.806976958076
 10
106.8644503856103
 20
-153.7604681690252
 10
106.7500732155
 20
-153.730840347852
 10
106.7500732155
 20
-153.730840347852
 10
106.7500732155
 20
-153.5847682992774
 10
106.7500732155
 20
-153.5847682992774
 10
106.7500732155
 20
-153.5847682992774
 10
108.2945095215375
 20
-153.5847682992774
 10
108.2945095215375
 20
-153.5847682992774
 10
108.2945095215375
 20
-153.5847682992774
 10
108.2945095215375
 20
-153.8090440153672
 10
108.2945095215375
 20
-153.8090440153672
 97
        0
 97
        0
 75
     2
 76
     1
 98
        0
  0
SPLINE
  5
1FD
330
1F7
100
AcDbEntity
  8
_U+30EC_U+30A4_U+30E4_U+30FC 1
370
     0
100
AcDbSpline
210
0.0
220
0.0
230
1.0
 70
    11
 71
     3
 72
    62
 73
    58
 74
     0
 42
0.0000000001
 43
0.0000000001
 12
1.0
 22
0.0
 32
0.0
 13
1.0
 23
0.0
 33
0.0
 40
0.0
 40
0.0
 40
0.0
 40
0.0
 40
1.0
 40
1.0
 40
1.0
 40
2.0
 40
2.0
 40
2.0
 40
3.0
 40
3.0
 40
3.0
 40
4.0
 40
4.0
 40
4.0
 40
5.0
 40
5.0
 40
5.0
 40
6.0
 40
6.0
 40
6.0
 40
7.0
 40
7.0
 40
7.0
 40
8.0
 40
8.0
 40
8.0
 40
9.0
 40
9.0
 40
9.0
 40
10.0
 40
10.0
 40
10.0
 40
11.0
 40
11.0
 40
11.0
 40
12.0
 40
12.0
 40
12.0
 40
13.0
 40
13.0
 40
13.0
 40
14.0
 40
14.0
 40
14.0
 40
15.0
 40
15.0
 40
15.0
 40
16.0
 40
16.0
 40
16.0
 40
17.0
 40
17.0
 40
17.0
 40
18.0
 40
18.0
 40
18.0
 40
19.0
 40
19.0
 40
19.0
 40
19.0
 10
108.3451524251707
 20
-152.5918917804284
 30
0.0
 10
108.3451524251707
 20
-152.6873209253698
 30
0.0
 10
108.3241373427106
 20
-152.9050509600376
 30
0.0
 10
108.1381021865071
 20
-153.0301079261522
 30
0.0
 10
108.025792073688
 20
-153.1041774790851
 30
0.0
 10
107.9265733237128
 20
-153.1083115936674
 30
0.0
 10
107.8418239747757
 20
-153.1124457082497
 30
0.0
 10
107.8418239747757
 20
-153.1124457082497
 30
0.0
 10
107.8418239747757
 20
-152.8923041067422
 30
0.0
 10
107.8418239747757
 20
-152.8923041067422
 30
0.0
 10
107.9158935277085
 20
-152.8902370494511
 30
0.0
 10
108.150504530254
 20
-152.8799017629953
 30
0.0
 10
108.150504530254
 20
-152.5963704045593
 30
0.0
 10
108.150504530254
 20
-152.4589110946978
 30
0.0
 10
108.080913601452
 20
-152.3062933647012
 30
0.0
 10
107.8525037707799
 20
-152.3062933647012
 30
0.0
 10
107.7360595433785
 20
-152.3062933647012
 30
0.0
 10
107.6874836970365
 20
-152.3445339245875
 30
0.0
 10
107.6557888185722
 20
-152.3762288030518
 30
0.0
 10
107.5817192656393
 20
-152.4502983559846
 30
0.0
 10
107.5689724123439
 20
-152.5667425833861
 30
0.0
 10
107.5689724123439
 20
-152.6215196016016
 30
0.0
 10
107.5689724123439
 20
-152.640812136319
 30
0.0
 10
107.571039469635
 20
-152.6766411293656
 30
0.0
 10
107.5751735842173
 20
-152.7042018932476
 30
0.0
 10
107.5751735842173
 20
-152.7042018932476
 30
0.0
 10
107.3805256893007
 20
-152.7042018932476
 30
0.0
 10
107.3805256893007
 20
-152.7042018932476
 30
0.0
 10
107.3870713707227
 20
-152.6659613333613
 30
0.0
 10
107.3891384280138
 20
-152.6239311684413
 30
0.0
 10
107.3891384280138
 20
-152.6173854870193
 30
0.0
 10
107.3891384280138
 20
-152.5519286727995
 30
0.0
 10
107.3677788360053
 20
-152.3531466633006
 30
0.0
 10
107.1311007761686
 20
-152.3531466633006
 30
0.0
 10
106.9533338491297
 20
-152.3531466633006
 30
0.0
 10
106.8982123213657
 20
-152.4840602917401
 30
0.0
 10
106.8982123213657
 20
-152.5943033472681
 30
0.0
 10
106.8982123213657
 20
-152.8585421709868
 30
0.0
 10
107.1311007761686
 20
-152.8671549096999
 30
0.0
 10
107.2027587622618
 20
-152.8712890242822
 30
0.0
 10
107.2027587622618
 20
-152.8712890242822
 30
0.0
 10
107.2027587622618
 20
-153.0745496579119
 30
0.0
 10
107.2027587622618
 20
-153.0745496579119
 30
0.0
 10
107.0780463056958
 20
-153.0659369191988
 30
0.0
 10
106.701497369158
 20
-153.0383761553168
 30
0.0
 10
106.701497369158
 20
-152.5815564939727
 30
0.0
 10
106.701497369158
 20
-152.3572807778829
 30
0.0
 10
106.8286213925637
 20
-152.1161240939154
 30
0.0
 10
107.1245550947466
 20
-152.1161240939154
 30
0.0
 10
107.3109347604987
 20
-152.1161240939154
 30
0.0
 10
107.3932725425961
 20
-152.2112087293083
 30
0.0
 10
107.4545952422336
 20
-152.310771988832
 30
0.0
 10
107.4821560061156
 20
-152.2494492891946
 30
0.0
 10
107.5624267309219
 20
-152.0675482475734
 30
0.0
 10
107.8397569174845
 20
-152.0675482475734
 30
0.0
 10
108.178065294136
 20
-152.0675482475734
 30
0.0
 10
108.3451524251707
 20
-152.3149061034143
 30
0.0
 10
108.3451524251707
 20
-152.5918917804284
 30
0.0
  0
HATCH
  5
1FE
330
1F7
100
AcDbEntity
  8
_U+30EC_U+30A4_U+30E4_U+30FC 1
 62
   179
420
  2234388
100
AcDbHatch
 10
0.0
 20
0.0
 30
0.0
210
0.0
220
0.0
230
1.0
  2
SOLID
 70
     1
 71
     0
 91
        1
 92
        1
 93
        1
 72
     4
 94
        3
 73
     0
 74
     1
 95
       62
 96
       58
 40
0.0
 40
0.0
 40
0.0
 40
0.0
 40
1.0
 40
1.0
 40
1.0
 40
2.0
 40
2.0
 40
2.0
 40
3.0
 40
3.0
 40
3.0
 40
4.0
 40
4.0
 40
4.0
 40
5.0
 40
5.0
 40
5.0
 40
6.0
 40
6.0
 40
6.0
 40
7.0
 40
7.0
 40
7.0
 40
8.0
 40
8.0
 40
8.0
 40
9.0
 40
9.0
 40
9.0
 40
10.0
 40
10.0
 40
10.0
 40
11.0
 40
11.0
 40
11.0
 40
12.0
 40
12.0
 40
12.0
 40
13.0
 40
13.0
 40
13.0
 40
14.0
 40
14.0
 40
14.0
 40
15.0
 40
15.0
 40
15.0
 40
16.0
 40
16.0
 40
16.0
 40
17.0
 40
17.0
 40
17.0
 40
18.0
 40
18.0
 40
18.0
 40
19.0
 40
19.0
 40
19.0
 40
19.0
 10
108.3451524251707
 20
-152.5918917804284
 10
108.3451524251707
 20
-152.6873209253698
 10
108.3241373427106
 20
-152.9050509600376
 10
108.1381021865071
 20
-153.0301079261522
 10
108.025792073688
 20
-153.1041774790851
 10
107.9265733237128
 20
-153.1083115936674
 10
107.8418239747757
 20
-153.1124457082497
 10
107.8418239747757
 20
-153.1124457082497
 10
107.8418239747757
 20
-152.8923041067422
 10
107.8418239747757
 20
-152.8923041067422
 10
107.9158935277085
 20
-152.8902370494511
 10
108.150504530254
 20
-152.8799017629953
 10
108.150504530254
 20
-152.5963704045593
 10
108.150504530254
 20
-152.4589110946978
 10
108.080913601452
 20
-152.3062933647012
 10
107.8525037707799
 20
-152.3062933647012
 10
107.7360595433785
 20
-152.3062933647012
 10
107.6874836970365
 20
-152.3445339245875
 10
107.6557888185722
 20
-152.3762288030518
 10
107.5817192656393
 20
-152.4502983559846
 10
107.5689724123439
 20
-152.5667425833861
 10
107.5689724123439
 20
-152.6215196016016
 10
107.5689724123439
 20
-152.640812136319
 10
107.571039469635
 20
-152.6766411293656
 10
107.5751735842173
 20
-152.7042018932476
 10
107.5751735842173
 20
-152.7042018932476
 10
107.3805256893007
 20
-152.7042018932476
 10
107.3805256893007
 20
-152.7042018932476
 10
107.3870713707227
 20
-152.6659613333613
 10
107.3891384280138
 20
-152.6239311684413
 10
107.3891384280138
 20
-152.6173854870193
 10
107.3891384280138
 20
-152.5519286727995
 10
107.3677788360053
 20
-152.3531466633006
 10
107.1311007761686
 20
-152.3531466633006
 10
106.9533338491297
 20
-152.3531466633006
 10
106.8982123213657
 20
-152.4840602917401
 10
106.8982123213657
 20
-152.5943033472681
 10
106.8982123213657
 20
-152.8585421709868
 10
107.1311007761686
 20
-152.8671549096999
 10
107.2027587622618
 20
-152.8712890242822
 10
107.2027587622618
 20
-152.8712890242822
 10
107.2027587622618
 20
-153.0745496579119
 10
107.2027587622618
 20
-153.0745496579119
 10
107.0780463056958
 20
-153.0659369191988
 10
106.701497369158
 20
-153.0383761553168
 10
106.701497369158
 20
-152.5815564939727
 10
106.701497369158
 20
-152.3572807778829
 10
106.8286213925637
 20
-152.1161240939154
 10
107.1245550947466
 20
-152.1161240939154
 10
107.3109347604987
 20
-152.1161240939154
 10
107.3932725425961
 20
-152.2112087293083
 10
107.4545952422336
 20
-152.310771988832
 10
107.4821560061156
 20
-152.2494492891946
 10
107.5624267309219
 20
-152.0675482475734
 10
107.8397569174845
 20
-152.0675482475734
 10
108.178065294136
 20
-152.0675482475734
 10
108.3451524251707
 20
-152.3149061034143
 10
108.3451524251707
 20
-152.5918917804284
 97
        0
 97
        0
 75
     2
 76
     1
 98
        0
  0
ENDBLK
  5
1FA
330
1F7
100
AcDbEntity
  8
0
100
AcDbBlockEnd
  0
BLOCK
  5
201
330
1FF
100
AcDbEntity
  8
0
100
AcDbBlockBegin
  2
block 7
 70
     0
 10
0.0
 20
0.0
 30
0.0
  3
block 7
  1

  0
SPLINE
  5
203
330
1FF
100
AcDbEntity
  8
_U+30EC_U+30A4_U+30E4_U+30FC 1
370
     0
100
AcDbSpline
210
0.0
220
0.0
230
1.0
 70
    11
 71
     3
 72
    53
 73
    49
 74
     0
 42
0.0000000001
 43
0.0000000001
 12
1.0
 22
0.0
 32
0.0
 13
1.0
 23
0.0
 33
0.0
 40
0.0
 40
0.0
 40
0.0
 40
0.0
 40
1.0
 40
1.0
 40
1.0
 40
2.0
 40
2.0
 40
2.0
 40
3.0
 40
3.0
 40
3.0
 40
4.0
 40
4.0
 40
4.0
 40
5.0
 40
5.0
 40
5.0
 40
6.0
 40
6.0
 40
6.0
 40
7.0
 40
7.0
 40
7.0
 40
8.0
 40
8.0
 40
8.0
 40
9.0
 40
9.0
 40
9.0
 40
10.0
 40
10.0
 40
10.0
 40
11.0
 40
11.0
 40
11.0
 40
12.0
 40
12.0
 40
12.0
 40
13.0
 40
13.0
 40
13.0
 40
14.0
 40
14.0
 40
14.0
 40
15.0
 40
15.0
 40
15.0
 40
16.0
 40
16.0
 40
16.0
 40
16.0
 10
108.3448079156221
 20
-122.2791856248122
 30
0.0
 10
108.3448079156221
 20
-122.3573892923273
 30
0.0
 10
108.3279269477444
 20
-122.4590196091422
 30
0.0
 10
108.2645371908158
 20
-122.5606499259571
 30
0.0
 10
108.1546386448363
 20
-122.7339382288651
 30
0.0
 10
108.0233805068483
 20
-122.7552978208737
 30
0.0
 10
107.91554901816
 20
-122.7742458460426
 30
0.0
 10
107.91554901816
 20
-122.7742458460426
 30
0.0
 10
107.91554901816
 20
-122.5520371872439
 30
0.0
 10
107.91554901816
 20
-122.5520371872439
 30
0.0
 10
108.1143310276589
 20
-122.4972601690285
 30
0.0
 10
108.1439588488321
 20
-122.3701361456228
 30
0.0
 10
108.1439588488321
 20
-122.277118567521
 30
0.0
 10
108.1439588488321
 20
-122.1375922003684
 30
0.0
 10
108.0443955893084
 20
-121.9853189799203
 30
0.0
 10
107.811851644054
 20
-121.9853189799203
 30
0.0
 10
107.5558810494999
 20
-121.9853189799203
 30
0.0
 10
107.4859456111493
 20
-122.1651529642504
 30
0.0
 10
107.4859456111493
 20
-122.2857313062341
 30
0.0
 10
107.4859456111493
 20
-122.3174261846984
 30
0.0
 10
107.4859456111493
 20
-122.4590196091422
 30
0.0
 10
107.6151366918462
 20
-122.5479030726616
 30
0.0
 10
107.6151366918462
 20
-122.5479030726616
 30
0.0
 10
107.5961886666773
 20
-122.7236029424094
 30
0.0
 10
107.5961886666773
 20
-122.7236029424094
 30
0.0
 10
107.5961886666773
 20
-122.7236029424094
 30
0.0
 10
106.7497287059515
 20
-122.6030246004256
 30
0.0
 10
106.7497287059515
 20
-122.6030246004256
 30
0.0
 10
106.7497287059515
 20
-122.6030246004256
 30
0.0
 10
106.7497287059515
 20
-121.8244330207592
 30
0.0
 10
106.7497287059515
 20
-121.8244330207592
 30
0.0
 10
106.7497287059515
 20
-121.8244330207592
 30
0.0
 10
106.9443766008681
 20
-121.8244330207592
 30
0.0
 10
106.9443766008681
 20
-121.8244330207592
 30
0.0
 10
106.9443766008681
 20
-121.8244330207592
 30
0.0
 10
106.9443766008681
 20
-122.4400715839733
 30
0.0
 10
106.9443766008681
 20
-122.4400715839733
 30
0.0
 10
106.9443766008681
 20
-122.4400715839733
 30
0.0
 10
107.3674343264568
 20
-122.5055283981931
 30
0.0
 10
107.3674343264568
 20
-122.5055283981931
 30
0.0
 10
107.3336723907013
 20
-122.4442056985556
 30
0.0
 10
107.2933647735239
 20
-122.3618679164582
 30
0.0
 10
107.2933647735239
 20
-122.2433566317656
 30
0.0
 10
107.2933647735239
 20
-121.9894530945026
 30
0.0
 10
107.4797444392759
 20
-121.7524305251174
 30
0.0
 10
107.7929036188851
 20
-121.7524305251174
 30
0.0
 10
108.1101969130766
 20
-121.7524305251174
 30
0.0
 10
108.3448079156221
 20
-121.9767062412072
 30
0.0
 10
108.3448079156221
 20
-122.2791856248122
 30
0.0
  0
HATCH
  5
204
330
1FF
100
AcDbEntity
  8
_U+30EC_U+30A4_U+30E4_U+30FC 1
 62
   179
420
  2234388
100
AcDbHatch
 10
0.0
 20
0.0
 30
0.0
210
0.0
220
0.0
230
1.0
  2
SOLID
 70
     1
 71
     0
 91
        1
 92
        1
 93
        1
 72
     4
 94
        3
 73
     0
 74
     1
 95
       53
 96
       49
 40
0.0
 40
0.0
 40
0.0
 40
0.0
 40
1.0
 40
1.0
 40
1.0
 40
2.0
 40
2.0
 40
2.0
 40
3.0
 40
3.0
 40
3.0
 40
4.0
 40
4.0
 40
4.0
 40
5.0
 40
5.0
 40
5.0
 40
6.0
 40
6.0
 40
6.0
 40
7.0
 40
7.0
 40
7.0
 40
8.0
 40
8.0
 40
8.0
 40
9.0
 40
9.0
 40
9.0
 40
10.0
 40
10.0
 40
10.0
 40
11.0
 40
11.0
 40
11.0
 40
12.0
 40
12.0
 40
12.0
 40
13.0
 40
13.0
 40
13.0
 40
14.0
 40
14.0
 40
14.0
 40
15.0
 40
15.0
 40
15.0
 40
16.0
 40
16.0
 40
16.0
 40
16.0
 10
108.3448079156221
 20
-122.2791856248122
 10
108.3448079156221
 20
-122.3573892923273
 10
108.3279269477444
 20
-122.4590196091422
 10
108.2645371908158
 20
-122.5606499259571
 10
108.1546386448363
 20
-122.7339382288651
 10
108.0233805068483
 20
-122.7552978208737
 10
107.91554901816
 20
-122.7742458460426
 10
107.91554901816
 20
-122.7742458460426
 10
107.91554901816
 20
-122.5520371872439
 10
107.91554901816
 20
-122.5520371872439
 10
108.1143310276589
 20
-122.4972601690285
 10
108.1439588488321
 20
-122.3701361456228
 10
108.1439588488321
 20
-122.277118567521
 10
108.1439588488321
 20
-122.1375922003684
 10
108.0443955893084
 20
-121.9853189799203
 10
107.811851644054
 20
-121.9853189799203
 10
107.5558810494999
 20
-121.9853189799203
 10
107.4859456111493
 20
-122.1651529642504
 10
107.4859456111493
 20
-122.2857313062341
 10
107.4859456111493
 20
-122.3174261846984
 10
107.4859456111493
 20
-122.4590196091422
 10
107.6151366918462
 20
-122.5479030726616
 10
107.6151366918462
 20
-122.5479030726616
 10
107.5961886666773
 20
-122.7236029424094
 10
107.5961886666773
 20
-122.7236029424094
 10
107.5961886666773
 20
-122.7236029424094
 10
106.7497287059515
 20
-122.6030246004256
 10
106.7497287059515
 20
-122.6030246004256
 10
106.7497287059515
 20
-122.6030246004256
 10
106.7497287059515
 20
-121.8244330207592
 10
106.7497287059515
 20
-121.8244330207592
 10
106.7497287059515
 20
-121.8244330207592
 10
106.9443766008681
 20
-121.8244330207592
 10
106.9443766008681
 20
-121.8244330207592
 10
106.9443766008681
 20
-121.8244330207592
 10
106.9443766008681
 20
-122.4400715839733
 10
106.9443766008681
 20
-122.4400715839733
 10
106.9443766008681
 20
-122.4400715839733
 10
107.3674343264568
 20
-122.5055283981931
 10
107.3674343264568
 20
-122.5055283981931
 10
107.3336723907013
 20
-122.4442056985556
 10
107.2933647735239
 20
-122.3618679164582
 10
107.2933647735239
 20
-122.2433566317656
 10
107.2933647735239
 20
-121.9894530945026
 10
107.4797444392759
 20
-121.7524305251174
 10
107.7929036188851
 20
-121.7524305251174
 10
108.1101969130766
 20
-121.7524305251174
 10
108.3448079156221
 20
-121.9767062412072
 10
108.3448079156221
 20
-122.2791856248122
 97
        0
 97
        0
 75
     2
 76
     1
 98
        0
  0
SPLINE
  5
205
330
1FF
100
AcDbEntity
  8
_U+30EC_U+30A4_U+30E4_U+30FC 1
370
     0
100
AcDbSpline
210
0.0
220
0.0
230
1.0
 70
    11
 71
     3
 72
    29
 73
    25
 74
     0
 42
0.0000000001
 43
0.0000000001
 12
1.0
 22
0.0
 32
0.0
 13
1.0
 23
0.0
 33
0.0
 40
0.0
 40
0.0
 40
0.0
 40
0.0
 40
1.0
 40
1.0
 40
1.0
 40
2.0
 40
2.0
 40
2.0
 40
3.0
 40
3.0
 40
3.0
 40
4.0
 40
4.0
 40
4.0
 40
5.0
 40
5.0
 40
5.0
 40
6.0
 40
6.0
 40
6.0
 40
7.0
 40
7.0
 40
7.0
 40
8.0
 40
8.0
 40
8.0
 40
8.0
 10
108.1163980849501
 20
-120.6854844533356
 30
0.0
 10
108.3258598904533
 20
-120.7936604515724
 30
0.0
 10
108.3448079156221
 20
-120.9669487544805
 30
0.0
 10
108.3448079156221
 20
-121.0833929818819
 30
0.0
 10
108.3448079156221
 20
-121.2442789410431
 30
0.0
 10
108.2982991265713
 20
-121.3858723654869
 30
0.0
 10
108.1163980849501
 20
-121.4809570008798
 30
0.0
 10
107.9217501900334
 20
-121.5846543749858
 30
0.0
 10
107.6850721301968
 20
-121.6036024001547
 30
0.0
 10
107.5221191137445
 20
-121.6036024001547
 30
0.0
 10
107.378114122461
 20
-121.6036024001547
 30
0.0
 10
107.1262776424893
 20
-121.5867214322769
 30
0.0
 10
106.9274956329904
 20
-121.4809570008798
 30
0.0
 10
106.7245795089091
 20
-121.3731255121915
 30
0.0
 10
106.7011528596094
 20
-121.2122395530303
 30
0.0
 10
106.7011528596094
 20
-121.0833929818819
 30
0.0
 10
106.7011528596094
 20
-120.9245740800119
 30
0.0
 10
106.7455945913692
 20
-120.780913598277
 30
0.0
 10
106.9274956329904
 20
-120.6854844533356
 30
0.0
 10
107.1200764706158
 20
-120.5862657033604
 30
0.0
 10
107.3484863012879
 20
-120.5628390540607
 30
0.0
 10
107.5221191137445
 20
-120.5628390540607
 30
0.0
 10
107.6933403593614
 20
-120.5628390540607
 30
0.0
 10
107.9238172473246
 20
-120.5841986460692
 30
0.0
 10
108.1163980849501
 20
-120.6854844533356
 30
0.0
  0
SPLINE
  5
206
330
1FF
100
AcDbEntity
  8
_U+30EC_U+30A4_U+30E4_U+30FC 1
370
     0
100
AcDbSpline
210
0.0
220
0.0
230
1.0
 70
    11
 71
     3
 72
    17
 73
    13
 74
     0
 42
0.0000000001
 43
0.0000000001
 12
1.0
 22
0.0
 32
0.0
 13
1.0
 23
0.0
 33
0.0
 40
0.0
 40
0.0
 40
0.0
 40
0.0
 40
1.0
 40
1.0
 40
1.0
 40
2.0
 40
2.0
 40
2.0
 40
3.0
 40
3.0
 40
3.0
 40
4.0
 40
4.0
 40
4.0
 40
4.0
 10
106.8937336972349
 20
-121.0833929818819
 30
0.0
 10
106.8937336972349
 20
-121.332817895014
 30
0.0
 10
107.177265055671
 20
-121.3796711936134
 30
0.0
 10
107.5221191137445
 20
-121.3796711936134
 30
0.0
 10
107.8414794652271
 20
-121.3796711936134
 30
0.0
 10
108.1501600207055
 20
-121.3434976910183
 30
0.0
 10
108.1501600207055
 20
-121.0833929818819
 30
0.0
 10
108.1501600207055
 20
-120.8356906164925
 30
0.0
 10
107.8690402291091
 20
-120.7871147701505
 30
0.0
 10
107.5221191137445
 20
-120.7871147701505
 30
0.0
 10
107.2024142527133
 20
-120.7871147701505
 30
0.0
 10
106.8937336972349
 20
-120.8253553300367
 30
0.0
 10
106.8937336972349
 20
-121.0833929818819
 30
0.0
  0
HATCH
  5
207
330
1FF
100
AcDbEntity
  8
_U+30EC_U+30A4_U+30E4_U+30FC 1
 62
   179
420
  2234388
100
AcDbHatch
 10
0.0
 20
0.0
 30
0.0
210
0.0
220
0.0
230
1.0
  2
SOLID
 70
     1
 71
     0
 91
        2
 92
        1
 93
        1
 72
     4
 94
        3
 73
     0
 74
     1
 95
       29
 96
       25
 40
0.0
 40
0.0
 40
0.0
 40
0.0
 40
1.0
 40
1.0
 40
1.0
 40
2.0
 40
2.0
 40
2.0
 40
3.0
 40
3.0
 40
3.0
 40
4.0
 40
4.0
 40
4.0
 40
5.0
 40
5.0
 40
5.0
 40
6.0
 40
6.0
 40
6.0
 40
7.0
 40
7.0
 40
7.0
 40
8.0
 40
8.0
 40
8.0
 40
8.0
 10
108.1163980849501
 20
-120.6854844533356
 10
108.3258598904533
 20
-120.7936604515724
 10
108.3448079156221
 20
-120.9669487544805
 10
108.3448079156221
 20
-121.0833929818819
 10
108.3448079156221
 20
-121.2442789410431
 10
108.2982991265713
 20
-121.3858723654869
 10
108.1163980849501
 20
-121.4809570008798
 10
107.9217501900334
 20
-121.5846543749858
 10
107.6850721301968
 20
-121.6036024001547
 10
107.5221191137445
 20
-121.6036024001547
 10
107.378114122461
 20
-121.6036024001547
 10
107.1262776424893
 20
-121.5867214322769
 10
106.9274956329904
 20
-121.4809570008798
 10
106.7245795089091
 20
-121.3731255121915
 10
106.7011528596094
 20
-121.2122395530303
 10
106.7011528596094
 20
-121.0833929818819
 10
106.7011528596094
 20
-120.9245740800119
 10
106.7455945913692
 20
-120.780913598277
 10
106.9274956329904
 20
-120.6854844533356
 10
107.1200764706158
 20
-120.5862657033604
 10
107.3484863012879
 20
-120.5628390540607
 10
107.5221191137445
 20
-120.5628390540607
 10
107.6933403593614
 20
-120.5628390540607
 10
107.9238172473246
 20
-120.5841986460692
 10
108.1163980849501
 20
-120.6854844533356
 97
        0
 97
        0
 92
        1
 93
        1
 72
     4
 94
        3
 73
     0
 74
     1
 95
       17
 96
       13
 40
0.0
 40
0.0
 40
0.0
 40
0.0
 40
1.0
 40
1.0
 40
1.0
 40
2.0
 40
2.0
 40
2.0
 40
3.0
 40
3.0
 40
3.0
 40
4.0
 40
4.0
 40
4.0
 40
4.0
 10
106.8937336972349
 20
-121.0833929818819
 10
106.8937336972349
 20
-121.332817895014
 10
107.177265055671
 20
-121.3796711936134
 10
107.5221191137445
 20
-121.3796711936134
 10
107.8414794652271
 20
-121.3796711936134
 10
108.1501600207055
 20
-121.3434976910183
 10
108.1501600207055
 20
-121.0833929818819
 10
108.1501600207055
 20
-120.8356906164925
 10
107.8690402291091
 20
-120.7871147701505
 10
107.5221191137445
 20
-120.7871147701505
 10
107.2024142527133
 20
-120.7871147701505
 10
106.8937336972349
 20
-120.8253553300367
 10
106.8937336972349
 20
-121.0833929818819
 97
        0
 97
        0
 75
     2
 76
     1
 98
        0
  0
ENDBLK
  5
202
330
1FF
100
AcDbEntity
  8
0
100
AcDbBlockEnd
  0
BLOCK
  5
20A
330
208
100
AcDbEntity
  8
0
100
AcDbBlockBegin
  2
block 8
 70
     0
 10
0.0
 20
0.0
 30
0.0
  3
block 8
  1

  0
SPLINE
  5
20C
330
208
100
AcDbEntity
  8
_U+30EC_U+30A4_U+30E4_U+30FC 1
370
     0
100
AcDbSpline
210
0.0
220
0.0
230
1.0
 70
    11
 71
     3
 72
    26
 73
    22
 74
     0
 42
0.0000000001
 43
0.0000000001
 12
1.0
 22
0.0
 32
0.0
 13
1.0
 23
0.0
 33
0.0
 40
0.0
 40
0.0
 40
0.0
 40
0.0
 40
1.0
 40
1.0
 40
1.0
 40
2.0
 40
2.0
 40
2.0
 40
3.0
 40
3.0
 40
3.0
 40
4.0
 40
4.0
 40
4.0
 40
5.0
 40
5.0
 40
5.0
 40
6.0
 40
6.0
 40
6.0
 40
7.0
 40
7.0
 40
7.0
 40
7.0
 10
91.66503361423652
 20
-166.0250080965146
 30
0.0
 10
91.66503361423652
 20
-166.0250080965146
 30
0.0
 10
91.66503361423652
 20
-164.920854993492
 30
0.0
 10
91.66503361423652
 20
-164.920854993492
 30
0.0
 10
91.66503361423652
 20
-164.920854993492
 30
0.0
 10
91.33482121197532
 20
-164.920854993492
 30
0.0
 10
91.33482121197532
 20
-164.920854993492
 30
0.0
 10
91.33482121197532
 20
-164.920854993492
 30
0.0
 10
91.33482121197532
 20
-164.7727158876263
 30
0.0
 10
91.33482121197532
 20
-164.7727158876263
 30
0.0
 10
91.66710067152768
 20
-164.7579019770397
 30
0.0
 10
91.71360946057855
 20
-164.5949489605874
 30
0.0
 10
91.74323728175169
 20
-164.4805717904771
 30
0.0
 10
91.74323728175169
 20
-164.4805717904771
 30
0.0
 10
91.88930933032628
 20
-164.4805717904771
 30
0.0
 10
91.88930933032628
 20
-164.4805717904771
 30
0.0
 10
91.88930933032628
 20
-164.4805717904771
 30
0.0
 10
91.88930933032628
 20
-166.0250080965146
 30
0.0
 10
91.88930933032628
 20
-166.0250080965146
 30
0.0
 10
91.88930933032628
 20
-166.0250080965146
 30
0.0
 10
91.66503361423652
 20
-166.0250080965146
 30
0.0
 10
91.66503361423652
 20
-166.0250080965146
 30
0.0
  0
HATCH
  5
20D
330
208
100
AcDbEntity
  8
_U+30EC_U+30A4_U+30E4_U+30FC 1
 62
   179
420
  2234388
100
AcDbHatch
 10
0.0
 20
0.0
 30
0.0
210
0.0
220
0.0
230
1.0
  2
SOLID
 70
     1
 71
     0
 91
        1
 92
        1
 93
        1
 72
     4
 94
        3
 73
     0
 74
     1
 95
       26
 96
       22
 40
0.0
 40
0.0
 40
0.0
 40
0.0
 40
1.0
 40
1.0
 40
1.0
 40
2.0
 40
2.0
 40
2.0
 40
3.0
 40
3.0
 40
3.0
 40
4.0
 40
4.0
 40
4.0
 40
5.0
 40
5.0
 40
5.0
 40
6.0
 40
6.0
 40
6.0
 40
7.0
 40
7.0
 40
7.0
 40
7.0
 10
91.66503361423652
 20
-166.0250080965146
 10
91.66503361423652
 20
-166.0250080965146
 10
91.66503361423652
 20
-164.920854993492
 10
91.66503361423652
 20
-164.920854993492
 10
91.66503361423652
 20
-164.920854993492
 10
91.33482121197532
 20
-164.920854993492
 10
91.33482121197532
 20
-164.920854993492
 10
91.33482121197532
 20
-164.920854993492
 10
91.33482121197532
 20
-164.7727158876263
 10
91.33482121197532
 20
-164.7727158876263
 10
91.66710067152768
 20
-164.7579019770397
 10
91.71360946057855
 20
-164.5949489605874
 10
91.74323728175169
 20
-164.4805717904771
 10
91.74323728175169
 20
-164.4805717904771
 10
91.88930933032628
 20
-164.4805717904771
 10
91.88930933032628
 20
-164.4805717904771
 10
91.88930933032628
 20
-164.4805717904771
 10
91.88930933032628
 20
-166.0250080965146
 10
91.88930933032628
 20
-166.0250080965146
 10
91.88930933032628
 20
-166.0250080965146
 10
91.66503361423652
 20
-166.0250080965146
 10
91.66503361423652
 20
-166.0250080965146
 97
        0
 97
        0
 75
     2
 76
     1
 98
        0
  0
SPLINE
  5
20E
330
208
100
AcDbEntity
  8
_U+30EC_U+30A4_U+30E4_U+30FC 1
370
     0
100
AcDbSpline
210
0.0
220
0.0
230
1.0
 70
    11
 71
     3
 72
    26
 73
    22
 74
     0
 42
0.0000000001
 43
0.0000000001
 12
1.0
 22
0.0
 32
0.0
 13
1.0
 23
0.0
 33
0.0
 40
0.0
 40
0.0
 40
0.0
 40
0.0
 40
1.0
 40
1.0
 40
1.0
 40
2.0
 40
2.0
 40
2.0
 40
3.0
 40
3.0
 40
3.0
 40
4.0
 40
4.0
 40
4.0
 40
5.0
 40
5.0
 40
5.0
 40
6.0
 40
6.0
 40
6.0
 40
7.0
 40
7.0
 40
7.0
 40
7.0
 10
92.80157061482045
 20
-166.0250080965146
 30
0.0
 10
92.80157061482045
 20
-166.0250080965146
 30
0.0
 10
92.56454804543526
 20
-166.0250080965146
 30
0.0
 10
92.56454804543526
 20
-166.0250080965146
 30
0.0
 10
92.59004175202611
 20
-165.7159830314877
 30
0.0
 10
92.78262258965157
 20
-165.1978406705061
 30
0.0
 10
93.18879934736253
 20
-164.6921006532714
 30
0.0
 10
93.18879934736253
 20
-164.6921006532714
 30
0.0
 10
92.35095212534976
 20
-164.6921006532714
 30
0.0
 10
92.35095212534976
 20
-164.6921006532714
 30
0.0
 10
92.35095212534976
 20
-164.6921006532714
 30
0.0
 10
92.35095212534976
 20
-164.4805717904771
 30
0.0
 10
92.35095212534976
 20
-164.4805717904771
 30
0.0
 10
92.35095212534976
 20
-164.4805717904771
 30
0.0
 10
93.4254774071992
 20
-164.4805717904771
 30
0.0
 10
93.4254774071992
 20
-164.4805717904771
 30
0.0
 10
93.4254774071992
 20
-164.4805717904771
 30
0.0
 10
93.4254774071992
 20
-164.6921006532714
 30
0.0
 10
93.4254774071992
 20
-164.6921006532714
 30
0.0
 10
93.10198294113422
 20
-164.9821776931295
 30
0.0
 10
92.8353325505759
 20
-165.5743896070439
 30
0.0
 10
92.80157061482045
 20
-166.0250080965146
 30
0.0
  0
HATCH
  5
20F
330
208
100
AcDbEntity
  8
_U+30EC_U+30A4_U+30E4_U+30FC 1
 62
   179
420
  2234388
100
AcDbHatch
 10
0.0
 20
0.0
 30
0.0
210
0.0
220
0.0
230
1.0
  2
SOLID
 70
     1
 71
     0
 91
        1
 92
        1
 93
        1
 72
     4
 94
        3
 73
     0
 74
     1
 95
       26
 96
       22
 40
0.0
 40
0.0
 40
0.0
 40
0.0
 40
1.0
 40
1.0
 40
1.0
 40
2.0
 40
2.0
 40
2.0
 40
3.0
 40
3.0
 40
3.0
 40
4.0
 40
4.0
 40
4.0
 40
5.0
 40
5.0
 40
5.0
 40
6.0
 40
6.0
 40
6.0
 40
7.0
 40
7.0
 40
7.0
 40
7.0
 10
92.80157061482045
 20
-166.0250080965146
 10
92.80157061482045
 20
-166.0250080965146
 10
92.56454804543526
 20
-166.0250080965146
 10
92.56454804543526
 20
-166.0250080965146
 10
92.59004175202611
 20
-165.7159830314877
 10
92.78262258965157
 20
-165.1978406705061
 10
93.18879934736253
 20
-164.6921006532714
 10
93.18879934736253
 20
-164.6921006532714
 10
92.35095212534976
 20
-164.6921006532714
 10
92.35095212534976
 20
-164.6921006532714
 10
92.35095212534976
 20
-164.6921006532714
 10
92.35095212534976
 20
-164.4805717904771
 10
92.35095212534976
 20
-164.4805717904771
 10
92.35095212534976
 20
-164.4805717904771
 10
93.4254774071992
 20
-164.4805717904771
 10
93.4254774071992
 20
-164.4805717904771
 10
93.4254774071992
 20
-164.4805717904771
 10
93.4254774071992
 20
-164.6921006532714
 10
93.4254774071992
 20
-164.6921006532714
 10
93.10198294113422
 20
-164.9821776931295
 10
92.8353325505759
 20
-165.5743896070439
 10
92.80157061482045
 20
-166.0250080965146
 97
        0
 97
        0
 75
     2
 76
     1
 98
        0
  0
ENDBLK
  5
20B
330
208
100
AcDbEntity
  8
0
100
AcDbBlockEnd
  0
BLOCK
  5
212
330
210
100
AcDbEntity
  8
0
100
AcDbBlockBegin
  2
block 9
 70
     0
 10
0.0
 20
0.0
 30
0.0
  3
block 9
  1

  0
SPLINE
  5
214
330
210
100
AcDbEntity
  8
_U+30EC_U+30A4_U+30E4_U+30FC 1
370
     0
100
AcDbSpline
210
0.0
220
0.0
230
1.0
 70
    11
 71
     3
 72
    26
 73
    22
 74
     0
 42
0.0000000001
 43
0.0000000001
 12
1.0
 22
0.0
 32
0.0
 13
1.0
 23
0.0
 33
0.0
 40
0.0
 40
0.0
 40
0.0
 40
0.0
 40
1.0
 40
1.0
 40
1.0
 40
2.0
 40
2.0
 40
2.0
 40
3.0
 40
3.0
 40
3.0
 40
4.0
 40
4.0
 40
4.0
 40
5.0
 40
5.0
 40
5.0
 40
6.0
 40
6.0
 40
6.0
 40
7.0
 40
7.0
 40
7.0
 40
7.0
 10
84.66408282388606
 20
-133.0247829528549
 30
0.0
 10
84.66408282388606
 20
-133.0247829528549
 30
0.0
 10
84.66408282388606
 20
-131.9202853402838
 30
0.0
 10
84.66408282388606
 20
-131.9202853402838
 30
0.0
 10
84.66408282388606
 20
-131.9202853402838
 30
0.0
 10
84.33404267639914
 20
-131.9202853402838
 30
0.0
 10
84.33404267639914
 20
-131.9202853402838
 30
0.0
 10
84.33404267639914
 20
-131.9202853402838
 30
0.0
 10
84.33404267639914
 20
-131.7724907439666
 30
0.0
 10
84.33404267639914
 20
-131.7724907439666
 30
0.0
 10
84.66614988117722
 20
-131.75767683338
 30
0.0
 10
84.7126586702281
 20
-131.5947238169277
 30
0.0
 10
84.74228649140123
 20
-131.4803466468174
 30
0.0
 10
84.74228649140123
 20
-131.4803466468174
 30
0.0
 10
84.88835853997583
 20
-131.4803466468174
 30
0.0
 10
84.88835853997583
 20
-131.4803466468174
 30
0.0
 10
84.88835853997583
 20
-131.4803466468174
 30
0.0
 10
84.88835853997583
 20
-133.0247829528549
 30
0.0
 10
84.88835853997583
 20
-133.0247829528549
 30
0.0
 10
84.88835853997583
 20
-133.0247829528549
 30
0.0
 10
84.66408282388606
 20
-133.0247829528549
 30
0.0
 10
84.66408282388606
 20
-133.0247829528549
 30
0.0
  0
HATCH
  5
215
330
210
100
AcDbEntity
  8
_U+30EC_U+30A4_U+30E4_U+30FC 1
 62
   179
420
  2234388
100
AcDbHatch
 10
0.0
 20
0.0
 30
0.0
210
0.0
220
0.0
230
1.0
  2
SOLID
 70
     1
 71
     0
 91
        1
 92
        1
 93
        1
 72
     4
 94
        3
 73
     0
 74
     1
 95
       26
 96
       22
 40
0.0
 40
0.0
 40
0.0
 40
0.0
 40
1.0
 40
1.0
 40
1.0
 40
2.0
 40
2.0
 40
2.0
 40
3.0
 40
3.0
 40
3.0
 40
4.0
 40
4.0
 40
4.0
 40
5.0
 40
5.0
 40
5.0
 40
6.0
 40
6.0
 40
6.0
 40
7.0
 40
7.0
 40
7.0
 40
7.0
 10
84.66408282388606
 20
-133.0247829528549
 10
84.66408282388606
 20
-133.0247829528549
 10
84.66408282388606
 20
-131.9202853402838
 10
84.66408282388606
 20
-131.9202853402838
 10
84.66408282388606
 20
-131.9202853402838
 10
84.33404267639914
 20
-131.9202853402838
 10
84.33404267639914
 20
-131.9202853402838
 10
84.33404267639914
 20
-131.9202853402838
 10
84.33404267639914
 20
-131.7724907439666
 10
84.33404267639914
 20
-131.7724907439666
 10
84.66614988117722
 20
-131.75767683338
 10
84.7126586702281
 20
-131.5947238169277
 10
84.74228649140123
 20
-131.4803466468174
 10
84.74228649140123
 20
-131.4803466468174
 10
84.88835853997583
 20
-131.4803466468174
 10
84.88835853997583
 20
-131.4803466468174
 10
84.88835853997583
 20
-131.4803466468174
 10
84.88835853997583
 20
-133.0247829528549
 10
84.88835853997583
 20
-133.0247829528549
 10
84.88835853997583
 20
-133.0247829528549
 10
84.66408282388606
 20
-133.0247829528549
 10
84.66408282388606
 20
-133.0247829528549
 97
        0
 97
        0
 75
     2
 76
     1
 98
        0
  0
SPLINE
  5
216
330
210
100
AcDbEntity
  8
_U+30EC_U+30A4_U+30E4_U+30FC 1
370
     0
100
AcDbSpline
210
0.0
220
0.0
230
1.0
 70
    11
 71
     3
 72
    62
 73
    58
 74
     0
 42
0.0000000001
 43
0.0000000001
 12
1.0
 22
0.0
 32
0.0
 13
1.0
 23
0.0
 33
0.0
 40
0.0
 40
0.0
 40
0.0
 40
0.0
 40
1.0
 40
1.0
 40
1.0
 40
2.0
 40
2.0
 40
2.0
 40
3.0
 40
3.0
 40
3.0
 40
4.0
 40
4.0
 40
4.0
 40
5.0
 40
5.0
 40
5.0
 40
6.0
 40
6.0
 40
6.0
 40
7.0
 40
7.0
 40
7.0
 40
8.0
 40
8.0
 40
8.0
 40
9.0
 40
9.0
 40
9.0
 40
10.0
 40
10.0
 40
10.0
 40
11.0
 40
11.0
 40
11.0
 40
12.0
 40
12.0
 40
12.0
 40
13.0
 40
13.0
 40
13.0
 40
14.0
 40
14.0
 40
14.0
 40
15.0
 40
15.0
 40
15.0
 40
16.0
 40
16.0
 40
16.0
 40
17.0
 40
17.0
 40
17.0
 40
18.0
 40
18.0
 40
18.0
 40
19.0
 40
19.0
 40
19.0
 40
19.0
 10
85.88123505882483
 20
-133.0754258564881
 30
0.0
 10
85.78580591388341
 20
-133.0754258564881
 30
0.0
 10
85.56807587921563
 20
-133.0544107740281
 30
0.0
 10
85.44301891310106
 20
-132.8680311082761
 30
0.0
 10
85.36929386971671
 20
-132.7560655050054
 30
0.0
 10
85.36481524558589
 20
-132.6565022454817
 30
0.0
 10
85.36068113100359
 20
-132.5720974060931
 30
0.0
 10
85.36068113100359
 20
-132.5720974060931
 30
0.0
 10
85.58082273251105
 20
-132.5720974060931
 30
0.0
 10
85.58082273251105
 20
-132.5720974060931
 30
0.0
 10
85.5828897898022
 20
-132.646166959026
 30
0.0
 10
85.59322507625795
 20
-132.8807779615715
 30
0.0
 10
85.87675643469402
 20
-132.8807779615715
 30
0.0
 10
86.01421574455547
 20
-132.8807779615715
 30
0.0
 10
86.16683347455205
 20
-132.8111870327694
 30
0.0
 10
86.16683347455205
 20
-132.5824326925488
 30
0.0
 10
86.16683347455205
 20
-132.4663329746959
 30
0.0
 10
86.12859291466577
 20
-132.4174126188054
 30
0.0
 10
86.09689803620148
 20
-132.3857177403411
 30
0.0
 10
86.0228284832686
 20
-132.3116481874082
 30
0.0
 10
85.90638425586715
 20
-132.2992458436613
 30
0.0
 10
85.85160723765169
 20
-132.2992458436613
 30
0.0
 10
85.83231470293428
 20
-132.2992458436613
 30
0.0
 10
85.79648570988769
 20
-132.3013129009525
 30
0.0
 10
85.76892494600568
 20
-132.3054470155348
 30
0.0
 10
85.76892494600568
 20
-132.3054470155348
 30
0.0
 10
85.76892494600568
 20
-132.1107991206181
 30
0.0
 10
85.76892494600568
 20
-132.1107991206181
 30
0.0
 10
85.80716550589196
 20
-132.1170002924916
 30
0.0
 10
85.84919567081201
 20
-132.1194118593313
 30
0.0
 10
85.85574135223399
 20
-132.1194118593313
 30
0.0
 10
85.92119816645373
 20
-132.1194118593313
 30
0.0
 10
86.11998017595265
 20
-132.0980522673227
 30
0.0
 10
86.11998017595265
 20
-131.8610296979375
 30
0.0
 10
86.11998017595265
 20
-131.6836072804471
 30
0.0
 10
85.98906654751315
 20
-131.6284857526832
 30
0.0
 10
85.87882349198516
 20
-131.6284857526832
 30
0.0
 10
85.6145846682665
 20
-131.6284857526832
 30
0.0
 10
85.60597192955338
 20
-131.8610296979375
 30
0.0
 10
85.60183781497108
 20
-131.9330321935792
 30
0.0
 10
85.60183781497108
 20
-131.9330321935792
 30
0.0
 10
85.39857718134134
 20
-131.9330321935792
 30
0.0
 10
85.39857718134134
 20
-131.9330321935792
 30
0.0
 10
85.40718992005445
 20
-131.8083197370132
 30
0.0
 10
85.43475068393646
 20
-131.4317708004754
 30
0.0
 10
85.89157034528058
 20
-131.4317708004754
 30
0.0
 10
86.11584606137035
 20
-131.4317708004754
 30
0.0
 10
86.35700274533784
 20
-131.5585503143326
 30
0.0
 10
86.35700274533784
 20
-131.8548285260641
 30
0.0
 10
86.35700274533784
 20
-132.0408636822676
 30
0.0
 10
86.26191810994494
 20
-132.1235459739136
 30
0.0
 10
86.16235485042122
 20
-132.184868673551
 30
0.0
 10
86.22367755005867
 20
-132.212429437433
 30
0.0
 10
86.40557859167986
 20
-132.2927001622393
 30
0.0
 10
86.40557859167986
 20
-132.5700303488019
 30
0.0
 10
86.40557859167986
 20
-132.9083387254535
 30
0.0
 10
86.15822073583892
 20
-133.0754258564881
 30
0.0
 10
85.88123505882483
 20
-133.0754258564881
 30
0.0
  0
HATCH
  5
217
330
210
100
AcDbEntity
  8
_U+30EC_U+30A4_U+30E4_U+30FC 1
 62
   179
420
  2234388
100
AcDbHatch
 10
0.0
 20
0.0
 30
0.0
210
0.0
220
0.0
230
1.0
  2
SOLID
 70
     1
 71
     0
 91
        1
 92
        1
 93
        1
 72
     4
 94
        3
 73
     0
 74
     1
 95
       62
 96
       58
 40
0.0
 40
0.0
 40
0.0
 40
0.0
 40
1.0
 40
1.0
 40
1.0
 40
2.0
 40
2.0
 40
2.0
 40
3.0
 40
3.0
 40
3.0
 40
4.0
 40
4.0
 40
4.0
 40
5.0
 40
5.0
 40
5.0
 40
6.0
 40
6.0
 40
6.0
 40
7.0
 40
7.0
 40
7.0
 40
8.0
 40
8.0
 40
8.0
 40
9.0
 40
9.0
 40
9.0
 40
10.0
 40
10.0
 40
10.0
 40
11.0
 40
11.0
 40
11.0
 40
12.0
 40
12.0
 40
12.0
 40
13.0
 40
13.0
 40
13.0
 40
14.0
 40
14.0
 40
14.0
 40
15.0
 40
15.0
 40
15.0
 40
16.0
 40
16.0
 40
16.0
 40
17.0
 40
17.0
 40
17.0
 40
18.0
 40
18.0
 40
18.0
 40
19.0
 40
19.0
 40
19.0
 40
19.0
 10
85.88123505882483
 20
-133.0754258564881
 10
85.78580591388341
 20
-133.0754258564881
 10
85.56807587921563
 20
-133.0544107740281
 10
85.44301891310106
 20
-132.8680311082761
 10
85.36929386971671
 20
-132.7560655050054
 10
85.36481524558589
 20
-132.6565022454817
 10
85.36068113100359
 20
-132.5720974060931
 10
85.36068113100359
 20
-132.5720974060931
 10
85.58082273251105
 20
-132.5720974060931
 10
85.58082273251105
 20
-132.5720974060931
 10
85.5828897898022
 20
-132.646166959026
 10
85.59322507625795
 20
-132.8807779615715
 10
85.87675643469402
 20
-132.8807779615715
 10
86.01421574455547
 20
-132.8807779615715
 10
86.16683347455205
 20
-132.8111870327694
 10
86.16683347455205
 20
-132.5824326925488
 10
86.16683347455205
 20
-132.4663329746959
 10
86.12859291466577
 20
-132.4174126188054
 10
86.09689803620148
 20
-132.3857177403411
 10
86.0228284832686
 20
-132.3116481874082
 10
85.90638425586715
 20
-132.2992458436613
 10
85.85160723765169
 20
-132.2992458436613
 10
85.83231470293428
 20
-132.2992458436613
 10
85.79648570988769
 20
-132.3013129009525
 10
85.76892494600568
 20
-132.3054470155348
 10
85.76892494600568
 20
-132.3054470155348
 10
85.76892494600568
 20
-132.1107991206181
 10
85.76892494600568
 20
-132.1107991206181
 10
85.80716550589196
 20
-132.1170002924916
 10
85.84919567081201
 20
-132.1194118593313
 10
85.85574135223399
 20
-132.1194118593313
 10
85.92119816645373
 20
-132.1194118593313
 10
86.11998017595265
 20
-132.0980522673227
 10
86.11998017595265
 20
-131.8610296979375
 10
86.11998017595265
 20
-131.6836072804471
 10
85.98906654751315
 20
-131.6284857526832
 10
85.87882349198516
 20
-131.6284857526832
 10
85.6145846682665
 20
-131.6284857526832
 10
85.60597192955338
 20
-131.8610296979375
 10
85.60183781497108
 20
-131.9330321935792
 10
85.60183781497108
 20
-131.9330321935792
 10
85.39857718134134
 20
-131.9330321935792
 10
85.39857718134134
 20
-131.9330321935792
 10
85.40718992005445
 20
-131.8083197370132
 10
85.43475068393646
 20
-131.4317708004754
 10
85.89157034528058
 20
-131.4317708004754
 10
86.11584606137035
 20
-131.4317708004754
 10
86.35700274533784
 20
-131.5585503143326
 10
86.35700274533784
 20
-131.8548285260641
 10
86.35700274533784
 20
-132.0408636822676
 10
86.26191810994494
 20
-132.1235459739136
 10
86.16235485042122
 20
-132.184868673551
 10
86.22367755005867
 20
-132.212429437433
 10
86.40557859167986
 20
-132.2927001622393
 10
86.40557859167986
 20
-132.5700303488019
 10
86.40557859167986
 20
-132.9083387254535
 10
86.15822073583892
 20
-133.0754258564881
 10
85.88123505882483
 20
-133.0754258564881
 97
        0
 97
        0
 75
     2
 76
     1
 98
        0
  0
ENDBLK
  5
213
330
210
100
AcDbEntity
  8
0
100
AcDbBlockEnd
  0
BLOCK
  5
21A
330
218
100
AcDbEntity
  8
0
100
AcDbBlockBegin
  2
block 10
 70
     0
 10
0.0
 20
0.0
 30
0.0
  3
block 10
  1

  0
SPLINE
  5
21C
330
218
100
AcDbEntity
  8
_U+30EC_U+30A4_U+30E4_U+30FC 1
370
     0
100
AcDbSpline
210
0.0
220
0.0
230
1.0
 70
    11
 71
     3
 72
    29
 73
    25
 74
     0
 42
0.0000000001
 43
0.0000000001
 12
1.0
 22
0.0
 32
0.0
 13
1.0
 23
0.0
 33
0.0
 40
0.0
 40
0.0
 40
0.0
 40
0.0
 40
1.0
 40
1.0
 40
1.0
 40
2.0
 40
2.0
 40
2.0
 40
3.0
 40
3.0
 40
3.0
 40
4.0
 40
4.0
 40
4.0
 40
5.0
 40
5.0
 40
5.0
 40
6.0
 40
6.0
 40
6.0
 40
7.0
 40
7.0
 40
7.0
 40
8.0
 40
8.0
 40
8.0
 40
8.0
 10
74.04026962124688
 20
-160.0987548427878
 30
0.0
 10
74.04026962124688
 20
-160.3654052333462
 30
0.0
 10
73.90281031138541
 20
-160.6193087706091
 30
0.0
 10
73.5538221387296
 20
-160.6193087706091
 30
0.0
 10
73.29785154417554
 20
-160.6193087706091
 30
0.0
 10
73.20276690878265
 20
-160.4773708366168
 30
0.0
 10
73.14144420914519
 20
-160.3716064052196
 30
0.0
 10
73.0821885667989
 20
-160.4963188617857
 30
0.0
 10
72.9678113966886
 20
-160.5724554720097
 30
0.0
 10
72.80692543752744
 20
-160.5724554720097
 30
0.0
 10
72.5320068178045
 20
-160.5724554720097
 30
0.0
 10
72.39661456523419
 20
-160.3736734625108
 30
0.0
 10
72.39661456523419
 20
-160.0987548427878
 30
0.0
 10
72.39661456523419
 20
-159.8152234843517
 30
0.0
 10
72.54061955651763
 20
-159.6247097040174
 30
0.0
 10
72.80692543752744
 20
-159.6247097040174
 30
0.0
 10
72.9678113966886
 20
-159.6247097040174
 30
0.0
 10
73.0821885667989
 20
-159.7032578810811
 30
0.0
 10
73.14144420914519
 20
-159.8279703376472
 30
0.0
 10
73.19208711277837
 20
-159.7390868741277
 30
0.0
 10
73.28717174817126
 20
-159.5802679722577
 30
0.0
 10
73.5496880241473
 20
-159.5802679722577
 30
0.0
 10
73.92416990339396
 20
-159.5802679722577
 30
0.0
 10
74.04026962124688
 20
-159.8596652161115
 30
0.0
 10
74.04026962124688
 20
-160.0987548427878
 30
0.0
  0
SPLINE
  5
21D
330
218
100
AcDbEntity
  8
_U+30EC_U+30A4_U+30E4_U+30FC 1
370
     0
100
AcDbSpline
210
0.0
220
0.0
230
1.0
 70
    11
 71
     3
 72
    17
 73
    13
 74
     0
 42
0.0000000001
 43
0.0000000001
 12
1.0
 22
0.0
 32
0.0
 13
1.0
 23
0.0
 33
0.0
 40
0.0
 40
0.0
 40
0.0
 40
0.0
 40
1.0
 40
1.0
 40
1.0
 40
2.0
 40
2.0
 40
2.0
 40
3.0
 40
3.0
 40
3.0
 40
4.0
 40
4.0
 40
4.0
 40
4.0
 10
72.58919540285964
 20
-160.0987548427878
 30
0.0
 10
72.58919540285964
 20
-160.2637749165313
 30
0.0
 10
72.68428003825254
 20
-160.3485242654684
 30
0.0
 10
72.81967229082287
 20
-160.3485242654684
 30
0.0
 10
72.94231769009775
 20
-160.3485242654684
 30
0.0
 10
73.06082897479035
 20
-160.2765217698267
 30
0.0
 10
73.06082897479035
 20
-160.0987548427878
 30
0.0
 10
73.06082897479035
 20
-159.9209879157489
 30
0.0
 10
72.94231769009775
 20
-159.8489854201072
 30
0.0
 10
72.81967229082287
 20
-159.8489854201072
 30
0.0
 10
72.68428003825254
 20
-159.8489854201072
 30
0.0
 10
72.58919540285964
 20
-159.9358018263355
 30
0.0
 10
72.58919540285964
 20
-160.0987548427878
 30
0.0
  0
SPLINE
  5
21E
330
218
100
AcDbEntity
  8
_U+30EC_U+30A4_U+30E4_U+30FC 1
370
     0
100
AcDbSpline
210
0.0
220
0.0
230
1.0
 70
    11
 71
     3
 72
    17
 73
    13
 74
     0
 42
0.0000000001
 43
0.0000000001
 12
1.0
 22
0.0
 32
0.0
 13
1.0
 23
0.0
 33
0.0
 40
0.0
 40
0.0
 40
0.0
 40
0.0
 40
1.0
 40
1.0
 40
1.0
 40
2.0
 40
2.0
 40
2.0
 40
3.0
 40
3.0
 40
3.0
 40
4.0
 40
4.0
 40
4.0
 40
4.0
 10
73.24927569783351
 20
-160.0987548427878
 30
0.0
 10
73.24927569783351
 20
-160.2424153245227
 30
0.0
 10
73.33609210406182
 20
-160.3950330545193
 30
0.0
 10
73.53900822814303
 20
-160.3950330545193
 30
0.0
 10
73.74433591906391
 20
-160.3950330545193
 30
0.0
 10
73.84562172633026
 20
-160.2679090311136
 30
0.0
 10
73.84562172633026
 20
-160.0987548427878
 30
0.0
 10
73.84562172633026
 20
-159.9127196865843
 30
0.0
 10
73.72297632705536
 20
-159.8024766310563
 30
0.0
 10
73.54520940001647
 20
-159.8024766310563
 30
0.0
 10
73.3233452507664
 20
-159.8024766310563
 30
0.0
 10
73.24927569783351
 20
-159.9654296475086
 30
0.0
 10
73.24927569783351
 20
-160.0987548427878
 30
0.0
  0
HATCH
  5
21F
330
218
100
AcDbEntity
  8
_U+30EC_U+30A4_U+30E4_U+30FC 1
 62
   179
420
  2234388
100
AcDbHatch
 10
0.0
 20
0.0
 30
0.0
210
0.0
220
0.0
230
1.0
  2
SOLID
 70
     1
 71
     0
 91
        3
 92
        1
 93
        1
 72
     4
 94
        3
 73
     0
 74
     1
 95
       29
 96
       25
 40
0.0
 40
0.0
 40
0.0
 40
0.0
 40
1.0
 40
1.0
 40
1.0
 40
2.0
 40
2.0
 40
2.0
 40
3.0
 40
3.0
 40
3.0
 40
4.0
 40
4.0
 40
4.0
 40
5.0
 40
5.0
 40
5.0
 40
6.0
 40
6.0
 40
6.0
 40
7.0
 40
7.0
 40
7.0
 40
8.0
 40
8.0
 40
8.0
 40
8.0
 10
74.04026962124688
 20
-160.0987548427878
 10
74.04026962124688
 20
-160.3654052333462
 10
73.90281031138541
 20
-160.6193087706091
 10
73.5538221387296
 20
-160.6193087706091
 10
73.29785154417554
 20
-160.6193087706091
 10
73.20276690878265
 20
-160.4773708366168
 10
73.14144420914519
 20
-160.3716064052196
 10
73.0821885667989
 20
-160.4963188617857
 10
72.9678113966886
 20
-160.5724554720097
 10
72.80692543752744
 20
-160.5724554720097
 10
72.5320068178045
 20
-160.5724554720097
 10
72.39661456523419
 20
-160.3736734625108
 10
72.39661456523419
 20
-160.0987548427878
 10
72.39661456523419
 20
-159.8152234843517
 10
72.54061955651763
 20
-159.6247097040174
 10
72.80692543752744
 20
-159.6247097040174
 10
72.9678113966886
 20
-159.6247097040174
 10
73.0821885667989
 20
-159.7032578810811
 10
73.14144420914519
 20
-159.8279703376472
 10
73.19208711277837
 20
-159.7390868741277
 10
73.28717174817126
 20
-159.5802679722577
 10
73.5496880241473
 20
-159.5802679722577
 10
73.92416990339396
 20
-159.5802679722577
 10
74.04026962124688
 20
-159.8596652161115
 10
74.04026962124688
 20
-160.0987548427878
 97
        0
 97
        0
 92
        1
 93
        1
 72
     4
 94
        3
 73
     0
 74
     1
 95
       17
 96
       13
 40
0.0
 40
0.0
 40
0.0
 40
0.0
 40
1.0
 40
1.0
 40
1.0
 40
2.0
 40
2.0
 40
2.0
 40
3.0
 40
3.0
 40
3.0
 40
4.0
 40
4.0
 40
4.0
 40
4.0
 10
72.58919540285964
 20
-160.0987548427878
 10
72.58919540285964
 20
-160.2637749165313
 10
72.68428003825254
 20
-160.3485242654684
 10
72.81967229082287
 20
-160.3485242654684
 10
72.94231769009775
 20
-160.3485242654684
 10
73.06082897479035
 20
-160.2765217698267
 10
73.06082897479035
 20
-160.0987548427878
 10
73.06082897479035
 20
-159.9209879157489
 10
72.94231769009775
 20
-159.8489854201072
 10
72.81967229082287
 20
-159.8489854201072
 10
72.68428003825254
 20
-159.8489854201072
 10
72.58919540285964
 20
-159.9358018263355
 10
72.58919540285964
 20
-160.0987548427878
 97
        0
 97
        0
 92
        1
 93
        1
 72
     4
 94
        3
 73
     0
 74
     1
 95
       17
 96
       13
 40
0.0
 40
0.0
 40
0.0
 40
0.0
 40
1.0
 40
1.0
 40
1.0
 40
2.0
 40
2.0
 40
2.0
 40
3.0
 40
3.0
 40
3.0
 40
4.0
 40
4.0
 40
4.0
 40
4.0
 10
73.24927569783351
 20
-160.0987548427878
 10
73.24927569783351
 20
-160.2424153245227
 10
73.33609210406182
 20
-160.3950330545193
 10
73.53900822814303
 20
-160.3950330545193
 10
73.74433591906391
 20
-160.3950330545193
 10
73.84562172633026
 20
-160.2679090311136
 10
73.84562172633026
 20
-160.0987548427878
 10
73.84562172633026
 20
-159.9127196865843
 10
73.72297632705536
 20
-159.8024766310563
 10
73.54520940001647
 20
-159.8024766310563
 10
73.3233452507664
 20
-159.8024766310563
 10
73.24927569783351
 20
-159.9654296475086
 10
73.24927569783351
 20
-160.0987548427878
 97
        0
 97
        0
 75
     2
 76
     1
 98
        0
  0
ENDBLK
  5
21B
330
218
100
AcDbEntity
  8
0
100
AcDbBlockEnd
  0
BLOCK
  5
222
330
220
100
AcDbEntity
  8
0
100
AcDbBlockBegin
  2
block 11
 70
     0
 10
0.0
 20
0.0
 30
0.0
  3
block 11
  1

  0
SPLINE
  5
224
330
220
100
AcDbEntity
  8
_U+30EC_U+30A4_U+30E4_U+30FC 1
370
     0
100
AcDbSpline
210
0.0
220
0.0
230
1.0
 70
    11
 71
     3
 72
    26
 73
    22
 74
     0
 42
0.0000000001
 43
0.0000000001
 12
1.0
 22
0.0
 32
0.0
 13
1.0
 23
0.0
 33
0.0
 40
0.0
 40
0.0
 40
0.0
 40
0.0
 40
1.0
 40
1.0
 40
1.0
 40
2.0
 40
2.0
 40
2.0
 40
3.0
 40
3.0
 40
3.0
 40
4.0
 40
4.0
 40
4.0
 40
5.0
 40
5.0
 40
5.0
 40
6.0
 40
6.0
 40
6.0
 40
7.0
 40
7.0
 40
7.0
 40
7.0
 10
73.9896267176137
 20
-146.8072319511454
 30
0.0
 10
73.9896267176137
 20
-146.8072319511454
 30
0.0
 10
72.88547361459113
 20
-146.8072319511454
 30
0.0
 10
72.88547361459113
 20
-146.8072319511454
 30
0.0
 10
72.88547361459113
 20
-146.8072319511454
 30
0.0
 10
72.88547361459113
 20
-147.1372720986324
 30
0.0
 10
72.88547361459113
 20
-147.1372720986324
 30
0.0
 10
72.88547361459113
 20
-147.1372720986324
 30
0.0
 10
72.7373345087254
 20
-147.1372720986324
 30
0.0
 10
72.7373345087254
 20
-147.1372720986324
 30
0.0
 10
72.72252059813881
 20
-146.8051648938543
 30
0.0
 10
72.5595675816865
 20
-146.7586561048034
 30
0.0
 10
72.4451904115762
 20
-146.7290282836302
 30
0.0
 10
72.4451904115762
 20
-146.7290282836302
 30
0.0
 10
72.4451904115762
 20
-146.5829562350557
 30
0.0
 10
72.4451904115762
 20
-146.5829562350557
 30
0.0
 10
72.4451904115762
 20
-146.5829562350557
 30
0.0
 10
73.9896267176137
 20
-146.5829562350557
 30
0.0
 10
73.9896267176137
 20
-146.5829562350557
 30
0.0
 10
73.9896267176137
 20
-146.5829562350557
 30
0.0
 10
73.9896267176137
 20
-146.8072319511454
 30
0.0
 10
73.9896267176137
 20
-146.8072319511454
 30
0.0
  0
HATCH
  5
225
330
220
100
AcDbEntity
  8
_U+30EC_U+30A4_U+30E4_U+30FC 1
 62
   179
420
  2234388
100
AcDbHatch
 10
0.0
 20
0.0
 30
0.0
210
0.0
220
0.0
230
1.0
  2
SOLID
 70
     1
 71
     0
 91
        1
 92
        1
 93
        1
 72
     4
 94
        3
 73
     0
 74
     1
 95
       26
 96
       22
 40
0.0
 40
0.0
 40
0.0
 40
0.0
 40
1.0
 40
1.0
 40
1.0
 40
2.0
 40
2.0
 40
2.0
 40
3.0
 40
3.0
 40
3.0
 40
4.0
 40
4.0
 40
4.0
 40
5.0
 40
5.0
 40
5.0
 40
6.0
 40
6.0
 40
6.0
 40
7.0
 40
7.0
 40
7.0
 40
7.0
 10
73.9896267176137
 20
-146.8072319511454
 10
73.9896267176137
 20
-146.8072319511454
 10
72.88547361459113
 20
-146.8072319511454
 10
72.88547361459113
 20
-146.8072319511454
 10
72.88547361459113
 20
-146.8072319511454
 10
72.88547361459113
 20
-147.1372720986324
 10
72.88547361459113
 20
-147.1372720986324
 10
72.88547361459113
 20
-147.1372720986324
 10
72.7373345087254
 20
-147.1372720986324
 10
72.7373345087254
 20
-147.1372720986324
 10
72.72252059813881
 20
-146.8051648938543
 10
72.5595675816865
 20
-146.7586561048034
 10
72.4451904115762
 20
-146.7290282836302
 10
72.4451904115762
 20
-146.7290282836302
 10
72.4451904115762
 20
-146.5829562350557
 10
72.4451904115762
 20
-146.5829562350557
 10
72.4451904115762
 20
-146.5829562350557
 10
73.9896267176137
 20
-146.5829562350557
 10
73.9896267176137
 20
-146.5829562350557
 10
73.9896267176137
 20
-146.5829562350557
 10
73.9896267176137
 20
-146.8072319511454
 10
73.9896267176137
 20
-146.8072319511454
 97
        0
 97
        0
 75
     2
 76
     1
 98
        0
  0
SPLINE
  5
226
330
220
100
AcDbEntity
  8
_U+30EC_U+30A4_U+30E4_U+30FC 1
370
     0
100
AcDbSpline
210
0.0
220
0.0
230
1.0
 70
    11
 71
     3
 72
    26
 73
    22
 74
     0
 42
0.0000000001
 43
0.0000000001
 12
1.0
 22
0.0
 32
0.0
 13
1.0
 23
0.0
 33
0.0
 40
0.0
 40
0.0
 40
0.0
 40
0.0
 40
1.0
 40
1.0
 40
1.0
 40
2.0
 40
2.0
 40
2.0
 40
3.0
 40
3.0
 40
3.0
 40
4.0
 40
4.0
 40
4.0
 40
5.0
 40
5.0
 40
5.0
 40
6.0
 40
6.0
 40
6.0
 40
7.0
 40
7.0
 40
7.0
 40
7.0
 10
73.9896267176137
 20
-145.6706949505615
 30
0.0
 10
73.9896267176137
 20
-145.6706949505615
 30
0.0
 10
73.9896267176137
 20
-145.9077175199467
 30
0.0
 10
73.9896267176137
 20
-145.9077175199467
 30
0.0
 10
73.6806016525868
 20
-145.8822238133558
 30
0.0
 10
73.16245929160522
 20
-145.6896429757304
 30
0.0
 10
72.65671927437054
 20
-145.2834662180194
 30
0.0
 10
72.65671927437054
 20
-145.2834662180194
 30
0.0
 10
72.65671927437054
 20
-146.1213134400322
 30
0.0
 10
72.65671927437054
 20
-146.1213134400322
 30
0.0
 10
72.65671927437054
 20
-146.1213134400322
 30
0.0
 10
72.4451904115762
 20
-146.1213134400322
 30
0.0
 10
72.4451904115762
 20
-146.1213134400322
 30
0.0
 10
72.4451904115762
 20
-146.1213134400322
 30
0.0
 10
72.4451904115762
 20
-145.0464436486342
 30
0.0
 10
72.4451904115762
 20
-145.0464436486342
 30
0.0
 10
72.4451904115762
 20
-145.0464436486342
 30
0.0
 10
72.65671927437054
 20
-145.0464436486342
 30
0.0
 10
72.65671927437054
 20
-145.0464436486342
 30
0.0
 10
72.94679631422858
 20
-145.3702826242477
 30
0.0
 10
73.53900822814303
 20
-145.6369330148061
 30
0.0
 10
73.9896267176137
 20
-145.6706949505615
 30
0.0
  0
HATCH
  5
227
330
220
100
AcDbEntity
  8
_U+30EC_U+30A4_U+30E4_U+30FC 1
 62
   179
420
  2234388
100
AcDbHatch
 10
0.0
 20
0.0
 30
0.0
210
0.0
220
0.0
230
1.0
  2
SOLID
 70
     1
 71
     0
 91
        1
 92
        1
 93
        1
 72
     4
 94
        3
 73
     0
 74
     1
 95
       26
 96
       22
 40
0.0
 40
0.0
 40
0.0
 40
0.0
 40
1.0
 40
1.0
 40
1.0
 40
2.0
 40
2.0
 40
2.0
 40
3.0
 40
3.0
 40
3.0
 40
4.0
 40
4.0
 40
4.0
 40
5.0
 40
5.0
 40
5.0
 40
6.0
 40
6.0
 40
6.0
 40
7.0
 40
7.0
 40
7.0
 40
7.0
 10
73.9896267176137
 20
-145.6706949505615
 10
73.9896267176137
 20
-145.6706949505615
 10
73.9896267176137
 20
-145.9077175199467
 10
73.9896267176137
 20
-145.9077175199467
 10
73.6806016525868
 20
-145.8822238133558
 10
73.16245929160522
 20
-145.6896429757304
 10
72.65671927437054
 20
-145.2834662180194
 10
72.65671927437054
 20
-145.2834662180194
 10
72.65671927437054
 20
-146.1213134400322
 10
72.65671927437054
 20
-146.1213134400322
 10
72.65671927437054
 20
-146.1213134400322
 10
72.4451904115762
 20
-146.1213134400322
 10
72.4451904115762
 20
-146.1213134400322
 10
72.4451904115762
 20
-146.1213134400322
 10
72.4451904115762
 20
-145.0464436486342
 10
72.4451904115762
 20
-145.0464436486342
 10
72.4451904115762
 20
-145.0464436486342
 10
72.65671927437054
 20
-145.0464436486342
 10
72.65671927437054
 20
-145.0464436486342
 10
72.94679631422858
 20
-145.3702826242477
 10
73.53900822814303
 20
-145.6369330148061
 10
73.9896267176137
 20
-145.6706949505615
 97
        0
 97
        0
 75
     2
 76
     1
 98
        0
  0
ENDBLK
  5
223
330
220
100
AcDbEntity
  8
0
100
AcDbBlockEnd
  0
BLOCK
  5
22A
330
228
100
AcDbEntity
  8
0
100
AcDbBlockBegin
  2
block 12
 70
     0
 10
0.0
 20
0.0
 30
0.0
  3
block 12
  1

  0
SPLINE
  5
22C
330
228
100
AcDbEntity
  8
_U+30EC_U+30A4_U+30E4_U+30FC 1
370
     0
100
AcDbSpline
210
0.0
220
0.0
230
1.0
 70
    11
 71
     3
 72
    26
 73
    22
 74
     0
 42
0.0000000001
 43
0.0000000001
 12
1.0
 22
0.0
 32
0.0
 13
1.0
 23
0.0
 33
0.0
 40
0.0
 40
0.0
 40
0.0
 40
0.0
 40
1.0
 40
1.0
 40
1.0
 40
2.0
 40
2.0
 40
2.0
 40
3.0
 40
3.0
 40
3.0
 40
4.0
 40
4.0
 40
4.0
 40
5.0
 40
5.0
 40
5.0
 40
6.0
 40
6.0
 40
6.0
 40
7.0
 40
7.0
 40
7.0
 40
7.0
 10
76.94793021079774
 20
-160.5038980718532
 30
0.0
 10
76.94793021079774
 20
-160.5038980718532
 30
0.0
 10
77.72858884775536
 20
-159.7232394348956
 30
0.0
 10
77.72858884775536
 20
-159.7232394348956
 30
0.0
 10
77.72858884775536
 20
-159.7232394348956
 30
0.0
 10
77.49518362862968
 20
-159.4900064705442
 30
0.0
 10
77.49518362862968
 20
-159.4900064705442
 30
0.0
 10
77.49518362862968
 20
-159.4900064705442
 30
0.0
 10
77.59991453138127
 20
-159.3852755677926
 30
0.0
 10
77.59991453138127
 20
-159.3852755677926
 30
0.0
 10
77.84537758470533
 20
-159.6095512838824
 30
0.0
 10
77.99351669057107
 20
-159.5272135017849
 30
0.0
 10
78.09514700738593
 20
-159.4672688403415
 30
0.0
 10
78.09514700738593
 20
-159.4672688403415
 30
0.0
 10
78.19849987194344
 20
-159.570621704899
 30
0.0
 10
78.19849987194344
 20
-159.570621704899
 30
0.0
 10
78.19849987194344
 20
-159.570621704899
 30
0.0
 10
77.1065768578935
 20
-160.6627169737232
 30
0.0
 10
77.1065768578935
 20
-160.6627169737232
 30
0.0
 10
77.1065768578935
 20
-160.6627169737232
 30
0.0
 10
76.94793021079774
 20
-160.5038980718532
 30
0.0
 10
76.94793021079774
 20
-160.5038980718532
 30
0.0
  0
HATCH
  5
22D
330
228
100
AcDbEntity
  8
_U+30EC_U+30A4_U+30E4_U+30FC 1
 62
   179
420
  2234388
100
AcDbHatch
 10
0.0
 20
0.0
 30
0.0
210
0.0
220
0.0
230
1.0
  2
SOLID
 70
     1
 71
     0
 91
        1
 92
        1
 93
        1
 72
     4
 94
        3
 73
     0
 74
     1
 95
       26
 96
       22
 40
0.0
 40
0.0
 40
0.0
 40
0.0
 40
1.0
 40
1.0
 40
1.0
 40
2.0
 40
2.0
 40
2.0
 40
3.0
 40
3.0
 40
3.0
 40
4.0
 40
4.0
 40
4.0
 40
5.0
 40
5.0
 40
5.0
 40
6.0
 40
6.0
 40
6.0
 40
7.0
 40
7.0
 40
7.0
 40
7.0
 10
76.94793021079774
 20
-160.5038980718532
 10
76.94793021079774
 20
-160.5038980718532
 10
77.72858884775536
 20
-159.7232394348956
 10
77.72858884775536
 20
-159.7232394348956
 10
77.72858884775536
 20
-159.7232394348956
 10
77.49518362862968
 20
-159.4900064705442
 10
77.49518362862968
 20
-159.4900064705442
 10
77.49518362862968
 20
-159.4900064705442
 10
77.59991453138127
 20
-159.3852755677926
 10
77.59991453138127
 20
-159.3852755677926
 10
77.84537758470533
 20
-159.6095512838824
 10
77.99351669057107
 20
-159.5272135017849
 10
78.09514700738593
 20
-159.4672688403415
 10
78.09514700738593
 20
-159.4672688403415
 10
78.19849987194344
 20
-159.570621704899
 10
78.19849987194344
 20
-159.570621704899
 10
78.19849987194344
 20
-159.570621704899
 10
77.1065768578935
 20
-160.6627169737232
 10
77.1065768578935
 20
-160.6627169737232
 10
77.1065768578935
 20
-160.6627169737232
 10
76.94793021079774
 20
-160.5038980718532
 10
76.94793021079774
 20
-160.5038980718532
 97
        0
 97
        0
 75
     2
 76
     1
 98
        0
  0
SPLINE
  5
22E
330
228
100
AcDbEntity
  8
_U+30EC_U+30A4_U+30E4_U+30FC 1
370
     0
100
AcDbSpline
210
0.0
220
0.0
230
1.0
 70
    11
 71
     3
 72
    26
 73
    22
 74
     0
 42
0.0000000001
 43
0.0000000001
 12
1.0
 22
0.0
 32
0.0
 13
1.0
 23
0.0
 33
0.0
 40
0.0
 40
0.0
 40
0.0
 40
0.0
 40
1.0
 40
1.0
 40
1.0
 40
2.0
 40
2.0
 40
2.0
 40
3.0
 40
3.0
 40
3.0
 40
4.0
 40
4.0
 40
4.0
 40
5.0
 40
5.0
 40
5.0
 40
6.0
 40
6.0
 40
6.0
 40
7.0
 40
7.0
 40
7.0
 40
7.0
 10
77.78009302525984
 20
-161.335888631541
 30
0.0
 10
77.78009302525984
 20
-161.335888631541
 30
0.0
 10
78.56075166221746
 20
-160.5552299945834
 30
0.0
 10
78.56075166221746
 20
-160.5552299945834
 30
0.0
 10
78.56075166221746
 20
-160.5552299945834
 30
0.0
 10
78.32734644309178
 20
-160.321997030232
 30
0.0
 10
78.32734644309178
 20
-160.321997030232
 30
0.0
 10
78.32734644309178
 20
-160.321997030232
 30
0.0
 10
78.43207734584337
 20
-160.2172661274804
 30
0.0
 10
78.43207734584337
 20
-160.2172661274804
 30
0.0
 10
78.67754039916743
 20
-160.4415418435702
 30
0.0
 10
78.82567950503316
 20
-160.3595485710212
 30
0.0
 10
78.92730982184804
 20
-160.2996039095779
 30
0.0
 10
78.92730982184804
 20
-160.2996039095779
 30
0.0
 10
79.03066268640553
 20
-160.4029567741354
 30
0.0
 10
79.03066268640553
 20
-160.4029567741354
 30
0.0
 10
79.03066268640553
 20
-160.4029567741354
 30
0.0
 10
77.9387396723556
 20
-161.4947075334111
 30
0.0
 10
77.9387396723556
 20
-161.4947075334111
 30
0.0
 10
77.9387396723556
 20
-161.4947075334111
 30
0.0
 10
77.78009302525984
 20
-161.335888631541
 30
0.0
 10
77.78009302525984
 20
-161.335888631541
 30
0.0
  0
HATCH
  5
22F
330
228
100
AcDbEntity
  8
_U+30EC_U+30A4_U+30E4_U+30FC 1
 62
   179
420
  2234388
100
AcDbHatch
 10
0.0
 20
0.0
 30
0.0
210
0.0
220
0.0
230
1.0
  2
SOLID
 70
     1
 71
     0
 91
        1
 92
        1
 93
        1
 72
     4
 94
        3
 73
     0
 74
     1
 95
       26
 96
       22
 40
0.0
 40
0.0
 40
0.0
 40
0.0
 40
1.0
 40
1.0
 40
1.0
 40
2.0
 40
2.0
 40
2.0
 40
3.0
 40
3.0
 40
3.0
 40
4.0
 40
4.0
 40
4.0
 40
5.0
 40
5.0
 40
5.0
 40
6.0
 40
6.0
 40
6.0
 40
7.0
 40
7.0
 40
7.0
 40
7.0
 10
77.78009302525984
 20
-161.335888631541
 10
77.78009302525984
 20
-161.335888631541
 10
78.56075166221746
 20
-160.5552299945834
 10
78.56075166221746
 20
-160.5552299945834
 10
78.56075166221746
 20
-160.5552299945834
 10
78.32734644309178
 20
-160.321997030232
 10
78.32734644309178
 20
-160.321997030232
 10
78.32734644309178
 20
-160.321997030232
 10
78.43207734584337
 20
-160.2172661274804
 10
78.43207734584337
 20
-160.2172661274804
 10
78.67754039916743
 20
-160.4415418435702
 10
78.82567950503316
 20
-160.3595485710212
 10
78.92730982184804
 20
-160.2996039095779
 10
78.92730982184804
 20
-160.2996039095779
 10
79.03066268640553
 20
-160.4029567741354
 10
79.03066268640553
 20
-160.4029567741354
 10
79.03066268640553
 20
-160.4029567741354
 10
77.9387396723556
 20
-161.4947075334111
 10
77.9387396723556
 20
-161.4947075334111
 10
77.9387396723556
 20
-161.4947075334111
 10
77.78009302525984
 20
-161.335888631541
 10
77.78009302525984
 20
-161.335888631541
 97
        0
 97
        0
 75
     2
 76
     1
 98
        0
  0
ENDBLK
  5
22B
330
228
100
AcDbEntity
  8
0
100
AcDbBlockEnd
  0
ENDSEC
  0
SECTION
  2
ENTITIES
  0
POLYLINE
  5
41
330
1F
100
AcDbEntity
  8
_U+30EC_U+30A4_U+30E4_U+30FC 1
370
     0
100
AcDb2dPolyline
 66
     1
 10
0.0
 20
0.0
 30
0.0
  0
VERTEX
  5
42
330
41
100
AcDbEntity
  8
_U+30EC_U+30A4_U+30E4_U+30FC 1
370
     0
100
AcDbVertex
100
AcDb2dVertex
 10
78.80138331363293
 20
-138.6705944097769
 30
0.0
  0
VERTEX
  5
43
330
41
100
AcDbEntity
  8
_U+30EC_U+30A4_U+30E4_U+30FC 1
370
     0
100
AcDbVertex
100
AcDb2dVertex
 10
76.80187220728767
 20
-138.6705944097769
 30
0.0
  0
VERTEX
  5
44
330
41
100
AcDbEntity
  8
_U+30EC_U+30A4_U+30E4_U+30FC 1
370
     0
100
AcDbVertex
100
AcDb2dVertex
 10
76.80187220728767
 20
-145.6703405191381
 30
0.0
  0
VERTEX
  5
45
330
41
100
AcDbEntity
  8
_U+30EC_U+30A4_U+30E4_U+30FC 1
370
     0
100
AcDbVertex
100
AcDb2dVertex
 10
91.80180654682968
 20
-145.6703405191381
 30
0.0
  0
VERTEX
  5
46
330
41
100
AcDbEntity
  8
_U+30EC_U+30A4_U+30E4_U+30FC 1
370
     0
100
AcDbVertex
100
AcDb2dVertex
 10
91.80180654682968
 20
-132.6706205223876
 30
0.0
  0
VERTEX
  5
47
330
41
100
AcDbEntity
  8
_U+30EC_U+30A4_U+30E4_U+30FC 1
370
     0
100
AcDbVertex
100
AcDb2dVertex
 10
92.30133986741886
 20
-131.7817969114992
 30
0.0
  0
VERTEX
  5
48
330
41
100
AcDbEntity
  8
_U+30EC_U+30A4_U+30E4_U+30FC 1
370
     0
100
AcDbVertex
100
AcDb2dVertex
 10
91.80180654682968
 20
-130.8929733006102
 30
0.0
  0
VERTEX
  5
49
330
41
100
AcDbEntity
  8
_U+30EC_U+30A4_U+30E4_U+30FC 1
370
     0
100
AcDbVertex
100
AcDb2dVertex
 10
92.30133986741886
 20
-130.0034441341656
 30
0.0
  0
VERTEX
  5
4A
330
41
100
AcDbEntity
  8
_U+30EC_U+30A4_U+30E4_U+30FC 1
370
     0
100
AcDbVertex
100
AcDb2dVertex
 10
91.80180654682968
 20
-129.1145852454991
 30
0.0
  0
VERTEX
  5
4B
330
41
100
AcDbEntity
  8
_U+30EC_U+30A4_U+30E4_U+30FC 1
370
     0
100
AcDbVertex
100
AcDb2dVertex
 10
92.30133986741886
 20
-128.225938023499
 30
0.0
  0
VERTEX
  5
4C
330
41
100
AcDbEntity
  8
_U+30EC_U+30A4_U+30E4_U+30FC 1
370
     0
100
AcDbVertex
100
AcDb2dVertex
 10
91.80180654682968
 20
-127.3371144126102
 30
0.0
  0
VERTEX
  5
4D
330
41
100
AcDbEntity
  8
_U+30EC_U+30A4_U+30E4_U+30FC 1
370
     0
100
AcDbVertex
100
AcDb2dVertex
 10
92.30133986741886
 20
-126.4479380239435
 30
0.0
  0
VERTEX
  5
4E
330
41
100
AcDbEntity
  8
_U+30EC_U+30A4_U+30E4_U+30FC 1
370
     0
100
AcDbVertex
100
AcDb2dVertex
 10
91.80180654682968
 20
-125.5590791352769
 30
0.0
  0
VERTEX
  5
4F
330
41
100
AcDbEntity
  8
_U+30EC_U+30A4_U+30E4_U+30FC 1
370
     0
100
AcDbVertex
100
AcDb2dVertex
 10
92.30133986741886
 20
-124.6702555243879
 30
0.0
  0
VERTEX
  5
50
330
41
100
AcDbEntity
  8
_U+30EC_U+30A4_U+30E4_U+30FC 1
370
     0
100
AcDbVertex
100
AcDb2dVertex
 10
91.80180654682968
 20
-123.7814319134992
 30
0.0
  0
VERTEX
  5
51
330
41
100
AcDbEntity
  8
_U+30EC_U+30A4_U+30E4_U+30FC 1
370
     0
100
AcDbVertex
100
AcDb2dVertex
 10
92.30133986741886
 20
-122.8925730248323
 30
0.0
  0
VERTEX
  5
52
330
41
100
AcDbEntity
  8
_U+30EC_U+30A4_U+30E4_U+30FC 1
370
     0
100
AcDbVertex
100
AcDb2dVertex
 10
91.80180654682968
 20
-122.0037494139436
 30
0.0
  0
VERTEX
  5
53
330
41
100
AcDbEntity
  8
_U+30EC_U+30A4_U+30E4_U+30FC 1
370
     0
100
AcDbVertex
100
AcDb2dVertex
 10
92.30133986741886
 20
-121.1149258030546
 30
0.0
  0
VERTEX
  5
54
330
41
100
AcDbEntity
  8
_U+30EC_U+30A4_U+30E4_U+30FC 1
370
     0
100
AcDbVertex
100
AcDb2dVertex
 10
91.80180654682968
 20
-120.2260669143881
 30
0.0
  0
VERTEX
  5
55
330
41
100
AcDbEntity
  8
_U+30EC_U+30A4_U+30E4_U+30FC 1
370
     0
100
AcDbVertex
100
AcDb2dVertex
 10
92.30133986741886
 20
-119.3372433034991
 30
0.0
  0
VERTEX
  5
56
330
41
100
AcDbEntity
  8
_U+30EC_U+30A4_U+30E4_U+30FC 1
370
     0
100
AcDbVertex
100
AcDb2dVertex
 10
91.80180654682968
 20
-118.4480669148326
 30
0.0
  0
VERTEX
  5
57
330
41
100
AcDbEntity
  8
_U+30EC_U+30A4_U+30E4_U+30FC 1
370
     0
100
AcDbVertex
100
AcDb2dVertex
 10
92.30133986741886
 20
-117.5592433039436
 30
0.0
  0
VERTEX
  5
58
330
41
100
AcDbEntity
  8
_U+30EC_U+30A4_U+30E4_U+30FC 1
370
     0
100
AcDbVertex
100
AcDb2dVertex
 10
91.80180654682968
 20
-116.6703844152767
 30
0.0
  0
VERTEX
  5
59
330
41
100
AcDbEntity
  8
_U+30EC_U+30A4_U+30E4_U+30FC 1
370
     0
100
AcDbVertex
100
AcDb2dVertex
 10
92.30133986741886
 20
-115.781560804388
 30
0.0
  0
VERTEX
  5
5A
330
41
100
AcDbEntity
  8
_U+30EC_U+30A4_U+30E4_U+30FC 1
370
     0
100
AcDbVertex
100
AcDb2dVertex
 10
91.80180654682968
 20
-114.8923844157215
 30
0.0
  0
VERTEX
  5
5B
330
41
100
AcDbEntity
  8
_U+30EC_U+30A4_U+30E4_U+30FC 1
370
     0
100
AcDbVertex
100
AcDb2dVertex
 10
92.30133986741886
 20
-114.0035608048325
 30
0.0
  0
VERTEX
  5
5C
330
41
100
AcDbEntity
  8
_U+30EC_U+30A4_U+30E4_U+30FC 1
370
     0
100
AcDbVertex
100
AcDb2dVertex
 10
91.80180654682968
 20
-113.1147019161656
 30
0.0
  0
VERTEX
  5
5D
330
41
100
AcDbEntity
  8
_U+30EC_U+30A4_U+30E4_U+30FC 1
370
     0
100
AcDbVertex
100
AcDb2dVertex
 10
92.30133986741886
 20
-112.2258783052769
 30
0.0
  0
VERTEX
  5
5E
330
41
100
AcDbEntity
  8
_U+30EC_U+30A4_U+30E4_U+30FC 1
370
     0
100
AcDbVertex
100
AcDb2dVertex
 10
91.80180654682968
 20
-111.3370546943879
 30
0.0
  0
VERTEX
  5
5F
330
41
100
AcDbEntity
  8
_U+30EC_U+30A4_U+30E4_U+30FC 1
370
     0
100
AcDbVertex
100
AcDb2dVertex
 10
92.30133986741886
 20
-110.4481958057214
 30
0.0
  0
VERTEX
  5
60
330
41
100
AcDbEntity
  8
_U+30EC_U+30A4_U+30E4_U+30FC 1
370
     0
100
AcDbVertex
100
AcDb2dVertex
 10
91.80180654682968
 20
-109.5593721948323
 30
0.0
  0
VERTEX
  5
61
330
41
100
AcDbEntity
  8
_U+30EC_U+30A4_U+30E4_U+30FC 1
370
     0
100
AcDbVertex
100
AcDb2dVertex
 10
92.30133986741886
 20
-108.6705485839433
 30
0.0
  0
VERTEX
  5
62
330
41
100
AcDbEntity
  8
_U+30EC_U+30A4_U+30E4_U+30FC 1
370
     0
100
AcDbVertex
100
AcDb2dVertex
 10
91.80180654682968
 20
-107.7816896952768
 30
0.0
  0
VERTEX
  5
63
330
41
100
AcDbEntity
  8
_U+30EC_U+30A4_U+30E4_U+30FC 1
370
     0
100
AcDbVertex
100
AcDb2dVertex
 10
92.30133986741886
 20
-106.8925133066103
 30
0.0
  0
VERTEX
  5
64
330
41
100
AcDbEntity
  8
_U+30EC_U+30A4_U+30E4_U+30FC 1
370
     0
100
AcDbVertex
100
AcDb2dVertex
 10
91.80180654682968
 20
-106.0036896957213
 30
0.0
  0
VERTEX
  5
65
330
41
100
AcDbEntity
  8
_U+30EC_U+30A4_U+30E4_U+30FC 1
370
     0
100
AcDbVertex
100
AcDb2dVertex
 10
92.30133986741886
 20
-105.1148660848323
 30
0.0
  0
VERTEX
  5
66
330
41
100
AcDbEntity
  8
_U+30EC_U+30A4_U+30E4_U+30FC 1
370
     0
100
AcDbVertex
100
AcDb2dVertex
 10
91.80180654682968
 20
-104.2256896961658
 30
0.0
  0
VERTEX
  5
67
330
41
100
AcDbEntity
  8
_U+30EC_U+30A4_U+30E4_U+30FC 1
370
     0
100
AcDbVertex
100
AcDb2dVertex
 10
92.30133986741886
 20
-103.3368308074993
 30
0.0
  0
VERTEX
  5
68
330
41
100
AcDbEntity
  8
_U+30EC_U+30A4_U+30E4_U+30FC 1
370
     0
100
AcDbVertex
100
AcDb2dVertex
 10
91.80180654682968
 20
-102.4480071966102
 30
0.0
  0
VERTEX
  5
69
330
41
100
AcDbEntity
  8
_U+30EC_U+30A4_U+30E4_U+30FC 1
370
     0
100
AcDbVertex
100
AcDb2dVertex
 10
92.30133986741886
 20
-101.5591835857212
 30
0.0
  0
VERTEX
  5
6A
330
41
100
AcDbEntity
  8
_U+30EC_U+30A4_U+30E4_U+30FC 1
370
     0
100
AcDbVertex
100
AcDb2dVertex
 10
91.80180654682968
 20
-100.6703246970547
 30
0.0
  0
VERTEX
  5
6B
330
41
100
AcDbEntity
  8
_U+30EC_U+30A4_U+30E4_U+30FC 1
370
     0
100
AcDbVertex
100
AcDb2dVertex
 10
91.80180654682968
 20
-96.67060080916563
 30
0.0
  0
VERTEX
  5
6C
330
41
100
AcDbEntity
  8
_U+30EC_U+30A4_U+30E4_U+30FC 1
370
     0
100
AcDbVertex
100
AcDb2dVertex
 10
92.80157874354559
 20
-96.67060080916563
 30
0.0
  0
VERTEX
  5
6D
330
41
100
AcDbEntity
  8
_U+30EC_U+30A4_U+30E4_U+30FC 1
370
     0
100
AcDbVertex
100
AcDb2dVertex
 10
92.80157874354559
 20
-146.67011274111
 30
0.0
  0
VERTEX
  5
6E
330
41
100
AcDbEntity
  8
_U+30EC_U+30A4_U+30E4_U+30FC 1
370
     0
100
AcDbVertex
100
AcDb2dVertex
 10
76.80187220728767
 20
-146.67011274111
 30
0.0
  0
VERTEX
  5
6F
330
41
100
AcDbEntity
  8
_U+30EC_U+30A4_U+30E4_U+30FC 1
370
     0
100
AcDbVertex
100
AcDb2dVertex
 10
76.80187220728767
 20
-154.256210794769
 30
0.0
  0
VERTEX
  5
70
330
41
100
AcDbEntity
  8
_U+30EC_U+30A4_U+30E4_U+30FC 1
370
     0
100
AcDbVertex
100
AcDb2dVertex
 10
84.21570868481162
 20
-161.6700474595824
 30
0.0
  0
VERTEX
  5
71
330
41
100
AcDbEntity
  8
_U+30EC_U+30A4_U+30E4_U+30FC 1
370
     0
100
AcDbVertex
100
AcDb2dVertex
 10
99.80132467607831
 20
-161.6700474595824
 30
0.0
  0
VERTEX
  5
72
330
41
100
AcDbEntity
  8
_U+30EC_U+30A4_U+30E4_U+30FC 1
370
     0
100
AcDbVertex
100
AcDb2dVertex
 10
99.80132467607831
 20
-159.6705382934155
 30
0.0
  0
VERTEX
  5
73
330
41
100
AcDbEntity
  8
_U+30EC_U+30A4_U+30E4_U+30FC 1
370
     0
100
AcDbVertex
100
AcDb2dVertex
 10
100.8017671505549
 20
-159.6705382934155
 30
0.0
  0
VERTEX
  5
74
330
41
100
AcDbEntity
  8
_U+30EC_U+30A4_U+30E4_U+30FC 1
370
     0
100
AcDbVertex
100
AcDb2dVertex
 10
100.8017671505549
 20
-162.6705252371105
 30
0.0
  0
VERTEX
  5
75
330
41
100
AcDbEntity
  8
_U+30EC_U+30A4_U+30E4_U+30FC 1
370
     0
100
AcDbVertex
100
AcDb2dVertex
 10
83.80161813982039
 20
-162.6705252371105
 30
0.0
  0
VERTEX
  5
76
330
41
100
AcDbEntity
  8
_U+30EC_U+30A4_U+30E4_U+30FC 1
370
     0
100
AcDbVertex
100
AcDb2dVertex
 10
75.8013944550342
 20
-154.6703013502212
 30
0.0
  0
VERTEX
  5
77
330
41
100
AcDbEntity
  8
_U+30EC_U+30A4_U+30E4_U+30FC 1
370
     0
100
AcDbVertex
100
AcDb2dVertex
 10
75.8013944550342
 20
-137.670151910027
 30
0.0
  0
VERTEX
  5
78
330
41
100
AcDbEntity
  8
_U+30EC_U+30A4_U+30E4_U+30FC 1
370
     0
100
AcDbVertex
100
AcDb2dVertex
 10
78.80138331363293
 20
-137.670151910027
 30
0.0
  0
VERTEX
  5
79
330
41
100
AcDbEntity
  8
_U+30EC_U+30A4_U+30E4_U+30FC 1
370
     0
100
AcDbVertex
100
AcDb2dVertex
 10
78.80138331363293
 20
-138.6705944097769
 30
0.0
  0
SEQEND
  5
7B
330
41
100
AcDbEntity
  8
_U+30EC_U+30A4_U+30E4_U+30FC 1
370
     0
  0
HATCH
  5
7A
330
1F
100
AcDbEntity
  8
_U+30EC_U+30A4_U+30E4_U+30FC 1
 62
   253
420
 11711154
100
AcDbHatch
 10
0.0
 20
0.0
 30
0.0
210
0.0
220
0.0
230
1.0
  2
SOLID
 70
     1
 71
     0
 91
        1
 92
        1
 93
       55
 72
     1
 10
78.80138331363293
 20
-138.6705944097769
 11
76.80187220728767
 21
-138.6705944097769
 72
     1
 10
76.80187220728767
 20
-138.6705944097769
 11
76.80187220728767
 21
-145.6703405191381
 72
     1
 10
76.80187220728767
 20
-145.6703405191381
 11
91.80180654682968
 21
-145.6703405191381
 72
     1
 10
91.80180654682968
 20
-145.6703405191381
 11
91.80180654682968
 21
-132.6706205223876
 72
     1
 10
91.80180654682968
 20
-132.6706205223876
 11
92.30133986741886
 21
-131.7817969114992
 72
     1
 10
92.30133986741886
 20
-131.7817969114992
 11
91.80180654682968
 21
-130.8929733006102
 72
     1
 10
91.80180654682968
 20
-130.8929733006102
 11
92.30133986741886
 21
-130.0034441341656
 72
     1
 10
92.30133986741886
 20
-130.0034441341656
 11
91.80180654682968
 21
-129.1145852454991
 72
     1
 10
91.80180654682968
 20
-129.1145852454991
 11
92.30133986741886
 21
-128.225938023499
 72
     1
 10
92.30133986741886
 20
-128.225938023499
 11
91.80180654682968
 21
-127.3371144126102
 72
     1
 10
91.80180654682968
 20
-127.3371144126102
 11
92.30133986741886
 21
-126.4479380239435
 72
     1
 10
92.30133986741886
 20
-126.4479380239435
 11
91.80180654682968
 21
-125.5590791352769
 72
     1
 10
91.80180654682968
 20
-125.5590791352769
 11
92.30133986741886
 21
-124.6702555243879
 72
     1
 10
92.30133986741886
 20
-124.6702555243879
 11
91.80180654682968
 21
-123.7814319134992
 72
     1
 10
91.80180654682968
 20
-123.7814319134992
 11
92.30133986741886
 21
-122.8925730248323
 72
     1
 10
92.30133986741886
 20
-122.8925730248323
 11
91.80180654682968
 21
-122.0037494139436
 72
     1
 10
91.80180654682968
 20
-122.0037494139436
 11
92.30133986741886
 21
-121.1149258030546
 72
     1
 10
92.30133986741886
 20
-121.1149258030546
 11
91.80180654682968
 21
-120.2260669143881
 72
     1
 10
91.80180654682968
 20
-120.2260669143881
 11
92.30133986741886
 21
-119.3372433034991
 72
     1
 10
92.30133986741886
 20
-119.3372433034991
 11
91.80180654682968
 21
-118.4480669148326
 72
     1
 10
91.80180654682968
 20
-118.4480669148326
 11
92.30133986741886
 21
-117.5592433039436
 72
     1
 10
92.30133986741886
 20
-117.5592433039436
 11
91.80180654682968
 21
-116.6703844152767
 72
     1
 10
91.80180654682968
 20
-116.6703844152767
 11
92.30133986741886
 21
-115.781560804388
 72
     1
 10
92.30133986741886
 20
-115.781560804388
 11
91.80180654682968
 21
-114.8923844157215
 72
     1
 10
91.80180654682968
 20
-114.8923844157215
 11
92.30133986741886
 21
-114.0035608048325
 72
     1
 10
92.30133986741886
 20
-114.0035608048325
 11
91.80180654682968
 21
-113.1147019161656
 72
     1
 10
91.80180654682968
 20
-113.1147019161656
 11
92.30133986741886
 21
-112.2258783052769
 72
     1
 10
92.30133986741886
 20
-112.2258783052769
 11
91.80180654682968
 21
-111.3370546943879
 72
     1
 10
91.80180654682968
 20
-111.3370546943879
 11
92.30133986741886
 21
-110.4481958057214
 72
     1
 10
92.30133986741886
 20
-110.4481958057214
 11
91.80180654682968
 21
-109.5593721948323
 72
     1
 10
91.80180654682968
 20
-109.5593721948323
 11
92.30133986741886
 21
-108.6705485839433
 72
     1
 10
92.30133986741886
 20
-108.6705485839433
 11
91.80180654682968
 21
-107.7816896952768
 72
     1
 10
91.80180654682968
 20
-107.7816896952768
 11
92.30133986741886
 21
-106.8925133066103
 72
     1
 10
92.30133986741886
 20
-106.8925133066103
 11
91.80180654682968
 21
-106.0036896957213
 72
     1
 10
91.80180654682968
 20
-106.0036896957213
 11
92.30133986741886
 21
-105.1148660848323
 72
     1
 10
92.30133986741886
 20
-105.1148660848323
 11
91.80180654682968
 21
-104.2256896961658
 72
     1
 10
91.80180654682968
 20
-104.2256896961658
 11
92.30133986741886
 21
-103.3368308074993
 72
     1
 10
92.30133986741886
 20
-103.3368308074993
 11
91.80180654682968
 21
-102.4480071966102
 72
     1
 10
91.80180654682968
 20
-102.4480071966102
 11
92.30133986741886
 21
-101.5591835857212
 72
     1
 10
92.30133986741886
 20
-101.5591835857212
 11
91.80180654682968
 21
-100.6703246970547
 72
     1
 10
91.80180654682968
 20
-100.6703246970547
 11
91.80180654682968
 21
-96.67060080916563
 72
     1
 10
91.80180654682968
 20
-96.67060080916563
 11
92.80157874354559
 21
-96.67060080916563
 72
     1
 10
92.80157874354559
 20
-96.67060080916563
 11
92.80157874354559
 21
-146.67011274111
 72
     1
 10
92.80157874354559
 20
-146.67011274111
 11
76.80187220728767
 21
-146.67011274111
 72
     1
 10
76.80187220728767
 20
-146.67011274111
 11
76.80187220728767
 21
-154.256210794769
 72
     1
 10
76.80187220728767
 20
-154.256210794769
 11
84.21570868481162
 21
-161.6700474595824
 72
     1
 10
84.21570868481162
 20
-161.6700474595824
 11
99.80132467607831
 21
-161.6700474595824
 72
     1
 10
99.80132467607831
 20
-161.6700474595824
 11
99.80132467607831
 21
-159.6705382934155
 72
     1
 10
99.80132467607831
 20
-159.6705382934155
 11
100.8017671505549
 21
-159.6705382934155
 72
     1
 10
100.8017671505549
 20
-159.6705382934155
 11
100.8017671505549
 21
-162.6705252371105
 72
     1
 10
100.8017671505549
 20
-162.6705252371105
 11
83.80161813982039
 21
-162.6705252371105
 72
     1
 10
83.80161813982039
 20
-162.6705252371105
 11
75.8013944550342
 21
-154.6703013502212
 72
     1
 10
75.8013944550342
 20
-154.6703013502212
 11
75.8013944550342
 21
-137.670151910027
 72
     1
 10
75.8013944550342
 20
-137.670151910027
 11
78.80138331363293
 21
-137.670151910027
 72
     1
 10
78.80138331363293
 20
-137.670151910027
 11
78.80138331363293
 21
-138.6705944097769
 97
        0
 75
     2
 76
     1
 98
        0
  0
POLYLINE
  5
7C
330
1F
100
AcDbEntity
  8
_U+30EC_U+30A4_U+30E4_U+30FC 1
 62
   179
420
  2234388
370
    25
100
AcDb2dPolyline
 66
     1
 10
0.0
 20
0.0
 30
0.0
  0
VERTEX
  5
7D
330
7C
100
AcDbEntity
  8
_U+30EC_U+30A4_U+30E4_U+30FC 1
 62
   179
420
  2234388
370
    25
100
AcDbVertex
100
AcDb2dVertex
 10
92.80157874354559
 20
-96.67060080916563
 30
0.0
  0
VERTEX
  5
7E
330
7C
100
AcDbEntity
  8
_U+30EC_U+30A4_U+30E4_U+30FC 1
 62
   179
420
  2234388
370
    25
100
AcDbVertex
100
AcDb2dVertex
 10
91.80180654682968
 20
-96.67060080916563
 30
0.0
  0
SEQEND
  5
7F
330
7C
100
AcDbEntity
  8
_U+30EC_U+30A4_U+30E4_U+30FC 1
 62
   179
420
  2234388
370
    25
  0
POLYLINE
  5
80
330
1F
100
AcDbEntity
  8
_U+30EC_U+30A4_U+30E4_U+30FC 1
 62
   179
420
  2234388
370
    25
100
AcDb2dPolyline
 66
     1
 10
0.0
 20
0.0
 30
0.0
  0
VERTEX
  5
81
330
80
100
AcDbEntity
  8
_U+30EC_U+30A4_U+30E4_U+30FC 1
 62
   179
420
  2234388
370
    25
100
AcDbVertex
100
AcDb2dVertex
 10
92.80157874354559
 20
-96.67060080916563
 30
0.0
  0
VERTEX
  5
82
330
80
100
AcDbEntity
  8
_U+30EC_U+30A4_U+30E4_U+30FC 1
 62
   179
420
  2234388
370
    25
100
AcDbVertex
100
AcDb2dVertex
 10
92.80157874354559
 20
-146.67011274111
 30
0.0
  0
SEQEND
  5
83
330
80
100
AcDbEntity
  8
_U+30EC_U+30A4_U+30E4_U+30FC 1
 62
   179
420
  2234388
370
    25
  0
POLYLINE
  5
84
330
1F
100
AcDbEntity
  8
_U+30EC_U+30A4_U+30E4_U+30FC 1
 62
   179
420
  2234388
370
    25
100
AcDb2dPolyline
 66
     1
 10
0.0
 20
0.0
 30
0.0
  0
VERTEX
  5
85
330
84
100
AcDbEntity
  8
_U+30EC_U+30A4_U+30E4_U+30FC 1
 62
   179
420
  2234388
370
    25
100
AcDbVertex
100
AcDb2dVertex
 10
91.80180654682968
 20
-96.67060080916563
 30
0.0
  0
VERTEX
  5
86
330
84
100
AcDbEntity
  8
_U+30EC_U+30A4_U+30E4_U+30FC 1
 62
   179
420
  2234388
370
    25
100
AcDbVertex
100
AcDb2dVertex
 10
91.80180654682968
 20
-100.6703246970547
 30
0.0
  0
SEQEND
  5
87
330
84
100
AcDbEntity
  8
_U+30EC_U+30A4_U+30E4_U+30FC 1
 62
   179
420
  2234388
370
    25
  0
POLYLINE
  5
88
330
1F
100
AcDbEntity
  8
_U+30EC_U+30A4_U+30E4_U+30FC 1
 62
   179
420
  2234388
370
    25
100
AcDb2dPolyline
 66
     1
 10
0.0
 20
0.0
 30
0.0
  0
VERTEX
  5
89
330
88
100
AcDbEntity
  8
_U+30EC_U+30A4_U+30E4_U+30FC 1
 62
   179
420
  2234388
370
    25
100
AcDbVertex
100
AcDb2dVertex
 10
92.80157874354559
 20
-146.67011274111
 30
0.0
  0
VERTEX
  5
8A
330
88
100
AcDbEntity
  8
_U+30EC_U+30A4_U+30E4_U+30FC 1
 62
   179
420
  2234388
370
    25
100
AcDbVertex
100
AcDb2dVertex
 10
76.80187220728767
 20
-146.67011274111
 30
0.0
  0
SEQEND
  5
8B
330
88
100
AcDbEntity
  8
_U+30EC_U+30A4_U+30E4_U+30FC 1
 62
   179
420
  2234388
370
    25
  0
POLYLINE
  5
8C
330
1F
100
AcDbEntity
  8
_U+30EC_U+30A4_U+30E4_U+30FC 1
 62
   179
420
  2234388
370
    25
100
AcDb2dPolyline
 66
     1
 10
0.0
 20
0.0
 30
0.0
  0
VERTEX
  5
8D
330
8C
100
AcDbEntity
  8
_U+30EC_U+30A4_U+30E4_U+30FC 1
 62
   179
420
  2234388
370
    25
100
AcDbVertex
100
AcDb2dVertex
 10
100.8017671505549
 20
-159.6705382934155
 30
0.0
  0
VERTEX
  5
8E
330
8C
100
AcDbEntity
  8
_U+30EC_U+30A4_U+30E4_U+30FC 1
 62
   179
420
  2234388
370
    25
100
AcDbVertex
100
AcDb2dVertex
 10
99.80132467607831
 20
-159.6705382934155
 30
0.0
  0
SEQEND
  5
8F
330
8C
100
AcDbEntity
  8
_U+30EC_U+30A4_U+30E4_U+30FC 1
 62
   179
420
  2234388
370
    25
  0
POLYLINE
  5
90
330
1F
100
AcDbEntity
  8
_U+30EC_U+30A4_U+30E4_U+30FC 1
 62
   179
420
  2234388
370
    25
100
AcDb2dPolyline
 66
     1
 10
0.0
 20
0.0
 30
0.0
  0
VERTEX
  5
91
330
90
100
AcDbEntity
  8
_U+30EC_U+30A4_U+30E4_U+30FC 1
 62
   179
420
  2234388
370
    25
100
AcDbVertex
100
AcDb2dVertex
 10
100.8017671505549
 20
-162.6705252371105
 30
0.0
  0
VERTEX
  5
92
330
90
100
AcDbEntity
  8
_U+30EC_U+30A4_U+30E4_U+30FC 1
 62
   179
420
  2234388
370
    25
100
AcDbVertex
100
AcDb2dVertex
 10
83.80161813982039
 20
-162.6705252371105
 30
0.0
  0
SEQEND
  5
93
330
90
100
AcDbEntity
  8
_U+30EC_U+30A4_U+30E4_U+30FC 1
 62
   179
420
  2234388
370
    25
  0
POLYLINE
  5
94
330
1F
100
AcDbEntity
  8
_U+30EC_U+30A4_U+30E4_U+30FC 1
 62
   179
420
  2234388
370
    25
100
AcDb2dPolyline
 66
     1
 10
0.0
 20
0.0
 30
0.0
  0
VERTEX
  5
95
330
94
100
AcDbEntity
  8
_U+30EC_U+30A4_U+30E4_U+30FC 1
 62
   179
420
  2234388
370
    25
100
AcDbVertex
100
AcDb2dVertex
 10
91.80180654682968
 20
-145.6703405191381
 30
0.0
  0
VERTEX
  5
96
330
94
100
AcDbEntity
  8
_U+30EC_U+30A4_U+30E4_U+30FC 1
 62
   179
420
  2234388
370
    25
100
AcDbVertex
100
AcDb2dVertex
 10
76.80187220728767
 20
-145.6703405191381
 30
0.0
  0
SEQEND
  5
97
330
94
100
AcDbEntity
  8
_U+30EC_U+30A4_U+30E4_U+30FC 1
 62
   179
420
  2234388
370
    25
  0
POLYLINE
  5
98
330
1F
100
AcDbEntity
  8
_U+30EC_U+30A4_U+30E4_U+30FC 1
 62
   179
420
  2234388
370
    25
100
AcDb2dPolyline
 66
     1
 10
0.0
 20
0.0
 30
0.0
  0
VERTEX
  5
99
330
98
100
AcDbEntity
  8
_U+30EC_U+30A4_U+30E4_U+30FC 1
 62
   179
420
  2234388
370
    25
100
AcDbVertex
100
AcDb2dVertex
 10
78.80138331363293
 20
-137.670151910027
 30
0.0
  0
VERTEX
  5
9A
330
98
100
AcDbEntity
  8
_U+30EC_U+30A4_U+30E4_U+30FC 1
 62
   179
420
  2234388
370
    25
100
AcDbVertex
100
AcDb2dVertex
 10
78.80138331363293
 20
-138.6705944097769
 30
0.0
  0
SEQEND
  5
9B
330
98
100
AcDbEntity
  8
_U+30EC_U+30A4_U+30E4_U+30FC 1
 62
   179
420
  2234388
370
    25
  0
POLYLINE
  5
9C
330
1F
100
AcDbEntity
  8
_U+30EC_U+30A4_U+30E4_U+30FC 1
 62
   179
420
  2234388
370
    25
100
AcDb2dPolyline
 66
     1
 10
0.0
 20
0.0
 30
0.0
  0
VERTEX
  5
9D
330
9C
100
AcDbEntity
  8
_U+30EC_U+30A4_U+30E4_U+30FC 1
 62
   179
420
  2234388
370
    25
100
AcDbVertex
100
AcDb2dVertex
 10
75.8013944550342
 20
-137.670151910027
 30
0.0
  0
VERTEX
  5
9E
330
9C
100
AcDbEntity
  8
_U+30EC_U+30A4_U+30E4_U+30FC 1
 62
   179
420
  2234388
370
    25
100
AcDbVertex
100
AcDb2dVertex
 10
75.8013944550342
 20
-154.6703013502212
 30
0.0
  0
SEQEND
  5
9F
330
9C
100
AcDbEntity
  8
_U+30EC_U+30A4_U+30E4_U+30FC 1
 62
   179
420
  2234388
370
    25
  0
POLYLINE
  5
A0
330
1F
100
AcDbEntity
  8
_U+30EC_U+30A4_U+30E4_U+30FC 1
 62
   179
420
  2234388
370
    25
100
AcDb2dPolyline
 66
     1
 10
0.0
 20
0.0
 30
0.0
  0
VERTEX
  5
A1
330
A0
100
AcDbEntity
  8
_U+30EC_U+30A4_U+30E4_U+30FC 1
 62
   179
420
  2234388
370
    25
100
AcDbVertex
100
AcDb2dVertex
 10
78.80138331363293
 20
-137.670151910027
 30
0.0
  0
VERTEX
  5
A2
330
A0
100
AcDbEntity
  8
_U+30EC_U+30A4_U+30E4_U+30FC 1
 62
   179
420
  2234388
370
    25
100
AcDbVertex
100
AcDb2dVertex
 10
75.8013944550342
 20
-137.670151910027
 30
0.0
  0
SEQEND
  5
A3
330
A0
100
AcDbEntity
  8
_U+30EC_U+30A4_U+30E4_U+30FC 1
 62
   179
420
  2234388
370
    25
  0
POLYLINE
  5
A4
330
1F
100
AcDbEntity
  8
_U+30EC_U+30A4_U+30E4_U+30FC 1
 62
   179
420
  2234388
370
    25
100
AcDb2dPolyline
 66
     1
 10
0.0
 20
0.0
 30
0.0
  0
VERTEX
  5
A5
330
A4
100
AcDbEntity
  8
_U+30EC_U+30A4_U+30E4_U+30FC 1
 62
   179
420
  2234388
370
    25
100
AcDbVertex
100
AcDb2dVertex
 10
78.80138331363293
 20
-138.6705944097769
 30
0.0
  0
VERTEX
  5
A6
330
A4
100
AcDbEntity
  8
_U+30EC_U+30A4_U+30E4_U+30FC 1
 62
   179
420
  2234388
370
    25
100
AcDbVertex
100
AcDb2dVertex
 10
76.80187220728767
 20
-138.6705944097769
 30
0.0
  0
SEQEND
  5
A7
330
A4
100
AcDbEntity
  8
_U+30EC_U+30A4_U+30E4_U+30FC 1
 62
   179
420
  2234388
370
    25
  0
POLYLINE
  5
A8
330
1F
100
AcDbEntity
  8
_U+30EC_U+30A4_U+30E4_U+30FC 1
 62
   179
420
  2234388
370
    25
100
AcDb2dPolyline
 66
     1
 10
0.0
 20
0.0
 30
0.0
  0
VERTEX
  5
A9
330
A8
100
AcDbEntity
  8
_U+30EC_U+30A4_U+30E4_U+30FC 1
 62
   179
420
  2234388
370
    25
100
AcDbVertex
100
AcDb2dVertex
 10
76.80187220728767
 20
-138.6705944097769
 30
0.0
  0
VERTEX
  5
AA
330
A8
100
AcDbEntity
  8
_U+30EC_U+30A4_U+30E4_U+30FC 1
 62
   179
420
  2234388
370
    25
100
AcDbVertex
100
AcDb2dVertex
 10
76.80187220728767
 20
-145.6703405191381
 30
0.0
  0
SEQEND
  5
AB
330
A8
100
AcDbEntity
  8
_U+30EC_U+30A4_U+30E4_U+30FC 1
 62
   179
420
  2234388
370
    25
  0
POLYLINE
  5
AC
330
1F
100
AcDbEntity
  8
_U+30EC_U+30A4_U+30E4_U+30FC 1
 62
   179
420
  2234388
370
    25
100
AcDb2dPolyline
 66
     1
 10
0.0
 20
0.0
 30
0.0
  0
VERTEX
  5
AD
330
AC
100
AcDbEntity
  8
_U+30EC_U+30A4_U+30E4_U+30FC 1
 62
   179
420
  2234388
370
    25
100
AcDbVertex
100
AcDb2dVertex
 10
100.8017671505549
 20
-159.6705382934155
 30
0.0
  0
VERTEX
  5
AE
330
AC
100
AcDbEntity
  8
_U+30EC_U+30A4_U+30E4_U+30FC 1
 62
   179
420
  2234388
370
    25
100
AcDbVertex
100
AcDb2dVertex
 10
100.8017671505549
 20
-162.6705252371105
 30
0.0
  0
SEQEND
  5
AF
330
AC
100
AcDbEntity
  8
_U+30EC_U+30A4_U+30E4_U+30FC 1
 62
   179
420
  2234388
370
    25
  0
POLYLINE
  5
B0
330
1F
100
AcDbEntity
  8
_U+30EC_U+30A4_U+30E4_U+30FC 1
 62
   179
420
  2234388
370
    25
100
AcDb2dPolyline
 66
     1
 10
0.0
 20
0.0
 30
0.0
  0
VERTEX
  5
B1
330
B0
100
AcDbEntity
  8
_U+30EC_U+30A4_U+30E4_U+30FC 1
 62
   179
420
  2234388
370
    25
100
AcDbVertex
100
AcDb2dVertex
 10
99.80132467607831
 20
-159.6705382934155
 30
0.0
  0
VERTEX
  5
B2
330
B0
100
AcDbEntity
  8
_U+30EC_U+30A4_U+30E4_U+30FC 1
 62
   179
420
  2234388
370
    25
100
AcDbVertex
100
AcDb2dVertex
 10
99.80132467607831
 20
-161.6700474595824
 30
0.0
  0
SEQEND
  5
B3
330
B0
100
AcDbEntity
  8
_U+30EC_U+30A4_U+30E4_U+30FC 1
 62
   179
420
  2234388
370
    25
  0
POLYLINE
  5
B4
330
1F
100
AcDbEntity
  8
_U+30EC_U+30A4_U+30E4_U+30FC 1
 62
   179
420
  2234388
370
    25
100
AcDb2dPolyline
 66
     1
 10
0.0
 20
0.0
 30
0.0
  0
VERTEX
  5
B5
330
B4
100
AcDbEntity
  8
_U+30EC_U+30A4_U+30E4_U+30FC 1
 62
   179
420
  2234388
370
    25
100
AcDbVertex
100
AcDb2dVertex
 10
99.80132467607831
 20
-161.6700474595824
 30
0.0
  0
VERTEX
  5
B6
330
B4
100
AcDbEntity
  8
_U+30EC_U+30A4_U+30E4_U+30FC 1
 62
   179
420
  2234388
370
    25
100
AcDbVertex
100
AcDb2dVertex
 10
84.21570868481162
 20
-161.6700474595824
 30
0.0
  0
SEQEND
  5
B7
330
B4
100
AcDbEntity
  8
_U+30EC_U+30A4_U+30E4_U+30FC 1
 62
   179
420
  2234388
370
    25
  0
POLYLINE
  5
B8
330
1F
100
AcDbEntity
  8
_U+30EC_U+30A4_U+30E4_U+30FC 1
 62
   179
420
  2234388
370
    25
100
AcDb2dPolyline
 66
     1
 10
0.0
 20
0.0
 30
0.0
  0
VERTEX
  5
B9
330
B8
100
AcDbEntity
  8
_U+30EC_U+30A4_U+30E4_U+30FC 1
 62
   179
420
  2234388
370
    25
100
AcDbVertex
100
AcDb2dVertex
 10
76.80187220728767
 20
-146.67011274111
 30
0.0
  0
VERTEX
  5
BA
330
B8
100
AcDbEntity
  8
_U+30EC_U+30A4_U+30E4_U+30FC 1
 62
   179
420
  2234388
370
    25
100
AcDbVertex
100
AcDb2dVertex
 10
76.80187220728767
 20
-154.256210794769
 30
0.0
  0
SEQEND
  5
BB
330
B8
100
AcDbEntity
  8
_U+30EC_U+30A4_U+30E4_U+30FC 1
 62
   179
420
  2234388
370
    25
  0
POLYLINE
  5
BC
330
1F
100
AcDbEntity
  8
_U+30EC_U+30A4_U+30E4_U+30FC 1
 62
   179
420
  2234388
370
    25
100
AcDb2dPolyline
 66
     1
 10
0.0
 20
0.0
 30
0.0
  0
VERTEX
  5
BD
330
BC
100
AcDbEntity
  8
_U+30EC_U+30A4_U+30E4_U+30FC 1
 62
   179
420
  2234388
370
    25
100
AcDbVertex
100
AcDb2dVertex
 10
83.80161813982039
 20
-162.6705252371105
 30
0.0
  0
VERTEX
  5
BE
330
BC
100
AcDbEntity
  8
_U+30EC_U+30A4_U+30E4_U+30FC 1
 62
   179
420
  2234388
370
    25
100
AcDbVertex
100
AcDb2dVertex
 10
75.8013944550342
 20
-154.6703013502212
 30
0.0
  0
SEQEND
  5
BF
330
BC
100
AcDbEntity
  8
_U+30EC_U+30A4_U+30E4_U+30FC 1
 62
   179
420
  2234388
370
    25
  0
POLYLINE
  5
C0
330
1F
100
AcDbEntity
  8
_U+30EC_U+30A4_U+30E4_U+30FC 1
 62
   179
420
  2234388
370
    25
100
AcDb2dPolyline
 66
     1
 10
0.0
 20
0.0
 30
0.0
  0
VERTEX
  5
C1
330
C0
100
AcDbEntity
  8
_U+30EC_U+30A4_U+30E4_U+30FC 1
 62
   179
420
  2234388
370
    25
100
AcDbVertex
100
AcDb2dVertex
 10
84.21570868481162
 20
-161.6700474595824
 30
0.0
  0
VERTEX
  5
C2
330
C0
100
AcDbEntity
  8
_U+30EC_U+30A4_U+30E4_U+30FC 1
 62
   179
420
  2234388
370
    25
100
AcDbVertex
100
AcDb2dVertex
 10
76.80187220728767
 20
-154.256210794769
 30
0.0
  0
SEQEND
  5
C3
330
C0
100
AcDbEntity
  8
_U+30EC_U+30A4_U+30E4_U+30FC 1
 62
   179
420
  2234388
370
    25
  0
POLYLINE
  5
C4
330
1F
100
AcDbEntity
  8
_U+30EC_U+30A4_U+30E4_U+30FC 1
 62
   179
420
  2234388
370
    25
100
AcDb2dPolyline
 66
     1
 10
0.0
 20
0.0
 30
0.0
  0
VERTEX
  5
C5
330
C4
100
AcDbEntity
  8
_U+30EC_U+30A4_U+30E4_U+30FC 1
 62
   179
420
  2234388
370
    25
100
AcDbVertex
100
AcDb2dVertex
 10
92.30133986741886
 20
-101.5591835857212
 30
0.0
  0
VERTEX
  5
C6
330
C4
100
AcDbEntity
  8
_U+30EC_U+30A4_U+30E4_U+30FC 1
 62
   179
420
  2234388
370
    25
100
AcDbVertex
100
AcDb2dVertex
 10
91.80180654682968
 20
-100.6703246970547
 30
0.0
  0
SEQEND
  5
C7
330
C4
100
AcDbEntity
  8
_U+30EC_U+30A4_U+30E4_U+30FC 1
 62
   179
420
  2234388
370
    25
  0
POLYLINE
  5
C8
330
1F
100
AcDbEntity
  8
_U+30EC_U+30A4_U+30E4_U+30FC 1
 62
   179
420
  2234388
370
    25
100
AcDb2dPolyline
 66
     1
 10
0.0
 20
0.0
 30
0.0
  0
VERTEX
  5
C9
330
C8
100
AcDbEntity
  8
_U+30EC_U+30A4_U+30E4_U+30FC 1
 62
   179
420
  2234388
370
    25
100
AcDbVertex
100
AcDb2dVertex
 10
92.30133986741886
 20
-101.5591835857212
 30
0.0
  0
VERTEX
  5
CA
330
C8
100
AcDbEntity
  8
_U+30EC_U+30A4_U+30E4_U+30FC 1
 62
   179
420
  2234388
370
    25
100
AcDbVertex
100
AcDb2dVertex
 10
91.80180654682968
 20
-102.4480071966102
 30
0.0
  0
SEQEND
  5
CB
330
C8
100
AcDbEntity
  8
_U+30EC_U+30A4_U+30E4_U+30FC 1
 62
   179
420
  2234388
370
    25
  0
POLYLINE
  5
CC
330
1F
100
AcDbEntity
  8
_U+30EC_U+30A4_U+30E4_U+30FC 1
 62
   179
420
  2234388
370
    25
100
AcDb2dPolyline
 66
     1
 10
0.0
 20
0.0
 30
0.0
  0
VERTEX
  5
CD
330
CC
100
AcDbEntity
  8
_U+30EC_U+30A4_U+30E4_U+30FC 1
 62
   179
420
  2234388
370
    25
100
AcDbVertex
100
AcDb2dVertex
 10
92.30133986741886
 20
-103.3368308074993
 30
0.0
  0
VERTEX
  5
CE
330
CC
100
AcDbEntity
  8
_U+30EC_U+30A4_U+30E4_U+30FC 1
 62
   179
420
  2234388
370
    25
100
AcDbVertex
100
AcDb2dVertex
 10
91.80180654682968
 20
-102.4480071966102
 30
0.0
  0
SEQEND
  5
CF
330
CC
100
AcDbEntity
  8
_U+30EC_U+30A4_U+30E4_U+30FC 1
 62
   179
420
  2234388
370
    25
  0
POLYLINE
  5
D0
330
1F
100
AcDbEntity
  8
_U+30EC_U+30A4_U+30E4_U+30FC 1
 62
   179
420
  2234388
370
    25
100
AcDb2dPolyline
 66
     1
 10
0.0
 20
0.0
 30
0.0
  0
VERTEX
  5
D1
330
D0
100
AcDbEntity
  8
_U+30EC_U+30A4_U+30E4_U+30FC 1
 62
   179
420
  2234388
370
    25
100
AcDbVertex
100
AcDb2dVertex
 10
92.30133986741886
 20
-103.3368308074993
 30
0.0
  0
VERTEX
  5
D2
330
D0
100
AcDbEntity
  8
_U+30EC_U+30A4_U+30E4_U+30FC 1
 62
   179
420
  2234388
370
    25
100
AcDbVertex
100
AcDb2dVertex
 10
91.80180654682968
 20
-104.2256896961658
 30
0.0
  0
SEQEND
  5
D3
330
D0
100
AcDbEntity
  8
_U+30EC_U+30A4_U+30E4_U+30FC 1
 62
   179
420
  2234388
370
    25
  0
POLYLINE
  5
D4
330
1F
100
AcDbEntity
  8
_U+30EC_U+30A4_U+30E4_U+30FC 1
 62
   179
420
  2234388
370
    25
100
AcDb2dPolyline
 66
     1
 10
0.0
 20
0.0
 30
0.0
  0
VERTEX
  5
D5
330
D4
100
AcDbEntity
  8
_U+30EC_U+30A4_U+30E4_U+30FC 1
 62
   179
420
  2234388
370
    25
100
AcDbVertex
100
AcDb2dVertex
 10
92.30133986741886
 20
-105.1148660848323
 30
0.0
  0
VERTEX
  5
D6
330
D4
100
AcDbEntity
  8
_U+30EC_U+30A4_U+30E4_U+30FC 1
 62
   179
420
  2234388
370
    25
100
AcDbVertex
100
AcDb2dVertex
 10
91.80180654682968
 20
-106.0036896957213
 30
0.0
  0
SEQEND
  5
D7
330
D4
100
AcDbEntity
  8
_U+30EC_U+30A4_U+30E4_U+30FC 1
 62
   179
420
  2234388
370
    25
  0
POLYLINE
  5
D8
330
1F
100
AcDbEntity
  8
_U+30EC_U+30A4_U+30E4_U+30FC 1
 62
   179
420
  2234388
370
    25
100
AcDb2dPolyline
 66
     1
 10
0.0
 20
0.0
 30
0.0
  0
VERTEX
  5
D9
330
D8
100
AcDbEntity
  8
_U+30EC_U+30A4_U+30E4_U+30FC 1
 62
   179
420
  2234388
370
    25
100
AcDbVertex
100
AcDb2dVertex
 10
92.30133986741886
 20
-105.1148660848323
 30
0.0
  0
VERTEX
  5
DA
330
D8
100
AcDbEntity
  8
_U+30EC_U+30A4_U+30E4_U+30FC 1
 62
   179
420
  2234388
370
    25
100
AcDbVertex
100
AcDb2dVertex
 10
91.80180654682968
 20
-104.2256896961658
 30
0.0
  0
SEQEND
  5
DB
330
D8
100
AcDbEntity
  8
_U+30EC_U+30A4_U+30E4_U+30FC 1
 62
   179
420
  2234388
370
    25
  0
POLYLINE
  5
DC
330
1F
100
AcDbEntity
  8
_U+30EC_U+30A4_U+30E4_U+30FC 1
 62
   179
420
  2234388
370
    25
100
AcDb2dPolyline
 66
     1
 10
0.0
 20
0.0
 30
0.0
  0
VERTEX
  5
DD
330
DC
100
AcDbEntity
  8
_U+30EC_U+30A4_U+30E4_U+30FC 1
 62
   179
420
  2234388
370
    25
100
AcDbVertex
100
AcDb2dVertex
 10
92.30133986741886
 20
-106.8925133066103
 30
0.0
  0
VERTEX
  5
DE
330
DC
100
AcDbEntity
  8
_U+30EC_U+30A4_U+30E4_U+30FC 1
 62
   179
420
  2234388
370
    25
100
AcDbVertex
100
AcDb2dVertex
 10
91.80180654682968
 20
-106.0036896957213
 30
0.0
  0
SEQEND
  5
DF
330
DC
100
AcDbEntity
  8
_U+30EC_U+30A4_U+30E4_U+30FC 1
 62
   179
420
  2234388
370
    25
  0
POLYLINE
  5
E0
330
1F
100
AcDbEntity
  8
_U+30EC_U+30A4_U+30E4_U+30FC 1
 62
   179
420
  2234388
370
    25
100
AcDb2dPolyline
 66
     1
 10
0.0
 20
0.0
 30
0.0
  0
VERTEX
  5
E1
330
E0
100
AcDbEntity
  8
_U+30EC_U+30A4_U+30E4_U+30FC 1
 62
   179
420
  2234388
370
    25
100
AcDbVertex
100
AcDb2dVertex
 10
92.30133986741886
 20
-106.8925133066103
 30
0.0
  0
VERTEX
  5
E2
330
E0
100
AcDbEntity
  8
_U+30EC_U+30A4_U+30E4_U+30FC 1
 62
   179
420
  2234388
370
    25
100
AcDbVertex
100
AcDb2dVertex
 10
91.80180654682968
 20
-107.7816896952768
 30
0.0
  0
SEQEND
  5
E3
330
E0
100
AcDbEntity
  8
_U+30EC_U+30A4_U+30E4_U+30FC 1
 62
   179
420
  2234388
370
    25
  0
POLYLINE
  5
E4
330
1F
100
AcDbEntity
  8
_U+30EC_U+30A4_U+30E4_U+30FC 1
 62
   179
420
  2234388
370
    25
100
AcDb2dPolyline
 66
     1
 10
0.0
 20
0.0
 30
0.0
  0
VERTEX
  5
E5
330
E4
100
AcDbEntity
  8
_U+30EC_U+30A4_U+30E4_U+30FC 1
 62
   179
420
  2234388
370
    25
100
AcDbVertex
100
AcDb2dVertex
 10
92.30133986741886
 20
-108.6705485839433
 30
0.0
  0
VERTEX
  5
E6
330
E4
100
AcDbEntity
  8
_U+30EC_U+30A4_U+30E4_U+30FC 1
 62
   179
420
  2234388
370
    25
100
AcDbVertex
100
AcDb2dVertex
 10
91.80180654682968
 20
-109.5593721948323
 30
0.0
  0
SEQEND
  5
E7
330
E4
100
AcDbEntity
  8
_U+30EC_U+30A4_U+30E4_U+30FC 1
 62
   179
420
  2234388
370
    25
  0
POLYLINE
  5
E8
330
1F
100
AcDbEntity
  8
_U+30EC_U+30A4_U+30E4_U+30FC 1
 62
   179
420
  2234388
370
    25
100
AcDb2dPolyline
 66
     1
 10
0.0
 20
0.0
 30
0.0
  0
VERTEX
  5
E9
330
E8
100
AcDbEntity
  8
_U+30EC_U+30A4_U+30E4_U+30FC 1
 62
   179
420
  2234388
370
    25
100
AcDbVertex
100
AcDb2dVertex
 10
92.30133986741886
 20
-108.6705485839433
 30
0.0
  0
VERTEX
  5
EA
330
E8
100
AcDbEntity
  8
_U+30EC_U+30A4_U+30E4_U+30FC 1
 62
   179
420
  2234388
370
    25
100
AcDbVertex
100
AcDb2dVertex
 10
91.80180654682968
 20
-107.7816896952768
 30
0.0
  0
SEQEND
  5
EB
330
E8
100
AcDbEntity
  8
_U+30EC_U+30A4_U+30E4_U+30FC 1
 62
   179
420
  2234388
370
    25
  0
POLYLINE
  5
EC
330
1F
100
AcDbEntity
  8
_U+30EC_U+30A4_U+30E4_U+30FC 1
 62
   179
420
  2234388
370
    25
100
AcDb2dPolyline
 66
     1
 10
0.0
 20
0.0
 30
0.0
  0
VERTEX
  5
ED
330
EC
100
AcDbEntity
  8
_U+30EC_U+30A4_U+30E4_U+30FC 1
 62
   179
420
  2234388
370
    25
100
AcDbVertex
100
AcDb2dVertex
 10
92.30133986741886
 20
-110.4481958057214
 30
0.0
  0
VERTEX
  5
EE
330
EC
100
AcDbEntity
  8
_U+30EC_U+30A4_U+30E4_U+30FC 1
 62
   179
420
  2234388
370
    25
100
AcDbVertex
100
AcDb2dVertex
 10
91.80180654682968
 20
-109.5593721948323
 30
0.0
  0
SEQEND
  5
EF
330
EC
100
AcDbEntity
  8
_U+30EC_U+30A4_U+30E4_U+30FC 1
 62
   179
420
  2234388
370
    25
  0
POLYLINE
  5
F0
330
1F
100
AcDbEntity
  8
_U+30EC_U+30A4_U+30E4_U+30FC 1
 62
   179
420
  2234388
370
    25
100
AcDb2dPolyline
 66
     1
 10
0.0
 20
0.0
 30
0.0
  0
VERTEX
  5
F1
330
F0
100
AcDbEntity
  8
_U+30EC_U+30A4_U+30E4_U+30FC 1
 62
   179
420
  2234388
370
    25
100
AcDbVertex
100
AcDb2dVertex
 10
92.30133986741886
 20
-110.4481958057214
 30
0.0
  0
VERTEX
  5
F2
330
F0
100
AcDbEntity
  8
_U+30EC_U+30A4_U+30E4_U+30FC 1
 62
   179
420
  2234388
370
    25
100
AcDbVertex
100
AcDb2dVertex
 10
91.80180654682968
 20
-111.3370546943879
 30
0.0
  0
SEQEND
  5
F3
330
F0
100
AcDbEntity
  8
_U+30EC_U+30A4_U+30E4_U+30FC 1
 62
   179
420
  2234388
370
    25
  0
POLYLINE
  5
F4
330
1F
100
AcDbEntity
  8
_U+30EC_U+30A4_U+30E4_U+30FC 1
 62
   179
420
  2234388
370
    25
100
AcDb2dPolyline
 66
     1
 10
0.0
 20
0.0
 30
0.0
  0
VERTEX
  5
F5
330
F4
100
AcDbEntity
  8
_U+30EC_U+30A4_U+30E4_U+30FC 1
 62
   179
420
  2234388
370
    25
100
AcDbVertex
100
AcDb2dVertex
 10
92.30133986741886
 20
-112.2258783052769
 30
0.0
  0
VERTEX
  5
F6
330
F4
100
AcDbEntity
  8
_U+30EC_U+30A4_U+30E4_U+30FC 1
 62
   179
420
  2234388
370
    25
100
AcDbVertex
100
AcDb2dVertex
 10
91.80180654682968
 20
-113.1147019161656
 30
0.0
  0
SEQEND
  5
F7
330
F4
100
AcDbEntity
  8
_U+30EC_U+30A4_U+30E4_U+30FC 1
 62
   179
420
  2234388
370
    25
  0
POLYLINE
  5
F8
330
1F
100
AcDbEntity
  8
_U+30EC_U+30A4_U+30E4_U+30FC 1
 62
   179
420
  2234388
370
    25
100
AcDb2dPolyline
 66
     1
 10
0.0
 20
0.0
 30
0.0
  0
VERTEX
  5
F9
330
F8
100
AcDbEntity
  8
_U+30EC_U+30A4_U+30E4_U+30FC 1
 62
   179
420
  2234388
370
    25
100
AcDbVertex
100
AcDb2dVertex
 10
92.30133986741886
 20
-112.2258783052769
 30
0.0
  0
VERTEX
  5
FA
330
F8
100
AcDbEntity
  8
_U+30EC_U+30A4_U+30E4_U+30FC 1
 62
   179
420
  2234388
370
    25
100
AcDbVertex
100
AcDb2dVertex
 10
91.80180654682968
 20
-111.3370546943879
 30
0.0
  0
SEQEND
  5
FB
330
F8
100
AcDbEntity
  8
_U+30EC_U+30A4_U+30E4_U+30FC 1
 62
   179
420
  2234388
370
    25
  0
POLYLINE
  5
FC
330
1F
100
AcDbEntity
  8
_U+30EC_U+30A4_U+30E4_U+30FC 1
 62
   179
420
  2234388
370
    25
100
AcDb2dPolyline
 66
     1
 10
0.0
 20
0.0
 30
0.0
  0
VERTEX
  5
FD
330
FC
100
AcDbEntity
  8
_U+30EC_U+30A4_U+30E4_U+30FC 1
 62
   179
420
  2234388
370
    25
100
AcDbVertex
100
AcDb2dVertex
 10
92.30133986741886
 20
-114.0035608048325
 30
0.0
  0
VERTEX
  5
FE
330
FC
100
AcDbEntity
  8
_U+30EC_U+30A4_U+30E4_U+30FC 1
 62
   179
420
  2234388
370
    25
100
AcDbVertex
100
AcDb2dVertex
 10
91.80180654682968
 20
-113.1147019161656
 30
0.0
  0
SEQEND
  5
FF
330
FC
100
AcDbEntity
  8
_U+30EC_U+30A4_U+30E4_U+30FC 1
 62
   179
420
  2234388
370
    25
  0
POLYLINE
  5
100
330
1F
100
AcDbEntity
  8
_U+30EC_U+30A4_U+30E4_U+30FC 1
 62
   179
420
  2234388
370
    25
100
AcDb2dPolyline
 66
     1
 10
0.0
 20
0.0
 30
0.0
  0
VERTEX
  5
101
330
100
100
AcDbEntity
  8
_U+30EC_U+30A4_U+30E4_U+30FC 1
 62
   179
420
  2234388
370
    25
100
AcDbVertex
100
AcDb2dVertex
 10
92.30133986741886
 20
-114.0035608048325
 30
0.0
  0
VERTEX
  5
102
330
100
100
AcDbEntity
  8
_U+30EC_U+30A4_U+30E4_U+30FC 1
 62
   179
420
  2234388
370
    25
100
AcDbVertex
100
AcDb2dVertex
 10
91.80180654682968
 20
-114.8923844157215
 30
0.0
  0
SEQEND
  5
103
330
100
100
AcDbEntity
  8
_U+30EC_U+30A4_U+30E4_U+30FC 1
 62
   179
420
  2234388
370
    25
  0
POLYLINE
  5
104
330
1F
100
AcDbEntity
  8
_U+30EC_U+30A4_U+30E4_U+30FC 1
 62
   179
420
  2234388
370
    25
100
AcDb2dPolyline
 66
     1
 10
0.0
 20
0.0
 30
0.0
  0
VERTEX
  5
105
330
104
100
AcDbEntity
  8
_U+30EC_U+30A4_U+30E4_U+30FC 1
 62
   179
420
  2234388
370
    25
100
AcDbVertex
100
AcDb2dVertex
 10
92.30133986741886
 20
-115.781560804388
 30
0.0
  0
VERTEX
  5
106
330
104
100
AcDbEntity
  8
_U+30EC_U+30A4_U+30E4_U+30FC 1
 62
   179
420
  2234388
370
    25
100
AcDbVertex
100
AcDb2dVertex
 10
91.80180654682968
 20
-116.6703844152767
 30
0.0
  0
SEQEND
  5
107
330
104
100
AcDbEntity
  8
_U+30EC_U+30A4_U+30E4_U+30FC 1
 62
   179
420
  2234388
370
    25
  0
POLYLINE
  5
108
330
1F
100
AcDbEntity
  8
_U+30EC_U+30A4_U+30E4_U+30FC 1
 62
   179
420
  2234388
370
    25
100
AcDb2dPolyline
 66
     1
 10
0.0
 20
0.0
 30
0.0
  0
VERTEX
  5
109
330
108
100
AcDbEntity
  8
_U+30EC_U+30A4_U+30E4_U+30FC 1
 62
   179
420
  2234388
370
    25
100
AcDbVertex
100
AcDb2dVertex
 10
92.30133986741886
 20
-115.781560804388
 30
0.0
  0
VERTEX
  5
10A
330
108
100
AcDbEntity
  8
_U+30EC_U+30A4_U+30E4_U+30FC 1
 62
   179
420
  2234388
370
    25
100
AcDbVertex
100
AcDb2dVertex
 10
91.80180654682968
 20
-114.8923844157215
 30
0.0
  0
SEQEND
  5
10B
330
108
100
AcDbEntity
  8
_U+30EC_U+30A4_U+30E4_U+30FC 1
 62
   179
420
  2234388
370
    25
  0
POLYLINE
  5
10C
330
1F
100
AcDbEntity
  8
_U+30EC_U+30A4_U+30E4_U+30FC 1
 62
   179
420
  2234388
370
    25
100
AcDb2dPolyline
 66
     1
 10
0.0
 20
0.0
 30
0.0
  0
VERTEX
  5
10D
330
10C
100
AcDbEntity
  8
_U+30EC_U+30A4_U+30E4_U+30FC 1
 62
   179
420
  2234388
370
    25
100
AcDbVertex
100
AcDb2dVertex
 10
92.30133986741886
 20
-117.5592433039436
 30
0.0
  0
VERTEX
  5
10E
330
10C
100
AcDbEntity
  8
_U+30EC_U+30A4_U+30E4_U+30FC 1
 62
   179
420
  2234388
370
    25
100
AcDbVertex
100
AcDb2dVertex
 10
91.80180654682968
 20
-116.6703844152767
 30
0.0
  0
SEQEND
  5
10F
330
10C
100
AcDbEntity
  8
_U+30EC_U+30A4_U+30E4_U+30FC 1
 62
   179
420
  2234388
370
    25
  0
POLYLINE
  5
110
330
1F
100
AcDbEntity
  8
_U+30EC_U+30A4_U+30E4_U+30FC 1
 62
   179
420
  2234388
370
    25
100
AcDb2dPolyline
 66
     1
 10
0.0
 20
0.0
 30
0.0
  0
VERTEX
  5
111
330
110
100
AcDbEntity
  8
_U+30EC_U+30A4_U+30E4_U+30FC 1
 62
   179
420
  2234388
370
    25
100
AcDbVertex
100
AcDb2dVertex
 10
92.30133986741886
 20
-117.5592433039436
 30
0.0
  0
VERTEX
  5
112
330
110
100
AcDbEntity
  8
_U+30EC_U+30A4_U+30E4_U+30FC 1
 62
   179
420
  2234388
370
    25
100
AcDbVertex
100
AcDb2dVertex
 10
91.80180654682968
 20
-118.4480669148326
 30
0.0
  0
SEQEND
  5
113
330
110
100
AcDbEntity
  8
_U+30EC_U+30A4_U+30E4_U+30FC 1
 62
   179
420
  2234388
370
    25
  0
POLYLINE
  5
114
330
1F
100
AcDbEntity
  8
_U+30EC_U+30A4_U+30E4_U+30FC 1
 62
   179
420
  2234388
370
    25
100
AcDb2dPolyline
 66
     1
 10
0.0
 20
0.0
 30
0.0
  0
VERTEX
  5
115
330
114
100
AcDbEntity
  8
_U+30EC_U+30A4_U+30E4_U+30FC 1
 62
   179
420
  2234388
370
    25
100
AcDbVertex
100
AcDb2dVertex
 10
92.30133986741886
 20
-119.3372433034991
 30
0.0
  0
VERTEX
  5
116
330
114
100
AcDbEntity
  8
_U+30EC_U+30A4_U+30E4_U+30FC 1
 62
   179
420
  2234388
370
    25
100
AcDbVertex
100
AcDb2dVertex
 10
91.80180654682968
 20
-120.2260669143881
 30
0.0
  0
SEQEND
  5
117
330
114
100
AcDbEntity
  8
_U+30EC_U+30A4_U+30E4_U+30FC 1
 62
   179
420
  2234388
370
    25
  0
POLYLINE
  5
118
330
1F
100
AcDbEntity
  8
_U+30EC_U+30A4_U+30E4_U+30FC 1
 62
   179
420
  2234388
370
    25
100
AcDb2dPolyline
 66
     1
 10
0.0
 20
0.0
 30
0.0
  0
VERTEX
  5
119
330
118
100
AcDbEntity
  8
_U+30EC_U+30A4_U+30E4_U+30FC 1
 62
   179
420
  2234388
370
    25
100
AcDbVertex
100
AcDb2dVertex
 10
92.30133986741886
 20
-119.3372433034991
 30
0.0
  0
VERTEX
  5
11A
330
118
100
AcDbEntity
  8
_U+30EC_U+30A4_U+30E4_U+30FC 1
 62
   179
420
  2234388
370
    25
100
AcDbVertex
100
AcDb2dVertex
 10
91.80180654682968
 20
-118.4480669148326
 30
0.0
  0
SEQEND
  5
11B
330
118
100
AcDbEntity
  8
_U+30EC_U+30A4_U+30E4_U+30FC 1
 62
   179
420
  2234388
370
    25
  0
POLYLINE
  5
11C
330
1F
100
AcDbEntity
  8
_U+30EC_U+30A4_U+30E4_U+30FC 1
 62
   179
420
  2234388
370
    25
100
AcDb2dPolyline
 66
     1
 10
0.0
 20
0.0
 30
0.0
  0
VERTEX
  5
11D
330
11C
100
AcDbEntity
  8
_U+30EC_U+30A4_U+30E4_U+30FC 1
 62
   179
420
  2234388
370
    25
100
AcDbVertex
100
AcDb2dVertex
 10
92.30133986741886
 20
-121.1149258030546
 30
0.0
  0
VERTEX
  5
11E
330
11C
100
AcDbEntity
  8
_U+30EC_U+30A4_U+30E4_U+30FC 1
 62
   179
420
  2234388
370
    25
100
AcDbVertex
100
AcDb2dVertex
 10
91.80180654682968
 20
-120.2260669143881
 30
0.0
  0
SEQEND
  5
11F
330
11C
100
AcDbEntity
  8
_U+30EC_U+30A4_U+30E4_U+30FC 1
 62
   179
420
  2234388
370
    25
  0
POLYLINE
  5
120
330
1F
100
AcDbEntity
  8
_U+30EC_U+30A4_U+30E4_U+30FC 1
 62
   179
420
  2234388
370
    25
100
AcDb2dPolyline
 66
     1
 10
0.0
 20
0.0
 30
0.0
  0
VERTEX
  5
121
330
120
100
AcDbEntity
  8
_U+30EC_U+30A4_U+30E4_U+30FC 1
 62
   179
420
  2234388
370
    25
100
AcDbVertex
100
AcDb2dVertex
 10
92.30133986741886
 20
-121.1149258030546
 30
0.0
  0
VERTEX
  5
122
330
120
100
AcDbEntity
  8
_U+30EC_U+30A4_U+30E4_U+30FC 1
 62
   179
420
  2234388
370
    25
100
AcDbVertex
100
AcDb2dVertex
 10
91.80180654682968
 20
-122.0037494139436
 30
0.0
  0
SEQEND
  5
123
330
120
100
AcDbEntity
  8
_U+30EC_U+30A4_U+30E4_U+30FC 1
 62
   179
420
  2234388
370
    25
  0
POLYLINE
  5
124
330
1F
100
AcDbEntity
  8
_U+30EC_U+30A4_U+30E4_U+30FC 1
 62
   179
420
  2234388
370
    25
100
AcDb2dPolyline
 66
     1
 10
0.0
 20
0.0
 30
0.0
  0
VERTEX
  5
125
330
124
100
AcDbEntity
  8
_U+30EC_U+30A4_U+30E4_U+30FC 1
 62
   179
420
  2234388
370
    25
100
AcDbVertex
100
AcDb2dVertex
 10
92.30133986741886
 20
-122.8925730248323
 30
0.0
  0
VERTEX
  5
126
330
124
100
AcDbEntity
  8
_U+30EC_U+30A4_U+30E4_U+30FC 1
 62
   179
420
  2234388
370
    25
100
AcDbVertex
100
AcDb2dVertex
 10
91.80180654682968
 20
-123.7814319134992
 30
0.0
  0
SEQEND
  5
127
330
124
100
AcDbEntity
  8
_U+30EC_U+30A4_U+30E4_U+30FC 1
 62
   179
420
  2234388
370
    25
  0
POLYLINE
  5
128
330
1F
100
AcDbEntity
  8
_U+30EC_U+30A4_U+30E4_U+30FC 1
 62
   179
420
  2234388
370
    25
100
AcDb2dPolyline
 66
     1
 10
0.0
 20
0.0
 30
0.0
  0
VERTEX
  5
129
330
128
100
AcDbEntity
  8
_U+30EC_U+30A4_U+30E4_U+30FC 1
 62
   179
420
  2234388
370
    25
100
AcDbVertex
100
AcDb2dVertex
 10
92.30133986741886
 20
-122.8925730248323
 30
0.0
  0
VERTEX
  5
12A
330
128
100
AcDbEntity
  8
_U+30EC_U+30A4_U+30E4_U+30FC 1
 62
   179
420
  2234388
370
    25
100
AcDbVertex
100
AcDb2dVertex
 10
91.80180654682968
 20
-122.0037494139436
 30
0.0
  0
SEQEND
  5
12B
330
128
100
AcDbEntity
  8
_U+30EC_U+30A4_U+30E4_U+30FC 1
 62
   179
420
  2234388
370
    25
  0
POLYLINE
  5
12C
330
1F
100
AcDbEntity
  8
_U+30EC_U+30A4_U+30E4_U+30FC 1
 62
   179
420
  2234388
370
    25
100
AcDb2dPolyline
 66
     1
 10
0.0
 20
0.0
 30
0.0
  0
VERTEX
  5
12D
330
12C
100
AcDbEntity
  8
_U+30EC_U+30A4_U+30E4_U+30FC 1
 62
   179
420
  2234388
370
    25
100
AcDbVertex
100
AcDb2dVertex
 10
92.30133986741886
 20
-124.6702555243879
 30
0.0
  0
VERTEX
  5
12E
330
12C
100
AcDbEntity
  8
_U+30EC_U+30A4_U+30E4_U+30FC 1
 62
   179
420
  2234388
370
    25
100
AcDbVertex
100
AcDb2dVertex
 10
91.80180654682968
 20
-123.7814319134992
 30
0.0
  0
SEQEND
  5
12F
330
12C
100
AcDbEntity
  8
_U+30EC_U+30A4_U+30E4_U+30FC 1
 62
   179
420
  2234388
370
    25
  0
POLYLINE
  5
130
330
1F
100
AcDbEntity
  8
_U+30EC_U+30A4_U+30E4_U+30FC 1
 62
   179
420
  2234388
370
    25
100
AcDb2dPolyline
 66
     1
 10
0.0
 20
0.0
 30
0.0
  0
VERTEX
  5
131
330
130
100
AcDbEntity
  8
_U+30EC_U+30A4_U+30E4_U+30FC 1
 62
   179
420
  2234388
370
    25
100
AcDbVertex
100
AcDb2dVertex
 10
92.30133986741886
 20
-124.6702555243879
 30
0.0
  0
VERTEX
  5
132
330
130
100
AcDbEntity
  8
_U+30EC_U+30A4_U+30E4_U+30FC 1
 62
   179
420
  2234388
370
    25
100
AcDbVertex
100
AcDb2dVertex
 10
91.80180654682968
 20
-125.5590791352769
 30
0.0
  0
SEQEND
  5
133
330
130
100
AcDbEntity
  8
_U+30EC_U+30A4_U+30E4_U+30FC 1
 62
   179
420
  2234388
370
    25
  0
POLYLINE
  5
134
330
1F
100
AcDbEntity
  8
_U+30EC_U+30A4_U+30E4_U+30FC 1
 62
   179
420
  2234388
370
    25
100
AcDb2dPolyline
 66
     1
 10
0.0
 20
0.0
 30
0.0
  0
VERTEX
  5
135
330
134
100
AcDbEntity
  8
_U+30EC_U+30A4_U+30E4_U+30FC 1
 62
   179
420
  2234388
370
    25
100
AcDbVertex
100
AcDb2dVertex
 10
92.30133986741886
 20
-126.4479380239435
 30
0.0
  0
VERTEX
  5
136
330
134
100
AcDbEntity
  8
_U+30EC_U+30A4_U+30E4_U+30FC 1
 62
   179
420
  2234388
370
    25
100
AcDbVertex
100
AcDb2dVertex
 10
91.80180654682968
 20
-127.3371144126102
 30
0.0
  0
SEQEND
  5
137
330
134
100
AcDbEntity
  8
_U+30EC_U+30A4_U+30E4_U+30FC 1
 62
   179
420
  2234388
370
    25
  0
POLYLINE
  5
138
330
1F
100
AcDbEntity
  8
_U+30EC_U+30A4_U+30E4_U+30FC 1
 62
   179
420
  2234388
370
    25
100
AcDb2dPolyline
 66
     1
 10
0.0
 20
0.0
 30
0.0
  0
VERTEX
  5
139
330
138
100
AcDbEntity
  8
_U+30EC_U+30A4_U+30E4_U+30FC 1
 62
   179
420
  2234388
370
    25
100
AcDbVertex
100
AcDb2dVertex
 10
92.30133986741886
 20
-126.4479380239435
 30
0.0
  0
VERTEX
  5
13A
330
138
100
AcDbEntity
  8
_U+30EC_U+30A4_U+30E4_U+30FC 1
 62
   179
420
  2234388
370
    25
100
AcDbVertex
100
AcDb2dVertex
 10
91.80180654682968
 20
-125.5590791352769
 30
0.0
  0
SEQEND
  5
13B
330
138
100
AcDbEntity
  8
_U+30EC_U+30A4_U+30E4_U+30FC 1
 62
   179
420
  2234388
370
    25
  0
POLYLINE
  5
13C
330
1F
100
AcDbEntity
  8
_U+30EC_U+30A4_U+30E4_U+30FC 1
 62
   179
420
  2234388
370
    25
100
AcDb2dPolyline
 66
     1
 10
0.0
 20
0.0
 30
0.0
  0
VERTEX
  5
13D
330
13C
100
AcDbEntity
  8
_U+30EC_U+30A4_U+30E4_U+30FC 1
 62
   179
420
  2234388
370
    25
100
AcDbVertex
100
AcDb2dVertex
 10
92.30133986741886
 20
-128.225938023499
 30
0.0
  0
VERTEX
  5
13E
330
13C
100
AcDbEntity
  8
_U+30EC_U+30A4_U+30E4_U+30FC 1
 62
   179
420
  2234388
370
    25
100
AcDbVertex
100
AcDb2dVertex
 10
91.80180654682968
 20
-127.3371144126102
 30
0.0
  0
SEQEND
  5
13F
330
13C
100
AcDbEntity
  8
_U+30EC_U+30A4_U+30E4_U+30FC 1
 62
   179
420
  2234388
370
    25
  0
POLYLINE
  5
140
330
1F
100
AcDbEntity
  8
_U+30EC_U+30A4_U+30E4_U+30FC 1
 62
   179
420
  2234388
370
    25
100
AcDb2dPolyline
 66
     1
 10
0.0
 20
0.0
 30
0.0
  0
VERTEX
  5
141
330
140
100
AcDbEntity
  8
_U+30EC_U+30A4_U+30E4_U+30FC 1
 62
   179
420
  2234388
370
    25
100
AcDbVertex
100
AcDb2dVertex
 10
92.30133986741886
 20
-128.225938023499
 30
0.0
  0
VERTEX
  5
142
330
140
100
AcDbEntity
  8
_U+30EC_U+30A4_U+30E4_U+30FC 1
 62
   179
420
  2234388
370
    25
100
AcDbVertex
100
AcDb2dVertex
 10
91.80180654682968
 20
-129.1145852454991
 30
0.0
  0
SEQEND
  5
143
330
140
100
AcDbEntity
  8
_U+30EC_U+30A4_U+30E4_U+30FC 1
 62
   179
420
  2234388
370
    25
  0
POLYLINE
  5
144
330
1F
100
AcDbEntity
  8
_U+30EC_U+30A4_U+30E4_U+30FC 1
 62
   179
420
  2234388
370
    25
100
AcDb2dPolyline
 66
     1
 10
0.0
 20
0.0
 30
0.0
  0
VERTEX
  5
145
330
144
100
AcDbEntity
  8
_U+30EC_U+30A4_U+30E4_U+30FC 1
 62
   179
420
  2234388
370
    25
100
AcDbVertex
100
AcDb2dVertex
 10
92.30133986741886
 20
-130.0034441341656
 30
0.0
  0
VERTEX
  5
146
330
144
100
AcDbEntity
  8
_U+30EC_U+30A4_U+30E4_U+30FC 1
 62
   179
420
  2234388
370
    25
100
AcDbVertex
100
AcDb2dVertex
 10
91.80180654682968
 20
-130.8929733006102
 30
0.0
  0
SEQEND
  5
147
330
144
100
AcDbEntity
  8
_U+30EC_U+30A4_U+30E4_U+30FC 1
 62
   179
420
  2234388
370
    25
  0
POLYLINE
  5
148
330
1F
100
AcDbEntity
  8
_U+30EC_U+30A4_U+30E4_U+30FC 1
 62
   179
420
  2234388
370
    25
100
AcDb2dPolyline
 66
     1
 10
0.0
 20
0.0
 30
0.0
  0
VERTEX
  5
149
330
148
100
AcDbEntity
  8
_U+30EC_U+30A4_U+30E4_U+30FC 1
 62
   179
420
  2234388
370
    25
100
AcDbVertex
100
AcDb2dVertex
 10
92.30133986741886
 20
-130.0034441341656
 30
0.0
  0
VERTEX
  5
14A
330
148
100
AcDbEntity
  8
_U+30EC_U+30A4_U+30E4_U+30FC 1
 62
   179
420
  2234388
370
    25
100
AcDbVertex
100
AcDb2dVertex
 10
91.80180654682968
 20
-129.1145852454991
 30
0.0
  0
SEQEND
  5
14B
330
148
100
AcDbEntity
  8
_U+30EC_U+30A4_U+30E4_U+30FC 1
 62
   179
420
  2234388
370
    25
  0
POLYLINE
  5
14C
330
1F
100
AcDbEntity
  8
_U+30EC_U+30A4_U+30E4_U+30FC 1
 62
   179
420
  2234388
370
    25
100
AcDb2dPolyline
 66
     1
 10
0.0
 20
0.0
 30
0.0
  0
VERTEX
  5
14D
330
14C
100
AcDbEntity
  8
_U+30EC_U+30A4_U+30E4_U+30FC 1
 62
   179
420
  2234388
370
    25
100
AcDbVertex
100
AcDb2dVertex
 10
92.30133986741886
 20
-131.7817969114992
 30
0.0
  0
VERTEX
  5
14E
330
14C
100
AcDbEntity
  8
_U+30EC_U+30A4_U+30E4_U+30FC 1
 62
   179
420
  2234388
370
    25
100
AcDbVertex
100
AcDb2dVertex
 10
91.80180654682968
 20
-130.8929733006102
 30
0.0
  0
SEQEND
  5
14F
330
14C
100
AcDbEntity
  8
_U+30EC_U+30A4_U+30E4_U+30FC 1
 62
   179
420
  2234388
370
    25
  0
POLYLINE
  5
150
330
1F
100
AcDbEntity
  8
_U+30EC_U+30A4_U+30E4_U+30FC 1
 62
   179
420
  2234388
370
    25
100
AcDb2dPolyline
 66
     1
 10
0.0
 20
0.0
 30
0.0
  0
VERTEX
  5
151
330
150
100
AcDbEntity
  8
_U+30EC_U+30A4_U+30E4_U+30FC 1
 62
   179
420
  2234388
370
    25
100
AcDbVertex
100
AcDb2dVertex
 10
92.30133986741886
 20
-131.7817969114992
 30
0.0
  0
VERTEX
  5
152
330
150
100
AcDbEntity
  8
_U+30EC_U+30A4_U+30E4_U+30FC 1
 62
   179
420
  2234388
370
    25
100
AcDbVertex
100
AcDb2dVertex
 10
91.80180654682968
 20
-132.6706205223876
 30
0.0
  0
SEQEND
  5
153
330
150
100
AcDbEntity
  8
_U+30EC_U+30A4_U+30E4_U+30FC 1
 62
   179
420
  2234388
370
    25
  0
POLYLINE
  5
154
330
1F
100
AcDbEntity
  8
_U+30EC_U+30A4_U+30E4_U+30FC 1
 62
   179
420
  2234388
370
    25
100
AcDb2dPolyline
 66
     1
 10
0.0
 20
0.0
 30
0.0
  0
VERTEX
  5
155
330
154
100
AcDbEntity
  8
_U+30EC_U+30A4_U+30E4_U+30FC 1
 62
   179
420
  2234388
370
    25
100
AcDbVertex
100
AcDb2dVertex
 10
91.80180654682968
 20
-132.6706205223876
 30
0.0
  0
VERTEX
  5
156
330
154
100
AcDbEntity
  8
_U+30EC_U+30A4_U+30E4_U+30FC 1
 62
   179
420
  2234388
370
    25
100
AcDbVertex
100
AcDb2dVertex
 10
91.80180654682968
 20
-145.6703405191381
 30
0.0
  0
SEQEND
  5
157
330
154
100
AcDbEntity
  8
_U+30EC_U+30A4_U+30E4_U+30FC 1
 62
   179
420
  2234388
370
    25
  0
SPLINE
  5
158
330
1F
100
AcDbEntity
  8
_U+30EC_U+30A4_U+30E4_U+30FC 1
 62
   179
420
  2234388
370
     9
100
AcDbSpline
210
0.0
220
0.0
230
1.0
 70
    11
 71
     3
 72
    17
 73
    13
 74
     0
 42
0.0000000001
 43
0.0000000001
 12
1.0
 22
0.0
 32
0.0
 13
1.0
 23
0.0
 33
0.0
 40
0.0
 40
0.0
 40
0.0
 40
0.0
 40
1.0
 40
1.0
 40
1.0
 40
2.0
 40
2.0
 40
2.0
 40
3.0
 40
3.0
 40
3.0
 40
4.0
 40
4.0
 40
4.0
 40
4.0
 10
92.70167207942775
 20
-92.67013608794355
 30
0.0
 10
92.70167207942775
 20
-92.61503219906862
 30
0.0
 10
92.74643957828565
 20
-92.5702294213019
 30
0.0
 10
92.80157874354559
 20
-92.5702294213019
 30
0.0
 10
92.85668263102866
 20
-92.5702294213019
 30
0.0
 10
92.90148540766343
 20
-92.61503219906862
 30
0.0
 10
92.90148540766343
 20
-92.67013608794355
 30
0.0
 10
92.90148540766343
 20
-92.72559275459622
 30
0.0
 10
92.85668263102866
 20
-92.77039553236294
 30
0.0
 10
92.80157874354559
 20
-92.77039553236294
 30
0.0
 10
92.74643957828565
 20
-92.77039553236294
 30
0.0
 10
92.70167207942775
 20
-92.72559275459622
 30
0.0
 10
92.70167207942775
 20
-92.67013608794355
 30
0.0
  0
SPLINE
  5
159
330
1F
100
AcDbEntity
  8
_U+30EC_U+30A4_U+30E4_U+30FC 1
 62
   179
420
  2234388
370
     9
100
AcDbSpline
210
0.0
220
0.0
230
1.0
 70
    11
 71
     3
 72
    17
 73
    13
 74
     0
 42
0.0000000001
 43
0.0000000001
 12
1.0
 22
0.0
 32
0.0
 13
1.0
 23
0.0
 33
0.0
 40
0.0
 40
0.0
 40
0.0
 40
0.0
 40
1.0
 40
1.0
 40
1.0
 40
2.0
 40
2.0
 40
2.0
 40
3.0
 40
3.0
 40
3.0
 40
4.0
 40
4.0
 40
4.0
 40
4.0
 10
91.70119432717429
 20
-92.67013608794355
 30
0.0
 10
91.70119432717429
 20
-92.61503219906862
 30
0.0
 10
91.74599710380906
 20
-92.5702294213019
 30
0.0
 10
91.80180654682968
 20
-92.5702294213019
 30
0.0
 10
91.85691043431275
 20
-92.5702294213019
 30
0.0
 10
91.90171321094752
 20
-92.61503219906862
 30
0.0
 10
91.90171321094752
 20
-92.67013608794355
 30
0.0
 10
91.90171321094752
 20
-92.72559275459622
 30
0.0
 10
91.85691043431275
 20
-92.77039553236294
 30
0.0
 10
91.80180654682968
 20
-92.77039553236294
 30
0.0
 10
91.74599710380906
 20
-92.77039553236294
 30
0.0
 10
91.70119432717429
 20
-92.72559275459622
 30
0.0
 10
91.70119432717429
 20
-92.67013608794355
 30
0.0
  0
SPLINE
  5
15A
330
1F
100
AcDbEntity
  8
_U+30EC_U+30A4_U+30E4_U+30FC 1
 62
   179
420
  2234388
370
     9
100
AcDbSpline
210
0.0
220
0.0
230
1.0
 70
    11
 71
     3
 72
    17
 73
    13
 74
     0
 42
0.0000000001
 43
0.0000000001
 12
1.0
 22
0.0
 32
0.0
 13
1.0
 23
0.0
 33
0.0
 40
0.0
 40
0.0
 40
0.0
 40
0.0
 40
1.0
 40
1.0
 40
1.0
 40
2.0
 40
2.0
 40
2.0
 40
3.0
 40
3.0
 40
3.0
 40
4.0
 40
4.0
 40
4.0
 40
4.0
 10
104.7016221960466
 20
-96.67060080916563
 30
0.0
 10
104.7016221960466
 20
-96.6151088647351
 30
0.0
 10
104.7463870499193
 20
-96.57034136474623
 30
0.0
 10
104.8015262151792
 20
-96.57034136474623
 30
0.0
 10
104.8566301026623
 20
-96.57034136474623
 30
0.0
 10
104.901432879297
 20
-96.6151088647351
 30
0.0
 10
104.901432879297
 20
-96.67060080916563
 30
0.0
 10
104.901432879297
 20
-96.72570469804087
 30
0.0
 10
104.8566301026623
 20
-96.77050747580726
 30
0.0
 10
104.8015262151792
 20
-96.77050747580726
 30
0.0
 10
104.7463870499193
 20
-96.77050747580726
 30
0.0
 10
104.7016221960466
 20
-96.72570469804087
 30
0.0
 10
104.7016221960466
 20
-96.67060080916563
 30
0.0
  0
SPLINE
  5
15B
330
1F
100
AcDbEntity
  8
_U+30EC_U+30A4_U+30E4_U+30FC 1
 62
   179
420
  2234388
370
     9
100
AcDbSpline
210
0.0
220
0.0
230
1.0
 70
    11
 71
     3
 72
    17
 73
    13
 74
     0
 42
0.0000000001
 43
0.0000000001
 12
1.0
 22
0.0
 32
0.0
 13
1.0
 23
0.0
 33
0.0
 40
0.0
 40
0.0
 40
0.0
 40
0.0
 40
1.0
 40
1.0
 40
1.0
 40
2.0
 40
2.0
 40
2.0
 40
3.0
 40
3.0
 40
3.0
 40
4.0
 40
4.0
 40
4.0
 40
4.0
 10
104.7016221960466
 20
-146.67011274111
 30
0.0
 10
104.7016221960466
 20
-146.6150088522351
 30
0.0
 10
104.7463870499193
 20
-146.5702060744684
 30
0.0
 10
104.8015262151792
 20
-146.5702060744684
 30
0.0
 10
104.8566301026623
 20
-146.5702060744684
 30
0.0
 10
104.901432879297
 20
-146.6150088522351
 30
0.0
 10
104.901432879297
 20
-146.67011274111
 30
0.0
 10
104.901432879297
 20
-146.7259221855405
 30
0.0
 10
104.8566301026623
 20
-146.7700194077517
 30
0.0
 10
104.8015262151792
 20
-146.7700194077517
 30
0.0
 10
104.7463870499193
 20
-146.7700194077517
 30
0.0
 10
104.7016221960466
 20
-146.7259221855405
 30
0.0
 10
104.7016221960466
 20
-146.67011274111
 30
0.0
  0
SPLINE
  5
15C
330
1F
100
AcDbEntity
  8
_U+30EC_U+30A4_U+30E4_U+30FC 1
 62
   179
420
  2234388
370
     9
100
AcDbSpline
210
0.0
220
0.0
230
1.0
 70
    11
 71
     3
 72
    17
 73
    13
 74
     0
 42
0.0000000001
 43
0.0000000001
 12
1.0
 22
0.0
 32
0.0
 13
1.0
 23
0.0
 33
0.0
 40
0.0
 40
0.0
 40
0.0
 40
0.0
 40
1.0
 40
1.0
 40
1.0
 40
2.0
 40
2.0
 40
2.0
 40
3.0
 40
3.0
 40
3.0
 40
4.0
 40
4.0
 40
4.0
 40
4.0
 10
91.70119432717429
 20
-133.6703927443601
 30
0.0
 10
91.70119432717429
 20
-133.6152888554852
 30
0.0
 10
91.74599710380906
 20
-133.5704860777185
 30
0.0
 10
91.80180654682968
 20
-133.5704860777185
 30
0.0
 10
91.85691043431275
 20
-133.5704860777185
 30
0.0
 10
91.90171321094752
 20
-133.6152888554852
 30
0.0
 10
91.90171321094752
 20
-133.6703927443601
 30
0.0
 10
91.90171321094752
 20
-133.7255319110132
 30
0.0
 10
91.85691043431275
 20
-133.7702994110018
 30
0.0
 10
91.80180654682968
 20
-133.7702994110018
 30
0.0
 10
91.74599710380906
 20
-133.7702994110018
 30
0.0
 10
91.70119432717429
 20
-133.7255319110132
 30
0.0
 10
91.70119432717429
 20
-133.6703927443601
 30
0.0
  0
SPLINE
  5
15D
330
1F
100
AcDbEntity
  8
_U+30EC_U+30A4_U+30E4_U+30FC 1
 62
   179
420
  2234388
370
     9
100
AcDbSpline
210
0.0
220
0.0
230
1.0
 70
    11
 71
     3
 72
    17
 73
    13
 74
     0
 42
0.0000000001
 43
0.0000000001
 12
1.0
 22
0.0
 32
0.0
 13
1.0
 23
0.0
 33
0.0
 40
0.0
 40
0.0
 40
0.0
 40
0.0
 40
1.0
 40
1.0
 40
1.0
 40
2.0
 40
2.0
 40
2.0
 40
3.0
 40
3.0
 40
3.0
 40
4.0
 40
4.0
 40
4.0
 40
4.0
 10
78.70147465882478
 20
-133.6703927443601
 30
0.0
 10
78.70147465882478
 20
-133.6152888554852
 30
0.0
 10
78.74627743545953
 20
-133.5704860777185
 30
0.0
 10
78.80138331363293
 20
-133.5704860777185
 30
0.0
 10
78.85652048820256
 20
-133.5704860777185
 30
0.0
 10
78.90128798706044
 20
-133.6152888554852
 30
0.0
 10
78.90128798706044
 20
-133.6703927443601
 30
0.0
 10
78.90128798706044
 20
-133.7255319110132
 30
0.0
 10
78.85652048820256
 20
-133.7702994110018
 30
0.0
 10
78.80138331363293
 20
-133.7702994110018
 30
0.0
 10
78.74627743545953
 20
-133.7702994110018
 30
0.0
 10
78.70147465882478
 20
-133.7255319110132
 30
0.0
 10
78.70147465882478
 20
-133.6703927443601
 30
0.0
  0
SPLINE
  5
15E
330
1F
100
AcDbEntity
  8
_U+30EC_U+30A4_U+30E4_U+30FC 1
 62
   179
420
  2234388
370
     9
100
AcDbSpline
210
0.0
220
0.0
230
1.0
 70
    11
 71
     3
 72
    17
 73
    13
 74
     0
 42
0.0000000001
 43
0.0000000001
 12
1.0
 22
0.0
 32
0.0
 13
1.0
 23
0.0
 33
0.0
 40
0.0
 40
0.0
 40
0.0
 40
0.0
 40
1.0
 40
1.0
 40
1.0
 40
2.0
 40
2.0
 40
2.0
 40
3.0
 40
3.0
 40
3.0
 40
4.0
 40
4.0
 40
4.0
 40
4.0
 10
75.70148779091637
 20
-133.6703927443601
 30
0.0
 10
75.70148779091637
 20
-133.6152888554852
 30
0.0
 10
75.74629056755113
 20
-133.5704860777185
 30
0.0
 10
75.8013944550342
 20
-133.5704860777185
 30
0.0
 10
75.85653362029416
 20
-133.5704860777185
 30
0.0
 10
75.90130111915204
 20
-133.6152888554852
 30
0.0
 10
75.90130111915204
 20
-133.6703927443601
 30
0.0
 10
75.90130111915204
 20
-133.7255319110132
 30
0.0
 10
75.85653362029416
 20
-133.7702994110018
 30
0.0
 10
75.8013944550342
 20
-133.7702994110018
 30
0.0
 10
75.74629056755113
 20
-133.7702994110018
 30
0.0
 10
75.70148779091637
 20
-133.7255319110132
 30
0.0
 10
75.70148779091637
 20
-133.6703927443601
 30
0.0
  0
SPLINE
  5
15F
330
1F
100
AcDbEntity
  8
_U+30EC_U+30A4_U+30E4_U+30FC 1
 62
   179
420
  2234388
370
     9
100
AcDbSpline
210
0.0
220
0.0
230
1.0
 70
    11
 71
     3
 72
    17
 73
    13
 74
     0
 42
0.0000000001
 43
0.0000000001
 12
1.0
 22
0.0
 32
0.0
 13
1.0
 23
0.0
 33
0.0
 40
0.0
 40
0.0
 40
0.0
 40
0.0
 40
1.0
 40
1.0
 40
1.0
 40
2.0
 40
2.0
 40
2.0
 40
3.0
 40
3.0
 40
3.0
 40
4.0
 40
4.0
 40
4.0
 40
4.0
 10
71.70173053763006
 20
-137.670151910027
 30
0.0
 10
71.70173053763006
 20
-137.6150127433739
 30
0.0
 10
71.74653331539677
 20
-137.5702452433854
 30
0.0
 10
71.8016353904099
 20
-137.5702452433854
 30
0.0
 10
71.85677455566984
 20
-137.5702452433854
 30
0.0
 10
71.90154205452772
 20
-137.6150127433739
 30
0.0
 10
71.90154205452772
 20
-137.670151910027
 30
0.0
 10
71.90154205452772
 20
-137.7259613544575
 30
0.0
 10
71.85677455566984
 20
-137.7707641322242
 30
0.0
 10
71.8016353904099
 20
-137.7707641322242
 30
0.0
 10
71.74653331539677
 20
-137.7707641322242
 30
0.0
 10
71.70173053763006
 20
-137.7259613544575
 30
0.0
 10
71.70173053763006
 20
-137.670151910027
 30
0.0
  0
SPLINE
  5
160
330
1F
100
AcDbEntity
  8
_U+30EC_U+30A4_U+30E4_U+30FC 1
 62
   179
420
  2234388
370
     9
100
AcDbSpline
210
0.0
220
0.0
230
1.0
 70
    11
 71
     3
 72
    17
 73
    13
 74
     0
 42
0.0000000001
 43
0.0000000001
 12
1.0
 22
0.0
 32
0.0
 13
1.0
 23
0.0
 33
0.0
 40
0.0
 40
0.0
 40
0.0
 40
0.0
 40
1.0
 40
1.0
 40
1.0
 40
2.0
 40
2.0
 40
2.0
 40
3.0
 40
3.0
 40
3.0
 40
4.0
 40
4.0
 40
4.0
 40
4.0
 10
71.70173053763006
 20
-162.6705252371105
 30
0.0
 10
71.70173053763006
 20
-162.6153860704574
 30
0.0
 10
71.74653331539677
 20
-162.5706185704682
 30
0.0
 10
71.8016353904099
 20
-162.5706185704682
 30
0.0
 10
71.85677455566984
 20
-162.5706185704682
 30
0.0
 10
71.90154205452772
 20
-162.6153860704574
 30
0.0
 10
71.90154205452772
 20
-162.6705252371105
 30
0.0
 10
71.90154205452772
 20
-162.7256291259854
 30
0.0
 10
71.85677455566984
 20
-162.7704319037521
 30
0.0
 10
71.8016353904099
 20
-162.7704319037521
 30
0.0
 10
71.74653331539677
 20
-162.7704319037521
 30
0.0
 10
71.70173053763006
 20
-162.7256291259854
 30
0.0
 10
71.70173053763006
 20
-162.6705252371105
 30
0.0
  0
SPLINE
  5
161
330
1F
100
AcDbEntity
  8
_U+30EC_U+30A4_U+30E4_U+30FC 1
 62
   179
420
  2234388
370
     9
100
AcDbSpline
210
0.0
220
0.0
230
1.0
 70
    11
 71
     3
 72
    17
 73
    13
 74
     0
 42
0.0000000001
 43
0.0000000001
 12
1.0
 22
0.0
 32
0.0
 13
1.0
 23
0.0
 33
0.0
 40
0.0
 40
0.0
 40
0.0
 40
0.0
 40
1.0
 40
1.0
 40
1.0
 40
2.0
 40
2.0
 40
2.0
 40
3.0
 40
3.0
 40
3.0
 40
4.0
 40
4.0
 40
4.0
 40
4.0
 10
72.87305675196454
 20
-157.4987324606255
 30
0.0
 10
72.87305675196454
 20
-157.44362857175
 30
0.0
 10
72.91785952859931
 20
-157.3988257939839
 30
0.0
 10
72.97296341608238
 20
-157.3988257939839
 30
0.0
 10
73.02810258134232
 20
-157.3988257939839
 30
0.0
 10
73.07287008020022
 20
-157.44362857175
 30
0.0
 10
73.07287008020022
 20
-157.4987324606255
 30
0.0
 10
73.07287008020022
 20
-157.553871627278
 30
0.0
 10
73.02810258134232
 20
-157.5986391272672
 30
0.0
 10
72.97296341608238
 20
-157.5986391272672
 30
0.0
 10
72.91785952859931
 20
-157.5986391272672
 30
0.0
 10
72.87305675196454
 20
-157.553871627278
 30
0.0
 10
72.87305675196454
 20
-157.4987324606255
 30
0.0
  0
SPLINE
  5
162
330
1F
100
AcDbEntity
  8
_U+30EC_U+30A4_U+30E4_U+30FC 1
 62
   179
420
  2234388
370
     9
100
AcDbSpline
210
0.0
220
0.0
230
1.0
 70
    11
 71
     3
 72
    17
 73
    13
 74
     0
 42
0.0000000001
 43
0.0000000001
 12
1.0
 22
0.0
 32
0.0
 13
1.0
 23
0.0
 33
0.0
 40
0.0
 40
0.0
 40
0.0
 40
0.0
 40
1.0
 40
1.0
 40
1.0
 40
2.0
 40
2.0
 40
2.0
 40
3.0
 40
3.0
 40
3.0
 40
4.0
 40
4.0
 40
4.0
 40
4.0
 10
71.70173053763006
 20
-154.6703013502212
 30
0.0
 10
71.70173053763006
 20
-154.6151974613463
 30
0.0
 10
71.74653331539677
 20
-154.5703946835795
 30
0.0
 10
71.8016353904099
 20
-154.5703946835795
 30
0.0
 10
71.85677455566984
 20
-154.5703946835795
 30
0.0
 10
71.90154205452772
 20
-154.6151974613463
 30
0.0
 10
71.90154205452772
 20
-154.6703013502212
 30
0.0
 10
71.90154205452772
 20
-154.7254405168742
 30
0.0
 10
71.85677455566984
 20
-154.770243294641
 30
0.0
 10
71.8016353904099
 20
-154.770243294641
 30
0.0
 10
71.74653331539677
 20
-154.770243294641
 30
0.0
 10
71.70173053763006
 20
-154.7254405168742
 30
0.0
 10
71.70173053763006
 20
-154.6703013502212
 30
0.0
  0
SPLINE
  5
163
330
1F
100
AcDbEntity
  8
_U+30EC_U+30A4_U+30E4_U+30FC 1
 62
   179
420
  2234388
370
     9
100
AcDbSpline
210
0.0
220
0.0
230
1.0
 70
    11
 71
     3
 72
    17
 73
    13
 74
     0
 42
0.0000000001
 43
0.0000000001
 12
1.0
 22
0.0
 32
0.0
 13
1.0
 23
0.0
 33
0.0
 40
0.0
 40
0.0
 40
0.0
 40
0.0
 40
1.0
 40
1.0
 40
1.0
 40
2.0
 40
2.0
 40
2.0
 40
3.0
 40
3.0
 40
3.0
 40
4.0
 40
4.0
 40
4.0
 40
4.0
 10
80.87328043675072
 20
-165.4989563475142
 30
0.0
 10
80.87328043675072
 20
-165.4438171808611
 30
0.0
 10
80.91804997977042
 20
-165.3990496808726
 30
0.0
 10
80.97318710086856
 20
-165.3990496808726
 30
0.0
 10
81.02829098835163
 20
-165.3990496808726
 30
0.0
 10
81.0730937649864
 20
-165.4438171808611
 30
0.0
 10
81.0730937649864
 20
-165.4989563475142
 30
0.0
 10
81.0730937649864
 20
-165.5540602363891
 30
0.0
 10
81.02829098835163
 20
-165.5988630141558
 30
0.0
 10
80.97318710086856
 20
-165.5988630141558
 30
0.0
 10
80.91804997977042
 20
-165.5988630141558
 30
0.0
 10
80.87328043675072
 20
-165.5540602363891
 30
0.0
 10
80.87328043675072
 20
-165.4989563475142
 30
0.0
  0
SPLINE
  5
164
330
1F
100
AcDbEntity
  8
_U+30EC_U+30A4_U+30E4_U+30FC 1
 62
   179
420
  2234388
370
     9
100
AcDbSpline
210
0.0
220
0.0
230
1.0
 70
    11
 71
     3
 72
    17
 73
    13
 74
     0
 42
0.0000000001
 43
0.0000000001
 12
1.0
 22
0.0
 32
0.0
 13
1.0
 23
0.0
 33
0.0
 40
0.0
 40
0.0
 40
0.0
 40
0.0
 40
1.0
 40
1.0
 40
1.0
 40
2.0
 40
2.0
 40
2.0
 40
3.0
 40
3.0
 40
3.0
 40
4.0
 40
4.0
 40
4.0
 40
4.0
 10
75.70148779091637
 20
-166.6702844027767
 30
0.0
 10
75.70148779091637
 20
-166.6151452361243
 30
0.0
 10
75.74629056755113
 20
-166.5703777361351
 30
0.0
 10
75.8013944550342
 20
-166.5703777361351
 30
0.0
 10
75.85653362029416
 20
-166.5703777361351
 30
0.0
 10
75.90130111915204
 20
-166.6151452361243
 30
0.0
 10
75.90130111915204
 20
-166.6702844027767
 30
0.0
 10
75.90130111915204
 20
-166.7253882916523
 30
0.0
 10
75.85653362029416
 20
-166.7701910694184
 30
0.0
 10
75.8013944550342
 20
-166.7701910694184
 30
0.0
 10
75.74629056755113
 20
-166.7701910694184
 30
0.0
 10
75.70148779091637
 20
-166.7253882916523
 30
0.0
 10
75.70148779091637
 20
-166.6702844027767
 30
0.0
  0
SPLINE
  5
165
330
1F
100
AcDbEntity
  8
_U+30EC_U+30A4_U+30E4_U+30FC 1
 62
   179
420
  2234388
370
     9
100
AcDbSpline
210
0.0
220
0.0
230
1.0
 70
    11
 71
     3
 72
    17
 73
    13
 74
     0
 42
0.0000000001
 43
0.0000000001
 12
1.0
 22
0.0
 32
0.0
 13
1.0
 23
0.0
 33
0.0
 40
0.0
 40
0.0
 40
0.0
 40
0.0
 40
1.0
 40
1.0
 40
1.0
 40
2.0
 40
2.0
 40
2.0
 40
3.0
 40
3.0
 40
3.0
 40
4.0
 40
4.0
 40
4.0
 40
4.0
 10
83.70167619792566
 20
-166.6702844027767
 30
0.0
 10
83.70167619792566
 20
-166.6151452361243
 30
0.0
 10
83.74647897456043
 20
-166.5703777361351
 30
0.0
 10
83.80161813982039
 20
-166.5703777361351
 30
0.0
 10
83.85672202730346
 20
-166.5703777361351
 30
0.0
 10
83.90152480393822
 20
-166.6151452361243
 30
0.0
 10
83.90152480393822
 20
-166.6702844027767
 30
0.0
 10
83.90152480393822
 20
-166.7253882916523
 30
0.0
 10
83.85672202730346
 20
-166.7701910694184
 30
0.0
 10
83.80161813982039
 20
-166.7701910694184
 30
0.0
 10
83.74647897456043
 20
-166.7701910694184
 30
0.0
 10
83.70167619792566
 20
-166.7253882916523
 30
0.0
 10
83.70167619792566
 20
-166.6702844027767
 30
0.0
  0
SPLINE
  5
166
330
1F
100
AcDbEntity
  8
_U+30EC_U+30A4_U+30E4_U+30FC 1
 62
   179
420
  2234388
370
     9
100
AcDbSpline
210
0.0
220
0.0
230
1.0
 70
    11
 71
     3
 72
    17
 73
    13
 74
     0
 42
0.0000000001
 43
0.0000000001
 12
1.0
 22
0.0
 32
0.0
 13
1.0
 23
0.0
 33
0.0
 40
0.0
 40
0.0
 40
0.0
 40
0.0
 40
1.0
 40
1.0
 40
1.0
 40
2.0
 40
2.0
 40
2.0
 40
3.0
 40
3.0
 40
3.0
 40
4.0
 40
4.0
 40
4.0
 40
4.0
 10
100.7018604864371
 20
-166.6702844027767
 30
0.0
 10
100.7018604864371
 20
-166.6151452361243
 30
0.0
 10
100.7466632630718
 20
-166.5703777361351
 30
0.0
 10
100.8017671505549
 20
-166.5703777361351
 30
0.0
 10
100.8569063158148
 20
-166.5703777361351
 30
0.0
 10
100.9016738146727
 20
-166.6151452361243
 30
0.0
 10
100.9016738146727
 20
-166.6702844027767
 30
0.0
 10
100.9016738146727
 20
-166.7253882916523
 30
0.0
 10
100.8569063158148
 20
-166.7701910694184
 30
0.0
 10
100.8017671505549
 20
-166.7701910694184
 30
0.0
 10
100.7466632630718
 20
-166.7701910694184
 30
0.0
 10
100.7018604864371
 20
-166.7253882916523
 30
0.0
 10
100.7018604864371
 20
-166.6702844027767
 30
0.0
  0
SPLINE
  5
167
330
1F
100
AcDbEntity
  8
_U+30EC_U+30A4_U+30E4_U+30FC 1
 62
   179
420
  2234388
370
     9
100
AcDbSpline
210
0.0
220
0.0
230
1.0
 70
    11
 71
     3
 72
    17
 73
    13
 74
     0
 42
0.0000000001
 43
0.0000000001
 12
1.0
 22
0.0
 32
0.0
 13
1.0
 23
0.0
 33
0.0
 40
0.0
 40
0.0
 40
0.0
 40
0.0
 40
1.0
 40
1.0
 40
1.0
 40
2.0
 40
2.0
 40
2.0
 40
3.0
 40
3.0
 40
3.0
 40
4.0
 40
4.0
 40
4.0
 40
4.0
 10
104.7016221960466
 20
-162.6705252371105
 30
0.0
 10
104.7016221960466
 20
-162.6153860704574
 30
0.0
 10
104.7463870499193
 20
-162.5706185704682
 30
0.0
 10
104.8015262151792
 20
-162.5706185704682
 30
0.0
 10
104.8566301026623
 20
-162.5706185704682
 30
0.0
 10
104.901432879297
 20
-162.6153860704574
 30
0.0
 10
104.901432879297
 20
-162.6705252371105
 30
0.0
 10
104.901432879297
 20
-162.7256291259854
 30
0.0
 10
104.8566301026623
 20
-162.7704319037521
 30
0.0
 10
104.8015262151792
 20
-162.7704319037521
 30
0.0
 10
104.7463870499193
 20
-162.7704319037521
 30
0.0
 10
104.7016221960466
 20
-162.7256291259854
 30
0.0
 10
104.7016221960466
 20
-162.6705252371105
 30
0.0
  0
SPLINE
  5
168
330
1F
100
AcDbEntity
  8
_U+30EC_U+30A4_U+30E4_U+30FC 1
 62
   179
420
  2234388
370
     9
100
AcDbSpline
210
0.0
220
0.0
230
1.0
 70
    11
 71
     3
 72
    17
 73
    13
 74
     0
 42
0.0000000001
 43
0.0000000001
 12
1.0
 22
0.0
 32
0.0
 13
1.0
 23
0.0
 33
0.0
 40
0.0
 40
0.0
 40
0.0
 40
0.0
 40
1.0
 40
1.0
 40
1.0
 40
2.0
 40
2.0
 40
2.0
 40
3.0
 40
3.0
 40
3.0
 40
4.0
 40
4.0
 40
4.0
 40
4.0
 10
104.7016221960466
 20
-159.6705382934155
 30
0.0
 10
104.7016221960466
 20
-159.615399126763
 30
0.0
 10
104.7463870499193
 20
-159.5706316267738
 30
0.0
 10
104.8015262151792
 20
-159.5706316267738
 30
0.0
 10
104.8566301026623
 20
-159.5706316267738
 30
0.0
 10
104.901432879297
 20
-159.615399126763
 30
0.0
 10
104.901432879297
 20
-159.6705382934155
 30
0.0
 10
104.901432879297
 20
-159.725642182291
 30
0.0
 10
104.8566301026623
 20
-159.7704449600571
 30
0.0
 10
104.8015262151792
 20
-159.7704449600571
 30
0.0
 10
104.7463870499193
 20
-159.7704449600571
 30
0.0
 10
104.7016221960466
 20
-159.725642182291
 30
0.0
 10
104.7016221960466
 20
-159.6705382934155
 30
0.0
  0
POLYLINE
  5
169
330
1F
100
AcDbEntity
  8
_U+30EC_U+30A4_U+30E4_U+30FC 1
 62
   179
420
  2234388
370
     9
100
AcDb2dPolyline
 66
     1
 10
0.0
 20
0.0
 30
0.0
  0
VERTEX
  5
16A
330
169
100
AcDbEntity
  8
_U+30EC_U+30A4_U+30E4_U+30FC 1
 62
   179
420
  2234388
370
     9
100
AcDbVertex
100
AcDb2dVertex
 10
92.80157874354559
 20
-92.67013608794355
 30
0.0
  0
VERTEX
  5
16B
330
169
100
AcDbEntity
  8
_U+30EC_U+30A4_U+30E4_U+30FC 1
 62
   179
420
  2234388
370
     9
100
AcDbVertex
100
AcDb2dVertex
 10
96.57189114735691
 20
-92.67013608794355
 30
0.0
  0
SEQEND
  5
16C
330
169
100
AcDbEntity
  8
_U+30EC_U+30A4_U+30E4_U+30FC 1
 62
   179
420
  2234388
370
     9
  0
POLYLINE
  5
16D
330
1F
100
AcDbEntity
  8
_U+30EC_U+30A4_U+30E4_U+30FC 1
 62
   179
420
  2234388
370
     9
100
AcDb2dPolyline
 66
     1
 10
0.0
 20
0.0
 30
0.0
  0
VERTEX
  5
16E
330
16D
100
AcDbEntity
  8
_U+30EC_U+30A4_U+30E4_U+30FC 1
 62
   179
420
  2234388
370
     9
100
AcDbVertex
100
AcDb2dVertex
 10
92.80157874354559
 20
-92.67013608794355
 30
0.0
  0
VERTEX
  5
16F
330
16D
100
AcDbEntity
  8
_U+30EC_U+30A4_U+30E4_U+30FC 1
 62
   179
420
  2234388
370
     9
100
AcDbVertex
100
AcDb2dVertex
 10
90.80132879457622
 20
-92.67013608794355
 30
0.0
  0
SEQEND
  5
170
330
16D
100
AcDbEntity
  8
_U+30EC_U+30A4_U+30E4_U+30FC 1
 62
   179
420
  2234388
370
     9
  0
POLYLINE
  5
171
330
1F
100
AcDbEntity
  8
_U+30EC_U+30A4_U+30E4_U+30FC 1
 62
   179
420
  2234388
370
     9
100
AcDb2dPolyline
 66
     1
 10
0.0
 20
0.0
 30
0.0
  0
VERTEX
  5
172
330
171
100
AcDbEntity
  8
_U+30EC_U+30A4_U+30E4_U+30FC 1
 62
   179
420
  2234388
370
     9
100
AcDbVertex
100
AcDb2dVertex
 10
92.80157874354559
 20
-94.13017747646758
 30
0.0
  0
VERTEX
  5
173
330
171
100
AcDbEntity
  8
_U+30EC_U+30A4_U+30E4_U+30FC 1
 62
   179
420
  2234388
370
     9
100
AcDbVertex
100
AcDb2dVertex
 10
92.80157874354559
 20
-91.67036386597132
 30
0.0
  0
SEQEND
  5
174
330
171
100
AcDbEntity
  8
_U+30EC_U+30A4_U+30E4_U+30FC 1
 62
   179
420
  2234388
370
     9
  0
POLYLINE
  5
175
330
1F
100
AcDbEntity
  8
_U+30EC_U+30A4_U+30E4_U+30FC 1
 62
   179
420
  2234388
370
     9
100
AcDb2dPolyline
 66
     1
 10
0.0
 20
0.0
 30
0.0
  0
VERTEX
  5
176
330
175
100
AcDbEntity
  8
_U+30EC_U+30A4_U+30E4_U+30FC 1
 62
   179
420
  2234388
370
     9
100
AcDbVertex
100
AcDb2dVertex
 10
91.80180654682968
 20
-94.13017747646758
 30
0.0
  0
VERTEX
  5
177
330
175
100
AcDbEntity
  8
_U+30EC_U+30A4_U+30E4_U+30FC 1
 62
   179
420
  2234388
370
     9
100
AcDbVertex
100
AcDb2dVertex
 10
91.80180654682968
 20
-91.67036386597132
 30
0.0
  0
SEQEND
  5
178
330
175
100
AcDbEntity
  8
_U+30EC_U+30A4_U+30E4_U+30FC 1
 62
   179
420
  2234388
370
     9
  0
POLYLINE
  5
179
330
1F
100
AcDbEntity
  8
_U+30EC_U+30A4_U+30E4_U+30FC 1
 62
   179
420
  2234388
370
     9
100
AcDb2dPolyline
 66
     1
 10
0.0
 20
0.0
 30
0.0
  0
VERTEX
  5
17A
330
179
100
AcDbEntity
  8
_U+30EC_U+30A4_U+30E4_U+30FC 1
 62
   179
420
  2234388
370
     9
100
AcDbVertex
100
AcDb2dVertex
 10
80.97318710086856
 20
-165.4989563475142
 30
0.0
  0
VERTEX
  5
17B
330
179
100
AcDbEntity
  8
_U+30EC_U+30A4_U+30E4_U+30FC 1
 62
   179
420
  2234388
370
     9
100
AcDbVertex
100
AcDb2dVertex
 10
72.97296341608238
 20
-157.4987324606255
 30
0.0
  0
SEQEND
  5
17C
330
179
100
AcDbEntity
  8
_U+30EC_U+30A4_U+30E4_U+30FC 1
 62
   179
420
  2234388
370
     9
  0
POLYLINE
  5
17D
330
1F
100
AcDbEntity
  8
_U+30EC_U+30A4_U+30E4_U+30FC 1
 62
   179
420
  2234388
370
     9
100
AcDb2dPolyline
 66
     1
 10
0.0
 20
0.0
 30
0.0
  0
VERTEX
  5
17E
330
17D
100
AcDbEntity
  8
_U+30EC_U+30A4_U+30E4_U+30FC 1
 62
   179
420
  2234388
370
     9
100
AcDbVertex
100
AcDb2dVertex
 10
82.00534429675825
 20
-164.4660935699948
 30
0.0
  0
VERTEX
  5
17F
330
17D
100
AcDbEntity
  8
_U+30EC_U+30A4_U+30E4_U+30FC 1
 62
   179
420
  2234388
370
     9
100
AcDbVertex
100
AcDb2dVertex
 10
80.26625573001499
 20
-166.2058877362263
 30
0.0
  0
SEQEND
  5
180
330
17D
100
AcDbEntity
  8
_U+30EC_U+30A4_U+30E4_U+30FC 1
 62
   179
420
  2234388
370
     9
  0
POLYLINE
  5
181
330
1F
100
AcDbEntity
  8
_U+30EC_U+30A4_U+30E4_U+30FC 1
 62
   179
420
  2234388
370
     9
100
AcDb2dPolyline
 66
     1
 10
0.0
 20
0.0
 30
0.0
  0
VERTEX
  5
182
330
181
100
AcDbEntity
  8
_U+30EC_U+30A4_U+30E4_U+30FC 1
 62
   179
420
  2234388
370
     9
100
AcDbVertex
100
AcDb2dVertex
 10
74.00582616750964
 20
-156.4665752386611
 30
0.0
  0
VERTEX
  5
183
330
181
100
AcDbEntity
  8
_U+30EC_U+30A4_U+30E4_U+30FC 1
 62
   179
420
  2234388
370
     9
100
AcDbVertex
100
AcDb2dVertex
 10
72.26603204522881
 20
-158.2056638493376
 30
0.0
  0
SEQEND
  5
184
330
181
100
AcDbEntity
  8
_U+30EC_U+30A4_U+30E4_U+30FC 1
 62
   179
420
  2234388
370
     9
  0
POLYLINE
  5
185
330
1F
100
AcDbEntity
  8
_U+30EC_U+30A4_U+30E4_U+30FC 1
 62
   179
420
  2234388
370
     9
100
AcDb2dPolyline
 66
     1
 10
0.0
 20
0.0
 30
0.0
  0
VERTEX
  5
186
330
185
100
AcDbEntity
  8
_U+30EC_U+30A4_U+30E4_U+30FC 1
 62
   179
420
  2234388
370
     9
100
AcDbVertex
100
AcDb2dVertex
 10
78.80138331363293
 20
-133.6703927443601
 30
0.0
  0
VERTEX
  5
187
330
185
100
AcDbEntity
  8
_U+30EC_U+30A4_U+30E4_U+30FC 1
 62
   179
420
  2234388
370
     9
100
AcDbVertex
100
AcDb2dVertex
 10
75.8013944550342
 20
-133.6703927443601
 30
0.0
  0
SEQEND
  5
188
330
185
100
AcDbEntity
  8
_U+30EC_U+30A4_U+30E4_U+30FC 1
 62
   179
420
  2234388
370
     9
  0
POLYLINE
  5
189
330
1F
100
AcDbEntity
  8
_U+30EC_U+30A4_U+30E4_U+30FC 1
 62
   179
420
  2234388
370
     9
100
AcDb2dPolyline
 66
     1
 10
0.0
 20
0.0
 30
0.0
  0
VERTEX
  5
18A
330
189
100
AcDbEntity
  8
_U+30EC_U+30A4_U+30E4_U+30FC 1
 62
   179
420
  2234388
370
     9
100
AcDbVertex
100
AcDb2dVertex
 10
75.8013944550342
 20
-135.1304341328838
 30
0.0
  0
VERTEX
  5
18B
330
189
100
AcDbEntity
  8
_U+30EC_U+30A4_U+30E4_U+30FC 1
 62
   179
420
  2234388
370
     9
100
AcDbVertex
100
AcDb2dVertex
 10
75.8013944550342
 20
-132.6706205223876
 30
0.0
  0
SEQEND
  5
18C
330
189
100
AcDbEntity
  8
_U+30EC_U+30A4_U+30E4_U+30FC 1
 62
   179
420
  2234388
370
     9
  0
POLYLINE
  5
18D
330
1F
100
AcDbEntity
  8
_U+30EC_U+30A4_U+30E4_U+30FC 1
 62
   179
420
  2234388
370
     9
100
AcDb2dPolyline
 66
     1
 10
0.0
 20
0.0
 30
0.0
  0
VERTEX
  5
18E
330
18D
100
AcDbEntity
  8
_U+30EC_U+30A4_U+30E4_U+30FC 1
 62
   179
420
  2234388
370
     9
100
AcDbVertex
100
AcDb2dVertex
 10
83.80161813982039
 20
-166.6702844027767
 30
0.0
  0
VERTEX
  5
18F
330
18D
100
AcDbEntity
  8
_U+30EC_U+30A4_U+30E4_U+30FC 1
 62
   179
420
  2234388
370
     9
100
AcDbVertex
100
AcDb2dVertex
 10
75.8013944550342
 20
-166.6702844027767
 30
0.0
  0
SEQEND
  5
190
330
18D
100
AcDbEntity
  8
_U+30EC_U+30A4_U+30E4_U+30FC 1
 62
   179
420
  2234388
370
     9
  0
POLYLINE
  5
191
330
1F
100
AcDbEntity
  8
_U+30EC_U+30A4_U+30E4_U+30FC 1
 62
   179
420
  2234388
370
     9
100
AcDb2dPolyline
 66
     1
 10
0.0
 20
0.0
 30
0.0
  0
VERTEX
  5
192
330
191
100
AcDbEntity
  8
_U+30EC_U+30A4_U+30E4_U+30FC 1
 62
   179
420
  2234388
370
     9
100
AcDbVertex
100
AcDb2dVertex
 10
83.80161813982039
 20
-165.210243014253
 30
0.0
  0
VERTEX
  5
193
330
191
100
AcDbEntity
  8
_U+30EC_U+30A4_U+30E4_U+30FC 1
 62
   179
420
  2234388
370
     9
100
AcDbVertex
100
AcDb2dVertex
 10
83.80161813982039
 20
-167.6700566247493
 30
0.0
  0
SEQEND
  5
194
330
191
100
AcDbEntity
  8
_U+30EC_U+30A4_U+30E4_U+30FC 1
 62
   179
420
  2234388
370
     9
  0
POLYLINE
  5
195
330
1F
100
AcDbEntity
  8
_U+30EC_U+30A4_U+30E4_U+30FC 1
 62
   179
420
  2234388
370
     9
100
AcDb2dPolyline
 66
     1
 10
0.0
 20
0.0
 30
0.0
  0
VERTEX
  5
196
330
195
100
AcDbEntity
  8
_U+30EC_U+30A4_U+30E4_U+30FC 1
 62
   179
420
  2234388
370
     9
100
AcDbVertex
100
AcDb2dVertex
 10
75.8013944550342
 20
-157.2100544051419
 30
0.0
  0
VERTEX
  5
197
330
195
100
AcDbEntity
  8
_U+30EC_U+30A4_U+30E4_U+30FC 1
 62
   179
420
  2234388
370
     9
100
AcDbVertex
100
AcDb2dVertex
 10
75.8013944550342
 20
-167.6700566247493
 30
0.0
  0
SEQEND
  5
198
330
195
100
AcDbEntity
  8
_U+30EC_U+30A4_U+30E4_U+30FC 1
 62
   179
420
  2234388
370
     9
  0
POLYLINE
  5
199
330
1F
100
AcDbEntity
  8
_U+30EC_U+30A4_U+30E4_U+30FC 1
 62
   179
420
  2234388
370
     9
100
AcDb2dPolyline
 66
     1
 10
0.0
 20
0.0
 30
0.0
  0
VERTEX
  5
19A
330
199
100
AcDbEntity
  8
_U+30EC_U+30A4_U+30E4_U+30FC 1
 62
   179
420
  2234388
370
     9
100
AcDbVertex
100
AcDb2dVertex
 10
71.8016353904099
 20
-154.6703013502212
 30
0.0
  0
VERTEX
  5
19B
330
199
100
AcDbEntity
  8
_U+30EC_U+30A4_U+30E4_U+30FC 1
 62
   179
420
  2234388
370
     9
100
AcDbVertex
100
AcDb2dVertex
 10
71.8016353904099
 20
-137.670151910027
 30
0.0
  0
SEQEND
  5
19C
330
199
100
AcDbEntity
  8
_U+30EC_U+30A4_U+30E4_U+30FC 1
 62
   179
420
  2234388
370
     9
  0
POLYLINE
  5
19D
330
1F
100
AcDbEntity
  8
_U+30EC_U+30A4_U+30E4_U+30FC 1
 62
   179
420
  2234388
370
     9
100
AcDb2dPolyline
 66
     1
 10
0.0
 20
0.0
 30
0.0
  0
VERTEX
  5
19E
330
19D
100
AcDbEntity
  8
_U+30EC_U+30A4_U+30E4_U+30FC 1
 62
   179
420
  2234388
370
     9
100
AcDbVertex
100
AcDb2dVertex
 10
73.26167674205003
 20
-154.6703013502212
 30
0.0
  0
VERTEX
  5
19F
330
19D
100
AcDbEntity
  8
_U+30EC_U+30A4_U+30E4_U+30FC 1
 62
   179
420
  2234388
370
     9
100
AcDbVertex
100
AcDb2dVertex
 10
70.80119291593331
 20
-154.6703013502212
 30
0.0
  0
SEQEND
  5
1A0
330
19D
100
AcDbEntity
  8
_U+30EC_U+30A4_U+30E4_U+30FC 1
 62
   179
420
  2234388
370
     9
  0
POLYLINE
  5
1A1
330
1F
100
AcDbEntity
  8
_U+30EC_U+30A4_U+30E4_U+30FC 1
 62
   179
420
  2234388
370
     9
100
AcDb2dPolyline
 66
     1
 10
0.0
 20
0.0
 30
0.0
  0
VERTEX
  5
1A2
330
1A1
100
AcDbEntity
  8
_U+30EC_U+30A4_U+30E4_U+30FC 1
 62
   179
420
  2234388
370
     9
100
AcDbVertex
100
AcDb2dVertex
 10
73.26167674205003
 20
-137.670151910027
 30
0.0
  0
VERTEX
  5
1A3
330
1A1
100
AcDbEntity
  8
_U+30EC_U+30A4_U+30E4_U+30FC 1
 62
   179
420
  2234388
370
     9
100
AcDbVertex
100
AcDb2dVertex
 10
70.80119291593331
 20
-137.670151910027
 30
0.0
  0
SEQEND
  5
1A4
330
1A1
100
AcDbEntity
  8
_U+30EC_U+30A4_U+30E4_U+30FC 1
 62
   179
420
  2234388
370
     9
  0
POLYLINE
  5
1A5
330
1F
100
AcDbEntity
  8
_U+30EC_U+30A4_U+30E4_U+30FC 1
 62
   179
420
  2234388
370
     9
100
AcDb2dPolyline
 66
     1
 10
0.0
 20
0.0
 30
0.0
  0
VERTEX
  5
1A6
330
1A5
100
AcDbEntity
  8
_U+30EC_U+30A4_U+30E4_U+30FC 1
 62
   179
420
  2234388
370
     9
100
AcDbVertex
100
AcDb2dVertex
 10
71.8016353904099
 20
-154.6703013502212
 30
0.0
  0
VERTEX
  5
1A7
330
1A5
100
AcDbEntity
  8
_U+30EC_U+30A4_U+30E4_U+30FC 1
 62
   179
420
  2234388
370
     9
100
AcDbVertex
100
AcDb2dVertex
 10
71.8016353904099
 20
-162.6705252371105
 30
0.0
  0
SEQEND
  5
1A8
330
1A5
100
AcDbEntity
  8
_U+30EC_U+30A4_U+30E4_U+30FC 1
 62
   179
420
  2234388
370
     9
  0
POLYLINE
  5
1A9
330
1F
100
AcDbEntity
  8
_U+30EC_U+30A4_U+30E4_U+30FC 1
 62
   179
420
  2234388
370
     9
100
AcDb2dPolyline
 66
     1
 10
0.0
 20
0.0
 30
0.0
  0
VERTEX
  5
1AA
330
1A9
100
AcDbEntity
  8
_U+30EC_U+30A4_U+30E4_U+30FC 1
 62
   179
420
  2234388
370
     9
100
AcDbVertex
100
AcDb2dVertex
 10
81.26186514905933
 20
-162.6705252371105
 30
0.0
  0
VERTEX
  5
1AB
330
1A9
100
AcDbEntity
  8
_U+30EC_U+30A4_U+30E4_U+30FC 1
 62
   179
420
  2234388
370
     9
100
AcDbVertex
100
AcDb2dVertex
 10
70.80119291593331
 20
-162.6705252371105
 30
0.0
  0
SEQEND
  5
1AC
330
1A9
100
AcDbEntity
  8
_U+30EC_U+30A4_U+30E4_U+30FC 1
 62
   179
420
  2234388
370
     9
  0
POLYLINE
  5
1AD
330
1F
100
AcDbEntity
  8
_U+30EC_U+30A4_U+30E4_U+30FC 1
 62
   179
420
  2234388
370
     9
100
AcDb2dPolyline
 66
     1
 10
0.0
 20
0.0
 30
0.0
  0
VERTEX
  5
1AE
330
1AD
100
AcDbEntity
  8
_U+30EC_U+30A4_U+30E4_U+30FC 1
 62
   179
420
  2234388
370
     9
100
AcDbVertex
100
AcDb2dVertex
 10
104.8015262151792
 20
-159.6705382934155
 30
0.0
  0
VERTEX
  5
1AF
330
1AD
100
AcDbEntity
  8
_U+30EC_U+30A4_U+30E4_U+30FC 1
 62
   179
420
  2234388
370
     9
100
AcDbVertex
100
AcDb2dVertex
 10
104.8015262151792
 20
-162.6705252371105
 30
0.0
  0
SEQEND
  5
1B0
330
1AD
100
AcDbEntity
  8
_U+30EC_U+30A4_U+30E4_U+30FC 1
 62
   179
420
  2234388
370
     9
  0
POLYLINE
  5
1B1
330
1F
100
AcDbEntity
  8
_U+30EC_U+30A4_U+30E4_U+30FC 1
 62
   179
420
  2234388
370
     9
100
AcDb2dPolyline
 66
     1
 10
0.0
 20
0.0
 30
0.0
  0
VERTEX
  5
1B2
330
1B1
100
AcDbEntity
  8
_U+30EC_U+30A4_U+30E4_U+30FC 1
 62
   179
420
  2234388
370
     9
100
AcDbVertex
100
AcDb2dVertex
 10
103.3414848635391
 20
-159.6705382934155
 30
0.0
  0
VERTEX
  5
1B3
330
1B1
100
AcDbEntity
  8
_U+30EC_U+30A4_U+30E4_U+30FC 1
 62
   179
420
  2234388
370
     9
100
AcDbVertex
100
AcDb2dVertex
 10
105.8012984118951
 20
-159.6705382934155
 30
0.0
  0
SEQEND
  5
1B4
330
1B1
100
AcDbEntity
  8
_U+30EC_U+30A4_U+30E4_U+30FC 1
 62
   179
420
  2234388
370
     9
  0
POLYLINE
  5
1B5
330
1F
100
AcDbEntity
  8
_U+30EC_U+30A4_U+30E4_U+30FC 1
 62
   179
420
  2234388
370
     9
100
AcDb2dPolyline
 66
     1
 10
0.0
 20
0.0
 30
0.0
  0
VERTEX
  5
1B6
330
1B5
100
AcDbEntity
  8
_U+30EC_U+30A4_U+30E4_U+30FC 1
 62
   179
420
  2234388
370
     9
100
AcDbVertex
100
AcDb2dVertex
 10
103.3414848635391
 20
-162.6705252371105
 30
0.0
  0
VERTEX
  5
1B7
330
1B5
100
AcDbEntity
  8
_U+30EC_U+30A4_U+30E4_U+30FC 1
 62
   179
420
  2234388
370
     9
100
AcDbVertex
100
AcDb2dVertex
 10
105.8012984118951
 20
-162.6705252371105
 30
0.0
  0
SEQEND
  5
1B8
330
1B5
100
AcDbEntity
  8
_U+30EC_U+30A4_U+30E4_U+30FC 1
 62
   179
420
  2234388
370
     9
  0
POLYLINE
  5
1B9
330
1F
100
AcDbEntity
  8
_U+30EC_U+30A4_U+30E4_U+30FC 1
 62
   179
420
  2234388
370
     9
100
AcDb2dPolyline
 66
     1
 10
0.0
 20
0.0
 30
0.0
  0
VERTEX
  5
1BA
330
1B9
100
AcDbEntity
  8
_U+30EC_U+30A4_U+30E4_U+30FC 1
 62
   179
420
  2234388
370
     9
100
AcDbVertex
100
AcDb2dVertex
 10
104.8015262151792
 20
-159.6705382934155
 30
0.0
  0
VERTEX
  5
1BB
330
1B9
100
AcDbEntity
  8
_U+30EC_U+30A4_U+30E4_U+30FC 1
 62
   179
420
  2234388
370
     9
100
AcDbVertex
100
AcDb2dVertex
 10
104.8015262151792
 20
-146.67011274111
 30
0.0
  0
SEQEND
  5
1BC
330
1B9
100
AcDbEntity
  8
_U+30EC_U+30A4_U+30E4_U+30FC 1
 62
   179
420
  2234388
370
     9
  0
POLYLINE
  5
1BD
330
1F
100
AcDbEntity
  8
_U+30EC_U+30A4_U+30E4_U+30FC 1
 62
   179
420
  2234388
370
     9
100
AcDb2dPolyline
 66
     1
 10
0.0
 20
0.0
 30
0.0
  0
VERTEX
  5
1BE
330
1BD
100
AcDbEntity
  8
_U+30EC_U+30A4_U+30E4_U+30FC 1
 62
   179
420
  2234388
370
     9
100
AcDbVertex
100
AcDb2dVertex
 10
95.34129645652978
 20
-146.67011274111
 30
0.0
  0
VERTEX
  5
1BF
330
1BD
100
AcDbEntity
  8
_U+30EC_U+30A4_U+30E4_U+30FC 1
 62
   179
420
  2234388
370
     9
100
AcDbVertex
100
AcDb2dVertex
 10
105.8012984118951
 20
-146.67011274111
 30
0.0
  0
SEQEND
  5
1C0
330
1BD
100
AcDbEntity
  8
_U+30EC_U+30A4_U+30E4_U+30FC 1
 62
   179
420
  2234388
370
     9
  0
POLYLINE
  5
1C1
330
1F
100
AcDbEntity
  8
_U+30EC_U+30A4_U+30E4_U+30FC 1
 62
   179
420
  2234388
370
     9
100
AcDb2dPolyline
 66
     1
 10
0.0
 20
0.0
 30
0.0
  0
VERTEX
  5
1C2
330
1C1
100
AcDbEntity
  8
_U+30EC_U+30A4_U+30E4_U+30FC 1
 62
   179
420
  2234388
370
     9
100
AcDbVertex
100
AcDb2dVertex
 10
104.8015262151792
 20
-96.67060080916563
 30
0.0
  0
VERTEX
  5
1C3
330
1C1
100
AcDbEntity
  8
_U+30EC_U+30A4_U+30E4_U+30FC 1
 62
   179
420
  2234388
370
     9
100
AcDbVertex
100
AcDb2dVertex
 10
104.8015262151792
 20
-146.67011274111
 30
0.0
  0
SEQEND
  5
1C4
330
1C1
100
AcDbEntity
  8
_U+30EC_U+30A4_U+30E4_U+30FC 1
 62
   179
420
  2234388
370
     9
  0
POLYLINE
  5
1C5
330
1F
100
AcDbEntity
  8
_U+30EC_U+30A4_U+30E4_U+30FC 1
 62
   179
420
  2234388
370
     9
100
AcDb2dPolyline
 66
     1
 10
0.0
 20
0.0
 30
0.0
  0
VERTEX
  5
1C6
330
1C5
100
AcDbEntity
  8
_U+30EC_U+30A4_U+30E4_U+30FC 1
 62
   179
420
  2234388
370
     9
100
AcDbVertex
100
AcDb2dVertex
 10
95.34129645652978
 20
-96.67060080916563
 30
0.0
  0
VERTEX
  5
1C7
330
1C5
100
AcDbEntity
  8
_U+30EC_U+30A4_U+30E4_U+30FC 1
 62
   179
420
  2234388
370
     9
100
AcDbVertex
100
AcDb2dVertex
 10
105.8012984118951
 20
-96.67060080916563
 30
0.0
  0
SEQEND
  5
1C8
330
1C5
100
AcDbEntity
  8
_U+30EC_U+30A4_U+30E4_U+30FC 1
 62
   179
420
  2234388
370
     9
  0
POLYLINE
  5
1C9
330
1F
100
AcDbEntity
  8
_U+30EC_U+30A4_U+30E4_U+30FC 1
 62
   179
420
  2234388
370
     9
100
AcDb2dPolyline
 66
     1
 10
0.0
 20
0.0
 30
0.0
  0
VERTEX
  5
1CA
330
1C9
100
AcDbEntity
  8
_U+30EC_U+30A4_U+30E4_U+30FC 1
 62
   179
420
  2234388
370
     9
100
AcDbVertex
100
AcDb2dVertex
 10
100.8017671505549
 20
-166.6702844027767
 30
0.0
  0
VERTEX
  5
1CB
330
1C9
100
AcDbEntity
  8
_U+30EC_U+30A4_U+30E4_U+30FC 1
 62
   179
420
  2234388
370
     9
100
AcDbVertex
100
AcDb2dVertex
 10
83.80161813982039
 20
-166.6702844027767
 30
0.0
  0
SEQEND
  5
1CC
330
1C9
100
AcDbEntity
  8
_U+30EC_U+30A4_U+30E4_U+30FC 1
 62
   179
420
  2234388
370
     9
  0
POLYLINE
  5
1CD
330
1F
100
AcDbEntity
  8
_U+30EC_U+30A4_U+30E4_U+30FC 1
 62
   179
420
  2234388
370
     9
100
AcDb2dPolyline
 66
     1
 10
0.0
 20
0.0
 30
0.0
  0
VERTEX
  5
1CE
330
1CD
100
AcDbEntity
  8
_U+30EC_U+30A4_U+30E4_U+30FC 1
 62
   179
420
  2234388
370
     9
100
AcDbVertex
100
AcDb2dVertex
 10
100.8017671505549
 20
-165.210243014253
 30
0.0
  0
VERTEX
  5
1CF
330
1CD
100
AcDbEntity
  8
_U+30EC_U+30A4_U+30E4_U+30FC 1
 62
   179
420
  2234388
370
     9
100
AcDbVertex
100
AcDb2dVertex
 10
100.8017671505549
 20
-167.6700566247493
 30
0.0
  0
SEQEND
  5
1D0
330
1CD
100
AcDbEntity
  8
_U+30EC_U+30A4_U+30E4_U+30FC 1
 62
   179
420
  2234388
370
     9
  0
POLYLINE
  5
1D1
330
1F
100
AcDbEntity
  8
_U+30EC_U+30A4_U+30E4_U+30FC 1
 62
   179
420
  2234388
370
     9
100
AcDb2dPolyline
 66
     1
 10
0.0
 20
0.0
 30
0.0
  0
VERTEX
  5
1D2
330
1D1
100
AcDbEntity
  8
_U+30EC_U+30A4_U+30E4_U+30FC 1
 62
   179
420
  2234388
370
     9
100
AcDbVertex
100
AcDb2dVertex
 10
91.80180654682968
 20
-133.6703927443601
 30
0.0
  0
VERTEX
  5
1D3
330
1D1
100
AcDbEntity
  8
_U+30EC_U+30A4_U+30E4_U+30FC 1
 62
   179
420
  2234388
370
     9
100
AcDbVertex
100
AcDb2dVertex
 10
78.80138331363293
 20
-133.6703927443601
 30
0.0
  0
SEQEND
  5
1D4
330
1D1
100
AcDbEntity
  8
_U+30EC_U+30A4_U+30E4_U+30FC 1
 62
   179
420
  2234388
370
     9
  0
POLYLINE
  5
1D5
330
1F
100
AcDbEntity
  8
_U+30EC_U+30A4_U+30E4_U+30FC 1
 62
   179
420
  2234388
370
    25
100
AcDb2dPolyline
 66
     1
 10
0.0
 20
0.0
 30
0.0
  0
VERTEX
  5
1D6
330
1D5
100
AcDbEntity
  8
_U+30EC_U+30A4_U+30E4_U+30FC 1
 62
   179
420
  2234388
370
    25
100
AcDbVertex
100
AcDb2dVertex
 10
91.80180654682968
 20
-135.2103382995308
 30
0.0
  0
VERTEX
  5
1D7
330
1D5
100
AcDbEntity
  8
_U+30EC_U+30A4_U+30E4_U+30FC 1
 62
   179
420
  2234388
370
    25
100
AcDbVertex
100
AcDb2dVertex
 10
91.80180654682968
 20
-134.6701649663327
 30
0.0
  0
SEQEND
  5
1D8
330
1D5
100
AcDbEntity
  8
_U+30EC_U+30A4_U+30E4_U+30FC 1
 62
   179
420
  2234388
370
    25
  0
POLYLINE
  5
1D9
330
1F
100
AcDbEntity
  8
_U+30EC_U+30A4_U+30E4_U+30FC 1
 62
   179
420
  2234388
370
     9
100
AcDb2dPolyline
 66
     1
 10
0.0
 20
0.0
 30
0.0
  0
VERTEX
  5
1DA
330
1D9
100
AcDbEntity
  8
_U+30EC_U+30A4_U+30E4_U+30FC 1
 62
   179
420
  2234388
370
     9
100
AcDbVertex
100
AcDb2dVertex
 10
78.80138331363293
 20
-135.1304341328838
 30
0.0
  0
VERTEX
  5
1DB
330
1D9
100
AcDbEntity
  8
_U+30EC_U+30A4_U+30E4_U+30FC 1
 62
   179
420
  2234388
370
     9
100
AcDbVertex
100
AcDb2dVertex
 10
78.80138331363293
 20
-132.6706205223876
 30
0.0
  0
SEQEND
  5
1DC
330
1D9
100
AcDbEntity
  8
_U+30EC_U+30A4_U+30E4_U+30FC 1
 62
   179
420
  2234388
370
     9
  0
INSERT
  5
1DE
330
1F
100
AcDbEntity
  8
_U+30EC_U+30A4_U+30E4_U+30FC 1
100
AcDbBlockReference
  2
block 2
 10
0.0
 20
0.0
 30
0.0
  0
INSERT
  5
1E4
330
1F
100
AcDbEntity
  8
_U+30EC_U+30A4_U+30E4_U+30FC 1
100
AcDbBlockReference
  2
block 3
 10
0.0
 20
0.0
 30
0.0
  0
INSERT
  5
1EA
330
1F
100
AcDbEntity
  8
_U+30EC_U+30A4_U+30E4_U+30FC 1
100
AcDbBlockReference
  2
block 4
 10
0.0
 20
0.0
 30
0.0
  0
INSERT
  5
1F2
330
1F
100
AcDbEntity
  8
_U+30EC_U+30A4_U+30E4_U+30FC 1
100
AcDbBlockReference
  2
block 5
 10
0.0
 20
0.0
 30
0.0
  0
INSERT
  5
1F8
330
1F
100
AcDbEntity
  8
_U+30EC_U+30A4_U+30E4_U+30FC 1
100
AcDbBlockReference
  2
block 6
 10
0.0
 20
0.0
 30
0.0
  0
INSERT
  5
200
330
1F
100
AcDbEntity
  8
_U+30EC_U+30A4_U+30E4_U+30FC 1
100
AcDbBlockReference
  2
block 7
 10
0.0
 20
0.0
 30
0.0
  0
INSERT
  5
209
330
1F
100
AcDbEntity
  8
_U+30EC_U+30A4_U+30E4_U+30FC 1
100
AcDbBlockReference
  2
block 8
 10
0.0
 20
0.0
 30
0.0
  0
INSERT
  5
211
330
1F
100
AcDbEntity
  8
_U+30EC_U+30A4_U+30E4_U+30FC 1
100
AcDbBlockReference
  2
block 9
 10
0.0
 20
0.0
 30
0.0
  0
INSERT
  5
219
330
1F
100
AcDbEntity
  8
_U+30EC_U+30A4_U+30E4_U+30FC 1
100
AcDbBlockReference
  2
block 10
 10
0.0
 20
0.0
 30
0.0
  0
INSERT
  5
221
330
1F
100
AcDbEntity
  8
_U+30EC_U+30A4_U+30E4_U+30FC 1
100
AcDbBlockReference
  2
block 11
 10
0.0
 20
0.0
 30
0.0
  0
INSERT
  5
229
330
1F
100
AcDbEntity
  8
_U+30EC_U+30A4_U+30E4_U+30FC 1
100
AcDbBlockReference
  2
block 12
 10
0.0
 20
0.0
 30
0.0
  0
ENDSEC
  0
SECTION
  2
OBJECTS
  0
DICTIONARY
  5
C
330
0
100
AcDbDictionary
281
     1
  3
ACAD_GROUP
350
D
  3
ACAD_LAYOUT
350
1A
  3
ACAD_MATERIAL
350
3B
  3
ACAD_MLEADERSTYLE
350
231
  3
ACAD_MLINESTYLE
350
17
  3
ACAD_PLOTSETTINGS
350
19
  3
ACAD_PLOTSTYLENAME
350
E
  3
ACAD_TABLESTYLE
350
230
  3
ACAD_VISUALSTYLE
350
2A
  0
SUN
  5
3F
330
29
100
AcDbSun
 90
        1
290
     0
 63
     7
421
 16777215
 40
1.0
291
     1
 91
  2455826
 92
 54000000
292
     0
 70
     2
 71
   256
280
     1
  0
DICTIONARY
  5
D
102
{ACAD_REACTORS
330
C
102
}
330
C
100
AcDbDictionary
281
     1
  0
DICTIONARY
  5
1A
102
{ACAD_REACTORS
330
C
102
}
330
C
100
AcDbDictionary
281
     1
  3
Layout1
350
1E
  3
Layout2
350
26
  3
Model
350
22
  0
DICTIONARY
  5
3B
102
{ACAD_REACTORS
330
C
102
}
330
C
100
AcDbDictionary
281
     1
  3
ByBlock
350
3D
  3
ByLayer
350
3C
  3
Global
350
3E
  0
DICTIONARY
  5
231
102
{ACAD_REACTORS
330
C
102
}
330
C
100
AcDbDictionary
281
     1
  0
DICTIONARY
  5
17
102
{ACAD_REACTORS
330
C
102
}
330
C
100
AcDbDictionary
281
     1
  3
Standard
350
18
  0
DICTIONARY
  5
19
102
{ACAD_REACTORS
330
C
102
}
330
C
100
AcDbDictionary
281
     1
  0
ACDBDICTIONARYWDFLT
  5
E
102
{ACAD_REACTORS
330
C
102
}
330
C
100
AcDbDictionary
281
     1
  3
Normal
350
F
100
AcDbDictionaryWithDefault
340
F
  0
DICTIONARY
  5
230
102
{ACAD_REACTORS
330
C
102
}
330
C
100
AcDbDictionary
281
     1
  0
DICTIONARY
  5
2A
102
{ACAD_REACTORS
330
C
102
}
330
C
100
AcDbDictionary
281
     1
  3
2dWireframe
350
2F
  3
3D Hidden
350
31
  3
3dWireframe
350
30
  3
Basic
350
32
  3
Brighten
350
36
  3
ColorChange
350
3A
  3
Conceptual
350
34
  3
Dim
350
35
  3
Facepattern
350
39
  3
Flat
350
2B
  3
FlatWithEdges
350
2C
  3
Gouraud
350
2D
  3
GouraudWithEdges
350
2E
  3
Linepattern
350
38
  3
Realistic
350
33
  3
Thicken
350
37
  0
LAYOUT
  5
1E
102
{ACAD_REACTORS
330
1A
102
}
330
1A
100
AcDbPlotSettings
  1

  2
none_device
  4

  6

 40
0.0
 41
0.0
 42
0.0
 43
0.0
 44
0.0
 45
0.0
 46
0.0
 47
0.0
 48
0.0
 49
0.0
140
0.0
141
0.0
142
1.0
143
1.0
 70
   688
 72
     0
 73
     0
 74
     5
  7

 75
    16
 76
     0
 77
     2
 78
   300
147
1.0
148
0.0
149
0.0
100
AcDbLayout
  1
Layout1
 70
     1
 71
     1
 10
0.0
 20
0.0
 11
12.0
 21
9.0
 12
0.0
 22
0.0
 32
0.0
 14
1.000000000000000E+20
 24
1.000000000000000E+20
 34
1.000000000000000E+20
 15
-1.000000000000000E+20
 25
-1.000000000000000E+20
 35
-1.000000000000000E+20
146
0.0
 13
0.0
 23
0.0
 33
0.0
 16
1.0
 26
0.0
 36
0.0
 17
0.0
 27
1.0
 37
0.0
 76
     0
330
1B
  0
LAYOUT
  5
26
102
{ACAD_REACTORS
330
1A
102
}
330
1A
100
AcDbPlotSettings
  1

  2
none_device
  4

  6

 40
0.0
 41
0.0
 42
0.0
 43
0.0
 44
0.0
 45
0.0
 46
0.0
 47
0.0
 48
0.0
 49
0.0
140
0.0
141
0.0
142
1.0
143
1.0
 70
   688
 72
     0
 73
     0
 74
     5
  7

 75
    16
 76
     0
 77
     2
 78
   300
147
1.0
148
0.0
149
0.0
100
AcDbLayout
  1
Layout2
 70
     1
 71
     2
 10
0.0
 20
0.0
 11
0.0
 21
0.0
 12
0.0
 22
0.0
 32
0.0
 14
0.0
 24
0.0
 34
0.0
 15
0.0
 25
0.0
 35
0.0
146
0.0
 13
0.0
 23
0.0
 33
0.0
 16
1.0
 26
0.0
 36
0.0
 17
0.0
 27
1.0
 37
0.0
 76
     0
330
23
  0
LAYOUT
  5
22
102
{ACAD_REACTORS
330
1A
102
}
330
1A
100
AcDbPlotSettings
  1

  2
none_device
  4

  6

 40
0.0
 41
0.0
 42
0.0
 43
0.0
 44
0.0
 45
0.0
 46
0.0
 47
0.0
 48
0.0
 49
0.0
140
0.0
141
0.0
142
1.0
143
1.0
 70
  1712
 72
     0
 73
     0
 74
     0
  7

 75
     0
 76
     0
 77
     2
 78
   300
147
1.0
148
0.0
149
0.0
100
AcDbLayout
  1
Model
 70
     1
 71
     0
 10
0.0
 20
0.0
 11
12.0
 21
9.0
 12
0.0
 22
0.0
 32
0.0
 14
1.000000000000000E+20
 24
1.000000000000000E+20
 34
1.000000000000000E+20
 15
-1.000000000000000E+20
 25
-1.000000000000000E+20
 35
-1.000000000000000E+20
146
0.0
 13
0.0
 23
0.0
 33
0.0
 16
1.0
 26
0.0
 36
0.0
 17
0.0
 27
1.0
 37
0.0
 76
     0
330
1F
331
29
  0
MATERIAL
  5
3D
102
{ACAD_REACTORS
330
3B
102
}
330
3B
100
AcDbMaterial
  1
ByBlock
 72
     1
 94
      127
  0
MATERIAL
  5
3C
102
{ACAD_REACTORS
330
3B
102
}
330
3B
100
AcDbMaterial
  1
ByLayer
 72
     1
 94
      127
  0
MATERIAL
  5
3E
102
{ACAD_REACTORS
330
3B
102
}
330
3B
100
AcDbMaterial
  1
Global
 72
     1
 94
      127
  0
MLINESTYLE
  5
18
102
{ACAD_REACTORS
330
17
102
}
330
17
100
AcDbMlineStyle
  2
Standard
 70
     0
  3

 62
   256
 51
90.0
 52
90.0
 71
     2
 49
0.5
 62
   256
  6
BYLAYER
 49
-0.5
 62
   256
  6
BYLAYER
  0
ACDBPLACEHOLDER
  5
F
102
{ACAD_REACTORS
330
E
102
}
330
E
  0
VISUALSTYLE
  5
2F
102
{ACAD_REACTORS
330
2A
102
}
330
2A
100
AcDbVisualStyle
  2
2dWireframe
 70
     4
177
     2
291
     0
 71
     0
176
     1
 72
     2
176
     1
 73
     0
176
     1
 90
        0
176
     1
 40
-0.6
176
     1
 41
-30.0
176
     1
 62
     5
 63
     7
421
 16777215
176
     1
 74
     1
176
     1
 91
        4
176
     1
 64
     7
176
     1
 65
   257
176
     1
 75
     1
176
     1
175
     1
176
     1
 42
1.0
176
     1
 92
        0
176
     1
 66
   257
176
     1
 43
1.0
176
     1
 76
     1
176
     1
 77
     6
176
     1
 78
     2
176
     1
 67
     7
176
     1
 79
     5
176
     1
170
     0
176
     1
171
     0
176
     1
290
     0
176
     1
 93
        1
176
     1
 44
0.0
176
     1
173
     0
176
     1
  0
VISUALSTYLE
  5
31
102
{ACAD_REACTORS
330
2A
102
}
330
2A
100
AcDbVisualStyle
  2
3D Hidden
 70
     6
177
     2
291
     0
 71
     1
176
     1
 72
     2
176
     1
 73
     2
176
     1
 90
        0
176
     1
 40
-0.6
176
     1
 41
-30.0
176
     1
 62
     5
 63
     7
421
 16777215
176
     1
 74
     2
176
     1
 91
        2
176
     1
 64
     7
176
     1
 65
   257
176
     1
 75
     2
176
     1
175
     1
176
     1
 42
40.0
176
     1
 92
        0
176
     1
 66
   257
176
     1
 43
1.0
176
     1
 76
     1
176
     1
 77
     6
176
     1
 78
     2
176
     1
 67
     7
176
     1
 79
     3
176
     1
170
     0
176
     1
171
     0
176
     1
290
     0
176
     1
 93
        1
176
     1
 44
0.0
176
     1
173
     0
176
     1
  0
VISUALSTYLE
  5
30
102
{ACAD_REACTORS
330
2A
102
}
330
2A
100
AcDbVisualStyle
  2
3dWireframe
 70
     5
177
     2
291
     0
 71
     0
176
     1
 72
     2
176
     1
 73
     0
176
     1
 90
        0
176
     1
 40
-0.6
176
     1
 41
-30.0
176
     1
 62
     5
 63
     7
421
 16777215
176
     1
 74
     1
176
     1
 91
        4
176
     1
 64
     7
176
     1
 65
   257
176
     1
 75
     1
176
     1
175
     1
176
     1
 42
1.0
176
     1
 92
        0
176
     1
 66
   257
176
     1
 43
1.0
176
     1
 76
     1
176
     1
 77
     6
176
     1
 78
     2
176
     1
 67
     7
176
     1
 79
     5
176
     1
170
     0
176
     1
171
     0
176
     1
290
     0
176
     1
 93
        1
176
     1
 44
0.0
176
     1
173
     0
176
     1
  0
VISUALSTYLE
  5
32
102
{ACAD_REACTORS
330
2A
102
}
330
2A
100
AcDbVisualStyle
  2
Basic
 70
     7
177
     2
291
     1
 71
     1
176
     1
 72
     0
176
     1
 73
     1
176
     1
 90
        0
176
     1
 40
-0.6
176
     1
 41
-30.0
176
     1
 62
     5
 63
     7
421
 16777215
176
     1
 74
     0
176
     1
 91
        4
176
     1
 64
     7
176
     1
 65
   257
176
     1
 75
     1
176
     1
175
     1
176
     1
 42
1.0
176
     1
 92
        8
176
     1
 66
     7
176
     1
 43
1.0
176
     1
 76
     1
176
     1
 77
     6
176
     1
 78
     2
176
     1
 67
     7
176
     1
 79
     5
176
     1
170
     0
176
     1
171
     0
176
     1
290
     0
176
     1
 93
        1
176
     1
 44
0.0
176
     1
173
     0
176
     1
  0
VISUALSTYLE
  5
36
102
{ACAD_REACTORS
330
2A
102
}
330
2A
100
AcDbVisualStyle
  2
Brighten
 70
    12
177
     2
291
     1
 71
     2
176
     1
 72
     2
176
     1
 73
     0
176
     1
 90
        0
176
     1
 40
-0.6
176
     1
 41
-30.0
176
     1
 62
     5
 63
     7
421
 16777215
176
     1
 74
     1
176
     1
 91
        4
176
     1
 64
     7
176
     1
 65
   257
176
     1
 75
     1
176
     1
175
     1
176
     1
 42
1.0
176
     1
 92
        8
176
     1
 66
     7
176
     1
 43
1.0
176
     1
 76
     1
176
     1
 77
     6
176
     1
 78
     2
176
     1
 67
     7
176
     1
 79
     5
176
     1
170
     0
176
     1
171
     0
176
     1
290
     0
176
     1
 93
        1
176
     1
 44
50.0
176
     1
173
     0
176
     1
  0
VISUALSTYLE
  5
3A
102
{ACAD_REACTORS
330
2A
102
}
330
2A
100
AcDbVisualStyle
  2
ColorChange
 70
    16
177
     2
291
     1
 71
     2
176
     1
 72
     2
176
     1
 73
     3
176
     1
 90
        0
176
     1
 40
-0.6
176
     1
 41
-30.0
176
     1
 62
     5
 63
     8
421
  8421504
176
     1
 74
     1
176
     1
 91
        4
176
     1
 64
     7
176
     1
 65
   257
176
     1
 75
     1
176
     1
175
     1
176
     1
 42
1.0
176
     1
 92
        8
176
     1
 66
     8
424
  8421504
176
     1
 43
1.0
176
     1
 76
     1
176
     1
 77
     6
176
     1
 78
     2
176
     1
 67
     7
176
     1
 79
     5
176
     1
170
     0
176
     1
171
     0
176
     1
290
     0
176
     1
 93
        1
176
     1
 44
0.0
176
     1
173
     0
176
     1
  0
VISUALSTYLE
  5
34
102
{ACAD_REACTORS
330
2A
102
}
330
2A
100
AcDbVisualStyle
  2
Conceptual
 70
     9
177
     2
291
     0
 71
     3
176
     1
 72
     2
176
     1
 73
     0
176
     1
 90
        0
176
     1
 40
-0.6
176
     1
 41
-30.0
176
     1
 62
     5
 63
     7
421
 16777215
176
     1
 74
     2
176
     1
 91
        2
176
     1
 64
     7
176
     1
 65
   257
176
     1
 75
     1
176
     1
175
     1
176
     1
 42
40.0
176
     1
 92
        8
176
     1
 66
     7
176
     1
 43
1.0
176
     1
 76
     1
176
     1
 77
     6
176
     1
 78
     2
176
     1
 67
     7
176
     1
 79
     3
176
     1
170
     0
176
     1
171
     0
176
     1
290
     0
176
     1
 93
        1
176
     1
 44
0.0
176
     1
173
     0
176
     1
  0
VISUALSTYLE
  5
35
102
{ACAD_REACTORS
330
2A
102
}
330
2A
100
AcDbVisualStyle
  2
Dim
 70
    11
177
     2
291
     1
 71
     2
176
     1
 72
     2
176
     1
 73
     0
176
     1
 90
        0
176
     1
 40
-0.6
176
     1
 41
-30.0
176
     1
 62
     5
 63
     7
421
 16777215
176
     1
 74
     1
176
     1
 91
        4
176
     1
 64
     7
176
     1
 65
   257
176
     1
 75
     1
176
     1
175
     1
176
     1
 42
1.0
176
     1
 92
        8
176
     1
 66
     7
176
     1
 43
1.0
176
     1
 76
     1
176
     1
 77
     6
176
     1
 78
     2
176
     1
 67
     7
176
     1
 79
     5
176
     1
170
     0
176
     1
171
     0
176
     1
290
     0
176
     1
 93
        1
176
     1
 44
-50.0
176
     1
173
     0
176
     1
  0
VISUALSTYLE
  5
39
102
{ACAD_REACTORS
330
2A
102
}
330
2A
100
AcDbVisualStyle
  2
Facepattern
 70
    15
177
     2
291
     1
 71
     2
176
     1
 72
     2
176
     1
 73
     0
176
     1
 90
        0
176
     1
 40
-0.6
176
     1
 41
-30.0
176
     1
 62
     5
 63
     7
421
 16777215
176
     1
 74
     1
176
     1
 91
        4
176
     1
 64
     7
176
     1
 65
   257
176
     1
 75
     1
176
     1
175
     1
176
     1
 42
1.0
176
     1
 92
        8
176
     1
 66
     7
176
     1
 43
1.0
176
     1
 76
     1
176
     1
 77
     6
176
     1
 78
     2
176
     1
 67
     7
176
     1
 79
     5
176
     1
170
     0
176
     1
171
     0
176
     1
290
     0
176
     1
 93
        1
176
     1
 44
0.0
176
     1
173
     0
176
     1
  0
VISUALSTYLE
  5
2B
102
{ACAD_REACTORS
330
2A
102
}
330
2A
100
AcDbVisualStyle
  2
Flat
 70
     0
177
     2
291
     1
 71
     2
176
     1
 72
     1
176
     1
 73
     1
176
     1
 90
        2
176
     1
 40
-0.6
176
     1
 41
30.0
176
     1
 62
     5
 63
     7
421
 16777215
176
     1
 74
     0
176
     1
 91
        4
176
     1
 64
     7
176
     1
 65
   257
176
     1
 75
     1
176
     1
175
     1
176
     1
 42
1.0
176
     1
 92
        8
176
     1
 66
     7
176
     1
 43
1.0
176
     1
 76
     1
176
     1
 77
     6
176
     1
 78
     2
176
     1
 67
     7
176
     1
 79
     5
176
     1
170
     0
176
     1
171
     0
176
     1
290
     0
176
     1
 93
       13
176
     1
 44
0.0
176
     1
173
     0
176
     1
  0
VISUALSTYLE
  5
2C
102
{ACAD_REACTORS
330
2A
102
}
330
2A
100
AcDbVisualStyle
  2
FlatWithEdges
 70
     1
177
     2
291
     1
 71
     2
176
     1
 72
     1
176
     1
 73
     1
176
     1
 90
        2
176
     1
 40
-0.6
176
     1
 41
30.0
176
     1
 62
     5
 63
     7
421
 16777215
176
     1
 74
     1
176
     1
 91
        4
176
     1
 64
     7
176
     1
 65
   257
176
     1
 75
     1
176
     1
175
     1
176
     1
 42
1.0
176
     1
 92
        0
176
     1
 66
   257
176
     1
 43
1.0
176
     1
 76
     1
176
     1
 77
     6
176
     1
 78
     2
176
     1
 67
     7
176
     1
 79
     5
176
     1
170
     0
176
     1
171
     0
176
     1
290
     0
176
     1
 93
       13
176
     1
 44
0.0
176
     1
173
     0
176
     1
  0
VISUALSTYLE
  5
2D
102
{ACAD_REACTORS
330
2A
102
}
330
2A
100
AcDbVisualStyle
  2
Gouraud
 70
     2
177
     2
291
     1
 71
     2
176
     1
 72
     2
176
     1
 73
     1
176
     1
 90
        2
176
     1
 40
-0.6
176
     1
 41
30.0
176
     1
 62
     5
 63
     7
421
 16777215
176
     1
 74
     0
176
     1
 91
        4
176
     1
 64
     7
176
     1
 65
   257
176
     1
 75
     1
176
     1
175
     1
176
     1
 42
1.0
176
     1
 92
        0
176
     1
 66
     7
176
     1
 43
1.0
176
     1
 76
     1
176
     1
 77
     6
176
     1
 78
     2
176
     1
 67
     7
176
     1
 79
     5
176
     1
170
     0
176
     1
171
     0
176
     1
290
     0
176
     1
 93
       13
176
     1
 44
0.0
176
     1
173
     0
176
     1
  0
VISUALSTYLE
  5
2E
102
{ACAD_REACTORS
330
2A
102
}
330
2A
100
AcDbVisualStyle
  2
GouraudWithEdges
 70
     3
177
     2
291
     1
 71
     2
176
     1
 72
     2
176
     1
 73
     1
176
     1
 90
        2
176
     1
 40
-0.6
176
     1
 41
30.0
176
     1
 62
     5
 63
     7
421
 16777215
176
     1
 74
     1
176
     1
 91
        4
176
     1
 64
     7
176
     1
 65
   257
176
     1
 75
     1
176
     1
175
     1
176
     1
 42
1.0
176
     1
 92
        0
176
     1
 66
   257
176
     1
 43
1.0
176
     1
 76
     1
176
     1
 77
     6
176
     1
 78
     2
176
     1
 67
     7
176
     1
 79
     5
176
     1
170
     0
176
     1
171
     0
176
     1
290
     0
176
     1
 93
       13
176
     1
 44
0.0
176
     1
173
     0
176
     1
  0
VISUALSTYLE
  5
38
102
{ACAD_REACTORS
330
2A
102
}
330
2A
100
AcDbVisualStyle
  2
Linepattern
 70
    14
177
     2
291
     1
 71
     2
176
     1
 72
     2
176
     1
 73
     0
176
     1
 90
        0
176
     1
 40
-0.6
176
     1
 41
-30.0
176
     1
 62
     5
 63
     7
421
 16777215
176
     1
 74
     1
176
     1
 91
        4
176
     1
 64
     7
176
     1
 65
   257
176
     1
 75
     7
176
     1
175
     7
176
     1
 42
1.0
176
     1
 92
        8
176
     1
 66
     7
176
     1
 43
1.0
176
     1
 76
     1
176
     1
 77
     6
176
     1
 78
     2
176
     1
 67
     7
176
     1
 79
     5
176
     1
170
     0
176
     1
171
     0
176
     1
290
     0
176
     1
 93
        1
176
     1
 44
0.0
176
     1
173
     0
176
     1
  0
VISUALSTYLE
  5
33
102
{ACAD_REACTORS
330
2A
102
}
330
2A
100
AcDbVisualStyle
  2
Realistic
 70
     8
177
     2
291
     0
 71
     2
176
     1
 72
     2
176
     1
 73
     0
176
     1
 90
        0
176
     1
 40
-0.6
176
     1
 41
-30.0
176
     1
 62
     5
 63
     7
421
 16777215
176
     1
 74
     1
176
     1
 91
        0
176
     1
 64
     7
176
     1
 65
   257
176
     1
 75
     1
176
     1
175
     1
176
     1
 42
1.0
176
     1
 92
        8
176
     1
 66
     8
424
  7895160
176
     1
 43
1.0
176
     1
 76
     1
176
     1
 77
     6
176
     1
 78
     2
176
     1
 67
     7
176
     1
 79
     5
176
     1
170
     0
176
     1
171
     0
176
     1
290
     0
176
     1
 93
       13
176
     1
 44
0.0
176
     1
173
     0
176
     1
  0
VISUALSTYLE
  5
37
102
{ACAD_REACTORS
330
2A
102
}
330
2A
100
AcDbVisualStyle
  2
Thicken
 70
    13
177
     2
291
     1
 71
     2
176
     1
 72
     2
176
     1
 73
     0
176
     1
 90
        0
176
     1
 40
-0.6
176
     1
 41
-30.0
176
     1
 62
     5
 63
     7
421
 16777215
176
     1
 74
     1
176
     1
 91
        4
176
     1
 64
     7
176
     1
 65
   257
176
     1
 75
     1
176
     1
175
     1
176
     1
 42
1.0
176
     1
 92
       12
176
     1
 66
     7
176
     1
 43
1.0
176
     1
 76
     1
176
     1
 77
     6
176
     1
 78
     2
176
     1
 67
     7
176
     1
 79
     5
176
     1
170
     0
176
     1
171
     0
176
     1
290
     0
176
     1
 93
        1
176
     1
 44
0.0
176
     1
173
     0
176
     1
  0
ENDSEC
  0
EOF
