  0
SECTION
  2
HEADER
  9
$ACADVER
  1
AC1024
  9
$ACADMAINTVER
 70
     6
  9
$DWGCODEPAGE
  3
UNDEFINED
  9
$INSBASE
 10
0.0
 20
0.0
 30
0.0
  9
$EXTMIN
 10
1.000000000000000E+20
 20
1.000000000000000E+20
 30
1.000000000000000E+20
  9
$EXTMAX
 10
-1.000000000000000E+20
 20
-1.000000000000000E+20
 30
-1.000000000000000E+20
  9
$LIMMIN
 10
0.0
 20
0.0
  9
$LIMMAX
 10
12.0
 20
9.0
  9
$ORTHOMODE
 70
     0
  9
$REGENMODE
 70
     1
  9
$FILLMODE
 70
     1
  9
$QTEXTMODE
 70
     0
  9
$MIRRTEXT
 70
     1
  9
$LTSCALE
 40
1.0
  9
$ATTMODE
 70
     1
  9
$TEXTSIZE
 40
0.2
  9
$TRACEWID
 40
0.05
  9
$TEXTSTYLE
  7
Standard
  9
$CLAYER
  8
0
  9
$CELTYPE
  6
ByLayer
  9
$CECOLOR
 62
   256
  9
$CELTSCALE
 40
1.0
  9
$DISPSILH
 70
     0
  9
$DIMSCALE
 40
1.0
  9
$DIMASZ
 40
0.18
  9
$DIMEXO
 40
0.0625
  9
$DIMDLI
 40
0.38
  9
$DIMRND
 40
0.0
  9
$DIMDLE
 40
0.0
  9
$DIMEXE
 40
0.18
  9
$DIMTP
 40
0.0
  9
$DIMTM
 40
0.0
  9
$DIMTXT
 40
0.18
  9
$DIMCEN
 40
0.09
  9
$DIMTSZ
 40
0.0
  9
$DIMTOL
 70
     0
  9
$DIMLIM
 70
     0
  9
$DIMTIH
 70
     1
  9
$DIMTOH
 70
     1
  9
$DIMSE1
 70
     0
  9
$DIMSE2
 70
     0
  9
$DIMTAD
 70
     0
  9
$DIMZIN
 70
     0
  9
$DIMBLK
  1

  9
$DIMASO
 70
     1
  9
$DIMSHO
 70
     1
  9
$DIMPOST
  1

  9
$DIMAPOST
  1

  9
$DIMALT
 70
     0
  9
$DIMALTD
 70
     2
  9
$DIMALTF
 40
25.4
  9
$DIMLFAC
 40
1.0
  9
$DIMTOFL
 70
     0
  9
$DIMTVP
 40
0.0
  9
$DIMTIX
 70
     0
  9
$DIMSOXD
 70
     0
  9
$DIMSAH
 70
     0
  9
$DIMBLK1
  1

  9
$DIMBLK2
  1

  9
$DIMSTYLE
  2
Standard
  9
$DIMCLRD
 70
     0
  9
$DIMCLRE
 70
     0
  9
$DIMCLRT
 70
     0
  9
$DIMTFAC
 40
1.0
  9
$DIMGAP
 40
0.09
  9
$DIMJUST
 70
     0
  9
$DIMSD1
 70
     0
  9
$DIMSD2
 70
     0
  9
$DIMTOLJ
 70
     1
  9
$DIMTZIN
 70
     0
  9
$DIMALTZ
 70
     0
  9
$DIMALTTZ
 70
     0
  9
$DIMUPT
 70
     0
  9
$DIMDEC
 70
     4
  9
$DIMTDEC
 70
     4
  9
$DIMALTU
 70
     2
  9
$DIMALTTD
 70
     2
  9
$DIMTXSTY
  7
Standard
  9
$DIMAUNIT
 70
     0
  9
$DIMADEC
 70
     0
  9
$DIMALTRND
 40
0.0
  9
$DIMAZIN
 70
     0
  9
$DIMDSEP
 70
    46
  9
$DIMATFIT
 70
     3
  9
$DIMFRAC
 70
     0
  9
$DIMLDRBLK
  1

  9
$DIMLUNIT
 70
     2
  9
$DIMLWD
 70
    -2
  9
$DIMLWE
 70
    -2
  9
$DIMTMOVE
 70
     0
  9
$DIMFXL
 40
1.0
  9
$DIMFXLON
 70
     0
  9
$DIMJOGANG
 40
0.7853981633974483
  9
$DIMTFILL
 70
     0
  9
$DIMTFILLCLR
 70
     0
  9
$DIMARCSYM
 70
     0
  9
$DIMLTYPE
  6

  9
$DIMLTEX1
  6

  9
$DIMLTEX2
  6

  9
$DIMTXTDIRECTION
 70
     0
  9
$LUNITS
 70
     2
  9
$LUPREC
 70
     4
  9
$SKETCHINC
 40
0.1
  9
$FILLETRAD
 40
0.5
  9
$AUNITS
 70
     0
  9
$AUPREC
 70
     0
  9
$MENU
  1
.
  9
$ELEVATION
 40
0.0
  9
$PELEVATION
 40
0.0
  9
$THICKNESS
 40
0.0
  9
$LIMCHECK
 70
     0
  9
$CHAMFERA
 40
0.5
  9
$CHAMFERB
 40
0.5
  9
$CHAMFERC
 40
1.0
  9
$CHAMFERD
 40
0.0
  9
$SKPOLY
 70
     0
  9
$TDCREATE
 40
2457917.613726852
  9
$TDUCREATE
 40
2457917.238726852
  9
$TDUPDATE
 40
2457917.613738426
  9
$TDUUPDATE
 40
2457917.238738426
  9
$TDINDWG
 40
0.0000000116
  9
$TDUSRTIMER
 40
0.0000000116
  9
$USRTIMER
 70
     1
  9
$ANGBASE
 50
0.0
  9
$ANGDIR
 70
     0
  9
$PDMODE
 70
     0
  9
$PDSIZE
 40
0.0
  9
$PLINEWID
 40
0.0
  9
$SPLFRAME
 70
     0
  9
$SPLINETYPE
 70
     6
  9
$SPLINESEGS
 70
     8
  9
$HANDSEED
  5
20B
  9
$SURFTAB1
 70
     6
  9
$SURFTAB2
 70
     6
  9
$SURFTYPE
 70
     6
  9
$SURFU
 70
     6
  9
$SURFV
 70
     6
  9
$UCSBASE
  2

  9
$UCSNAME
  2

  9
$UCSORG
 10
0.0
 20
0.0
 30
0.0
  9
$UCSXDIR
 10
1.0
 20
0.0
 30
0.0
  9
$UCSYDIR
 10
0.0
 20
1.0
 30
0.0
  9
$UCSORTHOREF
  2

  9
$UCSORTHOVIEW
 70
     0
  9
$UCSORGTOP
 10
0.0
 20
0.0
 30
0.0
  9
$UCSORGBOTTOM
 10
0.0
 20
0.0
 30
0.0
  9
$UCSORGLEFT
 10
0.0
 20
0.0
 30
0.0
  9
$UCSORGRIGHT
 10
0.0
 20
0.0
 30
0.0
  9
$UCSORGFRONT
 10
0.0
 20
0.0
 30
0.0
  9
$UCSORGBACK
 10
0.0
 20
0.0
 30
0.0
  9
$PUCSBASE
  2

  9
$PUCSNAME
  2

  9
$PUCSORG
 10
0.0
 20
0.0
 30
0.0
  9
$PUCSXDIR
 10
1.0
 20
0.0
 30
0.0
  9
$PUCSYDIR
 10
0.0
 20
1.0
 30
0.0
  9
$PUCSORTHOREF
  2

  9
$PUCSORTHOVIEW
 70
     0
  9
$PUCSORGTOP
 10
0.0
 20
0.0
 30
0.0
  9
$PUCSORGBOTTOM
 10
0.0
 20
0.0
 30
0.0
  9
$PUCSORGLEFT
 10
0.0
 20
0.0
 30
0.0
  9
$PUCSORGRIGHT
 10
0.0
 20
0.0
 30
0.0
  9
$PUCSORGFRONT
 10
0.0
 20
0.0
 30
0.0
  9
$PUCSORGBACK
 10
0.0
 20
0.0
 30
0.0
  9
$USERI1
 70
     0
  9
$USERI2
 70
     0
  9
$USERI3
 70
     0
  9
$USERI4
 70
     0
  9
$USERI5
 70
     0
  9
$USERR1
 40
0.0
  9
$USERR2
 40
0.0
  9
$USERR3
 40
0.0
  9
$USERR4
 40
0.0
  9
$USERR5
 40
0.0
  9
$WORLDVIEW
 70
     1
  9
$SHADEDGE
 70
     3
  9
$SHADEDIF
 70
    70
  9
$TILEMODE
 70
     1
  9
$MAXACTVP
 70
    64
  9
$PINSBASE
 10
0.0
 20
0.0
 30
0.0
  9
$PLIMCHECK
 70
     0
  9
$PEXTMIN
 10
1.000000000000000E+20
 20
1.000000000000000E+20
 30
1.000000000000000E+20
  9
$PEXTMAX
 10
-1.000000000000000E+20
 20
-1.000000000000000E+20
 30
-1.000000000000000E+20
  9
$PLIMMIN
 10
0.0
 20
0.0
  9
$PLIMMAX
 10
12.0
 20
9.0
  9
$UNITMODE
 70
     0
  9
$VISRETAIN
 70
     1
  9
$PLINEGEN
 70
     0
  9
$PSLTSCALE
 70
     1
  9
$TREEDEPTH
 70
  3020
  9
$CMLSTYLE
  2
Standard
  9
$CMLJUST
 70
     0
  9
$CMLSCALE
 40
1.0
  9
$PROXYGRAPHICS
 70
     1
  9
$MEASUREMENT
 70
     0
  9
$CELWEIGHT
370
    -1
  9
$ENDCAPS
280
     0
  9
$JOINSTYLE
280
     0
  9
$LWDISPLAY
290
     1
  9
$INSUNITS
 70
     1
  9
$HYPERLINKBASE
  1

  9
$STYLESHEET
  1

  9
$XEDIT
290
     1
  9
$CEPSNTYPE
380
     0
  9
$PSTYLEMODE
290
     1
  9
$FINGERPRINTGUID
  2
{8EA859FF-C978-273F-E9A3-8C8E1A5B3ECD}
  9
$VERSIONGUID
  2
{FAEB1C32-E019-11D5-929B-00C0DF256EC4}
  9
$EXTNAMES
290
     1
  9
$PSVPSCALE
 40
0.0
  9
$OLESTARTUP
290
     0
  9
$SORTENTS
280
   127
  9
$INDEXCTL
280
     0
  9
$HIDETEXT
280
     1
  9
$XCLIPFRAME
280
     2
  9
$HALOGAP
280
     0
  9
$OBSCOLOR
 70
   257
  9
$OBSLTYPE
280
     0
  9
$INTERSECTIONDISPLAY
280
     0
  9
$INTERSECTIONCOLOR
 70
   257
  9
$DIMASSOC
280
     2
  9
$PROJECTNAME
  1

  9
$CAMERADISPLAY
290
     0
  9
$LENSLENGTH
 40
50.0
  9
$CAMERAHEIGHT
 40
0.0
  9
$STEPSPERSEC
 40
2.0
  9
$STEPSIZE
 40
6.0
  9
$3DDWFPREC
 40
2.0
  9
$PSOLWIDTH
 40
0.25
  9
$PSOLHEIGHT
 40
4.0
  9
$LOFTANG1
 40
1.570796326794897
  9
$LOFTANG2
 40
1.570796326794897
  9
$LOFTMAG1
 40
0.0
  9
$LOFTMAG2
 40
0.0
  9
$LOFTPARAM
 70
     7
  9
$LOFTNORMALS
280
     1
  9
$LATITUDE
 40
37.795
  9
$LONGITUDE
 40
-122.394
  9
$NORTHDIRECTION
 40
0.0
  9
$TIMEZONE
 70
 -8000
  9
$LIGHTGLYPHDISPLAY
280
     1
  9
$TILEMODELIGHTSYNCH
280
     1
  9
$CMATERIAL
347
3C
  9
$SOLIDHIST
280
     1
  9
$SHOWHIST
280
     1
  9
$DWFFRAME
280
     2
  9
$DGNFRAME
280
     2
  9
$REALWORLDSCALE
290
     1
  9
$INTERFERECOLOR
 62
   256
  9
$CSHADOW
280
     0
  9
$SHADOWPLANELOCATION
 40
0.0
  0
ENDSEC
  0
SECTION
  2
CLASSES
  0
CLASS
  1
ACDBDICTIONARYWDFLT
  2
AcDbDictionaryWithDefault
  3
ObjectDBX Classes
 90
        0
 91
        4
280
     0
281
     0
  0
CLASS
  1
VISUALSTYLE
  2
AcDbVisualStyle
  3
ObjectDBX Classes
 90
     4095
 91
        4
280
     0
281
     0
  0
CLASS
  1
MATERIAL
  2
AcDbMaterial
  3
ObjectDBX Classes
 90
     1153
 91
        4
280
     0
281
     0
  0
CLASS
  1
SUN
  2
AcDbSun
  3
SCENEOE
 90
     1024
 91
        4
280
     0
281
     0
  0
ENDSEC
  0
SECTION
  2
TABLES
  0
TABLE
  2
VPORT
  5
8
330
0
100
AcDbSymbolTable
 70
     1
  0
VPORT
  5
29
330
8
100
AcDbSymbolTableRecord
100
AcDbViewportTableRecord
  2
*Active
 70
     0
 10
0.0
 20
0.0
 11
1.0
 21
1.0
 12
0.0
 22
0.0
 13
0.0
 23
0.0
 14
0.5
 24
0.5
 15
0.5
 25
0.5
 16
0.0
 26
0.0
 36
1.0
 17
91.00082462281999
 27
-128.4993055234307
 37
0.0
 40
256.9986110468615
 41
0.7081814508812795
 42
50.0
 43
0.0
 44
0.0
 50
0.0
 51
0.0
 71
     0
 72
   100
 73
     1
 74
     3
 75
     0
 76
     0
 77
     0
 78
     0
281
     0
 65
     1
110
0.0
120
0.0
130
0.0
111
1.0
121
0.0
131
0.0
112
0.0
122
1.0
132
0.0
 79
     0
146
0.0
 60
     3
 61
     5
292
     1
282
     1
141
0.0
142
0.0
 63
   250
361
3F
  0
ENDTAB
  0
TABLE
  2
LTYPE
  5
5
330
0
100
AcDbSymbolTable
 70
     1
  0
LTYPE
  5
14
330
5
100
AcDbSymbolTableRecord
100
AcDbLinetypeTableRecord
  2
ByBlock
 70
     0
  3

 72
    65
 73
     0
 40
0.0
  0
LTYPE
  5
15
330
5
100
AcDbSymbolTableRecord
100
AcDbLinetypeTableRecord
  2
ByLayer
 70
     0
  3

 72
    65
 73
     0
 40
0.0
  0
LTYPE
  5
16
330
5
100
AcDbSymbolTableRecord
100
AcDbLinetypeTableRecord
  2
Continuous
 70
     0
  3
Solid line
 72
    65
 73
     0
 40
0.0
  0
ENDTAB
  0
TABLE
  2
LAYER
  5
2
330
0
100
AcDbSymbolTable
 70
     2
  0
LAYER
  5
10
330
2
100
AcDbSymbolTableRecord
100
AcDbLayerTableRecord
  2
0
 70
     0
 62
     7
  6
Continuous
370
    -3
390
F
347
3E
  0
LAYER
  5
40
330
2
100
AcDbSymbolTableRecord
100
AcDbLayerTableRecord
  2
_U+30EC_U+30A4_U+30E4_U+30FC 1
 70
     0
 62
     7
  6
Continuous
370
    -3
390
F
347
3E
  0
ENDTAB
  0
TABLE
  2
STYLE
  5
3
330
0
100
AcDbSymbolTable
 70
     1
  0
STYLE
  5
11
330
3
100
AcDbSymbolTableRecord
100
AcDbTextStyleTableRecord
  2
Standard
 70
     0
 40
0.0
 41
1.0
 50
0.0
 71
     0
 42
0.2
  3
txt
  4

  0
ENDTAB
  0
TABLE
  2
VIEW
  5
6
330
0
100
AcDbSymbolTable
 70
     0
  0
ENDTAB
  0
TABLE
  2
UCS
  5
7
330
0
100
AcDbSymbolTable
 70
     0
  0
ENDTAB
  0
TABLE
  2
APPID
  5
9
330
0
100
AcDbSymbolTable
 70
     1
  0
APPID
  5
12
330
9
100
AcDbSymbolTableRecord
100
AcDbRegAppTableRecord
  2
ACAD
 70
     0
  0
ENDTAB
  0
TABLE
  2
DIMSTYLE
  5
A
330
0
100
AcDbSymbolTable
 70
     1
100
AcDbDimStyleTable
  0
DIMSTYLE
105
27
330
A
100
AcDbSymbolTableRecord
100
AcDbDimStyleTableRecord
  2
Standard
 70
     0
178
     0
340
11
  0
ENDTAB
  0
TABLE
  2
BLOCK_RECORD
  5
1
330
0
100
AcDbSymbolTable
 70
    12
  0
BLOCK_RECORD
  5
1F
330
1
100
AcDbSymbolTableRecord
100
AcDbBlockTableRecord
  2
*Model_Space
340
22
 70
     0
280
     1
281
     0
  0
BLOCK_RECORD
  5
1B
330
1
100
AcDbSymbolTableRecord
100
AcDbBlockTableRecord
  2
*Paper_Space
340
1E
 70
     0
280
     1
281
     0
  0
BLOCK_RECORD
  5
23
330
1
100
AcDbSymbolTableRecord
100
AcDbBlockTableRecord
  2
*Paper_Space0
340
26
 70
     0
280
     1
281
     0
  0
BLOCK_RECORD
  5
1A1
330
1
100
AcDbSymbolTableRecord
100
AcDbBlockTableRecord
  2
block 2
340
0
102
{BLKREFS
331
1A2
102
}
 70
     0
280
     1
281
     0
  0
BLOCK_RECORD
  5
1A7
330
1
100
AcDbSymbolTableRecord
100
AcDbBlockTableRecord
  2
block 3
340
0
102
{BLKREFS
331
1A8
102
}
 70
     0
280
     1
281
     0
  0
BLOCK_RECORD
  5
1AF
330
1
100
AcDbSymbolTableRecord
100
AcDbBlockTableRecord
  2
block 4
340
0
102
{BLKREFS
331
1B0
102
}
 70
     0
280
     1
281
     0
  0
BLOCK_RECORD
  5
1B5
330
1
100
AcDbSymbolTableRecord
100
AcDbBlockTableRecord
  2
block 5
340
0
102
{BLKREFS
331
1B6
102
}
 70
     0
280
     1
281
     0
  0
BLOCK_RECORD
  5
1BE
330
1
100
AcDbSymbolTableRecord
100
AcDbBlockTableRecord
  2
block 6
340
0
102
{BLKREFS
331
1BF
102
}
 70
     0
280
     1
281
     0
  0
BLOCK_RECORD
  5
1C6
330
1
100
AcDbSymbolTableRecord
100
AcDbBlockTableRecord
  2
block 7
340
0
102
{BLKREFS
331
1C7
102
}
 70
     0
280
     1
281
     0
  0
BLOCK_RECORD
  5
1CC
330
1
100
AcDbSymbolTableRecord
100
AcDbBlockTableRecord
  2
block 8
340
0
102
{BLKREFS
331
1CD
102
}
 70
     0
280
     1
281
     0
  0
BLOCK_RECORD
  5
1D5
330
1
100
AcDbSymbolTableRecord
100
AcDbBlockTableRecord
  2
block 9
340
0
102
{BLKREFS
331
1D6
102
}
 70
     0
280
     1
281
     0
  0
BLOCK_RECORD
  5
1F1
330
1
100
AcDbSymbolTableRecord
100
AcDbBlockTableRecord
  2
block 10
340
0
102
{BLKREFS
331
1F2
102
}
 70
     0
280
     1
281
     0
  0
BLOCK_RECORD
  5
1F9
330
1
100
AcDbSymbolTableRecord
100
AcDbBlockTableRecord
  2
block 11
340
0
102
{BLKREFS
331
1FA
102
}
 70
     0
280
     1
281
     0
  0
BLOCK_RECORD
  5
201
330
1
100
AcDbSymbolTableRecord
100
AcDbBlockTableRecord
  2
block 12
340
0
102
{BLKREFS
331
202
102
}
 70
     0
280
     1
281
     0
  0
ENDTAB
  0
ENDSEC
  0
SECTION
  2
BLOCKS
  0
BLOCK
  5
20
330
1F
100
AcDbEntity
  8
0
100
AcDbBlockBegin
  2
*Model_Space
 70
     0
 10
0.0
 20
0.0
 30
0.0
  3
*Model_Space
  1

  0
ENDBLK
  5
21
330
1F
100
AcDbEntity
  8
0
100
AcDbBlockEnd
  0
BLOCK
  5
1C
330
1B
100
AcDbEntity
 67
     1
  8
0
100
AcDbBlockBegin
  2
*Paper_Space
 70
     0
 10
0.0
 20
0.0
 30
0.0
  3
*Paper_Space
  1

  0
ENDBLK
  5
1D
330
1B
100
AcDbEntity
 67
     1
  8
0
100
AcDbBlockEnd
  0
BLOCK
  5
24
330
23
100
AcDbEntity
  8
0
100
AcDbBlockBegin
  2
*Paper_Space0
 70
     0
 10
0.0
 20
0.0
 30
0.0
  3
*Paper_Space0
  1

  0
ENDBLK
  5
25
330
23
100
AcDbEntity
  8
0
100
AcDbBlockEnd
  0
BLOCK
  5
1A3
330
1A1
100
AcDbEntity
  8
0
100
AcDbBlockBegin
  2
block 2
 70
     0
 10
0.0
 20
0.0
 30
0.0
  3
block 2
  1

  0
SPLINE
  5
1A5
330
1A1
100
AcDbEntity
  8
_U+30EC_U+30A4_U+30E4_U+30FC 1
370
     0
100
AcDbSpline
210
0.0
220
0.0
230
1.0
 70
    11
 71
     3
 72
    26
 73
    22
 74
     0
 42
0.0000000001
 43
0.0000000001
 12
1.0
 22
0.0
 32
0.0
 13
1.0
 23
0.0
 33
0.0
 40
0.0
 40
0.0
 40
0.0
 40
0.0
 40
1.0
 40
1.0
 40
1.0
 40
2.0
 40
2.0
 40
2.0
 40
3.0
 40
3.0
 40
3.0
 40
4.0
 40
4.0
 40
4.0
 40
5.0
 40
5.0
 40
5.0
 40
6.0
 40
6.0
 40
6.0
 40
7.0
 40
7.0
 40
7.0
 40
7.0
 10
95.45326060981725
 20
-98.77708873398629
 30
0.0
 10
95.45326060981725
 20
-98.77708873398629
 30
0.0
 10
95.45326060981725
 20
-97.67276337618945
 30
0.0
 10
95.45326060981725
 20
-97.67276337618945
 30
0.0
 10
95.45326060981725
 20
-97.67276337618945
 30
0.0
 10
95.12322046233031
 20
-97.67276337618945
 30
0.0
 10
95.12322046233031
 20
-97.67276337618945
 30
0.0
 10
95.12322046233031
 20
-97.67276337618945
 30
0.0
 10
95.12322046233031
 20
-97.52479652509797
 30
0.0
 10
95.12322046233031
 20
-97.52479652509797
 30
0.0
 10
95.45532766710839
 20
-97.5099826145114
 30
0.0
 10
95.50183645615927
 20
-97.34702959805908
 30
0.0
 10
95.53146427733242
 20
-97.23282468272305
 30
0.0
 10
95.53146427733242
 20
-97.23282468272305
 30
0.0
 10
95.67753632590701
 20
-97.23282468272305
 30
0.0
 10
95.67753632590701
 20
-97.23282468272305
 30
0.0
 10
95.67753632590701
 20
-97.23282468272305
 30
0.0
 10
95.67753632590701
 20
-98.77708873398629
 30
0.0
 10
95.67753632590701
 20
-98.77708873398629
 30
0.0
 10
95.67753632590701
 20
-98.77708873398629
 30
0.0
 10
95.45326060981725
 20
-98.77708873398629
 30
0.0
 10
95.45326060981725
 20
-98.77708873398629
 30
0.0
  0
HATCH
  5
1A6
330
1A1
100
AcDbEntity
  8
_U+30EC_U+30A4_U+30E4_U+30FC 1
 62
   179
420
  2234388
100
AcDbHatch
 10
0.0
 20
0.0
 30
0.0
210
0.0
220
0.0
230
1.0
  2
SOLID
 70
     1
 71
     0
 91
        1
 92
        1
 93
        1
 72
     4
 94
        3
 73
     0
 74
     1
 95
       26
 96
       22
 40
0.0
 40
0.0
 40
0.0
 40
0.0
 40
1.0
 40
1.0
 40
1.0
 40
2.0
 40
2.0
 40
2.0
 40
3.0
 40
3.0
 40
3.0
 40
4.0
 40
4.0
 40
4.0
 40
5.0
 40
5.0
 40
5.0
 40
6.0
 40
6.0
 40
6.0
 40
7.0
 40
7.0
 40
7.0
 40
7.0
 10
95.45326060981725
 20
-98.77708873398629
 10
95.45326060981725
 20
-98.77708873398629
 10
95.45326060981725
 20
-97.67276337618945
 10
95.45326060981725
 20
-97.67276337618945
 10
95.45326060981725
 20
-97.67276337618945
 10
95.12322046233031
 20
-97.67276337618945
 10
95.12322046233031
 20
-97.67276337618945
 10
95.12322046233031
 20
-97.67276337618945
 10
95.12322046233031
 20
-97.52479652509797
 10
95.12322046233031
 20
-97.52479652509797
 10
95.45532766710839
 20
-97.5099826145114
 10
95.50183645615927
 20
-97.34702959805908
 10
95.53146427733242
 20
-97.23282468272305
 10
95.53146427733242
 20
-97.23282468272305
 10
95.67753632590701
 20
-97.23282468272305
 10
95.67753632590701
 20
-97.23282468272305
 10
95.67753632590701
 20
-97.23282468272305
 10
95.67753632590701
 20
-98.77708873398629
 10
95.67753632590701
 20
-98.77708873398629
 10
95.67753632590701
 20
-98.77708873398629
 10
95.45326060981725
 20
-98.77708873398629
 10
95.45326060981725
 20
-98.77708873398629
 97
        0
 97
        0
 75
     2
 76
     1
 98
        0
  0
ENDBLK
  5
1A4
330
1A1
100
AcDbEntity
  8
0
100
AcDbBlockEnd
  0
BLOCK
  5
1A9
330
1A7
100
AcDbEntity
  8
0
100
AcDbBlockBegin
  2
block 3
 70
     0
 10
0.0
 20
0.0
 30
0.0
  3
block 3
  1

  0
SPLINE
  5
1AB
330
1A7
100
AcDbEntity
  8
_U+30EC_U+30A4_U+30E4_U+30FC 1
370
     0
100
AcDbSpline
210
0.0
220
0.0
230
1.0
 70
    11
 71
     3
 72
    26
 73
    22
 74
     0
 42
0.0000000001
 43
0.0000000001
 12
1.0
 22
0.0
 32
0.0
 13
1.0
 23
0.0
 33
0.0
 40
0.0
 40
0.0
 40
0.0
 40
0.0
 40
1.0
 40
1.0
 40
1.0
 40
2.0
 40
2.0
 40
2.0
 40
3.0
 40
3.0
 40
3.0
 40
4.0
 40
4.0
 40
4.0
 40
5.0
 40
5.0
 40
5.0
 40
6.0
 40
6.0
 40
6.0
 40
7.0
 40
7.0
 40
7.0
 40
7.0
 10
91.86484915238101
 20
-159.777327434014
 30
0.0
 10
91.86484915238101
 20
-159.777327434014
 30
0.0
 10
91.86484915238101
 20
-158.6731743309914
 30
0.0
 10
91.86484915238101
 20
-158.6731743309914
 30
0.0
 10
91.86484915238101
 20
-158.6731743309914
 30
0.0
 10
91.53480900489409
 20
-158.6731743309914
 30
0.0
 10
91.53480900489409
 20
-158.6731743309914
 30
0.0
 10
91.53480900489409
 20
-158.6731743309914
 30
0.0
 10
91.53480900489409
 20
-158.5250352251257
 30
0.0
 10
91.53480900489409
 20
-158.5250352251257
 30
0.0
 10
91.86691620967217
 20
-158.5102213145391
 30
0.0
 10
91.91376950827156
 20
-158.3472682980868
 30
0.0
 10
91.94339732944471
 20
-158.2328911279765
 30
0.0
 10
91.94339732944471
 20
-158.2328911279765
 30
0.0
 10
92.0894693780193
 20
-158.2328911279765
 30
0.0
 10
92.0894693780193
 20
-158.2328911279765
 30
0.0
 10
92.0894693780193
 20
-158.2328911279765
 30
0.0
 10
92.0894693780193
 20
-159.777327434014
 30
0.0
 10
92.0894693780193
 20
-159.777327434014
 30
0.0
 10
92.0894693780193
 20
-159.777327434014
 30
0.0
 10
91.86484915238101
 20
-159.777327434014
 30
0.0
 10
91.86484915238101
 20
-159.777327434014
 30
0.0
  0
HATCH
  5
1AC
330
1A7
100
AcDbEntity
  8
_U+30EC_U+30A4_U+30E4_U+30FC 1
 62
   179
420
  2234388
100
AcDbHatch
 10
0.0
 20
0.0
 30
0.0
210
0.0
220
0.0
230
1.0
  2
SOLID
 70
     1
 71
     0
 91
        1
 92
        1
 93
        1
 72
     4
 94
        3
 73
     0
 74
     1
 95
       26
 96
       22
 40
0.0
 40
0.0
 40
0.0
 40
0.0
 40
1.0
 40
1.0
 40
1.0
 40
2.0
 40
2.0
 40
2.0
 40
3.0
 40
3.0
 40
3.0
 40
4.0
 40
4.0
 40
4.0
 40
5.0
 40
5.0
 40
5.0
 40
6.0
 40
6.0
 40
6.0
 40
7.0
 40
7.0
 40
7.0
 40
7.0
 10
91.86484915238101
 20
-159.777327434014
 10
91.86484915238101
 20
-159.777327434014
 10
91.86484915238101
 20
-158.6731743309914
 10
91.86484915238101
 20
-158.6731743309914
 10
91.86484915238101
 20
-158.6731743309914
 10
91.53480900489409
 20
-158.6731743309914
 10
91.53480900489409
 20
-158.6731743309914
 10
91.53480900489409
 20
-158.6731743309914
 10
91.53480900489409
 20
-158.5250352251257
 10
91.53480900489409
 20
-158.5250352251257
 10
91.86691620967217
 20
-158.5102213145391
 10
91.91376950827156
 20
-158.3472682980868
 10
91.94339732944471
 20
-158.2328911279765
 10
91.94339732944471
 20
-158.2328911279765
 10
92.0894693780193
 20
-158.2328911279765
 10
92.0894693780193
 20
-158.2328911279765
 10
92.0894693780193
 20
-158.2328911279765
 10
92.0894693780193
 20
-159.777327434014
 10
92.0894693780193
 20
-159.777327434014
 10
92.0894693780193
 20
-159.777327434014
 10
91.86484915238101
 20
-159.777327434014
 10
91.86484915238101
 20
-159.777327434014
 97
        0
 97
        0
 75
     2
 76
     1
 98
        0
  0
SPLINE
  5
1AD
330
1A7
100
AcDbEntity
  8
_U+30EC_U+30A4_U+30E4_U+30FC 1
370
     0
100
AcDbSpline
210
0.0
220
0.0
230
1.0
 70
    11
 71
     3
 72
    44
 73
    40
 74
     0
 42
0.0000000001
 43
0.0000000001
 12
1.0
 22
0.0
 32
0.0
 13
1.0
 23
0.0
 33
0.0
 40
0.0
 40
0.0
 40
0.0
 40
0.0
 40
1.0
 40
1.0
 40
1.0
 40
2.0
 40
2.0
 40
2.0
 40
3.0
 40
3.0
 40
3.0
 40
4.0
 40
4.0
 40
4.0
 40
5.0
 40
5.0
 40
5.0
 40
6.0
 40
6.0
 40
6.0
 40
7.0
 40
7.0
 40
7.0
 40
8.0
 40
8.0
 40
8.0
 40
9.0
 40
9.0
 40
9.0
 40
10.0
 40
10.0
 40
10.0
 40
11.0
 40
11.0
 40
11.0
 40
12.0
 40
12.0
 40
12.0
 40
13.0
 40
13.0
 40
13.0
 40
13.0
 10
93.18363170413465
 20
-159.1954508065553
 30
0.0
 10
92.96590166946686
 20
-159.3542697084253
 30
0.0
 10
92.8725395818166
 20
-159.4283392613582
 30
0.0
 10
92.82396373547456
 20
-159.5719997430931
 30
0.0
 10
92.82396373547456
 20
-159.5719997430931
 30
0.0
 10
93.60255531514103
 20
-159.5719997430931
 30
0.0
 10
93.60255531514103
 20
-159.5719997430931
 30
0.0
 10
93.60255531514103
 20
-159.5719997430931
 30
0.0
 10
93.60255531514103
 20
-159.777327434014
 30
0.0
 10
93.60255531514103
 20
-159.777327434014
 30
0.0
 10
93.60255531514103
 20
-159.777327434014
 30
0.0
 10
92.57453882234248
 20
-159.777327434014
 30
0.0
 10
92.57453882234248
 20
-159.777327434014
 30
0.0
 10
92.60623370080678
 20
-159.4197265226451
 30
0.0
 10
92.67169051502653
 20
-159.3415228551299
 30
0.0
 10
93.05685219027745
 20
-159.0431775861073
 30
0.0
 10
93.312478275283
 20
-158.8443955766083
 30
0.0
 10
93.37793508950274
 20
-158.7765271955489
 30
0.0
 10
93.37793508950274
 20
-158.6390678856875
 30
0.0
 10
93.37793508950274
 20
-158.5205566009949
 30
0.0
 10
93.30627710340954
 20
-158.3896429725554
 30
0.0
 10
93.10956215120179
 20
-158.3896429725554
 30
0.0
 10
92.84945744206541
 20
-158.3896429725554
 30
0.0
 10
92.84084470335229
 20
-158.6201198605186
 30
0.0
 10
92.83636607922146
 20
-158.73656408792
 30
0.0
 10
92.83636607922146
 20
-158.73656408792
 30
0.0
 10
92.61243487268023
 20
-158.73656408792
 30
0.0
 10
92.61243487268023
 20
-158.73656408792
 30
0.0
 10
92.62070310184482
 20
-158.6094400645143
 30
0.0
 10
92.63138289784911
 20
-158.4974744612437
 30
0.0
 10
92.71165362265542
 20
-158.3789631765511
 30
0.0
 10
92.82189667818342
 20
-158.2180772173899
 30
0.0
 10
93.00793183438691
 20
-158.1843152816345
 30
0.0
 10
93.12437606178835
 20
-158.1843152816345
 30
0.0
 10
93.40136173880244
 20
-158.1843152816345
 30
0.0
 10
93.60875648701449
 20
-158.3682833805468
 30
0.0
 10
93.60875648701449
 20
-158.6411349429786
 30
0.0
 10
93.60875648701449
 20
-158.8698892831992
 30
0.0
 10
93.49231225961304
 20
-158.9691080331744
 30
0.0
 10
93.18363170413465
 20
-159.1954508065553
 30
0.0
  0
HATCH
  5
1AE
330
1A7
100
AcDbEntity
  8
_U+30EC_U+30A4_U+30E4_U+30FC 1
 62
   179
420
  2234388
100
AcDbHatch
 10
0.0
 20
0.0
 30
0.0
210
0.0
220
0.0
230
1.0
  2
SOLID
 70
     1
 71
     0
 91
        1
 92
        1
 93
        1
 72
     4
 94
        3
 73
     0
 74
     1
 95
       44
 96
       40
 40
0.0
 40
0.0
 40
0.0
 40
0.0
 40
1.0
 40
1.0
 40
1.0
 40
2.0
 40
2.0
 40
2.0
 40
3.0
 40
3.0
 40
3.0
 40
4.0
 40
4.0
 40
4.0
 40
5.0
 40
5.0
 40
5.0
 40
6.0
 40
6.0
 40
6.0
 40
7.0
 40
7.0
 40
7.0
 40
8.0
 40
8.0
 40
8.0
 40
9.0
 40
9.0
 40
9.0
 40
10.0
 40
10.0
 40
10.0
 40
11.0
 40
11.0
 40
11.0
 40
12.0
 40
12.0
 40
12.0
 40
13.0
 40
13.0
 40
13.0
 40
13.0
 10
93.18363170413465
 20
-159.1954508065553
 10
92.96590166946686
 20
-159.3542697084253
 10
92.8725395818166
 20
-159.4283392613582
 10
92.82396373547456
 20
-159.5719997430931
 10
92.82396373547456
 20
-159.5719997430931
 10
93.60255531514103
 20
-159.5719997430931
 10
93.60255531514103
 20
-159.5719997430931
 10
93.60255531514103
 20
-159.5719997430931
 10
93.60255531514103
 20
-159.777327434014
 10
93.60255531514103
 20
-159.777327434014
 10
93.60255531514103
 20
-159.777327434014
 10
92.57453882234248
 20
-159.777327434014
 10
92.57453882234248
 20
-159.777327434014
 10
92.60623370080678
 20
-159.4197265226451
 10
92.67169051502653
 20
-159.3415228551299
 10
93.05685219027745
 20
-159.0431775861073
 10
93.312478275283
 20
-158.8443955766083
 10
93.37793508950274
 20
-158.7765271955489
 10
93.37793508950274
 20
-158.6390678856875
 10
93.37793508950274
 20
-158.5205566009949
 10
93.30627710340954
 20
-158.3896429725554
 10
93.10956215120179
 20
-158.3896429725554
 10
92.84945744206541
 20
-158.3896429725554
 10
92.84084470335229
 20
-158.6201198605186
 10
92.83636607922146
 20
-158.73656408792
 10
92.83636607922146
 20
-158.73656408792
 10
92.61243487268023
 20
-158.73656408792
 10
92.61243487268023
 20
-158.73656408792
 10
92.62070310184482
 20
-158.6094400645143
 10
92.63138289784911
 20
-158.4974744612437
 10
92.71165362265542
 20
-158.3789631765511
 10
92.82189667818342
 20
-158.2180772173899
 10
93.00793183438691
 20
-158.1843152816345
 10
93.12437606178835
 20
-158.1843152816345
 10
93.40136173880244
 20
-158.1843152816345
 10
93.60875648701449
 20
-158.3682833805468
 10
93.60875648701449
 20
-158.6411349429786
 10
93.60875648701449
 20
-158.8698892831992
 10
93.49231225961304
 20
-158.9691080331744
 10
93.18363170413465
 20
-159.1954508065553
 97
        0
 97
        0
 75
     2
 76
     1
 98
        0
  0
ENDBLK
  5
1AA
330
1A7
100
AcDbEntity
  8
0
100
AcDbBlockEnd
  0
BLOCK
  5
1B1
330
1AF
100
AcDbEntity
  8
0
100
AcDbBlockBegin
  2
block 4
 70
     0
 10
0.0
 20
0.0
 30
0.0
  3
block 4
  1

  0
SPLINE
  5
1B3
330
1AF
100
AcDbEntity
  8
_U+30EC_U+30A4_U+30E4_U+30FC 1
370
     0
100
AcDbSpline
210
0.0
220
0.0
230
1.0
 70
    11
 71
     3
 72
    62
 73
    58
 74
     0
 42
0.0000000001
 43
0.0000000001
 12
1.0
 22
0.0
 32
0.0
 13
1.0
 23
0.0
 33
0.0
 40
0.0
 40
0.0
 40
0.0
 40
0.0
 40
1.0
 40
1.0
 40
1.0
 40
2.0
 40
2.0
 40
2.0
 40
3.0
 40
3.0
 40
3.0
 40
4.0
 40
4.0
 40
4.0
 40
5.0
 40
5.0
 40
5.0
 40
6.0
 40
6.0
 40
6.0
 40
7.0
 40
7.0
 40
7.0
 40
8.0
 40
8.0
 40
8.0
 40
9.0
 40
9.0
 40
9.0
 40
10.0
 40
10.0
 40
10.0
 40
11.0
 40
11.0
 40
11.0
 40
12.0
 40
12.0
 40
12.0
 40
13.0
 40
13.0
 40
13.0
 40
14.0
 40
14.0
 40
14.0
 40
15.0
 40
15.0
 40
15.0
 40
16.0
 40
16.0
 40
16.0
 40
17.0
 40
17.0
 40
17.0
 40
18.0
 40
18.0
 40
18.0
 40
19.0
 40
19.0
 40
19.0
 40
19.0
 10
79.99391138408139
 20
-131.8279567812791
 30
0.0
 10
79.89848223913997
 20
-131.8279567812791
 30
0.0
 10
79.68075220447217
 20
-131.8069416988191
 30
0.0
 10
79.55569523835761
 20
-131.6205620330671
 30
0.0
 10
79.48197019497326
 20
-131.5085964297965
 30
0.0
 10
79.47749157084243
 20
-131.4090331702727
 30
0.0
 10
79.47335745626013
 20
-131.3246283308841
 30
0.0
 10
79.47335745626013
 20
-131.3246283308841
 30
0.0
 10
79.6934990577676
 20
-131.3246283308841
 30
0.0
 10
79.6934990577676
 20
-131.3246283308841
 30
0.0
 10
79.69556611505875
 20
-131.398697883817
 30
0.0
 10
79.7059014015145
 20
-131.6333088863625
 30
0.0
 10
79.98943275995056
 20
-131.6333088863625
 30
0.0
 10
80.12689206981203
 20
-131.6333088863625
 30
0.0
 10
80.2795097998086
 20
-131.5637179575605
 30
0.0
 10
80.2795097998086
 20
-131.3349636173399
 30
0.0
 10
80.2795097998086
 20
-131.218863899487
 30
0.0
 10
80.24126923992233
 20
-131.1699435435964
 30
0.0
 10
80.20957436145802
 20
-131.1382486651321
 30
0.0
 10
80.13550480852516
 20
-131.0641791121992
 30
0.0
 10
80.01906058112371
 20
-131.0517767684523
 30
0.0
 10
79.96428356290824
 20
-131.0517767684523
 30
0.0
 10
79.94499102819084
 20
-131.0517767684523
 30
0.0
 10
79.90916203514423
 20
-131.0538438257435
 30
0.0
 10
79.88160127126224
 20
-131.0579779403258
 30
0.0
 10
79.88160127126224
 20
-131.0579779403258
 30
0.0
 10
79.88160127126224
 20
-130.8633300454092
 30
0.0
 10
79.88160127126224
 20
-130.8633300454092
 30
0.0
 10
79.91984183114852
 20
-130.8695312172826
 30
0.0
 10
79.96187199606857
 20
-130.8719427841223
 30
0.0
 10
79.96841767749054
 20
-130.8719427841223
 30
0.0
 10
80.03387449171028
 20
-130.8719427841223
 30
0.0
 10
80.2326565012092
 20
-130.8505831921138
 30
0.0
 10
80.2326565012092
 20
-130.6135606227286
 30
0.0
 10
80.2326565012092
 20
-130.4361382052382
 30
0.0
 10
80.1017428727697
 20
-130.3810166774742
 30
0.0
 10
79.99149981724172
 20
-130.3810166774742
 30
0.0
 10
79.72726099352305
 20
-130.3810166774742
 30
0.0
 10
79.71864825480992
 20
-130.6135606227286
 30
0.0
 10
79.71451414022762
 20
-130.6855631183703
 30
0.0
 10
79.71451414022762
 20
-130.6855631183703
 30
0.0
 10
79.51125350659788
 20
-130.6855631183703
 30
0.0
 10
79.51125350659788
 20
-130.6855631183703
 30
0.0
 10
79.51986624531101
 20
-130.5608506618042
 30
0.0
 10
79.547427009193
 20
-130.1843017252664
 30
0.0
 10
80.00424667053714
 20
-130.1843017252664
 30
0.0
 10
80.2285223866269
 20
-130.1843017252664
 30
0.0
 10
80.4696790705944
 20
-130.3110812391236
 30
0.0
 10
80.4696790705944
 20
-130.6073594508551
 30
0.0
 10
80.4696790705944
 20
-130.7933946070586
 30
0.0
 10
80.37459443520149
 20
-130.8760768987046
 30
0.0
 10
80.27503117567777
 20
-130.937399598342
 30
0.0
 10
80.33635387531523
 20
-130.964960362224
 30
0.0
 10
80.51825491693641
 20
-131.0452310870304
 30
0.0
 10
80.51825491693641
 20
-131.322561273593
 30
0.0
 10
80.51825491693641
 20
-131.6608696502445
 30
0.0
 10
80.27089706109547
 20
-131.8279567812791
 30
0.0
 10
79.99391138408139
 20
-131.8279567812791
 30
0.0
  0
HATCH
  5
1B4
330
1AF
100
AcDbEntity
  8
_U+30EC_U+30A4_U+30E4_U+30FC 1
 62
   179
420
  2234388
100
AcDbHatch
 10
0.0
 20
0.0
 30
0.0
210
0.0
220
0.0
230
1.0
  2
SOLID
 70
     1
 71
     0
 91
        1
 92
        1
 93
        1
 72
     4
 94
        3
 73
     0
 74
     1
 95
       62
 96
       58
 40
0.0
 40
0.0
 40
0.0
 40
0.0
 40
1.0
 40
1.0
 40
1.0
 40
2.0
 40
2.0
 40
2.0
 40
3.0
 40
3.0
 40
3.0
 40
4.0
 40
4.0
 40
4.0
 40
5.0
 40
5.0
 40
5.0
 40
6.0
 40
6.0
 40
6.0
 40
7.0
 40
7.0
 40
7.0
 40
8.0
 40
8.0
 40
8.0
 40
9.0
 40
9.0
 40
9.0
 40
10.0
 40
10.0
 40
10.0
 40
11.0
 40
11.0
 40
11.0
 40
12.0
 40
12.0
 40
12.0
 40
13.0
 40
13.0
 40
13.0
 40
14.0
 40
14.0
 40
14.0
 40
15.0
 40
15.0
 40
15.0
 40
16.0
 40
16.0
 40
16.0
 40
17.0
 40
17.0
 40
17.0
 40
18.0
 40
18.0
 40
18.0
 40
19.0
 40
19.0
 40
19.0
 40
19.0
 10
79.99391138408139
 20
-131.8279567812791
 10
79.89848223913997
 20
-131.8279567812791
 10
79.68075220447217
 20
-131.8069416988191
 10
79.55569523835761
 20
-131.6205620330671
 10
79.48197019497326
 20
-131.5085964297965
 10
79.47749157084243
 20
-131.4090331702727
 10
79.47335745626013
 20
-131.3246283308841
 10
79.47335745626013
 20
-131.3246283308841
 10
79.6934990577676
 20
-131.3246283308841
 10
79.6934990577676
 20
-131.3246283308841
 10
79.69556611505875
 20
-131.398697883817
 10
79.7059014015145
 20
-131.6333088863625
 10
79.98943275995056
 20
-131.6333088863625
 10
80.12689206981203
 20
-131.6333088863625
 10
80.2795097998086
 20
-131.5637179575605
 10
80.2795097998086
 20
-131.3349636173399
 10
80.2795097998086
 20
-131.218863899487
 10
80.24126923992233
 20
-131.1699435435964
 10
80.20957436145802
 20
-131.1382486651321
 10
80.13550480852516
 20
-131.0641791121992
 10
80.01906058112371
 20
-131.0517767684523
 10
79.96428356290824
 20
-131.0517767684523
 10
79.94499102819084
 20
-131.0517767684523
 10
79.90916203514423
 20
-131.0538438257435
 10
79.88160127126224
 20
-131.0579779403258
 10
79.88160127126224
 20
-131.0579779403258
 10
79.88160127126224
 20
-130.8633300454092
 10
79.88160127126224
 20
-130.8633300454092
 10
79.91984183114852
 20
-130.8695312172826
 10
79.96187199606857
 20
-130.8719427841223
 10
79.96841767749054
 20
-130.8719427841223
 10
80.03387449171028
 20
-130.8719427841223
 10
80.2326565012092
 20
-130.8505831921138
 10
80.2326565012092
 20
-130.6135606227286
 10
80.2326565012092
 20
-130.4361382052382
 10
80.1017428727697
 20
-130.3810166774742
 10
79.99149981724172
 20
-130.3810166774742
 10
79.72726099352305
 20
-130.3810166774742
 10
79.71864825480992
 20
-130.6135606227286
 10
79.71451414022762
 20
-130.6855631183703
 10
79.71451414022762
 20
-130.6855631183703
 10
79.51125350659788
 20
-130.6855631183703
 10
79.51125350659788
 20
-130.6855631183703
 10
79.51986624531101
 20
-130.5608506618042
 10
79.547427009193
 20
-130.1843017252664
 10
80.00424667053714
 20
-130.1843017252664
 10
80.2285223866269
 20
-130.1843017252664
 10
80.4696790705944
 20
-130.3110812391236
 10
80.4696790705944
 20
-130.6073594508551
 10
80.4696790705944
 20
-130.7933946070586
 10
80.37459443520149
 20
-130.8760768987046
 10
80.27503117567777
 20
-130.937399598342
 10
80.33635387531523
 20
-130.964960362224
 10
80.51825491693641
 20
-131.0452310870304
 10
80.51825491693641
 20
-131.322561273593
 10
80.51825491693641
 20
-131.6608696502445
 10
80.27089706109547
 20
-131.8279567812791
 10
79.99391138408139
 20
-131.8279567812791
 97
        0
 97
        0
 75
     2
 76
     1
 98
        0
  0
ENDBLK
  5
1B2
330
1AF
100
AcDbEntity
  8
0
100
AcDbBlockEnd
  0
BLOCK
  5
1B7
330
1B5
100
AcDbEntity
  8
0
100
AcDbBlockBegin
  2
block 5
 70
     0
 10
0.0
 20
0.0
 30
0.0
  3
block 5
  1

  0
SPLINE
  5
1B9
330
1B5
100
AcDbEntity
  8
_U+30EC_U+30A4_U+30E4_U+30FC 1
370
     0
100
AcDbSpline
210
0.0
220
0.0
230
1.0
 70
    11
 71
     3
 72
    26
 73
    22
 74
     0
 42
0.0000000001
 43
0.0000000001
 12
1.0
 22
0.0
 32
0.0
 13
1.0
 23
0.0
 33
0.0
 40
0.0
 40
0.0
 40
0.0
 40
0.0
 40
1.0
 40
1.0
 40
1.0
 40
2.0
 40
2.0
 40
2.0
 40
3.0
 40
3.0
 40
3.0
 40
4.0
 40
4.0
 40
4.0
 40
5.0
 40
5.0
 40
5.0
 40
6.0
 40
6.0
 40
6.0
 40
7.0
 40
7.0
 40
7.0
 40
7.0
 10
85.86504311004416
 20
-131.777313877646
 30
0.0
 10
85.86504311004416
 20
-131.777313877646
 30
0.0
 10
85.86504311004416
 20
-130.6728162650749
 30
0.0
 10
85.86504311004416
 20
-130.6728162650749
 30
0.0
 10
85.86504311004416
 20
-130.6728162650749
 30
0.0
 10
85.53500296255723
 20
-130.6728162650749
 30
0.0
 10
85.53500296255723
 20
-130.6728162650749
 30
0.0
 10
85.53500296255723
 20
-130.6728162650749
 30
0.0
 10
85.53500296255723
 20
-130.5250216687576
 30
0.0
 10
85.53500296255723
 20
-130.5250216687576
 30
0.0
 10
85.86711016733531
 20
-130.5102077581711
 30
0.0
 10
85.91361895638619
 20
-130.3472547417188
 30
0.0
 10
85.94324677755934
 20
-130.2328775716084
 30
0.0
 10
85.94324677755934
 20
-130.2328775716084
 30
0.0
 10
86.08931882613392
 20
-130.2328775716084
 30
0.0
 10
86.08931882613392
 20
-130.2328775716084
 30
0.0
 10
86.08931882613392
 20
-130.2328775716084
 30
0.0
 10
86.08931882613392
 20
-131.777313877646
 30
0.0
 10
86.08931882613392
 20
-131.777313877646
 30
0.0
 10
86.08931882613392
 20
-131.777313877646
 30
0.0
 10
85.86504311004416
 20
-131.777313877646
 30
0.0
 10
85.86504311004416
 20
-131.777313877646
 30
0.0
  0
HATCH
  5
1BA
330
1B5
100
AcDbEntity
  8
_U+30EC_U+30A4_U+30E4_U+30FC 1
 62
   179
420
  2234388
100
AcDbHatch
 10
0.0
 20
0.0
 30
0.0
210
0.0
220
0.0
230
1.0
  2
SOLID
 70
     1
 71
     0
 91
        1
 92
        1
 93
        1
 72
     4
 94
        3
 73
     0
 74
     1
 95
       26
 96
       22
 40
0.0
 40
0.0
 40
0.0
 40
0.0
 40
1.0
 40
1.0
 40
1.0
 40
2.0
 40
2.0
 40
2.0
 40
3.0
 40
3.0
 40
3.0
 40
4.0
 40
4.0
 40
4.0
 40
5.0
 40
5.0
 40
5.0
 40
6.0
 40
6.0
 40
6.0
 40
7.0
 40
7.0
 40
7.0
 40
7.0
 10
85.86504311004416
 20
-131.777313877646
 10
85.86504311004416
 20
-131.777313877646
 10
85.86504311004416
 20
-130.6728162650749
 10
85.86504311004416
 20
-130.6728162650749
 10
85.86504311004416
 20
-130.6728162650749
 10
85.53500296255723
 20
-130.6728162650749
 10
85.53500296255723
 20
-130.6728162650749
 10
85.53500296255723
 20
-130.6728162650749
 10
85.53500296255723
 20
-130.5250216687576
 10
85.53500296255723
 20
-130.5250216687576
 10
85.86711016733531
 20
-130.5102077581711
 10
85.91361895638619
 20
-130.3472547417188
 10
85.94324677755934
 20
-130.2328775716084
 10
85.94324677755934
 20
-130.2328775716084
 10
86.08931882613392
 20
-130.2328775716084
 10
86.08931882613392
 20
-130.2328775716084
 10
86.08931882613392
 20
-130.2328775716084
 10
86.08931882613392
 20
-131.777313877646
 10
86.08931882613392
 20
-131.777313877646
 10
86.08931882613392
 20
-131.777313877646
 10
85.86504311004416
 20
-131.777313877646
 10
85.86504311004416
 20
-131.777313877646
 97
        0
 97
        0
 75
     2
 76
     1
 98
        0
  0
SPLINE
  5
1BB
330
1B5
100
AcDbEntity
  8
_U+30EC_U+30A4_U+30E4_U+30FC 1
370
     0
100
AcDbSpline
210
0.0
220
0.0
230
1.0
 70
    11
 71
     3
 72
    29
 73
    25
 74
     0
 42
0.0000000001
 43
0.0000000001
 12
1.0
 22
0.0
 32
0.0
 13
1.0
 23
0.0
 33
0.0
 40
0.0
 40
0.0
 40
0.0
 40
0.0
 40
1.0
 40
1.0
 40
1.0
 40
2.0
 40
2.0
 40
2.0
 40
3.0
 40
3.0
 40
3.0
 40
4.0
 40
4.0
 40
4.0
 40
5.0
 40
5.0
 40
5.0
 40
6.0
 40
6.0
 40
6.0
 40
7.0
 40
7.0
 40
7.0
 40
8.0
 40
8.0
 40
8.0
 40
8.0
 10
87.48837210269389
 20
-131.5995469506071
 30
0.0
 10
87.38019610445704
 20
-131.8090087561102
 30
0.0
 10
87.20690780154897
 20
-131.8279567812791
 30
0.0
 10
87.09046357414752
 20
-131.8279567812791
 30
0.0
 10
86.92957761498636
 20
-131.8279567812791
 30
0.0
 10
86.78798419054259
 20
-131.7814479922283
 30
0.0
 10
86.6928995551497
 20
-131.5995469506071
 30
0.0
 10
86.58920218104367
 20
-131.4048990556904
 30
0.0
 10
86.56990964632628
 20
-131.1678764863053
 30
0.0
 10
86.56990964632628
 20
-131.0049234698529
 30
0.0
 10
86.56990964632628
 20
-130.861262988118
 30
0.0
 10
86.58713512375253
 20
-130.6094265081463
 30
0.0
 10
86.6928995551497
 20
-130.4106444986473
 30
0.0
 10
86.80073104383801
 20
-130.2073838650176
 30
0.0
 10
86.96161700299918
 20
-130.1843017252664
 30
0.0
 10
87.09046357414752
 20
-130.1843017252664
 30
0.0
 10
87.24928247601754
 20
-130.1843017252664
 30
0.0
 10
87.39294295775247
 20
-130.2287434570262
 30
0.0
 10
87.48837210269389
 20
-130.4106444986473
 30
0.0
 10
87.58759085266908
 20
-130.6032253362728
 30
0.0
 10
87.61101750196877
 20
-130.8316351669449
 30
0.0
 10
87.61101750196877
 20
-131.0049234698529
 30
0.0
 10
87.61101750196877
 20
-131.1764892250184
 30
0.0
 10
87.58965790996022
 20
-131.4069661129816
 30
0.0
 10
87.48837210269389
 20
-131.5995469506071
 30
0.0
  0
SPLINE
  5
1BC
330
1B5
100
AcDbEntity
  8
_U+30EC_U+30A4_U+30E4_U+30FC 1
370
     0
100
AcDbSpline
210
0.0
220
0.0
230
1.0
 70
    11
 71
     3
 72
    17
 73
    13
 74
     0
 42
0.0000000001
 43
0.0000000001
 12
1.0
 22
0.0
 32
0.0
 13
1.0
 23
0.0
 33
0.0
 40
0.0
 40
0.0
 40
0.0
 40
0.0
 40
1.0
 40
1.0
 40
1.0
 40
2.0
 40
2.0
 40
2.0
 40
3.0
 40
3.0
 40
3.0
 40
4.0
 40
4.0
 40
4.0
 40
4.0
 10
87.09046357414752
 20
-130.3768825628919
 30
0.0
 10
86.84069415146692
 20
-130.3768825628919
 30
0.0
 10
86.79418536241604
 20
-130.6604139213279
 30
0.0
 10
86.79418536241604
 20
-131.0049234698529
 30
0.0
 10
86.79418536241604
 20
-131.3246283308841
 30
0.0
 10
86.83035886501116
 20
-131.6333088863625
 30
0.0
 10
87.09046357414752
 20
-131.6333088863625
 30
0.0
 10
87.33816593953699
 20
-131.6333088863625
 30
0.0
 10
87.38674178587901
 20
-131.3518445852176
 30
0.0
 10
87.38674178587901
 20
-131.0049234698529
 30
0.0
 10
87.38674178587901
 20
-130.6855631183703
 30
0.0
 10
87.34850122599273
 20
-130.3768825628919
 30
0.0
 10
87.09046357414752
 20
-130.3768825628919
 30
0.0
  0
HATCH
  5
1BD
330
1B5
100
AcDbEntity
  8
_U+30EC_U+30A4_U+30E4_U+30FC 1
 62
   179
420
  2234388
100
AcDbHatch
 10
0.0
 20
0.0
 30
0.0
210
0.0
220
0.0
230
1.0
  2
SOLID
 70
     1
 71
     0
 91
        2
 92
        1
 93
        1
 72
     4
 94
        3
 73
     0
 74
     1
 95
       29
 96
       25
 40
0.0
 40
0.0
 40
0.0
 40
0.0
 40
1.0
 40
1.0
 40
1.0
 40
2.0
 40
2.0
 40
2.0
 40
3.0
 40
3.0
 40
3.0
 40
4.0
 40
4.0
 40
4.0
 40
5.0
 40
5.0
 40
5.0
 40
6.0
 40
6.0
 40
6.0
 40
7.0
 40
7.0
 40
7.0
 40
8.0
 40
8.0
 40
8.0
 40
8.0
 10
87.48837210269389
 20
-131.5995469506071
 10
87.38019610445704
 20
-131.8090087561102
 10
87.20690780154897
 20
-131.8279567812791
 10
87.09046357414752
 20
-131.8279567812791
 10
86.92957761498636
 20
-131.8279567812791
 10
86.78798419054259
 20
-131.7814479922283
 10
86.6928995551497
 20
-131.5995469506071
 10
86.58920218104367
 20
-131.4048990556904
 10
86.56990964632628
 20
-131.1678764863053
 10
86.56990964632628
 20
-131.0049234698529
 10
86.56990964632628
 20
-130.861262988118
 10
86.58713512375253
 20
-130.6094265081463
 10
86.6928995551497
 20
-130.4106444986473
 10
86.80073104383801
 20
-130.2073838650176
 10
86.96161700299918
 20
-130.1843017252664
 10
87.09046357414752
 20
-130.1843017252664
 10
87.24928247601754
 20
-130.1843017252664
 10
87.39294295775247
 20
-130.2287434570262
 10
87.48837210269389
 20
-130.4106444986473
 10
87.58759085266908
 20
-130.6032253362728
 10
87.61101750196877
 20
-130.8316351669449
 10
87.61101750196877
 20
-131.0049234698529
 10
87.61101750196877
 20
-131.1764892250184
 10
87.58965790996022
 20
-131.4069661129816
 10
87.48837210269389
 20
-131.5995469506071
 97
        0
 97
        0
 92
        1
 93
        1
 72
     4
 94
        3
 73
     0
 74
     1
 95
       17
 96
       13
 40
0.0
 40
0.0
 40
0.0
 40
0.0
 40
1.0
 40
1.0
 40
1.0
 40
2.0
 40
2.0
 40
2.0
 40
3.0
 40
3.0
 40
3.0
 40
4.0
 40
4.0
 40
4.0
 40
4.0
 10
87.09046357414752
 20
-130.3768825628919
 10
86.84069415146692
 20
-130.3768825628919
 10
86.79418536241604
 20
-130.6604139213279
 10
86.79418536241604
 20
-131.0049234698529
 10
86.79418536241604
 20
-131.3246283308841
 10
86.83035886501116
 20
-131.6333088863625
 10
87.09046357414752
 20
-131.6333088863625
 10
87.33816593953699
 20
-131.6333088863625
 10
87.38674178587901
 20
-131.3518445852176
 10
87.38674178587901
 20
-131.0049234698529
 10
87.38674178587901
 20
-130.6855631183703
 10
87.34850122599273
 20
-130.3768825628919
 10
87.09046357414752
 20
-130.3768825628919
 97
        0
 97
        0
 75
     2
 76
     1
 98
        0
  0
ENDBLK
  5
1B8
330
1B5
100
AcDbEntity
  8
0
100
AcDbBlockEnd
  0
BLOCK
  5
1C0
330
1BE
100
AcDbEntity
  8
0
100
AcDbBlockBegin
  2
block 6
 70
     0
 10
0.0
 20
0.0
 30
0.0
  3
block 6
  1

  0
SPLINE
  5
1C2
330
1BE
100
AcDbEntity
  8
_U+30EC_U+30A4_U+30E4_U+30FC 1
370
     0
100
AcDbSpline
210
0.0
220
0.0
230
1.0
 70
    11
 71
     3
 72
    29
 73
    25
 74
     0
 42
0.0000000001
 43
0.0000000001
 12
1.0
 22
0.0
 32
0.0
 13
1.0
 23
0.0
 33
0.0
 40
0.0
 40
0.0
 40
0.0
 40
0.0
 40
1.0
 40
1.0
 40
1.0
 40
2.0
 40
2.0
 40
2.0
 40
3.0
 40
3.0
 40
3.0
 40
4.0
 40
4.0
 40
4.0
 40
5.0
 40
5.0
 40
5.0
 40
6.0
 40
6.0
 40
6.0
 40
7.0
 40
7.0
 40
7.0
 40
8.0
 40
8.0
 40
8.0
 40
8.0
 10
80.92029756006507
 20
-159.8279703376472
 30
0.0
 10
80.65364716950673
 20
-159.8279703376472
 30
0.0
 10
80.40008814179234
 20
-159.6905110277857
 30
0.0
 10
80.40008814179234
 20
-159.3415228551299
 30
0.0
 10
80.40008814179234
 20
-159.0855522605758
 30
0.0
 10
80.54168156623611
 20
-158.990467625183
 30
0.0
 10
80.64744599763328
 20
-158.9291449255455
 30
0.0
 10
80.52273354106724
 20
-158.8698892831992
 30
0.0
 10
80.44659693084321
 20
-158.7555121130889
 30
0.0
 10
80.44659693084321
 20
-158.5946261539277
 30
0.0
 10
80.44659693084321
 20
-158.3197075342048
 30
0.0
 10
80.64537894034213
 20
-158.1843152816345
 30
0.0
 10
80.92029756006507
 20
-158.1843152816345
 30
0.0
 10
81.20382891850113
 20
-158.1843152816345
 30
0.0
 10
81.39434269883544
 20
-158.3283202729179
 30
0.0
 10
81.39434269883544
 20
-158.5946261539277
 30
0.0
 10
81.39434269883544
 20
-158.7555121130889
 30
0.0
 10
81.31579452177175
 20
-158.8698892831992
 30
0.0
 10
81.1910820652057
 20
-158.9291449255455
 30
0.0
 10
81.27996552872516
 20
-158.9797878291787
 30
0.0
 10
81.43878443059516
 20
-159.0748724645716
 30
0.0
 10
81.43878443059516
 20
-159.3373887405476
 30
0.0
 10
81.43878443059516
 20
-159.7118706197943
 30
0.0
 10
81.15938718674141
 20
-159.8279703376472
 30
0.0
 10
80.92029756006507
 20
-159.8279703376472
 30
0.0
  0
SPLINE
  5
1C3
330
1BE
100
AcDbEntity
  8
_U+30EC_U+30A4_U+30E4_U+30FC 1
370
     0
100
AcDbSpline
210
0.0
220
0.0
230
1.0
 70
    11
 71
     3
 72
    17
 73
    13
 74
     0
 42
0.0000000001
 43
0.0000000001
 12
1.0
 22
0.0
 32
0.0
 13
1.0
 23
0.0
 33
0.0
 40
0.0
 40
0.0
 40
0.0
 40
0.0
 40
1.0
 40
1.0
 40
1.0
 40
2.0
 40
2.0
 40
2.0
 40
3.0
 40
3.0
 40
3.0
 40
4.0
 40
4.0
 40
4.0
 40
4.0
 10
80.92029756006507
 20
-159.0369764142338
 30
0.0
 10
80.77663707833015
 20
-159.0369764142338
 30
0.0
 10
80.62401934833358
 20
-159.1237928204621
 30
0.0
 10
80.62401934833358
 20
-159.3267089445433
 30
0.0
 10
80.62401934833358
 20
-159.5320366354642
 30
0.0
 10
80.7511433717393
 20
-159.6333224427306
 30
0.0
 10
80.92029756006507
 20
-159.6333224427306
 30
0.0
 10
81.10633271626855
 20
-159.6333224427306
 30
0.0
 10
81.21657577179656
 20
-159.5106770434557
 30
0.0
 10
81.21657577179656
 20
-159.3329101164168
 30
0.0
 10
81.21657577179656
 20
-159.1110459671667
 30
0.0
 10
81.05362275534424
 20
-159.0369764142338
 30
0.0
 10
80.92029756006507
 20
-159.0369764142338
 30
0.0
  0
SPLINE
  5
1C4
330
1BE
100
AcDbEntity
  8
_U+30EC_U+30A4_U+30E4_U+30FC 1
370
     0
100
AcDbSpline
210
0.0
220
0.0
230
1.0
 70
    11
 71
     3
 72
    17
 73
    13
 74
     0
 42
0.0000000001
 43
0.0000000001
 12
1.0
 22
0.0
 32
0.0
 13
1.0
 23
0.0
 33
0.0
 40
0.0
 40
0.0
 40
0.0
 40
0.0
 40
1.0
 40
1.0
 40
1.0
 40
2.0
 40
2.0
 40
2.0
 40
3.0
 40
3.0
 40
3.0
 40
4.0
 40
4.0
 40
4.0
 40
4.0
 10
80.92029756006507
 20
-158.37689611926
 30
0.0
 10
80.7552774863216
 20
-158.37689611926
 30
0.0
 10
80.67087264693298
 20
-158.4719807546528
 30
0.0
 10
80.67087264693298
 20
-158.6073730072232
 30
0.0
 10
80.67087264693298
 20
-158.7300184064981
 30
0.0
 10
80.74253063302618
 20
-158.8485296911907
 30
0.0
 10
80.92029756006507
 20
-158.8485296911907
 30
0.0
 10
81.09806448710395
 20
-158.8485296911907
 30
0.0
 10
81.17006698274568
 20
-158.7300184064981
 30
0.0
 10
81.17006698274568
 20
-158.6073730072232
 30
0.0
 10
81.17006698274568
 20
-158.4719807546528
 30
0.0
 10
81.08325057651739
 20
-158.37689611926
 30
0.0
 10
80.92029756006507
 20
-158.37689611926
 30
0.0
  0
HATCH
  5
1C5
330
1BE
100
AcDbEntity
  8
_U+30EC_U+30A4_U+30E4_U+30FC 1
 62
   179
420
  2234388
100
AcDbHatch
 10
0.0
 20
0.0
 30
0.0
210
0.0
220
0.0
230
1.0
  2
SOLID
 70
     1
 71
     0
 91
        3
 92
        1
 93
        1
 72
     4
 94
        3
 73
     0
 74
     1
 95
       29
 96
       25
 40
0.0
 40
0.0
 40
0.0
 40
0.0
 40
1.0
 40
1.0
 40
1.0
 40
2.0
 40
2.0
 40
2.0
 40
3.0
 40
3.0
 40
3.0
 40
4.0
 40
4.0
 40
4.0
 40
5.0
 40
5.0
 40
5.0
 40
6.0
 40
6.0
 40
6.0
 40
7.0
 40
7.0
 40
7.0
 40
8.0
 40
8.0
 40
8.0
 40
8.0
 10
80.92029756006507
 20
-159.8279703376472
 10
80.65364716950673
 20
-159.8279703376472
 10
80.40008814179234
 20
-159.6905110277857
 10
80.40008814179234
 20
-159.3415228551299
 10
80.40008814179234
 20
-159.0855522605758
 10
80.54168156623611
 20
-158.990467625183
 10
80.64744599763328
 20
-158.9291449255455
 10
80.52273354106724
 20
-158.8698892831992
 10
80.44659693084321
 20
-158.7555121130889
 10
80.44659693084321
 20
-158.5946261539277
 10
80.44659693084321
 20
-158.3197075342048
 10
80.64537894034213
 20
-158.1843152816345
 10
80.92029756006507
 20
-158.1843152816345
 10
81.20382891850113
 20
-158.1843152816345
 10
81.39434269883544
 20
-158.3283202729179
 10
81.39434269883544
 20
-158.5946261539277
 10
81.39434269883544
 20
-158.7555121130889
 10
81.31579452177175
 20
-158.8698892831992
 10
81.1910820652057
 20
-158.9291449255455
 10
81.27996552872516
 20
-158.9797878291787
 10
81.43878443059516
 20
-159.0748724645716
 10
81.43878443059516
 20
-159.3373887405476
 10
81.43878443059516
 20
-159.7118706197943
 10
81.15938718674141
 20
-159.8279703376472
 10
80.92029756006507
 20
-159.8279703376472
 97
        0
 97
        0
 92
        1
 93
        1
 72
     4
 94
        3
 73
     0
 74
     1
 95
       17
 96
       13
 40
0.0
 40
0.0
 40
0.0
 40
0.0
 40
1.0
 40
1.0
 40
1.0
 40
2.0
 40
2.0
 40
2.0
 40
3.0
 40
3.0
 40
3.0
 40
4.0
 40
4.0
 40
4.0
 40
4.0
 10
80.92029756006507
 20
-159.0369764142338
 10
80.77663707833015
 20
-159.0369764142338
 10
80.62401934833358
 20
-159.1237928204621
 10
80.62401934833358
 20
-159.3267089445433
 10
80.62401934833358
 20
-159.5320366354642
 10
80.7511433717393
 20
-159.6333224427306
 10
80.92029756006507
 20
-159.6333224427306
 10
81.10633271626855
 20
-159.6333224427306
 10
81.21657577179656
 20
-159.5106770434557
 10
81.21657577179656
 20
-159.3329101164168
 10
81.21657577179656
 20
-159.1110459671667
 10
81.05362275534424
 20
-159.0369764142338
 10
80.92029756006507
 20
-159.0369764142338
 97
        0
 97
        0
 92
        1
 93
        1
 72
     4
 94
        3
 73
     0
 74
     1
 95
       17
 96
       13
 40
0.0
 40
0.0
 40
0.0
 40
0.0
 40
1.0
 40
1.0
 40
1.0
 40
2.0
 40
2.0
 40
2.0
 40
3.0
 40
3.0
 40
3.0
 40
4.0
 40
4.0
 40
4.0
 40
4.0
 10
80.92029756006507
 20
-158.37689611926
 10
80.7552774863216
 20
-158.37689611926
 10
80.67087264693298
 20
-158.4719807546528
 10
80.67087264693298
 20
-158.6073730072232
 10
80.67087264693298
 20
-158.7300184064981
 10
80.74253063302618
 20
-158.8485296911907
 10
80.92029756006507
 20
-158.8485296911907
 10
81.09806448710395
 20
-158.8485296911907
 10
81.17006698274568
 20
-158.7300184064981
 10
81.17006698274568
 20
-158.6073730072232
 10
81.17006698274568
 20
-158.4719807546528
 10
81.08325057651739
 20
-158.37689611926
 10
80.92029756006507
 20
-158.37689611926
 97
        0
 97
        0
 75
     2
 76
     1
 98
        0
  0
ENDBLK
  5
1C1
330
1BE
100
AcDbEntity
  8
0
100
AcDbBlockEnd
  0
BLOCK
  5
1C8
330
1C6
100
AcDbEntity
  8
0
100
AcDbBlockBegin
  2
block 7
 70
     0
 10
0.0
 20
0.0
 30
0.0
  3
block 7
  1

  0
SPLINE
  5
1CA
330
1C6
100
AcDbEntity
  8
_U+30EC_U+30A4_U+30E4_U+30FC 1
370
     0
100
AcDbSpline
210
0.0
220
0.0
230
1.0
 70
    11
 71
     3
 72
    62
 73
    58
 74
     0
 42
0.0000000001
 43
0.0000000001
 12
1.0
 22
0.0
 32
0.0
 13
1.0
 23
0.0
 33
0.0
 40
0.0
 40
0.0
 40
0.0
 40
0.0
 40
1.0
 40
1.0
 40
1.0
 40
2.0
 40
2.0
 40
2.0
 40
3.0
 40
3.0
 40
3.0
 40
4.0
 40
4.0
 40
4.0
 40
5.0
 40
5.0
 40
5.0
 40
6.0
 40
6.0
 40
6.0
 40
7.0
 40
7.0
 40
7.0
 40
8.0
 40
8.0
 40
8.0
 40
9.0
 40
9.0
 40
9.0
 40
10.0
 40
10.0
 40
10.0
 40
11.0
 40
11.0
 40
11.0
 40
12.0
 40
12.0
 40
12.0
 40
13.0
 40
13.0
 40
13.0
 40
14.0
 40
14.0
 40
14.0
 40
15.0
 40
15.0
 40
15.0
 40
16.0
 40
16.0
 40
16.0
 40
17.0
 40
17.0
 40
17.0
 40
18.0
 40
18.0
 40
18.0
 40
19.0
 40
19.0
 40
19.0
 40
19.0
 10
106.1075629075009
 20
-154.9314561244616
 30
0.0
 10
106.1075629075009
 20
-155.026885269403
 30
0.0
 10
106.0865478250409
 20
-155.2446153040708
 30
0.0
 10
105.9005126688374
 20
-155.3696722701854
 30
0.0
 10
105.7882025560182
 20
-155.4433973135697
 30
0.0
 10
105.688983806043
 20
-155.4478759377005
 30
0.0
 10
105.6042344571059
 20
-155.4520100522828
 30
0.0
 10
105.6042344571059
 20
-155.4520100522828
 30
0.0
 10
105.6042344571059
 20
-155.2318684507754
 30
0.0
 10
105.6042344571059
 20
-155.2318684507754
 30
0.0
 10
105.6783040100388
 20
-155.2298013934842
 30
0.0
 10
105.9129150125843
 20
-155.2194661070285
 30
0.0
 10
105.9129150125843
 20
-154.9359347485924
 30
0.0
 10
105.9129150125843
 20
-154.7984754387309
 30
0.0
 10
105.8433240837822
 20
-154.6458577087344
 30
0.0
 10
105.6149142531102
 20
-154.6458577087344
 30
0.0
 10
105.4984700257087
 20
-154.6458577087344
 30
0.0
 10
105.4498941793667
 20
-154.6840982686207
 30
0.0
 10
105.4181993009024
 20
-154.715793147085
 30
0.0
 10
105.3441297479695
 20
-154.7898627000178
 30
0.0
 10
105.3313828946741
 20
-154.9063069274193
 30
0.0
 10
105.3313828946741
 20
-154.9610839456347
 30
0.0
 10
105.3313828946741
 20
-154.9803764803521
 30
0.0
 10
105.3334499519652
 20
-155.0162054733987
 30
0.0
 10
105.3375840665475
 20
-155.0437662372807
 30
0.0
 10
105.3375840665475
 20
-155.0437662372807
 30
0.0
 10
105.1429361716309
 20
-155.0437662372807
 30
0.0
 10
105.1429361716309
 20
-155.0437662372807
 30
0.0
 10
105.1494818530529
 20
-155.0055256773944
 30
0.0
 10
105.1515489103441
 20
-154.9634955124744
 30
0.0
 10
105.1515489103441
 20
-154.9569498310524
 30
0.0
 10
105.1515489103441
 20
-154.8914930168327
 30
0.0
 10
105.1301893183355
 20
-154.6927110073338
 30
0.0
 10
104.8935112584988
 20
-154.6927110073338
 30
0.0
 10
104.71574433146
 20
-154.6927110073338
 30
0.0
 10
104.660622803696
 20
-154.8236246357733
 30
0.0
 10
104.660622803696
 20
-154.9338676913013
 30
0.0
 10
104.660622803696
 20
-155.1981065150199
 30
0.0
 10
104.8935112584988
 20
-155.206719253733
 30
0.0
 10
104.965169244592
 20
-155.2108533683154
 30
0.0
 10
104.965169244592
 20
-155.2108533683154
 30
0.0
 10
104.965169244592
 20
-155.4141140019451
 30
0.0
 10
104.965169244592
 20
-155.4141140019451
 30
0.0
 10
104.840456788026
 20
-155.405501263232
 30
0.0
 10
104.4639078514882
 20
-155.37794049935
 30
0.0
 10
104.4639078514882
 20
-154.9211208380058
 30
0.0
 10
104.4639078514882
 20
-154.6968451219161
 30
0.0
 10
104.5910318748939
 20
-154.4556884379486
 30
0.0
 10
104.8869655770769
 20
-154.4556884379486
 30
0.0
 10
105.0733452428289
 20
-154.4556884379486
 30
0.0
 10
105.1556830249264
 20
-154.5507730733415
 30
0.0
 10
105.2170057245638
 20
-154.6503363328652
 30
0.0
 10
105.2445664884458
 20
-154.5890136332278
 30
0.0
 10
105.3248372132521
 20
-154.4071125916066
 30
0.0
 10
105.6021673998147
 20
-154.4071125916066
 30
0.0
 10
105.9404757764663
 20
-154.4071125916066
 30
0.0
 10
106.1075629075009
 20
-154.6544704474475
 30
0.0
 10
106.1075629075009
 20
-154.9314561244616
 30
0.0
  0
HATCH
  5
1CB
330
1C6
100
AcDbEntity
  8
_U+30EC_U+30A4_U+30E4_U+30FC 1
 62
   179
420
  2234388
100
AcDbHatch
 10
0.0
 20
0.0
 30
0.0
210
0.0
220
0.0
230
1.0
  2
SOLID
 70
     1
 71
     0
 91
        1
 92
        1
 93
        1
 72
     4
 94
        3
 73
     0
 74
     1
 95
       62
 96
       58
 40
0.0
 40
0.0
 40
0.0
 40
0.0
 40
1.0
 40
1.0
 40
1.0
 40
2.0
 40
2.0
 40
2.0
 40
3.0
 40
3.0
 40
3.0
 40
4.0
 40
4.0
 40
4.0
 40
5.0
 40
5.0
 40
5.0
 40
6.0
 40
6.0
 40
6.0
 40
7.0
 40
7.0
 40
7.0
 40
8.0
 40
8.0
 40
8.0
 40
9.0
 40
9.0
 40
9.0
 40
10.0
 40
10.0
 40
10.0
 40
11.0
 40
11.0
 40
11.0
 40
12.0
 40
12.0
 40
12.0
 40
13.0
 40
13.0
 40
13.0
 40
14.0
 40
14.0
 40
14.0
 40
15.0
 40
15.0
 40
15.0
 40
16.0
 40
16.0
 40
16.0
 40
17.0
 40
17.0
 40
17.0
 40
18.0
 40
18.0
 40
18.0
 40
19.0
 40
19.0
 40
19.0
 40
19.0
 10
106.1075629075009
 20
-154.9314561244616
 10
106.1075629075009
 20
-155.026885269403
 10
106.0865478250409
 20
-155.2446153040708
 10
105.9005126688374
 20
-155.3696722701854
 10
105.7882025560182
 20
-155.4433973135697
 10
105.688983806043
 20
-155.4478759377005
 10
105.6042344571059
 20
-155.4520100522828
 10
105.6042344571059
 20
-155.4520100522828
 10
105.6042344571059
 20
-155.2318684507754
 10
105.6042344571059
 20
-155.2318684507754
 10
105.6783040100388
 20
-155.2298013934842
 10
105.9129150125843
 20
-155.2194661070285
 10
105.9129150125843
 20
-154.9359347485924
 10
105.9129150125843
 20
-154.7984754387309
 10
105.8433240837822
 20
-154.6458577087344
 10
105.6149142531102
 20
-154.6458577087344
 10
105.4984700257087
 20
-154.6458577087344
 10
105.4498941793667
 20
-154.6840982686207
 10
105.4181993009024
 20
-154.715793147085
 10
105.3441297479695
 20
-154.7898627000178
 10
105.3313828946741
 20
-154.9063069274193
 10
105.3313828946741
 20
-154.9610839456347
 10
105.3313828946741
 20
-154.9803764803521
 10
105.3334499519652
 20
-155.0162054733987
 10
105.3375840665475
 20
-155.0437662372807
 10
105.3375840665475
 20
-155.0437662372807
 10
105.1429361716309
 20
-155.0437662372807
 10
105.1429361716309
 20
-155.0437662372807
 10
105.1494818530529
 20
-155.0055256773944
 10
105.1515489103441
 20
-154.9634955124744
 10
105.1515489103441
 20
-154.9569498310524
 10
105.1515489103441
 20
-154.8914930168327
 10
105.1301893183355
 20
-154.6927110073338
 10
104.8935112584988
 20
-154.6927110073338
 10
104.71574433146
 20
-154.6927110073338
 10
104.660622803696
 20
-154.8236246357733
 10
104.660622803696
 20
-154.9338676913013
 10
104.660622803696
 20
-155.1981065150199
 10
104.8935112584988
 20
-155.206719253733
 10
104.965169244592
 20
-155.2108533683154
 10
104.965169244592
 20
-155.2108533683154
 10
104.965169244592
 20
-155.4141140019451
 10
104.965169244592
 20
-155.4141140019451
 10
104.840456788026
 20
-155.405501263232
 10
104.4639078514882
 20
-155.37794049935
 10
104.4639078514882
 20
-154.9211208380058
 10
104.4639078514882
 20
-154.6968451219161
 10
104.5910318748939
 20
-154.4556884379486
 10
104.8869655770769
 20
-154.4556884379486
 10
105.0733452428289
 20
-154.4556884379486
 10
105.1556830249264
 20
-154.5507730733415
 10
105.2170057245638
 20
-154.6503363328652
 10
105.2445664884458
 20
-154.5890136332278
 10
105.3248372132521
 20
-154.4071125916066
 10
105.6021673998147
 20
-154.4071125916066
 10
105.9404757764663
 20
-154.4071125916066
 10
106.1075629075009
 20
-154.6544704474475
 10
106.1075629075009
 20
-154.9314561244616
 97
        0
 97
        0
 75
     2
 76
     1
 98
        0
  0
ENDBLK
  5
1C9
330
1C6
100
AcDbEntity
  8
0
100
AcDbBlockEnd
  0
BLOCK
  5
1CE
330
1CC
100
AcDbEntity
  8
0
100
AcDbBlockBegin
  2
block 8
 70
     0
 10
0.0
 20
0.0
 30
0.0
  3
block 8
  1

  0
SPLINE
  5
1D0
330
1CC
100
AcDbEntity
  8
_U+30EC_U+30A4_U+30E4_U+30FC 1
370
     0
100
AcDbSpline
210
0.0
220
0.0
230
1.0
 70
    11
 71
     3
 72
    26
 73
    22
 74
     0
 42
0.0000000001
 43
0.0000000001
 12
1.0
 22
0.0
 32
0.0
 13
1.0
 23
0.0
 33
0.0
 40
0.0
 40
0.0
 40
0.0
 40
0.0
 40
1.0
 40
1.0
 40
1.0
 40
2.0
 40
2.0
 40
2.0
 40
3.0
 40
3.0
 40
3.0
 40
4.0
 40
4.0
 40
4.0
 40
5.0
 40
5.0
 40
5.0
 40
6.0
 40
6.0
 40
6.0
 40
7.0
 40
7.0
 40
7.0
 40
7.0
 10
106.0569200038677
 20
-149.0603243984988
 30
0.0
 10
106.0569200038677
 20
-149.0603243984988
 30
0.0
 10
104.9527669008451
 20
-149.0603243984988
 30
0.0
 10
104.9527669008451
 20
-149.0603243984988
 30
0.0
 10
104.9527669008451
 20
-149.0603243984988
 30
0.0
 10
104.9527669008451
 20
-149.3903645459858
 30
0.0
 10
104.9527669008451
 20
-149.3903645459858
 30
0.0
 10
104.9527669008451
 20
-149.3903645459858
 30
0.0
 10
104.8046277949794
 20
-149.3903645459858
 30
0.0
 10
104.8046277949794
 20
-149.3903645459858
 30
0.0
 10
104.7898138843928
 20
-149.0582573412077
 30
0.0
 10
104.6268608679405
 20
-149.0117485521568
 30
0.0
 10
104.5124836978302
 20
-148.9821207309836
 30
0.0
 10
104.5124836978302
 20
-148.9821207309836
 30
0.0
 10
104.5124836978302
 20
-148.8360486824091
 30
0.0
 10
104.5124836978302
 20
-148.8360486824091
 30
0.0
 10
104.5124836978302
 20
-148.8360486824091
 30
0.0
 10
106.0569200038677
 20
-148.8360486824091
 30
0.0
 10
106.0569200038677
 20
-148.8360486824091
 30
0.0
 10
106.0569200038677
 20
-148.8360486824091
 30
0.0
 10
106.0569200038677
 20
-149.0603243984988
 30
0.0
 10
106.0569200038677
 20
-149.0603243984988
 30
0.0
  0
HATCH
  5
1D1
330
1CC
100
AcDbEntity
  8
_U+30EC_U+30A4_U+30E4_U+30FC 1
 62
   179
420
  2234388
100
AcDbHatch
 10
0.0
 20
0.0
 30
0.0
210
0.0
220
0.0
230
1.0
  2
SOLID
 70
     1
 71
     0
 91
        1
 92
        1
 93
        1
 72
     4
 94
        3
 73
     0
 74
     1
 95
       26
 96
       22
 40
0.0
 40
0.0
 40
0.0
 40
0.0
 40
1.0
 40
1.0
 40
1.0
 40
2.0
 40
2.0
 40
2.0
 40
3.0
 40
3.0
 40
3.0
 40
4.0
 40
4.0
 40
4.0
 40
5.0
 40
5.0
 40
5.0
 40
6.0
 40
6.0
 40
6.0
 40
7.0
 40
7.0
 40
7.0
 40
7.0
 10
106.0569200038677
 20
-149.0603243984988
 10
106.0569200038677
 20
-149.0603243984988
 10
104.9527669008451
 20
-149.0603243984988
 10
104.9527669008451
 20
-149.0603243984988
 10
104.9527669008451
 20
-149.0603243984988
 10
104.9527669008451
 20
-149.3903645459858
 10
104.9527669008451
 20
-149.3903645459858
 10
104.9527669008451
 20
-149.3903645459858
 10
104.8046277949794
 20
-149.3903645459858
 10
104.8046277949794
 20
-149.3903645459858
 10
104.7898138843928
 20
-149.0582573412077
 10
104.6268608679405
 20
-149.0117485521568
 10
104.5124836978302
 20
-148.9821207309836
 10
104.5124836978302
 20
-148.9821207309836
 10
104.5124836978302
 20
-148.8360486824091
 10
104.5124836978302
 20
-148.8360486824091
 10
104.5124836978302
 20
-148.8360486824091
 10
106.0569200038677
 20
-148.8360486824091
 10
106.0569200038677
 20
-148.8360486824091
 10
106.0569200038677
 20
-148.8360486824091
 10
106.0569200038677
 20
-149.0603243984988
 10
106.0569200038677
 20
-149.0603243984988
 97
        0
 97
        0
 75
     2
 76
     1
 98
        0
  0
SPLINE
  5
1D2
330
1CC
100
AcDbEntity
  8
_U+30EC_U+30A4_U+30E4_U+30FC 1
370
     0
100
AcDbSpline
210
0.0
220
0.0
230
1.0
 70
    11
 71
     3
 72
    29
 73
    25
 74
     0
 42
0.0000000001
 43
0.0000000001
 12
1.0
 22
0.0
 32
0.0
 13
1.0
 23
0.0
 33
0.0
 40
0.0
 40
0.0
 40
0.0
 40
0.0
 40
1.0
 40
1.0
 40
1.0
 40
2.0
 40
2.0
 40
2.0
 40
3.0
 40
3.0
 40
3.0
 40
4.0
 40
4.0
 40
4.0
 40
5.0
 40
5.0
 40
5.0
 40
6.0
 40
6.0
 40
6.0
 40
7.0
 40
7.0
 40
7.0
 40
8.0
 40
8.0
 40
8.0
 40
8.0
 10
105.8791530768288
 20
-147.4369954058491
 30
0.0
 10
106.088614882332
 20
-147.5451714040859
 30
0.0
 10
106.1075629075009
 20
-147.718459706994
 30
0.0
 10
106.1075629075009
 20
-147.8349039343954
 30
0.0
 10
106.1075629075009
 20
-147.9957898935566
 30
0.0
 10
106.06105411845
 20
-148.1373833180004
 30
0.0
 10
105.8791530768288
 20
-148.2324679533933
 30
0.0
 10
105.6845051819122
 20
-148.3361653274993
 30
0.0
 10
105.447482612527
 20
-148.3554578622167
 30
0.0
 10
105.2848741056232
 20
-148.3554578622167
 30
0.0
 10
105.1408691143398
 20
-148.3554578622167
 30
0.0
 10
104.889032634368
 20
-148.3382323847904
 30
0.0
 10
104.6902506248691
 20
-148.2324679533933
 30
0.0
 10
104.4873345007879
 20
-148.124636464705
 30
0.0
 10
104.4639078514882
 20
-147.9637505055438
 30
0.0
 10
104.4639078514882
 20
-147.8349039343954
 30
0.0
 10
104.4639078514882
 20
-147.6760850325254
 30
0.0
 10
104.5083495832479
 20
-147.5324245507905
 30
0.0
 10
104.6902506248691
 20
-147.4369954058491
 30
0.0
 10
104.8828314624946
 20
-147.3377766558739
 30
0.0
 10
105.1112412931666
 20
-147.3143500065742
 30
0.0
 10
105.2848741056232
 20
-147.3143500065742
 30
0.0
 10
105.4560953512402
 20
-147.3143500065742
 30
0.0
 10
105.6865722392034
 20
-147.3357095985828
 30
0.0
 10
105.8791530768288
 20
-147.4369954058491
 30
0.0
  0
SPLINE
  5
1D3
330
1CC
100
AcDbEntity
  8
_U+30EC_U+30A4_U+30E4_U+30FC 1
370
     0
100
AcDbSpline
210
0.0
220
0.0
230
1.0
 70
    11
 71
     3
 72
    17
 73
    13
 74
     0
 42
0.0000000001
 43
0.0000000001
 12
1.0
 22
0.0
 32
0.0
 13
1.0
 23
0.0
 33
0.0
 40
0.0
 40
0.0
 40
0.0
 40
0.0
 40
1.0
 40
1.0
 40
1.0
 40
2.0
 40
2.0
 40
2.0
 40
3.0
 40
3.0
 40
3.0
 40
4.0
 40
4.0
 40
4.0
 40
4.0
 10
104.6564886891137
 20
-147.8349039343954
 30
0.0
 10
104.6564886891137
 20
-148.0846733570761
 30
0.0
 10
104.9400200475497
 20
-148.1311821461269
 30
0.0
 10
105.2848741056232
 20
-148.1311821461269
 30
0.0
 10
105.6042344571059
 20
-148.1311821461269
 30
0.0
 10
105.9129150125843
 20
-148.0950086435318
 30
0.0
 10
105.9129150125843
 20
-147.8349039343954
 30
0.0
 10
105.9129150125843
 20
-147.587201569006
 30
0.0
 10
105.6317952209879
 20
-147.538625722664
 30
0.0
 10
105.2848741056232
 20
-147.538625722664
 30
0.0
 10
104.965169244592
 20
-147.538625722664
 30
0.0
 10
104.6564886891137
 20
-147.5768662825502
 30
0.0
 10
104.6564886891137
 20
-147.8349039343954
 30
0.0
  0
HATCH
  5
1D4
330
1CC
100
AcDbEntity
  8
_U+30EC_U+30A4_U+30E4_U+30FC 1
 62
   179
420
  2234388
100
AcDbHatch
 10
0.0
 20
0.0
 30
0.0
210
0.0
220
0.0
230
1.0
  2
SOLID
 70
     1
 71
     0
 91
        2
 92
        1
 93
        1
 72
     4
 94
        3
 73
     0
 74
     1
 95
       29
 96
       25
 40
0.0
 40
0.0
 40
0.0
 40
0.0
 40
1.0
 40
1.0
 40
1.0
 40
2.0
 40
2.0
 40
2.0
 40
3.0
 40
3.0
 40
3.0
 40
4.0
 40
4.0
 40
4.0
 40
5.0
 40
5.0
 40
5.0
 40
6.0
 40
6.0
 40
6.0
 40
7.0
 40
7.0
 40
7.0
 40
8.0
 40
8.0
 40
8.0
 40
8.0
 10
105.8791530768288
 20
-147.4369954058491
 10
106.088614882332
 20
-147.5451714040859
 10
106.1075629075009
 20
-147.718459706994
 10
106.1075629075009
 20
-147.8349039343954
 10
106.1075629075009
 20
-147.9957898935566
 10
106.06105411845
 20
-148.1373833180004
 10
105.8791530768288
 20
-148.2324679533933
 10
105.6845051819122
 20
-148.3361653274993
 10
105.447482612527
 20
-148.3554578622167
 10
105.2848741056232
 20
-148.3554578622167
 10
105.1408691143398
 20
-148.3554578622167
 10
104.889032634368
 20
-148.3382323847904
 10
104.6902506248691
 20
-148.2324679533933
 10
104.4873345007879
 20
-148.124636464705
 10
104.4639078514882
 20
-147.9637505055438
 10
104.4639078514882
 20
-147.8349039343954
 10
104.4639078514882
 20
-147.6760850325254
 10
104.5083495832479
 20
-147.5324245507905
 10
104.6902506248691
 20
-147.4369954058491
 10
104.8828314624946
 20
-147.3377766558739
 10
105.1112412931666
 20
-147.3143500065742
 10
105.2848741056232
 20
-147.3143500065742
 10
105.4560953512402
 20
-147.3143500065742
 10
105.6865722392034
 20
-147.3357095985828
 10
105.8791530768288
 20
-147.4369954058491
 97
        0
 97
        0
 92
        1
 93
        1
 72
     4
 94
        3
 73
     0
 74
     1
 95
       17
 96
       13
 40
0.0
 40
0.0
 40
0.0
 40
0.0
 40
1.0
 40
1.0
 40
1.0
 40
2.0
 40
2.0
 40
2.0
 40
3.0
 40
3.0
 40
3.0
 40
4.0
 40
4.0
 40
4.0
 40
4.0
 10
104.6564886891137
 20
-147.8349039343954
 10
104.6564886891137
 20
-148.0846733570761
 10
104.9400200475497
 20
-148.1311821461269
 10
105.2848741056232
 20
-148.1311821461269
 10
105.6042344571059
 20
-148.1311821461269
 10
105.9129150125843
 20
-148.0950086435318
 10
105.9129150125843
 20
-147.8349039343954
 10
105.9129150125843
 20
-147.587201569006
 10
105.6317952209879
 20
-147.538625722664
 10
105.2848741056232
 20
-147.538625722664
 10
104.965169244592
 20
-147.538625722664
 10
104.6564886891137
 20
-147.5768662825502
 10
104.6564886891137
 20
-147.8349039343954
 97
        0
 97
        0
 75
     2
 76
     1
 98
        0
  0
ENDBLK
  5
1CF
330
1CC
100
AcDbEntity
  8
0
100
AcDbBlockEnd
  0
BLOCK
  5
1D7
330
1D5
100
AcDbEntity
  8
0
100
AcDbBlockBegin
  2
block 9
 70
     0
 10
0.0
 20
0.0
 30
0.0
  3
block 9
  1

  0
POLYLINE
  5
1D9
330
1D5
100
AcDbEntity
  8
_U+30EC_U+30A4_U+30E4_U+30FC 1
370
     0
100
AcDb2dPolyline
 66
     1
 10
0.0
 20
0.0
 30
0.0
  0
VERTEX
  5
1DA
330
1D9
100
AcDbEntity
  8
_U+30EC_U+30A4_U+30E4_U+30FC 1
370
     0
100
AcDbVertex
100
AcDb2dVertex
 10
105.7099988885031
 20
-123.6796169395662
 30
0.0
  0
VERTEX
  5
1DB
330
1D9
100
AcDbEntity
  8
_U+30EC_U+30A4_U+30E4_U+30FC 1
370
     0
100
AcDbVertex
100
AcDb2dVertex
 10
106.0569200038677
 20
-123.6796169395662
 30
0.0
  0
VERTEX
  5
1DC
330
1D9
100
AcDbEntity
  8
_U+30EC_U+30A4_U+30E4_U+30FC 1
370
     0
100
AcDbVertex
100
AcDb2dVertex
 10
106.0569200038677
 20
-123.897346974234
 30
0.0
  0
VERTEX
  5
1DD
330
1D9
100
AcDbEntity
  8
_U+30EC_U+30A4_U+30E4_U+30FC 1
370
     0
100
AcDbVertex
100
AcDb2dVertex
 10
105.7099988885031
 20
-123.897346974234
 30
0.0
  0
VERTEX
  5
1DE
330
1D9
100
AcDbEntity
  8
_U+30EC_U+30A4_U+30E4_U+30FC 1
370
     0
100
AcDbVertex
100
AcDb2dVertex
 10
105.7099988885031
 20
-124.5532931546256
 30
0.0
  0
VERTEX
  5
1DF
330
1D9
100
AcDbEntity
  8
_U+30EC_U+30A4_U+30E4_U+30FC 1
370
     0
100
AcDbVertex
100
AcDb2dVertex
 10
105.4857231724133
 20
-124.5532931546256
 30
0.0
  0
VERTEX
  5
1E0
330
1D9
100
AcDbEntity
  8
_U+30EC_U+30A4_U+30E4_U+30FC 1
370
     0
100
AcDbVertex
100
AcDb2dVertex
 10
104.5124836978302
 20
-123.8742648344828
 30
0.0
  0
VERTEX
  5
1E1
330
1D9
100
AcDbEntity
  8
_U+30EC_U+30A4_U+30E4_U+30FC 1
370
     0
100
AcDbVertex
100
AcDb2dVertex
 10
104.5124836978302
 20
-123.6796169395662
 30
0.0
  0
VERTEX
  5
1E2
330
1D9
100
AcDbEntity
  8
_U+30EC_U+30A4_U+30E4_U+30FC 1
370
     0
100
AcDbVertex
100
AcDb2dVertex
 10
105.5112168790041
 20
-123.6796169395662
 30
0.0
  0
VERTEX
  5
1E3
330
1D9
100
AcDbEntity
  8
_U+30EC_U+30A4_U+30E4_U+30FC 1
370
     0
100
AcDbVertex
100
AcDb2dVertex
 10
105.5112168790041
 20
-123.4722221913542
 30
0.0
  0
VERTEX
  5
1E4
330
1D9
100
AcDbEntity
  8
_U+30EC_U+30A4_U+30E4_U+30FC 1
370
     0
100
AcDbVertex
100
AcDb2dVertex
 10
105.7099988885031
 20
-123.4722221913542
 30
0.0
  0
VERTEX
  5
1E5
330
1D9
100
AcDbEntity
  8
_U+30EC_U+30A4_U+30E4_U+30FC 1
370
     0
100
AcDbVertex
100
AcDb2dVertex
 10
105.7099988885031
 20
-123.6796169395662
 30
0.0
  0
SEQEND
  5
1E6
330
1D9
100
AcDbEntity
  8
_U+30EC_U+30A4_U+30E4_U+30FC 1
370
     0
  0
POLYLINE
  5
1E7
330
1D5
100
AcDbEntity
  8
_U+30EC_U+30A4_U+30E4_U+30FC 1
370
     0
100
AcDb2dPolyline
 66
     1
 10
0.0
 20
0.0
 30
0.0
  0
VERTEX
  5
1E8
330
1E7
100
AcDbEntity
  8
_U+30EC_U+30A4_U+30E4_U+30FC 1
370
     0
100
AcDbVertex
100
AcDb2dVertex
 10
104.8552706986126
 20
-123.897346974234
 30
0.0
  0
VERTEX
  5
1E9
330
1E7
100
AcDbEntity
  8
_U+30EC_U+30A4_U+30E4_U+30FC 1
370
     0
100
AcDbVertex
100
AcDb2dVertex
 10
105.5112168790041
 20
-124.3545111451267
 30
0.0
  0
VERTEX
  5
1EA
330
1E7
100
AcDbEntity
  8
_U+30EC_U+30A4_U+30E4_U+30FC 1
370
     0
100
AcDbVertex
100
AcDb2dVertex
 10
105.5112168790041
 20
-123.897346974234
 30
0.0
  0
VERTEX
  5
1EB
330
1E7
100
AcDbEntity
  8
_U+30EC_U+30A4_U+30E4_U+30FC 1
370
     0
100
AcDbVertex
100
AcDb2dVertex
 10
104.8552706986126
 20
-123.897346974234
 30
0.0
  0
SEQEND
  5
1EC
330
1E7
100
AcDbEntity
  8
_U+30EC_U+30A4_U+30E4_U+30FC 1
370
     0
  0
HATCH
  5
1ED
330
1D5
100
AcDbEntity
  8
_U+30EC_U+30A4_U+30E4_U+30FC 1
 62
   179
420
  2234388
100
AcDbHatch
 10
0.0
 20
0.0
 30
0.0
210
0.0
220
0.0
230
1.0
  2
SOLID
 70
     1
 71
     0
 91
        2
 92
        1
 93
       11
 72
     1
 10
105.7099988885031
 20
-123.6796169395662
 11
106.0569200038677
 21
-123.6796169395662
 72
     1
 10
106.0569200038677
 20
-123.6796169395662
 11
106.0569200038677
 21
-123.897346974234
 72
     1
 10
106.0569200038677
 20
-123.897346974234
 11
105.7099988885031
 21
-123.897346974234
 72
     1
 10
105.7099988885031
 20
-123.897346974234
 11
105.7099988885031
 21
-124.5532931546256
 72
     1
 10
105.7099988885031
 20
-124.5532931546256
 11
105.4857231724133
 21
-124.5532931546256
 72
     1
 10
105.4857231724133
 20
-124.5532931546256
 11
104.5124836978302
 21
-123.8742648344828
 72
     1
 10
104.5124836978302
 20
-123.8742648344828
 11
104.5124836978302
 21
-123.6796169395662
 72
     1
 10
104.5124836978302
 20
-123.6796169395662
 11
105.5112168790041
 21
-123.6796169395662
 72
     1
 10
105.5112168790041
 20
-123.6796169395662
 11
105.5112168790041
 21
-123.4722221913542
 72
     1
 10
105.5112168790041
 20
-123.4722221913542
 11
105.7099988885031
 21
-123.4722221913542
 72
     1
 10
105.7099988885031
 20
-123.4722221913542
 11
105.7099988885031
 21
-123.6796169395662
 97
        0
 92
        1
 93
        3
 72
     1
 10
104.8552706986126
 20
-123.897346974234
 11
105.5112168790041
 21
-124.3545111451267
 72
     1
 10
105.5112168790041
 20
-124.3545111451267
 11
105.5112168790041
 21
-123.897346974234
 72
     1
 10
105.5112168790041
 20
-123.897346974234
 11
104.8552706986126
 21
-123.897346974234
 97
        0
 75
     2
 76
     1
 98
        0
  0
SPLINE
  5
1EE
330
1D5
100
AcDbEntity
  8
_U+30EC_U+30A4_U+30E4_U+30FC 1
370
     0
100
AcDbSpline
210
0.0
220
0.0
230
1.0
 70
    11
 71
     3
 72
    29
 73
    25
 74
     0
 42
0.0000000001
 43
0.0000000001
 12
1.0
 22
0.0
 32
0.0
 13
1.0
 23
0.0
 33
0.0
 40
0.0
 40
0.0
 40
0.0
 40
0.0
 40
1.0
 40
1.0
 40
1.0
 40
2.0
 40
2.0
 40
2.0
 40
3.0
 40
3.0
 40
3.0
 40
4.0
 40
4.0
 40
4.0
 40
5.0
 40
5.0
 40
5.0
 40
6.0
 40
6.0
 40
6.0
 40
7.0
 40
7.0
 40
7.0
 40
8.0
 40
8.0
 40
8.0
 40
8.0
 10
105.8791530768288
 20
-122.4369709980366
 30
0.0
 10
106.088614882332
 20
-122.5451469962734
 30
0.0
 10
106.1075629075009
 20
-122.7184352991815
 30
0.0
 10
106.1075629075009
 20
-122.834879526583
 30
0.0
 10
106.1075629075009
 20
-122.9957654857441
 30
0.0
 10
106.06105411845
 20
-123.1373589101879
 30
0.0
 10
105.8791530768288
 20
-123.2324435455808
 30
0.0
 10
105.6845051819122
 20
-123.3361409196868
 30
0.0
 10
105.447482612527
 20
-123.3550889448557
 30
0.0
 10
105.2848741056232
 20
-123.3550889448557
 30
0.0
 10
105.1408691143398
 20
-123.3550889448557
 30
0.0
 10
104.889032634368
 20
-123.338207976978
 30
0.0
 10
104.6902506248691
 20
-123.2324435455808
 30
0.0
 10
104.4873345007879
 20
-123.1246120568925
 30
0.0
 10
104.4639078514882
 20
-122.9637260977313
 30
0.0
 10
104.4639078514882
 20
-122.834879526583
 30
0.0
 10
104.4639078514882
 20
-122.6760606247129
 30
0.0
 10
104.5083495832479
 20
-122.532400142978
 30
0.0
 10
104.6902506248691
 20
-122.4369709980366
 30
0.0
 10
104.8828314624946
 20
-122.3377522480614
 30
0.0
 10
105.1112412931666
 20
-122.3143255987617
 30
0.0
 10
105.2848741056232
 20
-122.3143255987617
 30
0.0
 10
105.4560953512402
 20
-122.3143255987617
 30
0.0
 10
105.6865722392034
 20
-122.3356851907702
 30
0.0
 10
105.8791530768288
 20
-122.4369709980366
 30
0.0
  0
SPLINE
  5
1EF
330
1D5
100
AcDbEntity
  8
_U+30EC_U+30A4_U+30E4_U+30FC 1
370
     0
100
AcDbSpline
210
0.0
220
0.0
230
1.0
 70
    11
 71
     3
 72
    17
 73
    13
 74
     0
 42
0.0000000001
 43
0.0000000001
 12
1.0
 22
0.0
 32
0.0
 13
1.0
 23
0.0
 33
0.0
 40
0.0
 40
0.0
 40
0.0
 40
0.0
 40
1.0
 40
1.0
 40
1.0
 40
2.0
 40
2.0
 40
2.0
 40
3.0
 40
3.0
 40
3.0
 40
4.0
 40
4.0
 40
4.0
 40
4.0
 10
104.6564886891137
 20
-122.834879526583
 30
0.0
 10
104.6564886891137
 20
-123.084304439715
 30
0.0
 10
104.9400200475497
 20
-123.1311577383144
 30
0.0
 10
105.2848741056232
 20
-123.1311577383144
 30
0.0
 10
105.6042344571059
 20
-123.1311577383144
 30
0.0
 10
105.9129150125843
 20
-123.0949842357193
 30
0.0
 10
105.9129150125843
 20
-122.834879526583
 30
0.0
 10
105.9129150125843
 20
-122.5871771611935
 30
0.0
 10
105.6317952209879
 20
-122.5386013148515
 30
0.0
 10
105.2848741056232
 20
-122.5386013148515
 30
0.0
 10
104.965169244592
 20
-122.5386013148515
 30
0.0
 10
104.6564886891137
 20
-122.5768418747377
 30
0.0
 10
104.6564886891137
 20
-122.834879526583
 30
0.0
  0
HATCH
  5
1F0
330
1D5
100
AcDbEntity
  8
_U+30EC_U+30A4_U+30E4_U+30FC 1
 62
   179
420
  2234388
100
AcDbHatch
 10
0.0
 20
0.0
 30
0.0
210
0.0
220
0.0
230
1.0
  2
SOLID
 70
     1
 71
     0
 91
        2
 92
        1
 93
        1
 72
     4
 94
        3
 73
     0
 74
     1
 95
       29
 96
       25
 40
0.0
 40
0.0
 40
0.0
 40
0.0
 40
1.0
 40
1.0
 40
1.0
 40
2.0
 40
2.0
 40
2.0
 40
3.0
 40
3.0
 40
3.0
 40
4.0
 40
4.0
 40
4.0
 40
5.0
 40
5.0
 40
5.0
 40
6.0
 40
6.0
 40
6.0
 40
7.0
 40
7.0
 40
7.0
 40
8.0
 40
8.0
 40
8.0
 40
8.0
 10
105.8791530768288
 20
-122.4369709980366
 10
106.088614882332
 20
-122.5451469962734
 10
106.1075629075009
 20
-122.7184352991815
 10
106.1075629075009
 20
-122.834879526583
 10
106.1075629075009
 20
-122.9957654857441
 10
106.06105411845
 20
-123.1373589101879
 10
105.8791530768288
 20
-123.2324435455808
 10
105.6845051819122
 20
-123.3361409196868
 10
105.447482612527
 20
-123.3550889448557
 10
105.2848741056232
 20
-123.3550889448557
 10
105.1408691143398
 20
-123.3550889448557
 10
104.889032634368
 20
-123.338207976978
 10
104.6902506248691
 20
-123.2324435455808
 10
104.4873345007879
 20
-123.1246120568925
 10
104.4639078514882
 20
-122.9637260977313
 10
104.4639078514882
 20
-122.834879526583
 10
104.4639078514882
 20
-122.6760606247129
 10
104.5083495832479
 20
-122.532400142978
 10
104.6902506248691
 20
-122.4369709980366
 10
104.8828314624946
 20
-122.3377522480614
 10
105.1112412931666
 20
-122.3143255987617
 10
105.2848741056232
 20
-122.3143255987617
 10
105.4560953512402
 20
-122.3143255987617
 10
105.6865722392034
 20
-122.3356851907702
 10
105.8791530768288
 20
-122.4369709980366
 97
        0
 97
        0
 92
        1
 93
        1
 72
     4
 94
        3
 73
     0
 74
     1
 95
       17
 96
       13
 40
0.0
 40
0.0
 40
0.0
 40
0.0
 40
1.0
 40
1.0
 40
1.0
 40
2.0
 40
2.0
 40
2.0
 40
3.0
 40
3.0
 40
3.0
 40
4.0
 40
4.0
 40
4.0
 40
4.0
 10
104.6564886891137
 20
-122.834879526583
 10
104.6564886891137
 20
-123.084304439715
 10
104.9400200475497
 20
-123.1311577383144
 10
105.2848741056232
 20
-123.1311577383144
 10
105.6042344571059
 20
-123.1311577383144
 10
105.9129150125843
 20
-123.0949842357193
 10
105.9129150125843
 20
-122.834879526583
 10
105.9129150125843
 20
-122.5871771611935
 10
105.6317952209879
 20
-122.5386013148515
 10
105.2848741056232
 20
-122.5386013148515
 10
104.965169244592
 20
-122.5386013148515
 10
104.6564886891137
 20
-122.5768418747377
 10
104.6564886891137
 20
-122.834879526583
 97
        0
 97
        0
 75
     2
 76
     1
 98
        0
  0
ENDBLK
  5
1D8
330
1D5
100
AcDbEntity
  8
0
100
AcDbBlockEnd
  0
BLOCK
  5
1F3
330
1F1
100
AcDbEntity
  8
0
100
AcDbBlockBegin
  2
block 10
 70
     0
 10
0.0
 20
0.0
 30
0.0
  3
block 10
  1

  0
SPLINE
  5
1F5
330
1F1
100
AcDbEntity
  8
_U+30EC_U+30A4_U+30E4_U+30FC 1
370
     0
100
AcDbSpline
210
0.0
220
0.0
230
1.0
 70
    11
 71
     3
 72
    29
 73
    25
 74
     0
 42
0.0000000001
 43
0.0000000001
 12
1.0
 22
0.0
 32
0.0
 13
1.0
 23
0.0
 33
0.0
 40
0.0
 40
0.0
 40
0.0
 40
0.0
 40
1.0
 40
1.0
 40
1.0
 40
2.0
 40
2.0
 40
2.0
 40
3.0
 40
3.0
 40
3.0
 40
4.0
 40
4.0
 40
4.0
 40
5.0
 40
5.0
 40
5.0
 40
6.0
 40
6.0
 40
6.0
 40
7.0
 40
7.0
 40
7.0
 40
8.0
 40
8.0
 40
8.0
 40
8.0
 10
77.07505423420346
 20
-154.2672417149054
 30
0.0
 10
77.07505423420346
 20
-154.5338921054638
 30
0.0
 10
76.937594924342
 20
-154.7874511331781
 30
0.0
 10
76.58860675168619
 20
-154.7874511331781
 30
0.0
 10
76.33263615713213
 20
-154.7874511331781
 30
0.0
 10
76.23755152173922
 20
-154.6458577087344
 30
0.0
 10
76.17622882210178
 20
-154.5400932773372
 30
0.0
 10
76.11697317975548
 20
-154.6648057339033
 30
0.0
 10
76.00259600964519
 20
-154.7412868536758
 30
0.0
 10
75.84171005048402
 20
-154.7412868536758
 30
0.0
 10
75.56679143076109
 20
-154.7412868536758
 30
0.0
 10
75.43139917819076
 20
-154.5421603346284
 30
0.0
 10
75.43139917819076
 20
-154.2672417149054
 30
0.0
 10
75.43139917819076
 20
-153.9837103564693
 30
0.0
 10
75.57540416947421
 20
-153.793196576135
 30
0.0
 10
75.84171005048402
 20
-153.793196576135
 30
0.0
 10
76.00259600964519
 20
-153.793196576135
 30
0.0
 10
76.11697317975548
 20
-153.8717447531987
 30
0.0
 10
76.17622882210178
 20
-153.9964572097648
 30
0.0
 10
76.22687172573495
 20
-153.9075737462453
 30
0.0
 10
76.32195636112785
 20
-153.7490993539238
 30
0.0
 10
76.58447263710389
 20
-153.7490993539238
 30
0.0
 10
76.95895451635054
 20
-153.7490993539238
 30
0.0
 10
77.07505423420346
 20
-154.0281520882291
 30
0.0
 10
77.07505423420346
 20
-154.2672417149054
 30
0.0
  0
SPLINE
  5
1F6
330
1F1
100
AcDbEntity
  8
_U+30EC_U+30A4_U+30E4_U+30FC 1
370
     0
100
AcDbSpline
210
0.0
220
0.0
230
1.0
 70
    11
 71
     3
 72
    17
 73
    13
 74
     0
 42
0.0000000001
 43
0.0000000001
 12
1.0
 22
0.0
 32
0.0
 13
1.0
 23
0.0
 33
0.0
 40
0.0
 40
0.0
 40
0.0
 40
0.0
 40
1.0
 40
1.0
 40
1.0
 40
2.0
 40
2.0
 40
2.0
 40
3.0
 40
3.0
 40
3.0
 40
4.0
 40
4.0
 40
4.0
 40
4.0
 10
75.62398001581623
 20
-154.2672417149054
 30
0.0
 10
75.62398001581623
 20
-154.4322617886489
 30
0.0
 10
75.71906465120912
 20
-154.5166666280375
 30
0.0
 10
75.85445690377945
 20
-154.5166666280375
 30
0.0
 10
75.97710230305434
 20
-154.5166666280375
 30
0.0
 10
76.09561358774694
 20
-154.4450086419443
 30
0.0
 10
76.09561358774694
 20
-154.2672417149054
 30
0.0
 10
76.09561358774694
 20
-154.0894747878665
 30
0.0
 10
75.97710230305434
 20
-154.0178168017733
 30
0.0
 10
75.85445690377945
 20
-154.0178168017733
 30
0.0
 10
75.71906465120912
 20
-154.0178168017733
 30
0.0
 10
75.62398001581623
 20
-154.1042886984531
 30
0.0
 10
75.62398001581623
 20
-154.2672417149054
 30
0.0
  0
SPLINE
  5
1F7
330
1F1
100
AcDbEntity
  8
_U+30EC_U+30A4_U+30E4_U+30FC 1
370
     0
100
AcDbSpline
210
0.0
220
0.0
230
1.0
 70
    11
 71
     3
 72
    17
 73
    13
 74
     0
 42
0.0000000001
 43
0.0000000001
 12
1.0
 22
0.0
 32
0.0
 13
1.0
 23
0.0
 33
0.0
 40
0.0
 40
0.0
 40
0.0
 40
0.0
 40
1.0
 40
1.0
 40
1.0
 40
2.0
 40
2.0
 40
2.0
 40
3.0
 40
3.0
 40
3.0
 40
4.0
 40
4.0
 40
4.0
 40
4.0
 10
76.2840603107901
 20
-154.2672417149054
 30
0.0
 10
76.2840603107901
 20
-154.4112467061888
 30
0.0
 10
76.37087671701839
 20
-154.5635199266369
 30
0.0
 10
76.57379284109962
 20
-154.5635199266369
 30
0.0
 10
76.7791205320205
 20
-154.5635199266369
 30
0.0
 10
76.88040633928685
 20
-154.4363959032312
 30
0.0
 10
76.88040633928685
 20
-154.2672417149054
 30
0.0
 10
76.88040633928685
 20
-154.0812065587019
 30
0.0
 10
76.75776094001195
 20
-153.9709635031739
 30
0.0
 10
76.57999401297306
 20
-153.9709635031739
 30
0.0
 10
76.35812986372297
 20
-153.9709635031739
 30
0.0
 10
76.2840603107901
 20
-154.1339165196262
 30
0.0
 10
76.2840603107901
 20
-154.2672417149054
 30
0.0
  0
HATCH
  5
1F8
330
1F1
100
AcDbEntity
  8
_U+30EC_U+30A4_U+30E4_U+30FC 1
 62
   179
420
  2234388
100
AcDbHatch
 10
0.0
 20
0.0
 30
0.0
210
0.0
220
0.0
230
1.0
  2
SOLID
 70
     1
 71
     0
 91
        3
 92
        1
 93
        1
 72
     4
 94
        3
 73
     0
 74
     1
 95
       29
 96
       25
 40
0.0
 40
0.0
 40
0.0
 40
0.0
 40
1.0
 40
1.0
 40
1.0
 40
2.0
 40
2.0
 40
2.0
 40
3.0
 40
3.0
 40
3.0
 40
4.0
 40
4.0
 40
4.0
 40
5.0
 40
5.0
 40
5.0
 40
6.0
 40
6.0
 40
6.0
 40
7.0
 40
7.0
 40
7.0
 40
8.0
 40
8.0
 40
8.0
 40
8.0
 10
77.07505423420346
 20
-154.2672417149054
 10
77.07505423420346
 20
-154.5338921054638
 10
76.937594924342
 20
-154.7874511331781
 10
76.58860675168619
 20
-154.7874511331781
 10
76.33263615713213
 20
-154.7874511331781
 10
76.23755152173922
 20
-154.6458577087344
 10
76.17622882210178
 20
-154.5400932773372
 10
76.11697317975548
 20
-154.6648057339033
 10
76.00259600964519
 20
-154.7412868536758
 10
75.84171005048402
 20
-154.7412868536758
 10
75.56679143076109
 20
-154.7412868536758
 10
75.43139917819076
 20
-154.5421603346284
 10
75.43139917819076
 20
-154.2672417149054
 10
75.43139917819076
 20
-153.9837103564693
 10
75.57540416947421
 20
-153.793196576135
 10
75.84171005048402
 20
-153.793196576135
 10
76.00259600964519
 20
-153.793196576135
 10
76.11697317975548
 20
-153.8717447531987
 10
76.17622882210178
 20
-153.9964572097648
 10
76.22687172573495
 20
-153.9075737462453
 10
76.32195636112785
 20
-153.7490993539238
 10
76.58447263710389
 20
-153.7490993539238
 10
76.95895451635054
 20
-153.7490993539238
 10
77.07505423420346
 20
-154.0281520882291
 10
77.07505423420346
 20
-154.2672417149054
 97
        0
 97
        0
 92
        1
 93
        1
 72
     4
 94
        3
 73
     0
 74
     1
 95
       17
 96
       13
 40
0.0
 40
0.0
 40
0.0
 40
0.0
 40
1.0
 40
1.0
 40
1.0
 40
2.0
 40
2.0
 40
2.0
 40
3.0
 40
3.0
 40
3.0
 40
4.0
 40
4.0
 40
4.0
 40
4.0
 10
75.62398001581623
 20
-154.2672417149054
 10
75.62398001581623
 20
-154.4322617886489
 10
75.71906465120912
 20
-154.5166666280375
 10
75.85445690377945
 20
-154.5166666280375
 10
75.97710230305434
 20
-154.5166666280375
 10
76.09561358774694
 20
-154.4450086419443
 10
76.09561358774694
 20
-154.2672417149054
 10
76.09561358774694
 20
-154.0894747878665
 10
75.97710230305434
 20
-154.0178168017733
 10
75.85445690377945
 20
-154.0178168017733
 10
75.71906465120912
 20
-154.0178168017733
 10
75.62398001581623
 20
-154.1042886984531
 10
75.62398001581623
 20
-154.2672417149054
 97
        0
 97
        0
 92
        1
 93
        1
 72
     4
 94
        3
 73
     0
 74
     1
 95
       17
 96
       13
 40
0.0
 40
0.0
 40
0.0
 40
0.0
 40
1.0
 40
1.0
 40
1.0
 40
2.0
 40
2.0
 40
2.0
 40
3.0
 40
3.0
 40
3.0
 40
4.0
 40
4.0
 40
4.0
 40
4.0
 10
76.2840603107901
 20
-154.2672417149054
 10
76.2840603107901
 20
-154.4112467061888
 10
76.37087671701839
 20
-154.5635199266369
 10
76.57379284109962
 20
-154.5635199266369
 10
76.7791205320205
 20
-154.5635199266369
 10
76.88040633928685
 20
-154.4363959032312
 10
76.88040633928685
 20
-154.2672417149054
 10
76.88040633928685
 20
-154.0812065587019
 10
76.75776094001195
 20
-153.9709635031739
 10
76.57999401297306
 20
-153.9709635031739
 10
76.35812986372297
 20
-153.9709635031739
 10
76.2840603107901
 20
-154.1339165196262
 10
76.2840603107901
 20
-154.2672417149054
 97
        0
 97
        0
 75
     2
 76
     1
 98
        0
  0
ENDBLK
  5
1F4
330
1F1
100
AcDbEntity
  8
0
100
AcDbBlockEnd
  0
BLOCK
  5
1FB
330
1F9
100
AcDbEntity
  8
0
100
AcDbBlockBegin
  2
block 11
 70
     0
 10
0.0
 20
0.0
 30
0.0
  3
block 11
  1

  0
SPLINE
  5
1FD
330
1F9
100
AcDbEntity
  8
_U+30EC_U+30A4_U+30E4_U+30FC 1
370
     0
100
AcDbSpline
210
0.0
220
0.0
230
1.0
 70
    11
 71
     3
 72
    26
 73
    22
 74
     0
 42
0.0000000001
 43
0.0000000001
 12
1.0
 22
0.0
 32
0.0
 13
1.0
 23
0.0
 33
0.0
 40
0.0
 40
0.0
 40
0.0
 40
0.0
 40
1.0
 40
1.0
 40
1.0
 40
2.0
 40
2.0
 40
2.0
 40
3.0
 40
3.0
 40
3.0
 40
4.0
 40
4.0
 40
4.0
 40
5.0
 40
5.0
 40
5.0
 40
6.0
 40
6.0
 40
6.0
 40
7.0
 40
7.0
 40
7.0
 40
7.0
 10
79.51314830911477
 20
-153.6667615718264
 30
0.0
 10
79.51314830911477
 20
-153.6667615718264
 30
0.0
 10
80.29397920084665
 20
-152.8857584253202
 30
0.0
 10
80.29397920084665
 20
-152.8857584253202
 30
0.0
 10
80.29397920084665
 20
-152.8857584253202
 30
0.0
 10
80.06057398172098
 20
-152.6525254609688
 30
0.0
 10
80.06057398172098
 20
-152.6525254609688
 30
0.0
 10
80.06057398172098
 20
-152.6525254609688
 30
0.0
 10
80.16530488447256
 20
-152.5477945582172
 30
0.0
 10
80.16530488447256
 20
-152.5477945582172
 30
0.0
 10
80.4104234282481
 20
-152.772070274307
 30
0.0
 10
80.55856253411383
 20
-152.6900770017581
 30
0.0
 10
80.66053736047724
 20
-152.6301323403147
 30
0.0
 10
80.66053736047724
 20
-152.6301323403147
 30
0.0
 10
80.76389022503473
 20
-152.7334852048722
 30
0.0
 10
80.76389022503473
 20
-152.7334852048722
 30
0.0
 10
80.76389022503473
 20
-152.7334852048722
 30
0.0
 10
79.67179495621053
 20
-153.8255804736964
 30
0.0
 10
79.67179495621053
 20
-153.8255804736964
 30
0.0
 10
79.67179495621053
 20
-153.8255804736964
 30
0.0
 10
79.51314830911477
 20
-153.6667615718264
 30
0.0
 10
79.51314830911477
 20
-153.6667615718264
 30
0.0
  0
HATCH
  5
1FE
330
1F9
100
AcDbEntity
  8
_U+30EC_U+30A4_U+30E4_U+30FC 1
 62
   179
420
  2234388
100
AcDbHatch
 10
0.0
 20
0.0
 30
0.0
210
0.0
220
0.0
230
1.0
  2
SOLID
 70
     1
 71
     0
 91
        1
 92
        1
 93
        1
 72
     4
 94
        3
 73
     0
 74
     1
 95
       26
 96
       22
 40
0.0
 40
0.0
 40
0.0
 40
0.0
 40
1.0
 40
1.0
 40
1.0
 40
2.0
 40
2.0
 40
2.0
 40
3.0
 40
3.0
 40
3.0
 40
4.0
 40
4.0
 40
4.0
 40
5.0
 40
5.0
 40
5.0
 40
6.0
 40
6.0
 40
6.0
 40
7.0
 40
7.0
 40
7.0
 40
7.0
 10
79.51314830911477
 20
-153.6667615718264
 10
79.51314830911477
 20
-153.6667615718264
 10
80.29397920084665
 20
-152.8857584253202
 10
80.29397920084665
 20
-152.8857584253202
 10
80.29397920084665
 20
-152.8857584253202
 10
80.06057398172098
 20
-152.6525254609688
 10
80.06057398172098
 20
-152.6525254609688
 10
80.06057398172098
 20
-152.6525254609688
 10
80.16530488447256
 20
-152.5477945582172
 10
80.16530488447256
 20
-152.5477945582172
 10
80.4104234282481
 20
-152.772070274307
 10
80.55856253411383
 20
-152.6900770017581
 10
80.66053736047724
 20
-152.6301323403147
 10
80.66053736047724
 20
-152.6301323403147
 10
80.76389022503473
 20
-152.7334852048722
 10
80.76389022503473
 20
-152.7334852048722
 10
80.76389022503473
 20
-152.7334852048722
 10
79.67179495621053
 20
-153.8255804736964
 10
79.67179495621053
 20
-153.8255804736964
 10
79.67179495621053
 20
-153.8255804736964
 10
79.51314830911477
 20
-153.6667615718264
 10
79.51314830911477
 20
-153.6667615718264
 97
        0
 97
        0
 75
     2
 76
     1
 98
        0
  0
SPLINE
  5
1FF
330
1F9
100
AcDbEntity
  8
_U+30EC_U+30A4_U+30E4_U+30FC 1
370
     0
100
AcDbSpline
210
0.0
220
0.0
230
1.0
 70
    11
 71
     3
 72
    26
 73
    22
 74
     0
 42
0.0000000001
 43
0.0000000001
 12
1.0
 22
0.0
 32
0.0
 13
1.0
 23
0.0
 33
0.0
 40
0.0
 40
0.0
 40
0.0
 40
0.0
 40
1.0
 40
1.0
 40
1.0
 40
2.0
 40
2.0
 40
2.0
 40
3.0
 40
3.0
 40
3.0
 40
4.0
 40
4.0
 40
4.0
 40
5.0
 40
5.0
 40
5.0
 40
6.0
 40
6.0
 40
6.0
 40
7.0
 40
7.0
 40
7.0
 40
7.0
 10
80.34531112357688
 20
-154.4987521315142
 30
0.0
 10
80.34531112357688
 20
-154.4987521315142
 30
0.0
 10
81.12614201530874
 20
-153.7180934945566
 30
0.0
 10
81.12614201530874
 20
-153.7180934945566
 30
0.0
 10
81.12614201530874
 20
-153.7180934945566
 30
0.0
 10
80.89273679618307
 20
-153.4845160206567
 30
0.0
 10
80.89273679618307
 20
-153.4845160206567
 30
0.0
 10
80.89273679618307
 20
-153.4845160206567
 30
0.0
 10
80.99746769893467
 20
-153.3797851179051
 30
0.0
 10
80.99746769893467
 20
-153.3797851179051
 30
0.0
 10
81.24258624271019
 20
-153.6044053435434
 30
0.0
 10
81.39072534857593
 20
-153.5220675614459
 30
0.0
 10
81.49270017493933
 20
-153.4621229000025
 30
0.0
 10
81.49270017493933
 20
-153.4621229000025
 30
0.0
 10
81.59605303949682
 20
-153.56547576456
 30
0.0
 10
81.59605303949682
 20
-153.56547576456
 30
0.0
 10
81.59605303949682
 20
-153.56547576456
 30
0.0
 10
80.50395777067263
 20
-154.6575710333842
 30
0.0
 10
80.50395777067263
 20
-154.6575710333842
 30
0.0
 10
80.50395777067263
 20
-154.6575710333842
 30
0.0
 10
80.34531112357688
 20
-154.4987521315142
 30
0.0
 10
80.34531112357688
 20
-154.4987521315142
 30
0.0
  0
HATCH
  5
200
330
1F9
100
AcDbEntity
  8
_U+30EC_U+30A4_U+30E4_U+30FC 1
 62
   179
420
  2234388
100
AcDbHatch
 10
0.0
 20
0.0
 30
0.0
210
0.0
220
0.0
230
1.0
  2
SOLID
 70
     1
 71
     0
 91
        1
 92
        1
 93
        1
 72
     4
 94
        3
 73
     0
 74
     1
 95
       26
 96
       22
 40
0.0
 40
0.0
 40
0.0
 40
0.0
 40
1.0
 40
1.0
 40
1.0
 40
2.0
 40
2.0
 40
2.0
 40
3.0
 40
3.0
 40
3.0
 40
4.0
 40
4.0
 40
4.0
 40
5.0
 40
5.0
 40
5.0
 40
6.0
 40
6.0
 40
6.0
 40
7.0
 40
7.0
 40
7.0
 40
7.0
 10
80.34531112357688
 20
-154.4987521315142
 10
80.34531112357688
 20
-154.4987521315142
 10
81.12614201530874
 20
-153.7180934945566
 10
81.12614201530874
 20
-153.7180934945566
 10
81.12614201530874
 20
-153.7180934945566
 10
80.89273679618307
 20
-153.4845160206567
 10
80.89273679618307
 20
-153.4845160206567
 10
80.89273679618307
 20
-153.4845160206567
 10
80.99746769893467
 20
-153.3797851179051
 10
80.99746769893467
 20
-153.3797851179051
 10
81.24258624271019
 20
-153.6044053435434
 10
81.39072534857593
 20
-153.5220675614459
 10
81.49270017493933
 20
-153.4621229000025
 10
81.49270017493933
 20
-153.4621229000025
 10
81.59605303949682
 20
-153.56547576456
 10
81.59605303949682
 20
-153.56547576456
 10
81.59605303949682
 20
-153.56547576456
 10
80.50395777067263
 20
-154.6575710333842
 10
80.50395777067263
 20
-154.6575710333842
 10
80.50395777067263
 20
-154.6575710333842
 10
80.34531112357688
 20
-154.4987521315142
 10
80.34531112357688
 20
-154.4987521315142
 97
        0
 97
        0
 75
     2
 76
     1
 98
        0
  0
ENDBLK
  5
1FC
330
1F9
100
AcDbEntity
  8
0
100
AcDbBlockEnd
  0
BLOCK
  5
203
330
201
100
AcDbEntity
  8
0
100
AcDbBlockBegin
  2
block 12
 70
     0
 10
0.0
 20
0.0
 30
0.0
  3
block 12
  1

  0
SPLINE
  5
205
330
201
100
AcDbEntity
  8
_U+30EC_U+30A4_U+30E4_U+30FC 1
370
     0
100
AcDbSpline
210
0.0
220
0.0
230
1.0
 70
    11
 71
     3
 72
    26
 73
    22
 74
     0
 42
0.0000000001
 43
0.0000000001
 12
1.0
 22
0.0
 32
0.0
 13
1.0
 23
0.0
 33
0.0
 40
0.0
 40
0.0
 40
0.0
 40
0.0
 40
1.0
 40
1.0
 40
1.0
 40
2.0
 40
2.0
 40
2.0
 40
3.0
 40
3.0
 40
3.0
 40
4.0
 40
4.0
 40
4.0
 40
5.0
 40
5.0
 40
5.0
 40
6.0
 40
6.0
 40
6.0
 40
7.0
 40
7.0
 40
7.0
 40
7.0
 10
77.02441133057029
 20
-143.0600015918392
 30
0.0
 10
77.02441133057029
 20
-143.0600015918392
 30
0.0
 10
75.92025822754772
 20
-143.0600015918392
 30
0.0
 10
75.92025822754772
 20
-143.0600015918392
 30
0.0
 10
75.92025822754772
 20
-143.0600015918392
 30
0.0
 10
75.92025822754772
 20
-143.3900417393261
 30
0.0
 10
75.92025822754772
 20
-143.3900417393261
 30
0.0
 10
75.92025822754772
 20
-143.3900417393261
 30
0.0
 10
75.77211912168197
 20
-143.3900417393261
 30
0.0
 10
75.77211912168197
 20
-143.3900417393261
 30
0.0
 10
75.7573052110954
 20
-143.057934534548
 30
0.0
 10
75.59435219464308
 20
-143.0114257454971
 30
0.0
 10
75.47997502453279
 20
-142.981797924324
 30
0.0
 10
75.47997502453279
 20
-142.981797924324
 30
0.0
 10
75.47997502453279
 20
-142.8357258757494
 30
0.0
 10
75.47997502453279
 20
-142.8357258757494
 30
0.0
 10
75.47997502453279
 20
-142.8357258757494
 30
0.0
 10
77.02441133057029
 20
-142.8357258757494
 30
0.0
 10
77.02441133057029
 20
-142.8357258757494
 30
0.0
 10
77.02441133057029
 20
-142.8357258757494
 30
0.0
 10
77.02441133057029
 20
-143.0600015918392
 30
0.0
 10
77.02441133057029
 20
-143.0600015918392
 30
0.0
  0
HATCH
  5
206
330
201
100
AcDbEntity
  8
_U+30EC_U+30A4_U+30E4_U+30FC 1
 62
   179
420
  2234388
100
AcDbHatch
 10
0.0
 20
0.0
 30
0.0
210
0.0
220
0.0
230
1.0
  2
SOLID
 70
     1
 71
     0
 91
        1
 92
        1
 93
        1
 72
     4
 94
        3
 73
     0
 74
     1
 95
       26
 96
       22
 40
0.0
 40
0.0
 40
0.0
 40
0.0
 40
1.0
 40
1.0
 40
1.0
 40
2.0
 40
2.0
 40
2.0
 40
3.0
 40
3.0
 40
3.0
 40
4.0
 40
4.0
 40
4.0
 40
5.0
 40
5.0
 40
5.0
 40
6.0
 40
6.0
 40
6.0
 40
7.0
 40
7.0
 40
7.0
 40
7.0
 10
77.02441133057029
 20
-143.0600015918392
 10
77.02441133057029
 20
-143.0600015918392
 10
75.92025822754772
 20
-143.0600015918392
 10
75.92025822754772
 20
-143.0600015918392
 10
75.92025822754772
 20
-143.0600015918392
 10
75.92025822754772
 20
-143.3900417393261
 10
75.92025822754772
 20
-143.3900417393261
 10
75.92025822754772
 20
-143.3900417393261
 10
75.77211912168197
 20
-143.3900417393261
 10
75.77211912168197
 20
-143.3900417393261
 10
75.7573052110954
 20
-143.057934534548
 10
75.59435219464308
 20
-143.0114257454971
 10
75.47997502453279
 20
-142.981797924324
 10
75.47997502453279
 20
-142.981797924324
 10
75.47997502453279
 20
-142.8357258757494
 10
75.47997502453279
 20
-142.8357258757494
 10
75.47997502453279
 20
-142.8357258757494
 10
77.02441133057029
 20
-142.8357258757494
 10
77.02441133057029
 20
-142.8357258757494
 10
77.02441133057029
 20
-142.8357258757494
 10
77.02441133057029
 20
-143.0600015918392
 10
77.02441133057029
 20
-143.0600015918392
 97
        0
 97
        0
 75
     2
 76
     1
 98
        0
  0
SPLINE
  5
207
330
201
100
AcDbEntity
  8
_U+30EC_U+30A4_U+30E4_U+30FC 1
370
     0
100
AcDbSpline
210
0.0
220
0.0
230
1.0
 70
    11
 71
     3
 72
    44
 73
    40
 74
     0
 42
0.0000000001
 43
0.0000000001
 12
1.0
 22
0.0
 32
0.0
 13
1.0
 23
0.0
 33
0.0
 40
0.0
 40
0.0
 40
0.0
 40
0.0
 40
1.0
 40
1.0
 40
1.0
 40
2.0
 40
2.0
 40
2.0
 40
3.0
 40
3.0
 40
3.0
 40
4.0
 40
4.0
 40
4.0
 40
5.0
 40
5.0
 40
5.0
 40
6.0
 40
6.0
 40
6.0
 40
7.0
 40
7.0
 40
7.0
 40
8.0
 40
8.0
 40
8.0
 40
9.0
 40
9.0
 40
9.0
 40
10.0
 40
10.0
 40
10.0
 40
11.0
 40
11.0
 40
11.0
 40
12.0
 40
12.0
 40
12.0
 40
13.0
 40
13.0
 40
13.0
 40
13.0
 10
76.44253470311159
 20
-141.7415635496341
 30
0.0
 10
76.60135360498161
 20
-141.9592935843019
 30
0.0
 10
76.67542315791448
 20
-142.0523111624036
 30
0.0
 10
76.8190836396494
 20
-142.1012315182942
 30
0.0
 10
76.8190836396494
 20
-142.1012315182942
 30
0.0
 10
76.8190836396494
 20
-141.3226399386277
 30
0.0
 10
76.8190836396494
 20
-141.3226399386277
 30
0.0
 10
76.8190836396494
 20
-141.3226399386277
 30
0.0
 10
77.02441133057029
 20
-141.3226399386277
 30
0.0
 10
77.02441133057029
 20
-141.3226399386277
 30
0.0
 10
77.02441133057029
 20
-141.3226399386277
 30
0.0
 10
77.02441133057029
 20
-142.3506564314262
 30
0.0
 10
77.02441133057029
 20
-142.3506564314262
 30
0.0
 10
76.66681041920135
 20
-142.3189615529619
 30
0.0
 10
76.58860675168619
 20
-142.2535047387422
 30
0.0
 10
76.29026148266355
 20
-141.8683430634913
 30
0.0
 10
76.09147947316464
 20
-141.6123724689372
 30
0.0
 10
76.02361109210521
 20
-141.5469156547175
 30
0.0
 10
75.88615178224374
 20
-141.5469156547175
 30
0.0
 10
75.76764049755116
 20
-141.5469156547175
 30
0.0
 10
75.63672686911165
 20
-141.6189181503592
 30
0.0
 10
75.63672686911165
 20
-141.8152885930184
 30
0.0
 10
75.63672686911165
 20
-142.0757378117033
 30
0.0
 10
75.86720375707488
 20
-142.0840060408679
 30
0.0
 10
75.98364798447632
 20
-142.0884846649987
 30
0.0
 10
75.98364798447632
 20
-142.0884846649987
 30
0.0
 10
75.98364798447632
 20
-142.3127603810885
 30
0.0
 10
75.98364798447632
 20
-142.3127603810885
 30
0.0
 10
75.8565239610706
 20
-142.3041476423754
 30
0.0
 10
75.74455835779997
 20
-142.2934678463711
 30
0.0
 10
75.62604707310739
 20
-142.2131971215648
 30
0.0
 10
75.46516111394621
 20
-142.1032985755853
 30
0.0
 10
75.43139917819076
 20
-141.9172634193818
 30
0.0
 10
75.43139917819076
 20
-141.8008191919804
 30
0.0
 10
75.43139917819076
 20
-141.5234890054178
 30
0.0
 10
75.6153672771031
 20
-141.3164387667542
 30
0.0
 10
75.88821883953489
 20
-141.3164387667542
 30
0.0
 10
76.11697317975548
 20
-141.3164387667542
 30
0.0
 10
76.21619192973068
 20
-141.4325384846071
 30
0.0
 10
76.44253470311159
 20
-141.7415635496341
 30
0.0
  0
HATCH
  5
208
330
201
100
AcDbEntity
  8
_U+30EC_U+30A4_U+30E4_U+30FC 1
 62
   179
420
  2234388
100
AcDbHatch
 10
0.0
 20
0.0
 30
0.0
210
0.0
220
0.0
230
1.0
  2
SOLID
 70
     1
 71
     0
 91
        1
 92
        1
 93
        1
 72
     4
 94
        3
 73
     0
 74
     1
 95
       44
 96
       40
 40
0.0
 40
0.0
 40
0.0
 40
0.0
 40
1.0
 40
1.0
 40
1.0
 40
2.0
 40
2.0
 40
2.0
 40
3.0
 40
3.0
 40
3.0
 40
4.0
 40
4.0
 40
4.0
 40
5.0
 40
5.0
 40
5.0
 40
6.0
 40
6.0
 40
6.0
 40
7.0
 40
7.0
 40
7.0
 40
8.0
 40
8.0
 40
8.0
 40
9.0
 40
9.0
 40
9.0
 40
10.0
 40
10.0
 40
10.0
 40
11.0
 40
11.0
 40
11.0
 40
12.0
 40
12.0
 40
12.0
 40
13.0
 40
13.0
 40
13.0
 40
13.0
 10
76.44253470311159
 20
-141.7415635496341
 10
76.60135360498161
 20
-141.9592935843019
 10
76.67542315791448
 20
-142.0523111624036
 10
76.8190836396494
 20
-142.1012315182942
 10
76.8190836396494
 20
-142.1012315182942
 10
76.8190836396494
 20
-141.3226399386277
 10
76.8190836396494
 20
-141.3226399386277
 10
76.8190836396494
 20
-141.3226399386277
 10
77.02441133057029
 20
-141.3226399386277
 10
77.02441133057029
 20
-141.3226399386277
 10
77.02441133057029
 20
-141.3226399386277
 10
77.02441133057029
 20
-142.3506564314262
 10
77.02441133057029
 20
-142.3506564314262
 10
76.66681041920135
 20
-142.3189615529619
 10
76.58860675168619
 20
-142.2535047387422
 10
76.29026148266355
 20
-141.8683430634913
 10
76.09147947316464
 20
-141.6123724689372
 10
76.02361109210521
 20
-141.5469156547175
 10
75.88615178224374
 20
-141.5469156547175
 10
75.76764049755116
 20
-141.5469156547175
 10
75.63672686911165
 20
-141.6189181503592
 10
75.63672686911165
 20
-141.8152885930184
 10
75.63672686911165
 20
-142.0757378117033
 10
75.86720375707488
 20
-142.0840060408679
 10
75.98364798447632
 20
-142.0884846649987
 10
75.98364798447632
 20
-142.0884846649987
 10
75.98364798447632
 20
-142.3127603810885
 10
75.98364798447632
 20
-142.3127603810885
 10
75.8565239610706
 20
-142.3041476423754
 10
75.74455835779997
 20
-142.2934678463711
 10
75.62604707310739
 20
-142.2131971215648
 10
75.46516111394621
 20
-142.1032985755853
 10
75.43139917819076
 20
-141.9172634193818
 10
75.43139917819076
 20
-141.8008191919804
 10
75.43139917819076
 20
-141.5234890054178
 10
75.6153672771031
 20
-141.3164387667542
 10
75.88821883953489
 20
-141.3164387667542
 10
76.11697317975548
 20
-141.3164387667542
 10
76.21619192973068
 20
-141.4325384846071
 10
76.44253470311159
 20
-141.7415635496341
 97
        0
 97
        0
 75
     2
 76
     1
 98
        0
  0
ENDBLK
  5
204
330
201
100
AcDbEntity
  8
0
100
AcDbBlockEnd
  0
ENDSEC
  0
SECTION
  2
ENTITIES
  0
POLYLINE
  5
41
330
1F
100
AcDbEntity
  8
_U+30EC_U+30A4_U+30E4_U+30FC 1
370
     0
100
AcDb2dPolyline
 66
     1
 10
0.0
 20
0.0
 30
0.0
  0
VERTEX
  5
42
330
41
100
AcDbEntity
  8
_U+30EC_U+30A4_U+30E4_U+30FC 1
370
     0
100
AcDbVertex
100
AcDb2dVertex
 10
81.50270653180384
 20
-137.4227841323113
 30
0.0
  0
VERTEX
  5
43
330
41
100
AcDbEntity
  8
_U+30EC_U+30A4_U+30E4_U+30FC 1
370
     0
100
AcDbVertex
100
AcDb2dVertex
 10
79.50280936060324
 20
-137.4227841323113
 30
0.0
  0
VERTEX
  5
44
330
41
100
AcDbEntity
  8
_U+30EC_U+30A4_U+30E4_U+30FC 1
370
     0
100
AcDbVertex
100
AcDb2dVertex
 10
79.50280936060324
 20
-142.4226682977278
 30
0.0
  0
VERTEX
  5
45
330
41
100
AcDbEntity
  8
_U+30EC_U+30A4_U+30E4_U+30FC 1
370
     0
100
AcDbVertex
100
AcDb2dVertex
 10
91.50275683223686
 20
-142.4226682977278
 30
0.0
  0
VERTEX
  5
46
330
41
100
AcDbEntity
  8
_U+30EC_U+30A4_U+30E4_U+30FC 1
370
     0
100
AcDbVertex
100
AcDb2dVertex
 10
91.50275683223686
 20
-129.4229483009779
 30
0.0
  0
VERTEX
  5
47
330
41
100
AcDbEntity
  8
_U+30EC_U+30A4_U+30E4_U+30FC 1
370
     0
100
AcDbVertex
100
AcDb2dVertex
 10
92.00264293059482
 20
-128.5061846900958
 30
0.0
  0
VERTEX
  5
48
330
41
100
AcDbEntity
  8
_U+30EC_U+30A4_U+30E4_U+30FC 1
370
     0
100
AcDbVertex
100
AcDb2dVertex
 10
91.50275683223686
 20
-127.5894563569916
 30
0.0
  0
VERTEX
  5
49
330
41
100
AcDbEntity
  8
_U+30EC_U+30A4_U+30E4_U+30FC 1
370
     0
100
AcDbVertex
100
AcDb2dVertex
 10
92.00264293059482
 20
-126.6730455238872
 30
0.0
  0
VERTEX
  5
4A
330
41
100
AcDbEntity
  8
_U+30EC_U+30A4_U+30E4_U+30FC 1
370
     0
100
AcDbVertex
100
AcDb2dVertex
 10
91.50275683223686
 20
-125.7559644130056
 30
0.0
  0
VERTEX
  5
4B
330
41
100
AcDbEntity
  8
_U+30EC_U+30A4_U+30E4_U+30FC 1
370
     0
100
AcDbVertex
100
AcDb2dVertex
 10
92.00264293059482
 20
-124.8395888576791
 30
0.0
  0
VERTEX
  5
4C
330
41
100
AcDbEntity
  8
_U+30EC_U+30A4_U+30E4_U+30FC 1
370
     0
100
AcDbVertex
100
AcDb2dVertex
 10
91.50275683223686
 20
-123.922825246797
 30
0.0
  0
VERTEX
  5
4D
330
41
100
AcDbEntity
  8
_U+30EC_U+30A4_U+30E4_U+30FC 1
370
     0
100
AcDbVertex
100
AcDb2dVertex
 10
92.00264293059482
 20
-123.0060969136931
 30
0.0
  0
VERTEX
  5
4E
330
41
100
AcDbEntity
  8
_U+30EC_U+30A4_U+30E4_U+30FC 1
370
     0
100
AcDbVertex
100
AcDb2dVertex
 10
91.50275683223686
 20
-122.0897213583666
 30
0.0
  0
VERTEX
  5
4F
330
41
100
AcDbEntity
  8
_U+30EC_U+30A4_U+30E4_U+30FC 1
370
     0
100
AcDbVertex
100
AcDb2dVertex
 10
92.00264293059482
 20
-121.1726049697067
 30
0.0
  0
VERTEX
  5
50
330
41
100
AcDbEntity
  8
_U+30EC_U+30A4_U+30E4_U+30FC 1
370
     0
100
AcDbVertex
100
AcDb2dVertex
 10
91.50275683223686
 20
-120.2562294143803
 30
0.0
  0
VERTEX
  5
51
330
41
100
AcDbEntity
  8
_U+30EC_U+30A4_U+30E4_U+30FC 1
370
     0
100
AcDbVertex
100
AcDb2dVertex
 10
92.00264293059482
 20
-119.3395010812763
 30
0.0
  0
VERTEX
  5
52
330
41
100
AcDbEntity
  8
_U+30EC_U+30A4_U+30E4_U+30FC 1
370
     0
100
AcDbVertex
100
AcDb2dVertex
 10
91.50275683223686
 20
-118.4227374703943
 30
0.0
  0
VERTEX
  5
53
330
41
100
AcDbEntity
  8
_U+30EC_U+30A4_U+30E4_U+30FC 1
370
     0
100
AcDbVertex
100
AcDb2dVertex
 10
92.00264293059482
 20
-117.5060091372903
 30
0.0
  0
VERTEX
  5
54
330
41
100
AcDbEntity
  8
_U+30EC_U+30A4_U+30E4_U+30FC 1
370
     0
100
AcDbVertex
100
AcDb2dVertex
 10
91.50275683223686
 20
-116.589598304186
 30
0.0
  0
VERTEX
  5
55
330
41
100
AcDbEntity
  8
_U+30EC_U+30A4_U+30E4_U+30FC 1
370
     0
100
AcDbVertex
100
AcDb2dVertex
 10
92.00264293059482
 20
-115.6728699710818
 30
0.0
  0
VERTEX
  5
56
330
41
100
AcDbEntity
  8
_U+30EC_U+30A4_U+30E4_U+30FC 1
370
     0
100
AcDbVertex
100
AcDb2dVertex
 10
91.50275683223686
 20
-114.7561416379775
 30
0.0
  0
VERTEX
  5
57
330
41
100
AcDbEntity
  8
_U+30EC_U+30A4_U+30E4_U+30FC 1
370
     0
100
AcDbVertex
100
AcDb2dVertex
 10
92.00264293059482
 20
-113.8397308048735
 30
0.0
  0
VERTEX
  5
58
330
41
100
AcDbEntity
  8
_U+30EC_U+30A4_U+30E4_U+30FC 1
370
     0
100
AcDbVertex
100
AcDb2dVertex
 10
91.50275683223686
 20
-112.9226496939915
 30
0.0
  0
VERTEX
  5
59
330
41
100
AcDbEntity
  8
_U+30EC_U+30A4_U+30E4_U+30FC 1
370
     0
100
AcDbVertex
100
AcDb2dVertex
 10
92.00264293059482
 20
-112.0062388608872
 30
0.0
  0
VERTEX
  5
5A
330
41
100
AcDbEntity
  8
_U+30EC_U+30A4_U+30E4_U+30FC 1
370
     0
100
AcDbVertex
100
AcDb2dVertex
 10
91.50275683223686
 20
-111.0895105277833
 30
0.0
  0
VERTEX
  5
5B
330
41
100
AcDbEntity
  8
_U+30EC_U+30A4_U+30E4_U+30FC 1
370
     0
100
AcDbVertex
100
AcDb2dVertex
 10
92.00264293059482
 20
-110.172782194679
 30
0.0
  0
VERTEX
  5
5C
330
41
100
AcDbEntity
  8
_U+30EC_U+30A4_U+30E4_U+30FC 1
370
     0
100
AcDbVertex
100
AcDb2dVertex
 10
91.50275683223686
 20
-109.2563713615747
 30
0.0
  0
VERTEX
  5
5D
330
41
100
AcDbEntity
  8
_U+30EC_U+30A4_U+30E4_U+30FC 1
370
     0
100
AcDbVertex
100
AcDb2dVertex
 10
92.00264293059482
 20
-108.339290250693
 30
0.0
  0
VERTEX
  5
5E
330
41
100
AcDbEntity
  8
_U+30EC_U+30A4_U+30E4_U+30FC 1
370
     0
100
AcDbVertex
100
AcDb2dVertex
 10
91.50275683223686
 20
-107.4229146953665
 30
0.0
  0
VERTEX
  5
5F
330
41
100
AcDbEntity
  8
_U+30EC_U+30A4_U+30E4_U+30FC 1
370
     0
100
AcDbVertex
100
AcDb2dVertex
 10
91.50275683223686
 20
-103.4228027519222
 30
0.0
  0
VERTEX
  5
60
330
41
100
AcDbEntity
  8
_U+30EC_U+30A4_U+30E4_U+30FC 1
370
     0
100
AcDbVertex
100
AcDb2dVertex
 10
92.50288180672155
 20
-103.4228027519222
 30
0.0
  0
VERTEX
  5
61
330
41
100
AcDbEntity
  8
_U+30EC_U+30A4_U+30E4_U+30FC 1
370
     0
100
AcDbVertex
100
AcDb2dVertex
 10
92.50288180672155
 20
-143.4227580196999
 30
0.0
  0
VERTEX
  5
62
330
41
100
AcDbEntity
  8
_U+30EC_U+30A4_U+30E4_U+30FC 1
370
     0
100
AcDbVertex
100
AcDb2dVertex
 10
79.50280936060324
 20
-143.4227580196999
 30
0.0
  0
VERTEX
  5
63
330
41
100
AcDbEntity
  8
_U+30EC_U+30A4_U+30E4_U+30FC 1
370
     0
100
AcDbVertex
100
AcDb2dVertex
 10
79.50280936060324
 20
-148.0085516296643
 30
0.0
  0
VERTEX
  5
64
330
41
100
AcDbEntity
  8
_U+30EC_U+30A4_U+30E4_U+30FC 1
370
     0
100
AcDbVertex
100
AcDb2dVertex
 10
86.91699861589596
 20
-155.4227410722555
 30
0.0
  0
VERTEX
  5
65
330
41
100
AcDbEntity
  8
_U+30EC_U+30A4_U+30E4_U+30FC 1
370
     0
100
AcDbVertex
100
AcDb2dVertex
 10
97.50273056805366
 20
-155.4227410722555
 30
0.0
  0
VERTEX
  5
66
330
41
100
AcDbEntity
  8
_U+30EC_U+30A4_U+30E4_U+30FC 1
370
     0
100
AcDbVertex
100
AcDb2dVertex
 10
97.50273056805366
 20
-153.4228438505333
 30
0.0
  0
VERTEX
  5
67
330
41
100
AcDbEntity
  8
_U+30EC_U+30A4_U+30E4_U+30FC 1
370
     0
100
AcDbVertex
100
AcDb2dVertex
 10
98.50285554253836
 20
-153.4228438505333
 30
0.0
  0
VERTEX
  5
68
330
41
100
AcDbEntity
  8
_U+30EC_U+30A4_U+30E4_U+30FC 1
370
     0
100
AcDbVertex
100
AcDb2dVertex
 10
98.50285554253836
 20
-156.4228307942276
 30
0.0
  0
VERTEX
  5
69
330
41
100
AcDbEntity
  8
_U+30EC_U+30A4_U+30E4_U+30FC 1
370
     0
100
AcDbVertex
100
AcDb2dVertex
 10
86.50290807090474
 20
-156.4228307942276
 30
0.0
  0
VERTEX
  5
6A
330
41
100
AcDbEntity
  8
_U+30EC_U+30A4_U+30E4_U+30FC 1
370
     0
100
AcDbVertex
100
AcDb2dVertex
 10
78.50268438611856
 20
-148.4229949628943
 30
0.0
  0
VERTEX
  5
6B
330
41
100
AcDbEntity
  8
_U+30EC_U+30A4_U+30E4_U+30FC 1
370
     0
100
AcDbVertex
100
AcDb2dVertex
 10
78.50268438611856
 20
-136.4226944103385
 30
0.0
  0
VERTEX
  5
6C
330
41
100
AcDbEntity
  8
_U+30EC_U+30A4_U+30E4_U+30FC 1
370
     0
100
AcDbVertex
100
AcDb2dVertex
 10
81.50270653180384
 20
-136.4226944103385
 30
0.0
  0
VERTEX
  5
6D
330
41
100
AcDbEntity
  8
_U+30EC_U+30A4_U+30E4_U+30FC 1
370
     0
100
AcDbVertex
100
AcDb2dVertex
 10
81.50270653180384
 20
-137.4227841323113
 30
0.0
  0
SEQEND
  5
6F
330
41
100
AcDbEntity
  8
_U+30EC_U+30A4_U+30E4_U+30FC 1
370
     0
  0
HATCH
  5
6E
330
1F
100
AcDbEntity
  8
_U+30EC_U+30A4_U+30E4_U+30FC 1
 62
   253
420
 11711154
100
AcDbHatch
 10
0.0
 20
0.0
 30
0.0
210
0.0
220
0.0
230
1.0
  2
SOLID
 70
     1
 71
     0
 91
        1
 92
        1
 93
       43
 72
     1
 10
81.50270653180384
 20
-137.4227841323113
 11
79.50280936060324
 21
-137.4227841323113
 72
     1
 10
79.50280936060324
 20
-137.4227841323113
 11
79.50280936060324
 21
-142.4226682977278
 72
     1
 10
79.50280936060324
 20
-142.4226682977278
 11
91.50275683223686
 21
-142.4226682977278
 72
     1
 10
91.50275683223686
 20
-142.4226682977278
 11
91.50275683223686
 21
-129.4229483009779
 72
     1
 10
91.50275683223686
 20
-129.4229483009779
 11
92.00264293059482
 21
-128.5061846900958
 72
     1
 10
92.00264293059482
 20
-128.5061846900958
 11
91.50275683223686
 21
-127.5894563569916
 72
     1
 10
91.50275683223686
 20
-127.5894563569916
 11
92.00264293059482
 21
-126.6730455238872
 72
     1
 10
92.00264293059482
 20
-126.6730455238872
 11
91.50275683223686
 21
-125.7559644130056
 72
     1
 10
91.50275683223686
 20
-125.7559644130056
 11
92.00264293059482
 21
-124.8395888576791
 72
     1
 10
92.00264293059482
 20
-124.8395888576791
 11
91.50275683223686
 21
-123.922825246797
 72
     1
 10
91.50275683223686
 20
-123.922825246797
 11
92.00264293059482
 21
-123.0060969136931
 72
     1
 10
92.00264293059482
 20
-123.0060969136931
 11
91.50275683223686
 21
-122.0897213583666
 72
     1
 10
91.50275683223686
 20
-122.0897213583666
 11
92.00264293059482
 21
-121.1726049697067
 72
     1
 10
92.00264293059482
 20
-121.1726049697067
 11
91.50275683223686
 21
-120.2562294143803
 72
     1
 10
91.50275683223686
 20
-120.2562294143803
 11
92.00264293059482
 21
-119.3395010812763
 72
     1
 10
92.00264293059482
 20
-119.3395010812763
 11
91.50275683223686
 21
-118.4227374703943
 72
     1
 10
91.50275683223686
 20
-118.4227374703943
 11
92.00264293059482
 21
-117.5060091372903
 72
     1
 10
92.00264293059482
 20
-117.5060091372903
 11
91.50275683223686
 21
-116.589598304186
 72
     1
 10
91.50275683223686
 20
-116.589598304186
 11
92.00264293059482
 21
-115.6728699710818
 72
     1
 10
92.00264293059482
 20
-115.6728699710818
 11
91.50275683223686
 21
-114.7561416379775
 72
     1
 10
91.50275683223686
 20
-114.7561416379775
 11
92.00264293059482
 21
-113.8397308048735
 72
     1
 10
92.00264293059482
 20
-113.8397308048735
 11
91.50275683223686
 21
-112.9226496939915
 72
     1
 10
91.50275683223686
 20
-112.9226496939915
 11
92.00264293059482
 21
-112.0062388608872
 72
     1
 10
92.00264293059482
 20
-112.0062388608872
 11
91.50275683223686
 21
-111.0895105277833
 72
     1
 10
91.50275683223686
 20
-111.0895105277833
 11
92.00264293059482
 21
-110.172782194679
 72
     1
 10
92.00264293059482
 20
-110.172782194679
 11
91.50275683223686
 21
-109.2563713615747
 72
     1
 10
91.50275683223686
 20
-109.2563713615747
 11
92.00264293059482
 21
-108.339290250693
 72
     1
 10
92.00264293059482
 20
-108.339290250693
 11
91.50275683223686
 21
-107.4229146953665
 72
     1
 10
91.50275683223686
 20
-107.4229146953665
 11
91.50275683223686
 21
-103.4228027519222
 72
     1
 10
91.50275683223686
 20
-103.4228027519222
 11
92.50288180672155
 21
-103.4228027519222
 72
     1
 10
92.50288180672155
 20
-103.4228027519222
 11
92.50288180672155
 21
-143.4227580196999
 72
     1
 10
92.50288180672155
 20
-143.4227580196999
 11
79.50280936060324
 21
-143.4227580196999
 72
     1
 10
79.50280936060324
 20
-143.4227580196999
 11
79.50280936060324
 21
-148.0085516296643
 72
     1
 10
79.50280936060324
 20
-148.0085516296643
 11
86.91699861589596
 21
-155.4227410722555
 72
     1
 10
86.91699861589596
 20
-155.4227410722555
 11
97.50273056805366
 21
-155.4227410722555
 72
     1
 10
97.50273056805366
 20
-155.4227410722555
 11
97.50273056805366
 21
-153.4228438505333
 72
     1
 10
97.50273056805366
 20
-153.4228438505333
 11
98.50285554253836
 21
-153.4228438505333
 72
     1
 10
98.50285554253836
 20
-153.4228438505333
 11
98.50285554253836
 21
-156.4228307942276
 72
     1
 10
98.50285554253836
 20
-156.4228307942276
 11
86.50290807090474
 21
-156.4228307942276
 72
     1
 10
86.50290807090474
 20
-156.4228307942276
 11
78.50268438611856
 21
-148.4229949628943
 72
     1
 10
78.50268438611856
 20
-148.4229949628943
 11
78.50268438611856
 21
-136.4226944103385
 72
     1
 10
78.50268438611856
 20
-136.4226944103385
 11
81.50270653180384
 21
-136.4226944103385
 72
     1
 10
81.50270653180384
 20
-136.4226944103385
 11
81.50270653180384
 21
-137.4227841323113
 97
        0
 75
     2
 76
     1
 98
        0
  0
POLYLINE
  5
70
330
1F
100
AcDbEntity
  8
_U+30EC_U+30A4_U+30E4_U+30FC 1
 62
   179
420
  2234388
370
    25
100
AcDb2dPolyline
 66
     1
 10
0.0
 20
0.0
 30
0.0
  0
VERTEX
  5
71
330
70
100
AcDbEntity
  8
_U+30EC_U+30A4_U+30E4_U+30FC 1
 62
   179
420
  2234388
370
    25
100
AcDbVertex
100
AcDb2dVertex
 10
92.50288180672155
 20
-103.4228027519222
 30
0.0
  0
VERTEX
  5
72
330
70
100
AcDbEntity
  8
_U+30EC_U+30A4_U+30E4_U+30FC 1
 62
   179
420
  2234388
370
    25
100
AcDbVertex
100
AcDb2dVertex
 10
91.50275683223686
 20
-103.4228027519222
 30
0.0
  0
SEQEND
  5
73
330
70
100
AcDbEntity
  8
_U+30EC_U+30A4_U+30E4_U+30FC 1
 62
   179
420
  2234388
370
    25
  0
POLYLINE
  5
74
330
1F
100
AcDbEntity
  8
_U+30EC_U+30A4_U+30E4_U+30FC 1
 62
   179
420
  2234388
370
    25
100
AcDb2dPolyline
 66
     1
 10
0.0
 20
0.0
 30
0.0
  0
VERTEX
  5
75
330
74
100
AcDbEntity
  8
_U+30EC_U+30A4_U+30E4_U+30FC 1
 62
   179
420
  2234388
370
    25
100
AcDbVertex
100
AcDb2dVertex
 10
92.50288180672155
 20
-103.4228027519222
 30
0.0
  0
VERTEX
  5
76
330
74
100
AcDbEntity
  8
_U+30EC_U+30A4_U+30E4_U+30FC 1
 62
   179
420
  2234388
370
    25
100
AcDbVertex
100
AcDb2dVertex
 10
92.50288180672155
 20
-143.4227580196999
 30
0.0
  0
SEQEND
  5
77
330
74
100
AcDbEntity
  8
_U+30EC_U+30A4_U+30E4_U+30FC 1
 62
   179
420
  2234388
370
    25
  0
POLYLINE
  5
78
330
1F
100
AcDbEntity
  8
_U+30EC_U+30A4_U+30E4_U+30FC 1
 62
   179
420
  2234388
370
    25
100
AcDb2dPolyline
 66
     1
 10
0.0
 20
0.0
 30
0.0
  0
VERTEX
  5
79
330
78
100
AcDbEntity
  8
_U+30EC_U+30A4_U+30E4_U+30FC 1
 62
   179
420
  2234388
370
    25
100
AcDbVertex
100
AcDb2dVertex
 10
91.50275683223686
 20
-103.4228027519222
 30
0.0
  0
VERTEX
  5
7A
330
78
100
AcDbEntity
  8
_U+30EC_U+30A4_U+30E4_U+30FC 1
 62
   179
420
  2234388
370
    25
100
AcDbVertex
100
AcDb2dVertex
 10
91.50275683223686
 20
-107.4229146953665
 30
0.0
  0
SEQEND
  5
7B
330
78
100
AcDbEntity
  8
_U+30EC_U+30A4_U+30E4_U+30FC 1
 62
   179
420
  2234388
370
    25
  0
POLYLINE
  5
7C
330
1F
100
AcDbEntity
  8
_U+30EC_U+30A4_U+30E4_U+30FC 1
 62
   179
420
  2234388
370
    25
100
AcDb2dPolyline
 66
     1
 10
0.0
 20
0.0
 30
0.0
  0
VERTEX
  5
7D
330
7C
100
AcDbEntity
  8
_U+30EC_U+30A4_U+30E4_U+30FC 1
 62
   179
420
  2234388
370
    25
100
AcDbVertex
100
AcDb2dVertex
 10
92.50288180672155
 20
-143.4227580196999
 30
0.0
  0
VERTEX
  5
7E
330
7C
100
AcDbEntity
  8
_U+30EC_U+30A4_U+30E4_U+30FC 1
 62
   179
420
  2234388
370
    25
100
AcDbVertex
100
AcDb2dVertex
 10
79.50280936060324
 20
-143.4227580196999
 30
0.0
  0
SEQEND
  5
7F
330
7C
100
AcDbEntity
  8
_U+30EC_U+30A4_U+30E4_U+30FC 1
 62
   179
420
  2234388
370
    25
  0
POLYLINE
  5
80
330
1F
100
AcDbEntity
  8
_U+30EC_U+30A4_U+30E4_U+30FC 1
 62
   179
420
  2234388
370
    25
100
AcDb2dPolyline
 66
     1
 10
0.0
 20
0.0
 30
0.0
  0
VERTEX
  5
81
330
80
100
AcDbEntity
  8
_U+30EC_U+30A4_U+30E4_U+30FC 1
 62
   179
420
  2234388
370
    25
100
AcDbVertex
100
AcDb2dVertex
 10
98.50285554253836
 20
-153.4228438505333
 30
0.0
  0
VERTEX
  5
82
330
80
100
AcDbEntity
  8
_U+30EC_U+30A4_U+30E4_U+30FC 1
 62
   179
420
  2234388
370
    25
100
AcDbVertex
100
AcDb2dVertex
 10
97.50273056805366
 20
-153.4228438505333
 30
0.0
  0
SEQEND
  5
83
330
80
100
AcDbEntity
  8
_U+30EC_U+30A4_U+30E4_U+30FC 1
 62
   179
420
  2234388
370
    25
  0
POLYLINE
  5
84
330
1F
100
AcDbEntity
  8
_U+30EC_U+30A4_U+30E4_U+30FC 1
 62
   179
420
  2234388
370
    25
100
AcDb2dPolyline
 66
     1
 10
0.0
 20
0.0
 30
0.0
  0
VERTEX
  5
85
330
84
100
AcDbEntity
  8
_U+30EC_U+30A4_U+30E4_U+30FC 1
 62
   179
420
  2234388
370
    25
100
AcDbVertex
100
AcDb2dVertex
 10
98.50285554253836
 20
-156.4228307942276
 30
0.0
  0
VERTEX
  5
86
330
84
100
AcDbEntity
  8
_U+30EC_U+30A4_U+30E4_U+30FC 1
 62
   179
420
  2234388
370
    25
100
AcDbVertex
100
AcDb2dVertex
 10
86.50290807090474
 20
-156.4228307942276
 30
0.0
  0
SEQEND
  5
87
330
84
100
AcDbEntity
  8
_U+30EC_U+30A4_U+30E4_U+30FC 1
 62
   179
420
  2234388
370
    25
  0
POLYLINE
  5
88
330
1F
100
AcDbEntity
  8
_U+30EC_U+30A4_U+30E4_U+30FC 1
 62
   179
420
  2234388
370
    25
100
AcDb2dPolyline
 66
     1
 10
0.0
 20
0.0
 30
0.0
  0
VERTEX
  5
89
330
88
100
AcDbEntity
  8
_U+30EC_U+30A4_U+30E4_U+30FC 1
 62
   179
420
  2234388
370
    25
100
AcDbVertex
100
AcDb2dVertex
 10
78.50268438611856
 20
-136.4226944103385
 30
0.0
  0
VERTEX
  5
8A
330
88
100
AcDbEntity
  8
_U+30EC_U+30A4_U+30E4_U+30FC 1
 62
   179
420
  2234388
370
    25
100
AcDbVertex
100
AcDb2dVertex
 10
78.50268438611856
 20
-148.4229949628943
 30
0.0
  0
SEQEND
  5
8B
330
88
100
AcDbEntity
  8
_U+30EC_U+30A4_U+30E4_U+30FC 1
 62
   179
420
  2234388
370
    25
  0
POLYLINE
  5
8C
330
1F
100
AcDbEntity
  8
_U+30EC_U+30A4_U+30E4_U+30FC 1
 62
   179
420
  2234388
370
    25
100
AcDb2dPolyline
 66
     1
 10
0.0
 20
0.0
 30
0.0
  0
VERTEX
  5
8D
330
8C
100
AcDbEntity
  8
_U+30EC_U+30A4_U+30E4_U+30FC 1
 62
   179
420
  2234388
370
    25
100
AcDbVertex
100
AcDb2dVertex
 10
91.50275683223686
 20
-142.4226682977278
 30
0.0
  0
VERTEX
  5
8E
330
8C
100
AcDbEntity
  8
_U+30EC_U+30A4_U+30E4_U+30FC 1
 62
   179
420
  2234388
370
    25
100
AcDbVertex
100
AcDb2dVertex
 10
79.50280936060324
 20
-142.4226682977278
 30
0.0
  0
SEQEND
  5
8F
330
8C
100
AcDbEntity
  8
_U+30EC_U+30A4_U+30E4_U+30FC 1
 62
   179
420
  2234388
370
    25
  0
POLYLINE
  5
90
330
1F
100
AcDbEntity
  8
_U+30EC_U+30A4_U+30E4_U+30FC 1
 62
   179
420
  2234388
370
    25
100
AcDb2dPolyline
 66
     1
 10
0.0
 20
0.0
 30
0.0
  0
VERTEX
  5
91
330
90
100
AcDbEntity
  8
_U+30EC_U+30A4_U+30E4_U+30FC 1
 62
   179
420
  2234388
370
    25
100
AcDbVertex
100
AcDb2dVertex
 10
81.50270653180384
 20
-136.4226944103385
 30
0.0
  0
VERTEX
  5
92
330
90
100
AcDbEntity
  8
_U+30EC_U+30A4_U+30E4_U+30FC 1
 62
   179
420
  2234388
370
    25
100
AcDbVertex
100
AcDb2dVertex
 10
81.50270653180384
 20
-137.4227841323113
 30
0.0
  0
SEQEND
  5
93
330
90
100
AcDbEntity
  8
_U+30EC_U+30A4_U+30E4_U+30FC 1
 62
   179
420
  2234388
370
    25
  0
POLYLINE
  5
94
330
1F
100
AcDbEntity
  8
_U+30EC_U+30A4_U+30E4_U+30FC 1
 62
   179
420
  2234388
370
    25
100
AcDb2dPolyline
 66
     1
 10
0.0
 20
0.0
 30
0.0
  0
VERTEX
  5
95
330
94
100
AcDbEntity
  8
_U+30EC_U+30A4_U+30E4_U+30FC 1
 62
   179
420
  2234388
370
    25
100
AcDbVertex
100
AcDb2dVertex
 10
79.50280936060324
 20
-137.4227841323113
 30
0.0
  0
VERTEX
  5
96
330
94
100
AcDbEntity
  8
_U+30EC_U+30A4_U+30E4_U+30FC 1
 62
   179
420
  2234388
370
    25
100
AcDbVertex
100
AcDb2dVertex
 10
79.50280936060324
 20
-142.4226682977278
 30
0.0
  0
SEQEND
  5
97
330
94
100
AcDbEntity
  8
_U+30EC_U+30A4_U+30E4_U+30FC 1
 62
   179
420
  2234388
370
    25
  0
POLYLINE
  5
98
330
1F
100
AcDbEntity
  8
_U+30EC_U+30A4_U+30E4_U+30FC 1
 62
   179
420
  2234388
370
    25
100
AcDb2dPolyline
 66
     1
 10
0.0
 20
0.0
 30
0.0
  0
VERTEX
  5
99
330
98
100
AcDbEntity
  8
_U+30EC_U+30A4_U+30E4_U+30FC 1
 62
   179
420
  2234388
370
    25
100
AcDbVertex
100
AcDb2dVertex
 10
81.50270653180384
 20
-136.4226944103385
 30
0.0
  0
VERTEX
  5
9A
330
98
100
AcDbEntity
  8
_U+30EC_U+30A4_U+30E4_U+30FC 1
 62
   179
420
  2234388
370
    25
100
AcDbVertex
100
AcDb2dVertex
 10
78.50268438611856
 20
-136.4226944103385
 30
0.0
  0
SEQEND
  5
9B
330
98
100
AcDbEntity
  8
_U+30EC_U+30A4_U+30E4_U+30FC 1
 62
   179
420
  2234388
370
    25
  0
POLYLINE
  5
9C
330
1F
100
AcDbEntity
  8
_U+30EC_U+30A4_U+30E4_U+30FC 1
 62
   179
420
  2234388
370
    25
100
AcDb2dPolyline
 66
     1
 10
0.0
 20
0.0
 30
0.0
  0
VERTEX
  5
9D
330
9C
100
AcDbEntity
  8
_U+30EC_U+30A4_U+30E4_U+30FC 1
 62
   179
420
  2234388
370
    25
100
AcDbVertex
100
AcDb2dVertex
 10
81.50270653180384
 20
-137.4227841323113
 30
0.0
  0
VERTEX
  5
9E
330
9C
100
AcDbEntity
  8
_U+30EC_U+30A4_U+30E4_U+30FC 1
 62
   179
420
  2234388
370
    25
100
AcDbVertex
100
AcDb2dVertex
 10
79.50280936060324
 20
-137.4227841323113
 30
0.0
  0
SEQEND
  5
9F
330
9C
100
AcDbEntity
  8
_U+30EC_U+30A4_U+30E4_U+30FC 1
 62
   179
420
  2234388
370
    25
  0
POLYLINE
  5
A0
330
1F
100
AcDbEntity
  8
_U+30EC_U+30A4_U+30E4_U+30FC 1
 62
   179
420
  2234388
370
    25
100
AcDb2dPolyline
 66
     1
 10
0.0
 20
0.0
 30
0.0
  0
VERTEX
  5
A1
330
A0
100
AcDbEntity
  8
_U+30EC_U+30A4_U+30E4_U+30FC 1
 62
   179
420
  2234388
370
    25
100
AcDbVertex
100
AcDb2dVertex
 10
79.50280936060324
 20
-143.4227580196999
 30
0.0
  0
VERTEX
  5
A2
330
A0
100
AcDbEntity
  8
_U+30EC_U+30A4_U+30E4_U+30FC 1
 62
   179
420
  2234388
370
    25
100
AcDbVertex
100
AcDb2dVertex
 10
79.50280936060324
 20
-148.0085516296643
 30
0.0
  0
SEQEND
  5
A3
330
A0
100
AcDbEntity
  8
_U+30EC_U+30A4_U+30E4_U+30FC 1
 62
   179
420
  2234388
370
    25
  0
POLYLINE
  5
A4
330
1F
100
AcDbEntity
  8
_U+30EC_U+30A4_U+30E4_U+30FC 1
 62
   179
420
  2234388
370
    25
100
AcDb2dPolyline
 66
     1
 10
0.0
 20
0.0
 30
0.0
  0
VERTEX
  5
A5
330
A4
100
AcDbEntity
  8
_U+30EC_U+30A4_U+30E4_U+30FC 1
 62
   179
420
  2234388
370
    25
100
AcDbVertex
100
AcDb2dVertex
 10
98.50285554253836
 20
-153.4228438505333
 30
0.0
  0
VERTEX
  5
A6
330
A4
100
AcDbEntity
  8
_U+30EC_U+30A4_U+30E4_U+30FC 1
 62
   179
420
  2234388
370
    25
100
AcDbVertex
100
AcDb2dVertex
 10
98.50285554253836
 20
-156.4228307942276
 30
0.0
  0
SEQEND
  5
A7
330
A4
100
AcDbEntity
  8
_U+30EC_U+30A4_U+30E4_U+30FC 1
 62
   179
420
  2234388
370
    25
  0
POLYLINE
  5
A8
330
1F
100
AcDbEntity
  8
_U+30EC_U+30A4_U+30E4_U+30FC 1
 62
   179
420
  2234388
370
    25
100
AcDb2dPolyline
 66
     1
 10
0.0
 20
0.0
 30
0.0
  0
VERTEX
  5
A9
330
A8
100
AcDbEntity
  8
_U+30EC_U+30A4_U+30E4_U+30FC 1
 62
   179
420
  2234388
370
    25
100
AcDbVertex
100
AcDb2dVertex
 10
97.50273056805366
 20
-153.4228438505333
 30
0.0
  0
VERTEX
  5
AA
330
A8
100
AcDbEntity
  8
_U+30EC_U+30A4_U+30E4_U+30FC 1
 62
   179
420
  2234388
370
    25
100
AcDbVertex
100
AcDb2dVertex
 10
97.50273056805366
 20
-155.4227410722555
 30
0.0
  0
SEQEND
  5
AB
330
A8
100
AcDbEntity
  8
_U+30EC_U+30A4_U+30E4_U+30FC 1
 62
   179
420
  2234388
370
    25
  0
POLYLINE
  5
AC
330
1F
100
AcDbEntity
  8
_U+30EC_U+30A4_U+30E4_U+30FC 1
 62
   179
420
  2234388
370
    25
100
AcDb2dPolyline
 66
     1
 10
0.0
 20
0.0
 30
0.0
  0
VERTEX
  5
AD
330
AC
100
AcDbEntity
  8
_U+30EC_U+30A4_U+30E4_U+30FC 1
 62
   179
420
  2234388
370
    25
100
AcDbVertex
100
AcDb2dVertex
 10
97.50273056805366
 20
-155.4227410722555
 30
0.0
  0
VERTEX
  5
AE
330
AC
100
AcDbEntity
  8
_U+30EC_U+30A4_U+30E4_U+30FC 1
 62
   179
420
  2234388
370
    25
100
AcDbVertex
100
AcDb2dVertex
 10
86.91699861589596
 20
-155.4227410722555
 30
0.0
  0
SEQEND
  5
AF
330
AC
100
AcDbEntity
  8
_U+30EC_U+30A4_U+30E4_U+30FC 1
 62
   179
420
  2234388
370
    25
  0
POLYLINE
  5
B0
330
1F
100
AcDbEntity
  8
_U+30EC_U+30A4_U+30E4_U+30FC 1
 62
   179
420
  2234388
370
    25
100
AcDb2dPolyline
 66
     1
 10
0.0
 20
0.0
 30
0.0
  0
VERTEX
  5
B1
330
B0
100
AcDbEntity
  8
_U+30EC_U+30A4_U+30E4_U+30FC 1
 62
   179
420
  2234388
370
    25
100
AcDbVertex
100
AcDb2dVertex
 10
86.50290807090474
 20
-156.4228307942276
 30
0.0
  0
VERTEX
  5
B2
330
B0
100
AcDbEntity
  8
_U+30EC_U+30A4_U+30E4_U+30FC 1
 62
   179
420
  2234388
370
    25
100
AcDbVertex
100
AcDb2dVertex
 10
78.50268438611856
 20
-148.4229949628943
 30
0.0
  0
SEQEND
  5
B3
330
B0
100
AcDbEntity
  8
_U+30EC_U+30A4_U+30E4_U+30FC 1
 62
   179
420
  2234388
370
    25
  0
POLYLINE
  5
B4
330
1F
100
AcDbEntity
  8
_U+30EC_U+30A4_U+30E4_U+30FC 1
 62
   179
420
  2234388
370
    25
100
AcDb2dPolyline
 66
     1
 10
0.0
 20
0.0
 30
0.0
  0
VERTEX
  5
B5
330
B4
100
AcDbEntity
  8
_U+30EC_U+30A4_U+30E4_U+30FC 1
 62
   179
420
  2234388
370
    25
100
AcDbVertex
100
AcDb2dVertex
 10
86.91699861589596
 20
-155.4227410722555
 30
0.0
  0
VERTEX
  5
B6
330
B4
100
AcDbEntity
  8
_U+30EC_U+30A4_U+30E4_U+30FC 1
 62
   179
420
  2234388
370
    25
100
AcDbVertex
100
AcDb2dVertex
 10
79.50280936060324
 20
-148.0085516296643
 30
0.0
  0
SEQEND
  5
B7
330
B4
100
AcDbEntity
  8
_U+30EC_U+30A4_U+30E4_U+30FC 1
 62
   179
420
  2234388
370
    25
  0
POLYLINE
  5
B8
330
1F
100
AcDbEntity
  8
_U+30EC_U+30A4_U+30E4_U+30FC 1
 62
   179
420
  2234388
370
    25
100
AcDb2dPolyline
 66
     1
 10
0.0
 20
0.0
 30
0.0
  0
VERTEX
  5
B9
330
B8
100
AcDbEntity
  8
_U+30EC_U+30A4_U+30E4_U+30FC 1
 62
   179
420
  2234388
370
    25
100
AcDbVertex
100
AcDb2dVertex
 10
91.50275683223686
 20
-107.4229146953665
 30
0.0
  0
VERTEX
  5
BA
330
B8
100
AcDbEntity
  8
_U+30EC_U+30A4_U+30E4_U+30FC 1
 62
   179
420
  2234388
370
    25
100
AcDbVertex
100
AcDb2dVertex
 10
92.00264293059482
 20
-108.339290250693
 30
0.0
  0
SEQEND
  5
BB
330
B8
100
AcDbEntity
  8
_U+30EC_U+30A4_U+30E4_U+30FC 1
 62
   179
420
  2234388
370
    25
  0
POLYLINE
  5
BC
330
1F
100
AcDbEntity
  8
_U+30EC_U+30A4_U+30E4_U+30FC 1
 62
   179
420
  2234388
370
    25
100
AcDb2dPolyline
 66
     1
 10
0.0
 20
0.0
 30
0.0
  0
VERTEX
  5
BD
330
BC
100
AcDbEntity
  8
_U+30EC_U+30A4_U+30E4_U+30FC 1
 62
   179
420
  2234388
370
    25
100
AcDbVertex
100
AcDb2dVertex
 10
92.00264293059482
 20
-108.339290250693
 30
0.0
  0
VERTEX
  5
BE
330
BC
100
AcDbEntity
  8
_U+30EC_U+30A4_U+30E4_U+30FC 1
 62
   179
420
  2234388
370
    25
100
AcDbVertex
100
AcDb2dVertex
 10
91.50275683223686
 20
-109.2563713615747
 30
0.0
  0
SEQEND
  5
BF
330
BC
100
AcDbEntity
  8
_U+30EC_U+30A4_U+30E4_U+30FC 1
 62
   179
420
  2234388
370
    25
  0
POLYLINE
  5
C0
330
1F
100
AcDbEntity
  8
_U+30EC_U+30A4_U+30E4_U+30FC 1
 62
   179
420
  2234388
370
    25
100
AcDb2dPolyline
 66
     1
 10
0.0
 20
0.0
 30
0.0
  0
VERTEX
  5
C1
330
C0
100
AcDbEntity
  8
_U+30EC_U+30A4_U+30E4_U+30FC 1
 62
   179
420
  2234388
370
    25
100
AcDbVertex
100
AcDb2dVertex
 10
92.00264293059482
 20
-110.172782194679
 30
0.0
  0
VERTEX
  5
C2
330
C0
100
AcDbEntity
  8
_U+30EC_U+30A4_U+30E4_U+30FC 1
 62
   179
420
  2234388
370
    25
100
AcDbVertex
100
AcDb2dVertex
 10
91.50275683223686
 20
-111.0895105277833
 30
0.0
  0
SEQEND
  5
C3
330
C0
100
AcDbEntity
  8
_U+30EC_U+30A4_U+30E4_U+30FC 1
 62
   179
420
  2234388
370
    25
  0
POLYLINE
  5
C4
330
1F
100
AcDbEntity
  8
_U+30EC_U+30A4_U+30E4_U+30FC 1
 62
   179
420
  2234388
370
    25
100
AcDb2dPolyline
 66
     1
 10
0.0
 20
0.0
 30
0.0
  0
VERTEX
  5
C5
330
C4
100
AcDbEntity
  8
_U+30EC_U+30A4_U+30E4_U+30FC 1
 62
   179
420
  2234388
370
    25
100
AcDbVertex
100
AcDb2dVertex
 10
91.50275683223686
 20
-109.2563713615747
 30
0.0
  0
VERTEX
  5
C6
330
C4
100
AcDbEntity
  8
_U+30EC_U+30A4_U+30E4_U+30FC 1
 62
   179
420
  2234388
370
    25
100
AcDbVertex
100
AcDb2dVertex
 10
92.00264293059482
 20
-110.172782194679
 30
0.0
  0
SEQEND
  5
C7
330
C4
100
AcDbEntity
  8
_U+30EC_U+30A4_U+30E4_U+30FC 1
 62
   179
420
  2234388
370
    25
  0
POLYLINE
  5
C8
330
1F
100
AcDbEntity
  8
_U+30EC_U+30A4_U+30E4_U+30FC 1
 62
   179
420
  2234388
370
    25
100
AcDb2dPolyline
 66
     1
 10
0.0
 20
0.0
 30
0.0
  0
VERTEX
  5
C9
330
C8
100
AcDbEntity
  8
_U+30EC_U+30A4_U+30E4_U+30FC 1
 62
   179
420
  2234388
370
    25
100
AcDbVertex
100
AcDb2dVertex
 10
91.50275683223686
 20
-111.0895105277833
 30
0.0
  0
VERTEX
  5
CA
330
C8
100
AcDbEntity
  8
_U+30EC_U+30A4_U+30E4_U+30FC 1
 62
   179
420
  2234388
370
    25
100
AcDbVertex
100
AcDb2dVertex
 10
92.00264293059482
 20
-112.0062388608872
 30
0.0
  0
SEQEND
  5
CB
330
C8
100
AcDbEntity
  8
_U+30EC_U+30A4_U+30E4_U+30FC 1
 62
   179
420
  2234388
370
    25
  0
POLYLINE
  5
CC
330
1F
100
AcDbEntity
  8
_U+30EC_U+30A4_U+30E4_U+30FC 1
 62
   179
420
  2234388
370
    25
100
AcDb2dPolyline
 66
     1
 10
0.0
 20
0.0
 30
0.0
  0
VERTEX
  5
CD
330
CC
100
AcDbEntity
  8
_U+30EC_U+30A4_U+30E4_U+30FC 1
 62
   179
420
  2234388
370
    25
100
AcDbVertex
100
AcDb2dVertex
 10
92.00264293059482
 20
-112.0062388608872
 30
0.0
  0
VERTEX
  5
CE
330
CC
100
AcDbEntity
  8
_U+30EC_U+30A4_U+30E4_U+30FC 1
 62
   179
420
  2234388
370
    25
100
AcDbVertex
100
AcDb2dVertex
 10
91.50275683223686
 20
-112.9226496939915
 30
0.0
  0
SEQEND
  5
CF
330
CC
100
AcDbEntity
  8
_U+30EC_U+30A4_U+30E4_U+30FC 1
 62
   179
420
  2234388
370
    25
  0
POLYLINE
  5
D0
330
1F
100
AcDbEntity
  8
_U+30EC_U+30A4_U+30E4_U+30FC 1
 62
   179
420
  2234388
370
    25
100
AcDb2dPolyline
 66
     1
 10
0.0
 20
0.0
 30
0.0
  0
VERTEX
  5
D1
330
D0
100
AcDbEntity
  8
_U+30EC_U+30A4_U+30E4_U+30FC 1
 62
   179
420
  2234388
370
    25
100
AcDbVertex
100
AcDb2dVertex
 10
92.00264293059482
 20
-113.8397308048735
 30
0.0
  0
VERTEX
  5
D2
330
D0
100
AcDbEntity
  8
_U+30EC_U+30A4_U+30E4_U+30FC 1
 62
   179
420
  2234388
370
    25
100
AcDbVertex
100
AcDb2dVertex
 10
91.50275683223686
 20
-114.7561416379775
 30
0.0
  0
SEQEND
  5
D3
330
D0
100
AcDbEntity
  8
_U+30EC_U+30A4_U+30E4_U+30FC 1
 62
   179
420
  2234388
370
    25
  0
POLYLINE
  5
D4
330
1F
100
AcDbEntity
  8
_U+30EC_U+30A4_U+30E4_U+30FC 1
 62
   179
420
  2234388
370
    25
100
AcDb2dPolyline
 66
     1
 10
0.0
 20
0.0
 30
0.0
  0
VERTEX
  5
D5
330
D4
100
AcDbEntity
  8
_U+30EC_U+30A4_U+30E4_U+30FC 1
 62
   179
420
  2234388
370
    25
100
AcDbVertex
100
AcDb2dVertex
 10
91.50275683223686
 20
-112.9226496939915
 30
0.0
  0
VERTEX
  5
D6
330
D4
100
AcDbEntity
  8
_U+30EC_U+30A4_U+30E4_U+30FC 1
 62
   179
420
  2234388
370
    25
100
AcDbVertex
100
AcDb2dVertex
 10
92.00264293059482
 20
-113.8397308048735
 30
0.0
  0
SEQEND
  5
D7
330
D4
100
AcDbEntity
  8
_U+30EC_U+30A4_U+30E4_U+30FC 1
 62
   179
420
  2234388
370
    25
  0
POLYLINE
  5
D8
330
1F
100
AcDbEntity
  8
_U+30EC_U+30A4_U+30E4_U+30FC 1
 62
   179
420
  2234388
370
    25
100
AcDb2dPolyline
 66
     1
 10
0.0
 20
0.0
 30
0.0
  0
VERTEX
  5
D9
330
D8
100
AcDbEntity
  8
_U+30EC_U+30A4_U+30E4_U+30FC 1
 62
   179
420
  2234388
370
    25
100
AcDbVertex
100
AcDb2dVertex
 10
91.50275683223686
 20
-114.7561416379775
 30
0.0
  0
VERTEX
  5
DA
330
D8
100
AcDbEntity
  8
_U+30EC_U+30A4_U+30E4_U+30FC 1
 62
   179
420
  2234388
370
    25
100
AcDbVertex
100
AcDb2dVertex
 10
92.00264293059482
 20
-115.6728699710818
 30
0.0
  0
SEQEND
  5
DB
330
D8
100
AcDbEntity
  8
_U+30EC_U+30A4_U+30E4_U+30FC 1
 62
   179
420
  2234388
370
    25
  0
POLYLINE
  5
DC
330
1F
100
AcDbEntity
  8
_U+30EC_U+30A4_U+30E4_U+30FC 1
 62
   179
420
  2234388
370
    25
100
AcDb2dPolyline
 66
     1
 10
0.0
 20
0.0
 30
0.0
  0
VERTEX
  5
DD
330
DC
100
AcDbEntity
  8
_U+30EC_U+30A4_U+30E4_U+30FC 1
 62
   179
420
  2234388
370
    25
100
AcDbVertex
100
AcDb2dVertex
 10
92.00264293059482
 20
-115.6728699710818
 30
0.0
  0
VERTEX
  5
DE
330
DC
100
AcDbEntity
  8
_U+30EC_U+30A4_U+30E4_U+30FC 1
 62
   179
420
  2234388
370
    25
100
AcDbVertex
100
AcDb2dVertex
 10
91.50275683223686
 20
-116.589598304186
 30
0.0
  0
SEQEND
  5
DF
330
DC
100
AcDbEntity
  8
_U+30EC_U+30A4_U+30E4_U+30FC 1
 62
   179
420
  2234388
370
    25
  0
POLYLINE
  5
E0
330
1F
100
AcDbEntity
  8
_U+30EC_U+30A4_U+30E4_U+30FC 1
 62
   179
420
  2234388
370
    25
100
AcDb2dPolyline
 66
     1
 10
0.0
 20
0.0
 30
0.0
  0
VERTEX
  5
E1
330
E0
100
AcDbEntity
  8
_U+30EC_U+30A4_U+30E4_U+30FC 1
 62
   179
420
  2234388
370
    25
100
AcDbVertex
100
AcDb2dVertex
 10
92.00264293059482
 20
-117.5060091372903
 30
0.0
  0
VERTEX
  5
E2
330
E0
100
AcDbEntity
  8
_U+30EC_U+30A4_U+30E4_U+30FC 1
 62
   179
420
  2234388
370
    25
100
AcDbVertex
100
AcDb2dVertex
 10
91.50275683223686
 20
-118.4227374703943
 30
0.0
  0
SEQEND
  5
E3
330
E0
100
AcDbEntity
  8
_U+30EC_U+30A4_U+30E4_U+30FC 1
 62
   179
420
  2234388
370
    25
  0
POLYLINE
  5
E4
330
1F
100
AcDbEntity
  8
_U+30EC_U+30A4_U+30E4_U+30FC 1
 62
   179
420
  2234388
370
    25
100
AcDb2dPolyline
 66
     1
 10
0.0
 20
0.0
 30
0.0
  0
VERTEX
  5
E5
330
E4
100
AcDbEntity
  8
_U+30EC_U+30A4_U+30E4_U+30FC 1
 62
   179
420
  2234388
370
    25
100
AcDbVertex
100
AcDb2dVertex
 10
91.50275683223686
 20
-116.589598304186
 30
0.0
  0
VERTEX
  5
E6
330
E4
100
AcDbEntity
  8
_U+30EC_U+30A4_U+30E4_U+30FC 1
 62
   179
420
  2234388
370
    25
100
AcDbVertex
100
AcDb2dVertex
 10
92.00264293059482
 20
-117.5060091372903
 30
0.0
  0
SEQEND
  5
E7
330
E4
100
AcDbEntity
  8
_U+30EC_U+30A4_U+30E4_U+30FC 1
 62
   179
420
  2234388
370
    25
  0
POLYLINE
  5
E8
330
1F
100
AcDbEntity
  8
_U+30EC_U+30A4_U+30E4_U+30FC 1
 62
   179
420
  2234388
370
    25
100
AcDb2dPolyline
 66
     1
 10
0.0
 20
0.0
 30
0.0
  0
VERTEX
  5
E9
330
E8
100
AcDbEntity
  8
_U+30EC_U+30A4_U+30E4_U+30FC 1
 62
   179
420
  2234388
370
    25
100
AcDbVertex
100
AcDb2dVertex
 10
91.50275683223686
 20
-118.4227374703943
 30
0.0
  0
VERTEX
  5
EA
330
E8
100
AcDbEntity
  8
_U+30EC_U+30A4_U+30E4_U+30FC 1
 62
   179
420
  2234388
370
    25
100
AcDbVertex
100
AcDb2dVertex
 10
92.00264293059482
 20
-119.3395010812763
 30
0.0
  0
SEQEND
  5
EB
330
E8
100
AcDbEntity
  8
_U+30EC_U+30A4_U+30E4_U+30FC 1
 62
   179
420
  2234388
370
    25
  0
POLYLINE
  5
EC
330
1F
100
AcDbEntity
  8
_U+30EC_U+30A4_U+30E4_U+30FC 1
 62
   179
420
  2234388
370
    25
100
AcDb2dPolyline
 66
     1
 10
0.0
 20
0.0
 30
0.0
  0
VERTEX
  5
ED
330
EC
100
AcDbEntity
  8
_U+30EC_U+30A4_U+30E4_U+30FC 1
 62
   179
420
  2234388
370
    25
100
AcDbVertex
100
AcDb2dVertex
 10
92.00264293059482
 20
-119.3395010812763
 30
0.0
  0
VERTEX
  5
EE
330
EC
100
AcDbEntity
  8
_U+30EC_U+30A4_U+30E4_U+30FC 1
 62
   179
420
  2234388
370
    25
100
AcDbVertex
100
AcDb2dVertex
 10
91.50275683223686
 20
-120.2562294143803
 30
0.0
  0
SEQEND
  5
EF
330
EC
100
AcDbEntity
  8
_U+30EC_U+30A4_U+30E4_U+30FC 1
 62
   179
420
  2234388
370
    25
  0
POLYLINE
  5
F0
330
1F
100
AcDbEntity
  8
_U+30EC_U+30A4_U+30E4_U+30FC 1
 62
   179
420
  2234388
370
    25
100
AcDb2dPolyline
 66
     1
 10
0.0
 20
0.0
 30
0.0
  0
VERTEX
  5
F1
330
F0
100
AcDbEntity
  8
_U+30EC_U+30A4_U+30E4_U+30FC 1
 62
   179
420
  2234388
370
    25
100
AcDbVertex
100
AcDb2dVertex
 10
92.00264293059482
 20
-121.1726049697067
 30
0.0
  0
VERTEX
  5
F2
330
F0
100
AcDbEntity
  8
_U+30EC_U+30A4_U+30E4_U+30FC 1
 62
   179
420
  2234388
370
    25
100
AcDbVertex
100
AcDb2dVertex
 10
91.50275683223686
 20
-122.0897213583666
 30
0.0
  0
SEQEND
  5
F3
330
F0
100
AcDbEntity
  8
_U+30EC_U+30A4_U+30E4_U+30FC 1
 62
   179
420
  2234388
370
    25
  0
POLYLINE
  5
F4
330
1F
100
AcDbEntity
  8
_U+30EC_U+30A4_U+30E4_U+30FC 1
 62
   179
420
  2234388
370
    25
100
AcDb2dPolyline
 66
     1
 10
0.0
 20
0.0
 30
0.0
  0
VERTEX
  5
F5
330
F4
100
AcDbEntity
  8
_U+30EC_U+30A4_U+30E4_U+30FC 1
 62
   179
420
  2234388
370
    25
100
AcDbVertex
100
AcDb2dVertex
 10
91.50275683223686
 20
-120.2562294143803
 30
0.0
  0
VERTEX
  5
F6
330
F4
100
AcDbEntity
  8
_U+30EC_U+30A4_U+30E4_U+30FC 1
 62
   179
420
  2234388
370
    25
100
AcDbVertex
100
AcDb2dVertex
 10
92.00264293059482
 20
-121.1726049697067
 30
0.0
  0
SEQEND
  5
F7
330
F4
100
AcDbEntity
  8
_U+30EC_U+30A4_U+30E4_U+30FC 1
 62
   179
420
  2234388
370
    25
  0
POLYLINE
  5
F8
330
1F
100
AcDbEntity
  8
_U+30EC_U+30A4_U+30E4_U+30FC 1
 62
   179
420
  2234388
370
    25
100
AcDb2dPolyline
 66
     1
 10
0.0
 20
0.0
 30
0.0
  0
VERTEX
  5
F9
330
F8
100
AcDbEntity
  8
_U+30EC_U+30A4_U+30E4_U+30FC 1
 62
   179
420
  2234388
370
    25
100
AcDbVertex
100
AcDb2dVertex
 10
91.50275683223686
 20
-122.0897213583666
 30
0.0
  0
VERTEX
  5
FA
330
F8
100
AcDbEntity
  8
_U+30EC_U+30A4_U+30E4_U+30FC 1
 62
   179
420
  2234388
370
    25
100
AcDbVertex
100
AcDb2dVertex
 10
92.00264293059482
 20
-123.0060969136931
 30
0.0
  0
SEQEND
  5
FB
330
F8
100
AcDbEntity
  8
_U+30EC_U+30A4_U+30E4_U+30FC 1
 62
   179
420
  2234388
370
    25
  0
POLYLINE
  5
FC
330
1F
100
AcDbEntity
  8
_U+30EC_U+30A4_U+30E4_U+30FC 1
 62
   179
420
  2234388
370
    25
100
AcDb2dPolyline
 66
     1
 10
0.0
 20
0.0
 30
0.0
  0
VERTEX
  5
FD
330
FC
100
AcDbEntity
  8
_U+30EC_U+30A4_U+30E4_U+30FC 1
 62
   179
420
  2234388
370
    25
100
AcDbVertex
100
AcDb2dVertex
 10
92.00264293059482
 20
-123.0060969136931
 30
0.0
  0
VERTEX
  5
FE
330
FC
100
AcDbEntity
  8
_U+30EC_U+30A4_U+30E4_U+30FC 1
 62
   179
420
  2234388
370
    25
100
AcDbVertex
100
AcDb2dVertex
 10
91.50275683223686
 20
-123.922825246797
 30
0.0
  0
SEQEND
  5
FF
330
FC
100
AcDbEntity
  8
_U+30EC_U+30A4_U+30E4_U+30FC 1
 62
   179
420
  2234388
370
    25
  0
POLYLINE
  5
100
330
1F
100
AcDbEntity
  8
_U+30EC_U+30A4_U+30E4_U+30FC 1
 62
   179
420
  2234388
370
    25
100
AcDb2dPolyline
 66
     1
 10
0.0
 20
0.0
 30
0.0
  0
VERTEX
  5
101
330
100
100
AcDbEntity
  8
_U+30EC_U+30A4_U+30E4_U+30FC 1
 62
   179
420
  2234388
370
    25
100
AcDbVertex
100
AcDb2dVertex
 10
92.00264293059482
 20
-124.8395888576791
 30
0.0
  0
VERTEX
  5
102
330
100
100
AcDbEntity
  8
_U+30EC_U+30A4_U+30E4_U+30FC 1
 62
   179
420
  2234388
370
    25
100
AcDbVertex
100
AcDb2dVertex
 10
91.50275683223686
 20
-125.7559644130056
 30
0.0
  0
SEQEND
  5
103
330
100
100
AcDbEntity
  8
_U+30EC_U+30A4_U+30E4_U+30FC 1
 62
   179
420
  2234388
370
    25
  0
POLYLINE
  5
104
330
1F
100
AcDbEntity
  8
_U+30EC_U+30A4_U+30E4_U+30FC 1
 62
   179
420
  2234388
370
    25
100
AcDb2dPolyline
 66
     1
 10
0.0
 20
0.0
 30
0.0
  0
VERTEX
  5
105
330
104
100
AcDbEntity
  8
_U+30EC_U+30A4_U+30E4_U+30FC 1
 62
   179
420
  2234388
370
    25
100
AcDbVertex
100
AcDb2dVertex
 10
91.50275683223686
 20
-123.922825246797
 30
0.0
  0
VERTEX
  5
106
330
104
100
AcDbEntity
  8
_U+30EC_U+30A4_U+30E4_U+30FC 1
 62
   179
420
  2234388
370
    25
100
AcDbVertex
100
AcDb2dVertex
 10
92.00264293059482
 20
-124.8395888576791
 30
0.0
  0
SEQEND
  5
107
330
104
100
AcDbEntity
  8
_U+30EC_U+30A4_U+30E4_U+30FC 1
 62
   179
420
  2234388
370
    25
  0
POLYLINE
  5
108
330
1F
100
AcDbEntity
  8
_U+30EC_U+30A4_U+30E4_U+30FC 1
 62
   179
420
  2234388
370
    25
100
AcDb2dPolyline
 66
     1
 10
0.0
 20
0.0
 30
0.0
  0
VERTEX
  5
109
330
108
100
AcDbEntity
  8
_U+30EC_U+30A4_U+30E4_U+30FC 1
 62
   179
420
  2234388
370
    25
100
AcDbVertex
100
AcDb2dVertex
 10
91.50275683223686
 20
-125.7559644130056
 30
0.0
  0
VERTEX
  5
10A
330
108
100
AcDbEntity
  8
_U+30EC_U+30A4_U+30E4_U+30FC 1
 62
   179
420
  2234388
370
    25
100
AcDbVertex
100
AcDb2dVertex
 10
92.00264293059482
 20
-126.6730455238872
 30
0.0
  0
SEQEND
  5
10B
330
108
100
AcDbEntity
  8
_U+30EC_U+30A4_U+30E4_U+30FC 1
 62
   179
420
  2234388
370
    25
  0
POLYLINE
  5
10C
330
1F
100
AcDbEntity
  8
_U+30EC_U+30A4_U+30E4_U+30FC 1
 62
   179
420
  2234388
370
    25
100
AcDb2dPolyline
 66
     1
 10
0.0
 20
0.0
 30
0.0
  0
VERTEX
  5
10D
330
10C
100
AcDbEntity
  8
_U+30EC_U+30A4_U+30E4_U+30FC 1
 62
   179
420
  2234388
370
    25
100
AcDbVertex
100
AcDb2dVertex
 10
92.00264293059482
 20
-126.6730455238872
 30
0.0
  0
VERTEX
  5
10E
330
10C
100
AcDbEntity
  8
_U+30EC_U+30A4_U+30E4_U+30FC 1
 62
   179
420
  2234388
370
    25
100
AcDbVertex
100
AcDb2dVertex
 10
91.50275683223686
 20
-127.5894563569916
 30
0.0
  0
SEQEND
  5
10F
330
10C
100
AcDbEntity
  8
_U+30EC_U+30A4_U+30E4_U+30FC 1
 62
   179
420
  2234388
370
    25
  0
POLYLINE
  5
110
330
1F
100
AcDbEntity
  8
_U+30EC_U+30A4_U+30E4_U+30FC 1
 62
   179
420
  2234388
370
    25
100
AcDb2dPolyline
 66
     1
 10
0.0
 20
0.0
 30
0.0
  0
VERTEX
  5
111
330
110
100
AcDbEntity
  8
_U+30EC_U+30A4_U+30E4_U+30FC 1
 62
   179
420
  2234388
370
    25
100
AcDbVertex
100
AcDb2dVertex
 10
92.00264293059482
 20
-128.5061846900958
 30
0.0
  0
VERTEX
  5
112
330
110
100
AcDbEntity
  8
_U+30EC_U+30A4_U+30E4_U+30FC 1
 62
   179
420
  2234388
370
    25
100
AcDbVertex
100
AcDb2dVertex
 10
91.50275683223686
 20
-129.4229483009779
 30
0.0
  0
SEQEND
  5
113
330
110
100
AcDbEntity
  8
_U+30EC_U+30A4_U+30E4_U+30FC 1
 62
   179
420
  2234388
370
    25
  0
POLYLINE
  5
114
330
1F
100
AcDbEntity
  8
_U+30EC_U+30A4_U+30E4_U+30FC 1
 62
   179
420
  2234388
370
    25
100
AcDb2dPolyline
 66
     1
 10
0.0
 20
0.0
 30
0.0
  0
VERTEX
  5
115
330
114
100
AcDbEntity
  8
_U+30EC_U+30A4_U+30E4_U+30FC 1
 62
   179
420
  2234388
370
    25
100
AcDbVertex
100
AcDb2dVertex
 10
91.50275683223686
 20
-127.5894563569916
 30
0.0
  0
VERTEX
  5
116
330
114
100
AcDbEntity
  8
_U+30EC_U+30A4_U+30E4_U+30FC 1
 62
   179
420
  2234388
370
    25
100
AcDbVertex
100
AcDb2dVertex
 10
92.00264293059482
 20
-128.5061846900958
 30
0.0
  0
SEQEND
  5
117
330
114
100
AcDbEntity
  8
_U+30EC_U+30A4_U+30E4_U+30FC 1
 62
   179
420
  2234388
370
    25
  0
POLYLINE
  5
118
330
1F
100
AcDbEntity
  8
_U+30EC_U+30A4_U+30E4_U+30FC 1
 62
   179
420
  2234388
370
    25
100
AcDb2dPolyline
 66
     1
 10
0.0
 20
0.0
 30
0.0
  0
VERTEX
  5
119
330
118
100
AcDbEntity
  8
_U+30EC_U+30A4_U+30E4_U+30FC 1
 62
   179
420
  2234388
370
    25
100
AcDbVertex
100
AcDb2dVertex
 10
91.50275683223686
 20
-129.4229483009779
 30
0.0
  0
VERTEX
  5
11A
330
118
100
AcDbEntity
  8
_U+30EC_U+30A4_U+30E4_U+30FC 1
 62
   179
420
  2234388
370
    25
100
AcDbVertex
100
AcDb2dVertex
 10
91.50275683223686
 20
-142.4226682977278
 30
0.0
  0
SEQEND
  5
11B
330
118
100
AcDbEntity
  8
_U+30EC_U+30A4_U+30E4_U+30FC 1
 62
   179
420
  2234388
370
    25
  0
SPLINE
  5
11C
330
1F
100
AcDbEntity
  8
_U+30EC_U+30A4_U+30E4_U+30FC 1
 62
   179
420
  2234388
370
     9
100
AcDbSpline
210
0.0
220
0.0
230
1.0
 70
    11
 71
     3
 72
    17
 73
    13
 74
     0
 42
0.0000000001
 43
0.0000000001
 12
1.0
 22
0.0
 32
0.0
 13
1.0
 23
0.0
 33
0.0
 40
0.0
 40
0.0
 40
0.0
 40
0.0
 40
1.0
 40
1.0
 40
1.0
 40
2.0
 40
2.0
 40
2.0
 40
3.0
 40
3.0
 40
3.0
 40
4.0
 40
4.0
 40
4.0
 40
4.0
 10
92.40297514260371
 20
-99.42269080847757
 30
0.0
 10
92.40297514260371
 20
-99.36758691960264
 30
0.0
 10
92.44774264146159
 20
-99.32278414183592
 30
0.0
 10
92.50288180672155
 20
-99.32278414183592
 30
0.0
 10
92.55798569420462
 20
-99.32278414183592
 30
0.0
 10
92.60278847083937
 20
-99.36758691960264
 30
0.0
 10
92.60278847083937
 20
-99.42269080847757
 30
0.0
 10
92.60278847083937
 20
-99.47782997513065
 30
0.0
 10
92.55798569420462
 20
-99.52259747511953
 30
0.0
 10
92.50288180672155
 20
-99.52259747511953
 30
0.0
 10
92.44774264146159
 20
-99.52259747511953
 30
0.0
 10
92.40297514260371
 20
-99.47782997513065
 30
0.0
 10
92.40297514260371
 20
-99.42269080847757
 30
0.0
  0
SPLINE
  5
11D
330
1F
100
AcDbEntity
  8
_U+30EC_U+30A4_U+30E4_U+30FC 1
 62
   179
420
  2234388
370
     9
100
AcDbSpline
210
0.0
220
0.0
230
1.0
 70
    11
 71
     3
 72
    17
 73
    13
 74
     0
 42
0.0000000001
 43
0.0000000001
 12
1.0
 22
0.0
 32
0.0
 13
1.0
 23
0.0
 33
0.0
 40
0.0
 40
0.0
 40
0.0
 40
0.0
 40
1.0
 40
1.0
 40
1.0
 40
2.0
 40
2.0
 40
2.0
 40
3.0
 40
3.0
 40
3.0
 40
4.0
 40
4.0
 40
4.0
 40
4.0
 10
91.40253266812712
 20
-99.42269080847757
 30
0.0
 10
91.40253266812712
 20
-99.36758691960264
 30
0.0
 10
91.447300166985
 20
-99.32278414183592
 30
0.0
 10
91.50275683223686
 20
-99.32278414183592
 30
0.0
 10
91.55824877526558
 20
-99.32278414183592
 30
0.0
 10
91.6026634963547
 20
-99.36758691960264
 30
0.0
 10
91.6026634963547
 20
-99.42269080847757
 30
0.0
 10
91.6026634963547
 20
-99.47782997513065
 30
0.0
 10
91.55824877526558
 20
-99.52259747511953
 30
0.0
 10
91.50275683223686
 20
-99.52259747511953
 30
0.0
 10
91.447300166985
 20
-99.52259747511953
 30
0.0
 10
91.40253266812712
 20
-99.47782997513065
 30
0.0
 10
91.40253266812712
 20
-99.42269080847757
 30
0.0
  0
SPLINE
  5
11E
330
1F
100
AcDbEntity
  8
_U+30EC_U+30A4_U+30E4_U+30FC 1
 62
   179
420
  2234388
370
     9
100
AcDbSpline
210
0.0
220
0.0
230
1.0
 70
    11
 71
     3
 72
    17
 73
    13
 74
     0
 42
0.0000000001
 43
0.0000000001
 12
1.0
 22
0.0
 32
0.0
 13
1.0
 23
0.0
 33
0.0
 40
0.0
 40
0.0
 40
0.0
 40
0.0
 40
1.0
 40
1.0
 40
1.0
 40
2.0
 40
2.0
 40
2.0
 40
3.0
 40
3.0
 40
3.0
 40
4.0
 40
4.0
 40
4.0
 40
4.0
 10
102.4027079430448
 20
-103.4228027519222
 30
0.0
 10
102.4027079430448
 20
-103.3676635852691
 30
0.0
 10
102.4474754419027
 20
-103.3228960852802
 30
0.0
 10
102.5029673849314
 20
-103.3228960852802
 30
0.0
 10
102.5580712724145
 20
-103.3228960852802
 30
0.0
 10
102.6028740490493
 20
-103.3676635852691
 30
0.0
 10
102.6028740490493
 20
-103.4228027519222
 30
0.0
 10
102.6028740490493
 20
-103.4782594185749
 30
0.0
 10
102.5580712724145
 20
-103.5230621963416
 30
0.0
 10
102.5029673849314
 20
-103.5230621963416
 30
0.0
 10
102.4474754419027
 20
-103.5230621963416
 30
0.0
 10
102.4027079430448
 20
-103.4782594185749
 30
0.0
 10
102.4027079430448
 20
-103.4228027519222
 30
0.0
  0
SPLINE
  5
11F
330
1F
100
AcDbEntity
  8
_U+30EC_U+30A4_U+30E4_U+30FC 1
 62
   179
420
  2234388
370
     9
100
AcDbSpline
210
0.0
220
0.0
230
1.0
 70
    11
 71
     3
 72
    17
 73
    13
 74
     0
 42
0.0000000001
 43
0.0000000001
 12
1.0
 22
0.0
 32
0.0
 13
1.0
 23
0.0
 33
0.0
 40
0.0
 40
0.0
 40
0.0
 40
0.0
 40
1.0
 40
1.0
 40
1.0
 40
2.0
 40
2.0
 40
2.0
 40
3.0
 40
3.0
 40
3.0
 40
4.0
 40
4.0
 40
4.0
 40
4.0
 10
74.40270115738451
 20
-136.4226944103385
 30
0.0
 10
74.40270115738451
 20
-136.367555243686
 30
0.0
 10
74.44746865624239
 20
-136.3227877436968
 30
0.0
 10
74.50260782150235
 20
-136.3227877436968
 30
0.0
 10
74.55806448675419
 20
-136.3227877436968
 30
0.0
 10
74.60286726338896
 20
-136.367555243686
 30
0.0
 10
74.60286726338896
 20
-136.4226944103385
 30
0.0
 10
74.60286726338896
 20
-136.4781510769918
 30
0.0
 10
74.55806448675419
 20
-136.5226010769807
 30
0.0
 10
74.50260782150235
 20
-136.5226010769807
 30
0.0
 10
74.44746865624239
 20
-136.5226010769807
 30
0.0
 10
74.40270115738451
 20
-136.4781510769918
 30
0.0
 10
74.40270115738451
 20
-136.4226944103385
 30
0.0
  0
SPLINE
  5
120
330
1F
100
AcDbEntity
  8
_U+30EC_U+30A4_U+30E4_U+30FC 1
 62
   179
420
  2234388
370
     9
100
AcDbSpline
210
0.0
220
0.0
230
1.0
 70
    11
 71
     3
 72
    17
 73
    13
 74
     0
 42
0.0000000001
 43
0.0000000001
 12
1.0
 22
0.0
 32
0.0
 13
1.0
 23
0.0
 33
0.0
 40
0.0
 40
0.0
 40
0.0
 40
0.0
 40
1.0
 40
1.0
 40
1.0
 40
2.0
 40
2.0
 40
2.0
 40
3.0
 40
3.0
 40
3.0
 40
4.0
 40
4.0
 40
4.0
 40
4.0
 10
78.40277772200072
 20
-132.4229352446722
 30
0.0
 10
78.40277772200072
 20
-132.3677960780192
 30
0.0
 10
78.44758049863549
 20
-132.3230285780306
 30
0.0
 10
78.50268438611856
 20
-132.3230285780306
 30
0.0
 10
78.5578235513785
 20
-132.3230285780306
 30
0.0
 10
78.6025910502364
 20
-132.3677960780192
 30
0.0
 10
78.6025910502364
 20
-132.4229352446722
 30
0.0
 10
78.6025910502364
 20
-132.4780391335472
 30
0.0
 10
78.5578235513785
 20
-132.5228419113139
 30
0.0
 10
78.50268438611856
 20
-132.5228419113139
 30
0.0
 10
78.44758049863549
 20
-132.5228419113139
 30
0.0
 10
78.40277772200072
 20
-132.4780391335472
 30
0.0
 10
78.40277772200072
 20
-132.4229352446722
 30
0.0
  0
SPLINE
  5
121
330
1F
100
AcDbEntity
  8
_U+30EC_U+30A4_U+30E4_U+30FC 1
 62
   179
420
  2234388
370
     9
100
AcDbSpline
210
0.0
220
0.0
230
1.0
 70
    11
 71
     3
 72
    17
 73
    13
 74
     0
 42
0.0000000001
 43
0.0000000001
 12
1.0
 22
0.0
 32
0.0
 13
1.0
 23
0.0
 33
0.0
 40
0.0
 40
0.0
 40
0.0
 40
0.0
 40
1.0
 40
1.0
 40
1.0
 40
2.0
 40
2.0
 40
2.0
 40
3.0
 40
3.0
 40
3.0
 40
4.0
 40
4.0
 40
4.0
 40
4.0
 10
81.40276664631584
 20
-132.4229352446722
 30
0.0
 10
81.40276664631584
 20
-132.3677960780192
 30
0.0
 10
81.44756942408256
 20
-132.3230285780306
 30
0.0
 10
81.50270653180384
 20
-132.3230285780306
 30
0.0
 10
81.55816319705569
 20
-132.3230285780306
 30
0.0
 10
81.60261319592168
 20
-132.3677960780192
 30
0.0
 10
81.60261319592168
 20
-132.4229352446722
 30
0.0
 10
81.60261319592168
 20
-132.4780391335472
 30
0.0
 10
81.55816319705569
 20
-132.5228419113139
 30
0.0
 10
81.50270653180384
 20
-132.5228419113139
 30
0.0
 10
81.44756942408256
 20
-132.5228419113139
 30
0.0
 10
81.40276664631584
 20
-132.4780391335472
 30
0.0
 10
81.40276664631584
 20
-132.4229352446722
 30
0.0
  0
SPLINE
  5
122
330
1F
100
AcDbEntity
  8
_U+30EC_U+30A4_U+30E4_U+30FC 1
 62
   179
420
  2234388
370
     9
100
AcDbSpline
210
0.0
220
0.0
230
1.0
 70
    11
 71
     3
 72
    17
 73
    13
 74
     0
 42
0.0000000001
 43
0.0000000001
 12
1.0
 22
0.0
 32
0.0
 13
1.0
 23
0.0
 33
0.0
 40
0.0
 40
0.0
 40
0.0
 40
0.0
 40
1.0
 40
1.0
 40
1.0
 40
2.0
 40
2.0
 40
2.0
 40
3.0
 40
3.0
 40
3.0
 40
4.0
 40
4.0
 40
4.0
 40
4.0
 10
91.40253266812712
 20
-132.4229352446722
 30
0.0
 10
91.40253266812712
 20
-132.3677960780192
 30
0.0
 10
91.447300166985
 20
-132.3230285780306
 30
0.0
 10
91.50275683223686
 20
-132.3230285780306
 30
0.0
 10
91.55824877526558
 20
-132.3230285780306
 30
0.0
 10
91.6026634963547
 20
-132.3677960780192
 30
0.0
 10
91.6026634963547
 20
-132.4229352446722
 30
0.0
 10
91.6026634963547
 20
-132.4780391335472
 30
0.0
 10
91.55824877526558
 20
-132.5228419113139
 30
0.0
 10
91.50275683223686
 20
-132.5228419113139
 30
0.0
 10
91.447300166985
 20
-132.5228419113139
 30
0.0
 10
91.40253266812712
 20
-132.4780391335472
 30
0.0
 10
91.40253266812712
 20
-132.4229352446722
 30
0.0
  0
SPLINE
  5
123
330
1F
100
AcDbEntity
  8
_U+30EC_U+30A4_U+30E4_U+30FC 1
 62
   179
420
  2234388
370
     9
100
AcDbSpline
210
0.0
220
0.0
230
1.0
 70
    11
 71
     3
 72
    17
 73
    13
 74
     0
 42
0.0000000001
 43
0.0000000001
 12
1.0
 22
0.0
 32
0.0
 13
1.0
 23
0.0
 33
0.0
 40
0.0
 40
0.0
 40
0.0
 40
0.0
 40
1.0
 40
1.0
 40
1.0
 40
2.0
 40
2.0
 40
2.0
 40
3.0
 40
3.0
 40
3.0
 40
4.0
 40
4.0
 40
4.0
 40
4.0
 10
102.4027079430448
 20
-143.4227580196999
 30
0.0
 10
102.4027079430448
 20
-143.367654130825
 30
0.0
 10
102.4474754419027
 20
-143.3228513530583
 30
0.0
 10
102.5029673849314
 20
-143.3228513530583
 30
0.0
 10
102.5580712724145
 20
-143.3228513530583
 30
0.0
 10
102.6028740490493
 20
-143.367654130825
 30
0.0
 10
102.6028740490493
 20
-143.4227580196999
 30
0.0
 10
102.6028740490493
 20
-143.4782499641301
 30
0.0
 10
102.5580712724145
 20
-143.5230174641193
 30
0.0
 10
102.5029673849314
 20
-143.5230174641193
 30
0.0
 10
102.4474754419027
 20
-143.5230174641193
 30
0.0
 10
102.4027079430448
 20
-143.4782499641301
 30
0.0
 10
102.4027079430448
 20
-143.4227580196999
 30
0.0
  0
SPLINE
  5
124
330
1F
100
AcDbEntity
  8
_U+30EC_U+30A4_U+30E4_U+30FC 1
 62
   179
420
  2234388
370
     9
100
AcDbSpline
210
0.0
220
0.0
230
1.0
 70
    11
 71
     3
 72
    17
 73
    13
 74
     0
 42
0.0000000001
 43
0.0000000001
 12
1.0
 22
0.0
 32
0.0
 13
1.0
 23
0.0
 33
0.0
 40
0.0
 40
0.0
 40
0.0
 40
0.0
 40
1.0
 40
1.0
 40
1.0
 40
2.0
 40
2.0
 40
2.0
 40
3.0
 40
3.0
 40
3.0
 40
4.0
 40
4.0
 40
4.0
 40
4.0
 10
98.40294887842052
 20
-160.4229427376723
 30
0.0
 10
98.40294887842052
 20
-160.3674860710189
 30
0.0
 10
98.44775165505527
 20
-160.3226832932529
 30
0.0
 10
98.50285554253836
 20
-160.3226832932529
 30
0.0
 10
98.55799719758286
 20
-160.3226832932529
 30
0.0
 10
98.60276220665618
 20
-160.3674860710189
 30
0.0
 10
98.60276220665618
 20
-160.4229427376723
 30
0.0
 10
98.60276220665618
 20
-160.4780466265472
 30
0.0
 10
98.55799719758286
 20
-160.5228494043139
 30
0.0
 10
98.50285554253836
 20
-160.5228494043139
 30
0.0
 10
98.44775165505527
 20
-160.5228494043139
 30
0.0
 10
98.40294887842052
 20
-160.4780466265472
 30
0.0
 10
98.40294887842052
 20
-160.4229427376723
 30
0.0
  0
SPLINE
  5
125
330
1F
100
AcDbEntity
  8
_U+30EC_U+30A4_U+30E4_U+30FC 1
 62
   179
420
  2234388
370
     9
100
AcDbSpline
210
0.0
220
0.0
230
1.0
 70
    11
 71
     3
 72
    17
 73
    13
 74
     0
 42
0.0000000001
 43
0.0000000001
 12
1.0
 22
0.0
 32
0.0
 13
1.0
 23
0.0
 33
0.0
 40
0.0
 40
0.0
 40
0.0
 40
0.0
 40
1.0
 40
1.0
 40
1.0
 40
2.0
 40
2.0
 40
2.0
 40
3.0
 40
3.0
 40
3.0
 40
4.0
 40
4.0
 40
4.0
 40
4.0
 10
102.4027079430448
 20
-156.4228307942276
 30
0.0
 10
102.4027079430448
 20
-156.3677269053527
 30
0.0
 10
102.4474754419027
 20
-156.322924127586
 30
0.0
 10
102.5029673849314
 20
-156.322924127586
 30
0.0
 10
102.5580712724145
 20
-156.322924127586
 30
0.0
 10
102.6028740490493
 20
-156.3677269053527
 30
0.0
 10
102.6028740490493
 20
-156.4228307942276
 30
0.0
 10
102.6028740490493
 20
-156.4779699608807
 30
0.0
 10
102.5580712724145
 20
-156.5227374608693
 30
0.0
 10
102.5029673849314
 20
-156.5227374608693
 30
0.0
 10
102.4474754419027
 20
-156.5227374608693
 30
0.0
 10
102.4027079430448
 20
-156.4779699608807
 30
0.0
 10
102.4027079430448
 20
-156.4228307942276
 30
0.0
  0
SPLINE
  5
126
330
1F
100
AcDbEntity
  8
_U+30EC_U+30A4_U+30E4_U+30FC 1
 62
   179
420
  2234388
370
     9
100
AcDbSpline
210
0.0
220
0.0
230
1.0
 70
    11
 71
     3
 72
    17
 73
    13
 74
     0
 42
0.0000000001
 43
0.0000000001
 12
1.0
 22
0.0
 32
0.0
 13
1.0
 23
0.0
 33
0.0
 40
0.0
 40
0.0
 40
0.0
 40
0.0
 40
1.0
 40
1.0
 40
1.0
 40
2.0
 40
2.0
 40
2.0
 40
3.0
 40
3.0
 40
3.0
 40
4.0
 40
4.0
 40
4.0
 40
4.0
 10
102.4027079430448
 20
-153.4228438505333
 30
0.0
 10
102.4027079430448
 20
-153.3677399616583
 30
0.0
 10
102.4474754419027
 20
-153.3229371838916
 30
0.0
 10
102.5029673849314
 20
-153.3229371838916
 30
0.0
 10
102.5580712724145
 20
-153.3229371838916
 30
0.0
 10
102.6028740490493
 20
-153.3677399616583
 30
0.0
 10
102.6028740490493
 20
-153.4228438505333
 30
0.0
 10
102.6028740490493
 20
-153.4779830171863
 30
0.0
 10
102.5580712724145
 20
-153.5227505171749
 30
0.0
 10
102.5029673849314
 20
-153.5227505171749
 30
0.0
 10
102.4474754419027
 20
-153.5227505171749
 30
0.0
 10
102.4027079430448
 20
-153.4779830171863
 30
0.0
 10
102.4027079430448
 20
-153.4228438505333
 30
0.0
  0
SPLINE
  5
127
330
1F
100
AcDbEntity
  8
_U+30EC_U+30A4_U+30E4_U+30FC 1
 62
   179
420
  2234388
370
     9
100
AcDbSpline
210
0.0
220
0.0
230
1.0
 70
    11
 71
     3
 72
    17
 73
    13
 74
     0
 42
0.0000000001
 43
0.0000000001
 12
1.0
 22
0.0
 32
0.0
 13
1.0
 23
0.0
 33
0.0
 40
0.0
 40
0.0
 40
0.0
 40
0.0
 40
1.0
 40
1.0
 40
1.0
 40
2.0
 40
2.0
 40
2.0
 40
3.0
 40
3.0
 40
3.0
 40
4.0
 40
4.0
 40
4.0
 40
4.0
 10
78.40277772200072
 20
-160.4229427376723
 30
0.0
 10
78.40277772200072
 20
-160.3674860710189
 30
0.0
 10
78.44758049863549
 20
-160.3226832932529
 30
0.0
 10
78.50268438611856
 20
-160.3226832932529
 30
0.0
 10
78.5578235513785
 20
-160.3226832932529
 30
0.0
 10
78.6025910502364
 20
-160.3674860710189
 30
0.0
 10
78.6025910502364
 20
-160.4229427376723
 30
0.0
 10
78.6025910502364
 20
-160.4780466265472
 30
0.0
 10
78.5578235513785
 20
-160.5228494043139
 30
0.0
 10
78.50268438611856
 20
-160.5228494043139
 30
0.0
 10
78.44758049863549
 20
-160.5228494043139
 30
0.0
 10
78.40277772200072
 20
-160.4780466265472
 30
0.0
 10
78.40277772200072
 20
-160.4229427376723
 30
0.0
  0
SPLINE
  5
128
330
1F
100
AcDbEntity
  8
_U+30EC_U+30A4_U+30E4_U+30FC 1
 62
   179
420
  2234388
370
     9
100
AcDbSpline
210
0.0
220
0.0
230
1.0
 70
    11
 71
     3
 72
    17
 73
    13
 74
     0
 42
0.0000000001
 43
0.0000000001
 12
1.0
 22
0.0
 32
0.0
 13
1.0
 23
0.0
 33
0.0
 40
0.0
 40
0.0
 40
0.0
 40
0.0
 40
1.0
 40
1.0
 40
1.0
 40
2.0
 40
2.0
 40
2.0
 40
3.0
 40
3.0
 40
3.0
 40
4.0
 40
4.0
 40
4.0
 40
4.0
 10
83.5742175900663
 20
-159.2512619046313
 30
0.0
 10
83.5742175900663
 20
-159.1961227379789
 30
0.0
 10
83.61902036670106
 20
-159.1513552379897
 30
0.0
 10
83.67447703195292
 20
-159.1513552379897
 30
0.0
 10
83.72961619721286
 20
-159.1513552379897
 30
0.0
 10
83.77438369607074
 20
-159.1961227379789
 30
0.0
 10
83.77438369607074
 20
-159.2512619046313
 30
0.0
 10
83.77438369607074
 20
-159.3063657935069
 30
0.0
 10
83.72961619721286
 20
-159.3511685712736
 30
0.0
 10
83.67447703195292
 20
-159.3511685712736
 30
0.0
 10
83.61902036670106
 20
-159.3511685712736
 30
0.0
 10
83.5742175900663
 20
-159.3063657935069
 30
0.0
 10
83.5742175900663
 20
-159.2512619046313
 30
0.0
  0
SPLINE
  5
129
330
1F
100
AcDbEntity
  8
_U+30EC_U+30A4_U+30E4_U+30FC 1
 62
   179
420
  2234388
370
     9
100
AcDbSpline
210
0.0
220
0.0
230
1.0
 70
    11
 71
     3
 72
    17
 73
    13
 74
     0
 42
0.0000000001
 43
0.0000000001
 12
1.0
 22
0.0
 32
0.0
 13
1.0
 23
0.0
 33
0.0
 40
0.0
 40
0.0
 40
0.0
 40
0.0
 40
1.0
 40
1.0
 40
1.0
 40
2.0
 40
2.0
 40
2.0
 40
3.0
 40
3.0
 40
3.0
 40
4.0
 40
4.0
 40
4.0
 40
4.0
 10
86.40264862901812
 20
-160.4229427376723
 30
0.0
 10
86.40264862901812
 20
-160.3674860710189
 30
0.0
 10
86.44745140565288
 20
-160.3226832932529
 30
0.0
 10
86.50290807090474
 20
-160.3226832932529
 30
0.0
 10
86.55801195838781
 20
-160.3226832932529
 30
0.0
 10
86.60281473502258
 20
-160.3674860710189
 30
0.0
 10
86.60281473502258
 20
-160.4229427376723
 30
0.0
 10
86.60281473502258
 20
-160.4780466265472
 30
0.0
 10
86.55801195838781
 20
-160.5228494043139
 30
0.0
 10
86.50290807090474
 20
-160.5228494043139
 30
0.0
 10
86.44745140565288
 20
-160.5228494043139
 30
0.0
 10
86.40264862901812
 20
-160.4780466265472
 30
0.0
 10
86.40264862901812
 20
-160.4229427376723
 30
0.0
  0
SPLINE
  5
12A
330
1F
100
AcDbEntity
  8
_U+30EC_U+30A4_U+30E4_U+30FC 1
 62
   179
420
  2234388
370
     9
100
AcDbSpline
210
0.0
220
0.0
230
1.0
 70
    11
 71
     3
 72
    17
 73
    13
 74
     0
 42
0.0000000001
 43
0.0000000001
 12
1.0
 22
0.0
 32
0.0
 13
1.0
 23
0.0
 33
0.0
 40
0.0
 40
0.0
 40
0.0
 40
0.0
 40
1.0
 40
1.0
 40
1.0
 40
2.0
 40
2.0
 40
2.0
 40
3.0
 40
3.0
 40
3.0
 40
4.0
 40
4.0
 40
4.0
 40
4.0
 10
74.40270115738451
 20
-148.4229949628943
 30
0.0
 10
74.40270115738451
 20
-148.3675030184634
 30
0.0
 10
74.44746865624239
 20
-148.3227355184748
 30
0.0
 10
74.50260782150235
 20
-148.3227355184748
 30
0.0
 10
74.55806448675419
 20
-148.3227355184748
 30
0.0
 10
74.60286726338896
 20
-148.3675030184634
 30
0.0
 10
74.60286726338896
 20
-148.4229949628943
 30
0.0
 10
74.60286726338896
 20
-148.4780988517692
 30
0.0
 10
74.55806448675419
 20
-148.5229016295359
 30
0.0
 10
74.50260782150235
 20
-148.5229016295359
 30
0.0
 10
74.44746865624239
 20
-148.5229016295359
 30
0.0
 10
74.40270115738451
 20
-148.4780988517692
 30
0.0
 10
74.40270115738451
 20
-148.4229949628943
 30
0.0
  0
SPLINE
  5
12B
330
1F
100
AcDbEntity
  8
_U+30EC_U+30A4_U+30E4_U+30FC 1
 62
   179
420
  2234388
370
     9
100
AcDbSpline
210
0.0
220
0.0
230
1.0
 70
    11
 71
     3
 72
    17
 73
    13
 74
     0
 42
0.0000000001
 43
0.0000000001
 12
1.0
 22
0.0
 32
0.0
 13
1.0
 23
0.0
 33
0.0
 40
0.0
 40
0.0
 40
0.0
 40
0.0
 40
1.0
 40
1.0
 40
1.0
 40
2.0
 40
2.0
 40
2.0
 40
3.0
 40
3.0
 40
3.0
 40
4.0
 40
4.0
 40
4.0
 40
4.0
 10
75.57438196082578
 20
-151.2513907955205
 30
0.0
 10
75.57438196082578
 20
-151.1959341288678
 30
0.0
 10
75.61914945968367
 20
-151.1511666288786
 30
0.0
 10
75.67428862494361
 20
-151.1511666288786
 30
0.0
 10
75.72939442551215
 20
-151.1511666288786
 30
0.0
 10
75.77419720327856
 20
-151.1959341288678
 30
0.0
 10
75.77419720327856
 20
-151.2513907955205
 30
0.0
 10
75.77419720327856
 20
-151.3065299621735
 30
0.0
 10
75.72939442551215
 20
-151.3512974621621
 30
0.0
 10
75.67428862494361
 20
-151.3512974621621
 30
0.0
 10
75.61914945968367
 20
-151.3512974621621
 30
0.0
 10
75.57438196082578
 20
-151.3065299621735
 30
0.0
 10
75.57438196082578
 20
-151.2513907955205
 30
0.0
  0
SPLINE
  5
12C
330
1F
100
AcDbEntity
  8
_U+30EC_U+30A4_U+30E4_U+30FC 1
 62
   179
420
  2234388
370
     9
100
AcDbSpline
210
0.0
220
0.0
230
1.0
 70
    11
 71
     3
 72
    17
 73
    13
 74
     0
 42
0.0000000001
 43
0.0000000001
 12
1.0
 22
0.0
 32
0.0
 13
1.0
 23
0.0
 33
0.0
 40
0.0
 40
0.0
 40
0.0
 40
0.0
 40
1.0
 40
1.0
 40
1.0
 40
2.0
 40
2.0
 40
2.0
 40
3.0
 40
3.0
 40
3.0
 40
4.0
 40
4.0
 40
4.0
 40
4.0
 10
74.40270115738451
 20
-156.4228307942276
 30
0.0
 10
74.40270115738451
 20
-156.3677269053527
 30
0.0
 10
74.44746865624239
 20
-156.322924127586
 30
0.0
 10
74.50260782150235
 20
-156.322924127586
 30
0.0
 10
74.55806448675419
 20
-156.322924127586
 30
0.0
 10
74.60286726338896
 20
-156.3677269053527
 30
0.0
 10
74.60286726338896
 20
-156.4228307942276
 30
0.0
 10
74.60286726338896
 20
-156.4779699608807
 30
0.0
 10
74.55806448675419
 20
-156.5227374608693
 30
0.0
 10
74.50260782150235
 20
-156.5227374608693
 30
0.0
 10
74.44746865624239
 20
-156.5227374608693
 30
0.0
 10
74.40270115738451
 20
-156.4779699608807
 30
0.0
 10
74.40270115738451
 20
-156.4228307942276
 30
0.0
  0
POLYLINE
  5
12D
330
1F
100
AcDbEntity
  8
_U+30EC_U+30A4_U+30E4_U+30FC 1
 62
   179
420
  2234388
370
     9
100
AcDb2dPolyline
 66
     1
 10
0.0
 20
0.0
 30
0.0
  0
VERTEX
  5
12E
330
12D
100
AcDbEntity
  8
_U+30EC_U+30A4_U+30E4_U+30FC 1
 62
   179
420
  2234388
370
     9
100
AcDbVertex
100
AcDb2dVertex
 10
92.50288180672155
 20
-99.42269080847757
 30
0.0
  0
VERTEX
  5
12F
330
12D
100
AcDbEntity
  8
_U+30EC_U+30A4_U+30E4_U+30FC 1
 62
   179
420
  2234388
370
     9
100
AcDbVertex
100
AcDb2dVertex
 10
96.27319421053286
 20
-99.42269080847757
 30
0.0
  0
SEQEND
  5
130
330
12D
100
AcDbEntity
  8
_U+30EC_U+30A4_U+30E4_U+30FC 1
 62
   179
420
  2234388
370
     9
  0
POLYLINE
  5
131
330
1F
100
AcDbEntity
  8
_U+30EC_U+30A4_U+30E4_U+30FC 1
 62
   179
420
  2234388
370
     9
100
AcDb2dPolyline
 66
     1
 10
0.0
 20
0.0
 30
0.0
  0
VERTEX
  5
132
330
131
100
AcDbEntity
  8
_U+30EC_U+30A4_U+30E4_U+30FC 1
 62
   179
420
  2234388
370
     9
100
AcDbVertex
100
AcDb2dVertex
 10
92.50288180672155
 20
-99.42269080847757
 30
0.0
  0
VERTEX
  5
133
330
131
100
AcDbEntity
  8
_U+30EC_U+30A4_U+30E4_U+30FC 1
 62
   179
420
  2234388
370
     9
100
AcDbVertex
100
AcDb2dVertex
 10
90.50266942181867
 20
-99.42269080847757
 30
0.0
  0
SEQEND
  5
134
330
131
100
AcDbEntity
  8
_U+30EC_U+30A4_U+30E4_U+30FC 1
 62
   179
420
  2234388
370
     9
  0
POLYLINE
  5
135
330
1F
100
AcDbEntity
  8
_U+30EC_U+30A4_U+30E4_U+30FC 1
 62
   179
420
  2234388
370
     9
100
AcDb2dPolyline
 66
     1
 10
0.0
 20
0.0
 30
0.0
  0
VERTEX
  5
136
330
135
100
AcDbEntity
  8
_U+30EC_U+30A4_U+30E4_U+30FC 1
 62
   179
420
  2234388
370
     9
100
AcDbVertex
100
AcDb2dVertex
 10
92.50288180672155
 20
-100.8827321970016
 30
0.0
  0
VERTEX
  5
137
330
135
100
AcDbEntity
  8
_U+30EC_U+30A4_U+30E4_U+30FC 1
 62
   179
420
  2234388
370
     9
100
AcDbVertex
100
AcDb2dVertex
 10
92.50288180672155
 20
-98.42291858650535
 30
0.0
  0
SEQEND
  5
138
330
135
100
AcDbEntity
  8
_U+30EC_U+30A4_U+30E4_U+30FC 1
 62
   179
420
  2234388
370
     9
  0
POLYLINE
  5
139
330
1F
100
AcDbEntity
  8
_U+30EC_U+30A4_U+30E4_U+30FC 1
 62
   179
420
  2234388
370
     9
100
AcDb2dPolyline
 66
     1
 10
0.0
 20
0.0
 30
0.0
  0
VERTEX
  5
13A
330
139
100
AcDbEntity
  8
_U+30EC_U+30A4_U+30E4_U+30FC 1
 62
   179
420
  2234388
370
     9
100
AcDbVertex
100
AcDb2dVertex
 10
91.50275683223686
 20
-100.8827321970016
 30
0.0
  0
VERTEX
  5
13B
330
139
100
AcDbEntity
  8
_U+30EC_U+30A4_U+30E4_U+30FC 1
 62
   179
420
  2234388
370
     9
100
AcDbVertex
100
AcDb2dVertex
 10
91.50275683223686
 20
-98.42291858650535
 30
0.0
  0
SEQEND
  5
13C
330
139
100
AcDbEntity
  8
_U+30EC_U+30A4_U+30E4_U+30FC 1
 62
   179
420
  2234388
370
     9
  0
POLYLINE
  5
13D
330
1F
100
AcDbEntity
  8
_U+30EC_U+30A4_U+30E4_U+30FC 1
 62
   179
420
  2234388
370
     9
100
AcDb2dPolyline
 66
     1
 10
0.0
 20
0.0
 30
0.0
  0
VERTEX
  5
13E
330
13D
100
AcDbEntity
  8
_U+30EC_U+30A4_U+30E4_U+30FC 1
 62
   179
420
  2234388
370
     9
100
AcDbVertex
100
AcDb2dVertex
 10
98.50285554253836
 20
-160.4229427376723
 30
0.0
  0
VERTEX
  5
13F
330
13D
100
AcDbEntity
  8
_U+30EC_U+30A4_U+30E4_U+30FC 1
 62
   179
420
  2234388
370
     9
100
AcDbVertex
100
AcDb2dVertex
 10
86.50290807090474
 20
-160.4229427376723
 30
0.0
  0
SEQEND
  5
140
330
13D
100
AcDbEntity
  8
_U+30EC_U+30A4_U+30E4_U+30FC 1
 62
   179
420
  2234388
370
     9
  0
POLYLINE
  5
141
330
1F
100
AcDbEntity
  8
_U+30EC_U+30A4_U+30E4_U+30FC 1
 62
   179
420
  2234388
370
     9
100
AcDb2dPolyline
 66
     1
 10
0.0
 20
0.0
 30
0.0
  0
VERTEX
  5
142
330
141
100
AcDbEntity
  8
_U+30EC_U+30A4_U+30E4_U+30FC 1
 62
   179
420
  2234388
370
     9
100
AcDbVertex
100
AcDb2dVertex
 10
98.50285554253836
 20
-158.9629013491479
 30
0.0
  0
VERTEX
  5
143
330
141
100
AcDbEntity
  8
_U+30EC_U+30A4_U+30E4_U+30FC 1
 62
   179
420
  2234388
370
     9
100
AcDbVertex
100
AcDb2dVertex
 10
98.50285554253836
 20
-161.4227149596442
 30
0.0
  0
SEQEND
  5
144
330
141
100
AcDbEntity
  8
_U+30EC_U+30A4_U+30E4_U+30FC 1
 62
   179
420
  2234388
370
     9
  0
POLYLINE
  5
145
330
1F
100
AcDbEntity
  8
_U+30EC_U+30A4_U+30E4_U+30FC 1
 62
   179
420
  2234388
370
     9
100
AcDb2dPolyline
 66
     1
 10
0.0
 20
0.0
 30
0.0
  0
VERTEX
  5
146
330
145
100
AcDbEntity
  8
_U+30EC_U+30A4_U+30E4_U+30FC 1
 62
   179
420
  2234388
370
     9
100
AcDbVertex
100
AcDb2dVertex
 10
81.50270653180384
 20
-132.4229352446722
 30
0.0
  0
VERTEX
  5
147
330
145
100
AcDbEntity
  8
_U+30EC_U+30A4_U+30E4_U+30FC 1
 62
   179
420
  2234388
370
     9
100
AcDbVertex
100
AcDb2dVertex
 10
78.50268438611856
 20
-132.4229352446722
 30
0.0
  0
SEQEND
  5
148
330
145
100
AcDbEntity
  8
_U+30EC_U+30A4_U+30E4_U+30FC 1
 62
   179
420
  2234388
370
     9
  0
POLYLINE
  5
149
330
1F
100
AcDbEntity
  8
_U+30EC_U+30A4_U+30E4_U+30FC 1
 62
   179
420
  2234388
370
     9
100
AcDb2dPolyline
 66
     1
 10
0.0
 20
0.0
 30
0.0
  0
VERTEX
  5
14A
330
149
100
AcDbEntity
  8
_U+30EC_U+30A4_U+30E4_U+30FC 1
 62
   179
420
  2234388
370
     9
100
AcDbVertex
100
AcDb2dVertex
 10
81.50270653180384
 20
-133.8829413554184
 30
0.0
  0
VERTEX
  5
14B
330
149
100
AcDbEntity
  8
_U+30EC_U+30A4_U+30E4_U+30FC 1
 62
   179
420
  2234388
370
     9
100
AcDbVertex
100
AcDb2dVertex
 10
81.50270653180384
 20
-131.4228102449219
 30
0.0
  0
SEQEND
  5
14C
330
149
100
AcDbEntity
  8
_U+30EC_U+30A4_U+30E4_U+30FC 1
 62
   179
420
  2234388
370
     9
  0
POLYLINE
  5
14D
330
1F
100
AcDbEntity
  8
_U+30EC_U+30A4_U+30E4_U+30FC 1
 62
   179
420
  2234388
370
     9
100
AcDb2dPolyline
 66
     1
 10
0.0
 20
0.0
 30
0.0
  0
VERTEX
  5
14E
330
14D
100
AcDbEntity
  8
_U+30EC_U+30A4_U+30E4_U+30FC 1
 62
   179
420
  2234388
370
     9
100
AcDbVertex
100
AcDb2dVertex
 10
78.50268438611856
 20
-133.8829413554184
 30
0.0
  0
VERTEX
  5
14F
330
14D
100
AcDbEntity
  8
_U+30EC_U+30A4_U+30E4_U+30FC 1
 62
   179
420
  2234388
370
     9
100
AcDbVertex
100
AcDb2dVertex
 10
78.50268438611856
 20
-131.4228102449219
 30
0.0
  0
SEQEND
  5
150
330
14D
100
AcDbEntity
  8
_U+30EC_U+30A4_U+30E4_U+30FC 1
 62
   179
420
  2234388
370
     9
  0
POLYLINE
  5
151
330
1F
100
AcDbEntity
  8
_U+30EC_U+30A4_U+30E4_U+30FC 1
 62
   179
420
  2234388
370
     9
100
AcDb2dPolyline
 66
     1
 10
0.0
 20
0.0
 30
0.0
  0
VERTEX
  5
152
330
151
100
AcDbEntity
  8
_U+30EC_U+30A4_U+30E4_U+30FC 1
 62
   179
420
  2234388
370
     9
100
AcDbVertex
100
AcDb2dVertex
 10
81.50270653180384
 20
-132.4229352446722
 30
0.0
  0
VERTEX
  5
153
330
151
100
AcDbEntity
  8
_U+30EC_U+30A4_U+30E4_U+30FC 1
 62
   179
420
  2234388
370
     9
100
AcDbVertex
100
AcDb2dVertex
 10
91.50275683223686
 20
-132.4229352446722
 30
0.0
  0
SEQEND
  5
154
330
151
100
AcDbEntity
  8
_U+30EC_U+30A4_U+30E4_U+30FC 1
 62
   179
420
  2234388
370
     9
  0
POLYLINE
  5
155
330
1F
100
AcDbEntity
  8
_U+30EC_U+30A4_U+30E4_U+30FC 1
 62
   179
420
  2234388
370
     9
100
AcDb2dPolyline
 66
     1
 10
0.0
 20
0.0
 30
0.0
  0
VERTEX
  5
156
330
155
100
AcDbEntity
  8
_U+30EC_U+30A4_U+30E4_U+30FC 1
 62
   179
420
  2234388
370
     9
100
AcDbVertex
100
AcDb2dVertex
 10
74.50260782150235
 20
-156.4228307942276
 30
0.0
  0
VERTEX
  5
157
330
155
100
AcDbEntity
  8
_U+30EC_U+30A4_U+30E4_U+30FC 1
 62
   179
420
  2234388
370
     9
100
AcDbVertex
100
AcDb2dVertex
 10
74.50260782150235
 20
-148.4229949628943
 30
0.0
  0
SEQEND
  5
158
330
155
100
AcDbEntity
  8
_U+30EC_U+30A4_U+30E4_U+30FC 1
 62
   179
420
  2234388
370
     9
  0
POLYLINE
  5
159
330
1F
100
AcDbEntity
  8
_U+30EC_U+30A4_U+30E4_U+30FC 1
 62
   179
420
  2234388
370
     9
100
AcDb2dPolyline
 66
     1
 10
0.0
 20
0.0
 30
0.0
  0
VERTEX
  5
15A
330
159
100
AcDbEntity
  8
_U+30EC_U+30A4_U+30E4_U+30FC 1
 62
   179
420
  2234388
370
     9
100
AcDbVertex
100
AcDb2dVertex
 10
83.96283758015178
 20
-156.4228307942276
 30
0.0
  0
VERTEX
  5
15B
330
159
100
AcDbEntity
  8
_U+30EC_U+30A4_U+30E4_U+30FC 1
 62
   179
420
  2234388
370
     9
100
AcDbVertex
100
AcDb2dVertex
 10
73.50283562478644
 20
-156.4228307942276
 30
0.0
  0
SEQEND
  5
15C
330
159
100
AcDbEntity
  8
_U+30EC_U+30A4_U+30E4_U+30FC 1
 62
   179
420
  2234388
370
     9
  0
POLYLINE
  5
15D
330
1F
100
AcDbEntity
  8
_U+30EC_U+30A4_U+30E4_U+30FC 1
 62
   179
420
  2234388
370
     9
100
AcDb2dPolyline
 66
     1
 10
0.0
 20
0.0
 30
0.0
  0
VERTEX
  5
15E
330
15D
100
AcDbEntity
  8
_U+30EC_U+30A4_U+30E4_U+30FC 1
 62
   179
420
  2234388
370
     9
100
AcDbVertex
100
AcDb2dVertex
 10
75.96261389536559
 20
-148.4229949628943
 30
0.0
  0
VERTEX
  5
15F
330
15D
100
AcDbEntity
  8
_U+30EC_U+30A4_U+30E4_U+30FC 1
 62
   179
420
  2234388
370
     9
100
AcDbVertex
100
AcDb2dVertex
 10
73.50283562478644
 20
-148.4229949628943
 30
0.0
  0
SEQEND
  5
160
330
15D
100
AcDbEntity
  8
_U+30EC_U+30A4_U+30E4_U+30FC 1
 62
   179
420
  2234388
370
     9
  0
POLYLINE
  5
161
330
1F
100
AcDbEntity
  8
_U+30EC_U+30A4_U+30E4_U+30FC 1
 62
   179
420
  2234388
370
     9
100
AcDb2dPolyline
 66
     1
 10
0.0
 20
0.0
 30
0.0
  0
VERTEX
  5
162
330
161
100
AcDbEntity
  8
_U+30EC_U+30A4_U+30E4_U+30FC 1
 62
   179
420
  2234388
370
     9
100
AcDbVertex
100
AcDb2dVertex
 10
74.50260782150235
 20
-136.4226944103385
 30
0.0
  0
VERTEX
  5
163
330
161
100
AcDbEntity
  8
_U+30EC_U+30A4_U+30E4_U+30FC 1
 62
   179
420
  2234388
370
     9
100
AcDbVertex
100
AcDb2dVertex
 10
74.50260782150235
 20
-148.4229949628943
 30
0.0
  0
SEQEND
  5
164
330
161
100
AcDbEntity
  8
_U+30EC_U+30A4_U+30E4_U+30FC 1
 62
   179
420
  2234388
370
     9
  0
POLYLINE
  5
165
330
1F
100
AcDbEntity
  8
_U+30EC_U+30A4_U+30E4_U+30FC 1
 62
   179
420
  2234388
370
     9
100
AcDb2dPolyline
 66
     1
 10
0.0
 20
0.0
 30
0.0
  0
VERTEX
  5
166
330
165
100
AcDbEntity
  8
_U+30EC_U+30A4_U+30E4_U+30FC 1
 62
   179
420
  2234388
370
     9
100
AcDbVertex
100
AcDb2dVertex
 10
75.96261389536559
 20
-136.4226944103385
 30
0.0
  0
VERTEX
  5
167
330
165
100
AcDbEntity
  8
_U+30EC_U+30A4_U+30E4_U+30FC 1
 62
   179
420
  2234388
370
     9
100
AcDbVertex
100
AcDb2dVertex
 10
73.50283562478644
 20
-136.4226944103385
 30
0.0
  0
SEQEND
  5
168
330
165
100
AcDbEntity
  8
_U+30EC_U+30A4_U+30E4_U+30FC 1
 62
   179
420
  2234388
370
     9
  0
POLYLINE
  5
169
330
1F
100
AcDbEntity
  8
_U+30EC_U+30A4_U+30E4_U+30FC 1
 62
   179
420
  2234388
370
     9
100
AcDb2dPolyline
 66
     1
 10
0.0
 20
0.0
 30
0.0
  0
VERTEX
  5
16A
330
169
100
AcDbEntity
  8
_U+30EC_U+30A4_U+30E4_U+30FC 1
 62
   179
420
  2234388
370
     9
100
AcDbVertex
100
AcDb2dVertex
 10
75.96261389536559
 20
-148.4229949628943
 30
0.0
  0
VERTEX
  5
16B
330
169
100
AcDbEntity
  8
_U+30EC_U+30A4_U+30E4_U+30FC 1
 62
   179
420
  2234388
370
     9
100
AcDbVertex
100
AcDb2dVertex
 10
73.50283562478644
 20
-148.4229949628943
 30
0.0
  0
SEQEND
  5
16C
330
169
100
AcDbEntity
  8
_U+30EC_U+30A4_U+30E4_U+30FC 1
 62
   179
420
  2234388
370
     9
  0
POLYLINE
  5
16D
330
1F
100
AcDbEntity
  8
_U+30EC_U+30A4_U+30E4_U+30FC 1
 62
   179
420
  2234388
370
     9
100
AcDb2dPolyline
 66
     1
 10
0.0
 20
0.0
 30
0.0
  0
VERTEX
  5
16E
330
16D
100
AcDbEntity
  8
_U+30EC_U+30A4_U+30E4_U+30FC 1
 62
   179
420
  2234388
370
     9
100
AcDbVertex
100
AcDb2dVertex
 10
83.67447703195292
 20
-159.2512619046313
 30
0.0
  0
VERTEX
  5
16F
330
16D
100
AcDbEntity
  8
_U+30EC_U+30A4_U+30E4_U+30FC 1
 62
   179
420
  2234388
370
     9
100
AcDbVertex
100
AcDb2dVertex
 10
75.67428862494361
 20
-151.2513907955205
 30
0.0
  0
SEQEND
  5
170
330
16D
100
AcDbEntity
  8
_U+30EC_U+30A4_U+30E4_U+30FC 1
 62
   179
420
  2234388
370
     9
  0
POLYLINE
  5
171
330
1F
100
AcDbEntity
  8
_U+30EC_U+30A4_U+30E4_U+30FC 1
 62
   179
420
  2234388
370
     9
100
AcDb2dPolyline
 66
     1
 10
0.0
 20
0.0
 30
0.0
  0
VERTEX
  5
172
330
171
100
AcDbEntity
  8
_U+30EC_U+30A4_U+30E4_U+30FC 1
 62
   179
420
  2234388
370
     9
100
AcDbVertex
100
AcDb2dVertex
 10
84.70663422784261
 20
-158.2187519048897
 30
0.0
  0
VERTEX
  5
173
330
171
100
AcDbEntity
  8
_U+30EC_U+30A4_U+30E4_U+30FC 1
 62
   179
420
  2234388
370
     9
100
AcDbVertex
100
AcDb2dVertex
 10
82.96719288333057
 20
-159.9585460711218
 30
0.0
  0
SEQEND
  5
174
330
171
100
AcDbEntity
  8
_U+30EC_U+30A4_U+30E4_U+30FC 1
 62
   179
420
  2234388
370
     9
  0
POLYLINE
  5
175
330
1F
100
AcDbEntity
  8
_U+30EC_U+30A4_U+30E4_U+30FC 1
 62
   179
420
  2234388
370
     9
100
AcDb2dPolyline
 66
     1
 10
0.0
 20
0.0
 30
0.0
  0
VERTEX
  5
176
330
175
100
AcDbEntity
  8
_U+30EC_U+30A4_U+30E4_U+30FC 1
 62
   179
420
  2234388
370
     9
100
AcDbVertex
100
AcDb2dVertex
 10
76.7067633208252
 20
-150.2189160735564
 30
0.0
  0
VERTEX
  5
177
330
175
100
AcDbEntity
  8
_U+30EC_U+30A4_U+30E4_U+30FC 1
 62
   179
420
  2234388
370
     9
100
AcDbVertex
100
AcDb2dVertex
 10
74.96735725409005
 20
-151.9583221842325
 30
0.0
  0
SEQEND
  5
178
330
175
100
AcDbEntity
  8
_U+30EC_U+30A4_U+30E4_U+30FC 1
 62
   179
420
  2234388
370
     9
  0
POLYLINE
  5
179
330
1F
100
AcDbEntity
  8
_U+30EC_U+30A4_U+30E4_U+30FC 1
 62
   179
420
  2234388
370
     9
100
AcDb2dPolyline
 66
     1
 10
0.0
 20
0.0
 30
0.0
  0
VERTEX
  5
17A
330
179
100
AcDbEntity
  8
_U+30EC_U+30A4_U+30E4_U+30FC 1
 62
   179
420
  2234388
370
     9
100
AcDbVertex
100
AcDb2dVertex
 10
86.50290807090474
 20
-160.4229427376723
 30
0.0
  0
VERTEX
  5
17B
330
179
100
AcDbEntity
  8
_U+30EC_U+30A4_U+30E4_U+30FC 1
 62
   179
420
  2234388
370
     9
100
AcDbVertex
100
AcDb2dVertex
 10
78.50268438611856
 20
-160.4229427376723
 30
0.0
  0
SEQEND
  5
17C
330
179
100
AcDbEntity
  8
_U+30EC_U+30A4_U+30E4_U+30FC 1
 62
   179
420
  2234388
370
     9
  0
POLYLINE
  5
17D
330
1F
100
AcDbEntity
  8
_U+30EC_U+30A4_U+30E4_U+30FC 1
 62
   179
420
  2234388
370
     9
100
AcDb2dPolyline
 66
     1
 10
0.0
 20
0.0
 30
0.0
  0
VERTEX
  5
17E
330
17D
100
AcDbEntity
  8
_U+30EC_U+30A4_U+30E4_U+30FC 1
 62
   179
420
  2234388
370
     9
100
AcDbVertex
100
AcDb2dVertex
 10
86.50290807090474
 20
-158.9629013491479
 30
0.0
  0
VERTEX
  5
17F
330
17D
100
AcDbEntity
  8
_U+30EC_U+30A4_U+30E4_U+30FC 1
 62
   179
420
  2234388
370
     9
100
AcDbVertex
100
AcDb2dVertex
 10
86.50290807090474
 20
-161.4227149596442
 30
0.0
  0
SEQEND
  5
180
330
17D
100
AcDbEntity
  8
_U+30EC_U+30A4_U+30E4_U+30FC 1
 62
   179
420
  2234388
370
     9
  0
POLYLINE
  5
181
330
1F
100
AcDbEntity
  8
_U+30EC_U+30A4_U+30E4_U+30FC 1
 62
   179
420
  2234388
370
     9
100
AcDb2dPolyline
 66
     1
 10
0.0
 20
0.0
 30
0.0
  0
VERTEX
  5
182
330
181
100
AcDbEntity
  8
_U+30EC_U+30A4_U+30E4_U+30FC 1
 62
   179
420
  2234388
370
     9
100
AcDbVertex
100
AcDb2dVertex
 10
78.50268438611856
 20
-150.9627127400374
 30
0.0
  0
VERTEX
  5
183
330
181
100
AcDbEntity
  8
_U+30EC_U+30A4_U+30E4_U+30FC 1
 62
   179
420
  2234388
370
     9
100
AcDbVertex
100
AcDb2dVertex
 10
78.50268438611856
 20
-161.4227149596442
 30
0.0
  0
SEQEND
  5
184
330
181
100
AcDbEntity
  8
_U+30EC_U+30A4_U+30E4_U+30FC 1
 62
   179
420
  2234388
370
     9
  0
POLYLINE
  5
185
330
1F
100
AcDbEntity
  8
_U+30EC_U+30A4_U+30E4_U+30FC 1
 62
   179
420
  2234388
370
     9
100
AcDb2dPolyline
 66
     1
 10
0.0
 20
0.0
 30
0.0
  0
VERTEX
  5
186
330
185
100
AcDbEntity
  8
_U+30EC_U+30A4_U+30E4_U+30FC 1
 62
   179
420
  2234388
370
     9
100
AcDbVertex
100
AcDb2dVertex
 10
102.5029673849314
 20
-153.4228438505333
 30
0.0
  0
VERTEX
  5
187
330
185
100
AcDbEntity
  8
_U+30EC_U+30A4_U+30E4_U+30FC 1
 62
   179
420
  2234388
370
     9
100
AcDbVertex
100
AcDb2dVertex
 10
102.5029673849314
 20
-156.4228307942276
 30
0.0
  0
SEQEND
  5
188
330
185
100
AcDbEntity
  8
_U+30EC_U+30A4_U+30E4_U+30FC 1
 62
   179
420
  2234388
370
     9
  0
POLYLINE
  5
189
330
1F
100
AcDbEntity
  8
_U+30EC_U+30A4_U+30E4_U+30FC 1
 62
   179
420
  2234388
370
     9
100
AcDb2dPolyline
 66
     1
 10
0.0
 20
0.0
 30
0.0
  0
VERTEX
  5
18A
330
189
100
AcDbEntity
  8
_U+30EC_U+30A4_U+30E4_U+30FC 1
 62
   179
420
  2234388
370
     9
100
AcDbVertex
100
AcDb2dVertex
 10
101.0429260332913
 20
-153.4228438505333
 30
0.0
  0
VERTEX
  5
18B
330
189
100
AcDbEntity
  8
_U+30EC_U+30A4_U+30E4_U+30FC 1
 62
   179
420
  2234388
370
     9
100
AcDbVertex
100
AcDb2dVertex
 10
103.5027395816473
 20
-153.4228438505333
 30
0.0
  0
SEQEND
  5
18C
330
189
100
AcDbEntity
  8
_U+30EC_U+30A4_U+30E4_U+30FC 1
 62
   179
420
  2234388
370
     9
  0
POLYLINE
  5
18D
330
1F
100
AcDbEntity
  8
_U+30EC_U+30A4_U+30E4_U+30FC 1
 62
   179
420
  2234388
370
     9
100
AcDb2dPolyline
 66
     1
 10
0.0
 20
0.0
 30
0.0
  0
VERTEX
  5
18E
330
18D
100
AcDbEntity
  8
_U+30EC_U+30A4_U+30E4_U+30FC 1
 62
   179
420
  2234388
370
     9
100
AcDbVertex
100
AcDb2dVertex
 10
101.0429260332913
 20
-156.4228307942276
 30
0.0
  0
VERTEX
  5
18F
330
18D
100
AcDbEntity
  8
_U+30EC_U+30A4_U+30E4_U+30FC 1
 62
   179
420
  2234388
370
     9
100
AcDbVertex
100
AcDb2dVertex
 10
103.5027395816473
 20
-156.4228307942276
 30
0.0
  0
SEQEND
  5
190
330
18D
100
AcDbEntity
  8
_U+30EC_U+30A4_U+30E4_U+30FC 1
 62
   179
420
  2234388
370
     9
  0
POLYLINE
  5
191
330
1F
100
AcDbEntity
  8
_U+30EC_U+30A4_U+30E4_U+30FC 1
 62
   179
420
  2234388
370
     9
100
AcDb2dPolyline
 66
     1
 10
0.0
 20
0.0
 30
0.0
  0
VERTEX
  5
192
330
191
100
AcDbEntity
  8
_U+30EC_U+30A4_U+30E4_U+30FC 1
 62
   179
420
  2234388
370
     9
100
AcDbVertex
100
AcDb2dVertex
 10
102.5029673849314
 20
-153.4228438505333
 30
0.0
  0
VERTEX
  5
193
330
191
100
AcDbEntity
  8
_U+30EC_U+30A4_U+30E4_U+30FC 1
 62
   179
420
  2234388
370
     9
100
AcDbVertex
100
AcDb2dVertex
 10
102.5029673849314
 20
-143.4227580196999
 30
0.0
  0
SEQEND
  5
194
330
191
100
AcDbEntity
  8
_U+30EC_U+30A4_U+30E4_U+30FC 1
 62
   179
420
  2234388
370
     9
  0
POLYLINE
  5
195
330
1F
100
AcDbEntity
  8
_U+30EC_U+30A4_U+30E4_U+30FC 1
 62
   179
420
  2234388
370
     9
100
AcDb2dPolyline
 66
     1
 10
0.0
 20
0.0
 30
0.0
  0
VERTEX
  5
196
330
195
100
AcDbEntity
  8
_U+30EC_U+30A4_U+30E4_U+30FC 1
 62
   179
420
  2234388
370
     9
100
AcDbVertex
100
AcDb2dVertex
 10
95.04259951970572
 20
-143.4227580196999
 30
0.0
  0
VERTEX
  5
197
330
195
100
AcDbEntity
  8
_U+30EC_U+30A4_U+30E4_U+30FC 1
 62
   179
420
  2234388
370
     9
100
AcDbVertex
100
AcDb2dVertex
 10
103.5027395816473
 20
-143.4227580196999
 30
0.0
  0
SEQEND
  5
198
330
195
100
AcDbEntity
  8
_U+30EC_U+30A4_U+30E4_U+30FC 1
 62
   179
420
  2234388
370
     9
  0
POLYLINE
  5
199
330
1F
100
AcDbEntity
  8
_U+30EC_U+30A4_U+30E4_U+30FC 1
 62
   179
420
  2234388
370
     9
100
AcDb2dPolyline
 66
     1
 10
0.0
 20
0.0
 30
0.0
  0
VERTEX
  5
19A
330
199
100
AcDbEntity
  8
_U+30EC_U+30A4_U+30E4_U+30FC 1
 62
   179
420
  2234388
370
     9
100
AcDbVertex
100
AcDb2dVertex
 10
102.5029673849314
 20
-143.4227580196999
 30
0.0
  0
VERTEX
  5
19B
330
199
100
AcDbEntity
  8
_U+30EC_U+30A4_U+30E4_U+30FC 1
 62
   179
420
  2234388
370
     9
100
AcDbVertex
100
AcDb2dVertex
 10
102.5029673849314
 20
-103.4228027519222
 30
0.0
  0
SEQEND
  5
19C
330
199
100
AcDbEntity
  8
_U+30EC_U+30A4_U+30E4_U+30FC 1
 62
   179
420
  2234388
370
     9
  0
POLYLINE
  5
19D
330
1F
100
AcDbEntity
  8
_U+30EC_U+30A4_U+30E4_U+30FC 1
 62
   179
420
  2234388
370
     9
100
AcDb2dPolyline
 66
     1
 10
0.0
 20
0.0
 30
0.0
  0
VERTEX
  5
19E
330
19D
100
AcDbEntity
  8
_U+30EC_U+30A4_U+30E4_U+30FC 1
 62
   179
420
  2234388
370
     9
100
AcDbVertex
100
AcDb2dVertex
 10
95.04259951970572
 20
-103.4228027519222
 30
0.0
  0
VERTEX
  5
19F
330
19D
100
AcDbEntity
  8
_U+30EC_U+30A4_U+30E4_U+30FC 1
 62
   179
420
  2234388
370
     9
100
AcDbVertex
100
AcDb2dVertex
 10
103.5027395816473
 20
-103.4228027519222
 30
0.0
  0
SEQEND
  5
1A0
330
19D
100
AcDbEntity
  8
_U+30EC_U+30A4_U+30E4_U+30FC 1
 62
   179
420
  2234388
370
     9
  0
INSERT
  5
1A2
330
1F
100
AcDbEntity
  8
_U+30EC_U+30A4_U+30E4_U+30FC 1
100
AcDbBlockReference
  2
block 2
 10
0.0
 20
0.0
 30
0.0
  0
INSERT
  5
1A8
330
1F
100
AcDbEntity
  8
_U+30EC_U+30A4_U+30E4_U+30FC 1
100
AcDbBlockReference
  2
block 3
 10
0.0
 20
0.0
 30
0.0
  0
INSERT
  5
1B0
330
1F
100
AcDbEntity
  8
_U+30EC_U+30A4_U+30E4_U+30FC 1
100
AcDbBlockReference
  2
block 4
 10
0.0
 20
0.0
 30
0.0
  0
INSERT
  5
1B6
330
1F
100
AcDbEntity
  8
_U+30EC_U+30A4_U+30E4_U+30FC 1
100
AcDbBlockReference
  2
block 5
 10
0.0
 20
0.0
 30
0.0
  0
INSERT
  5
1BF
330
1F
100
AcDbEntity
  8
_U+30EC_U+30A4_U+30E4_U+30FC 1
100
AcDbBlockReference
  2
block 6
 10
0.0
 20
0.0
 30
0.0
  0
INSERT
  5
1C7
330
1F
100
AcDbEntity
  8
_U+30EC_U+30A4_U+30E4_U+30FC 1
100
AcDbBlockReference
  2
block 7
 10
0.0
 20
0.0
 30
0.0
  0
INSERT
  5
1CD
330
1F
100
AcDbEntity
  8
_U+30EC_U+30A4_U+30E4_U+30FC 1
100
AcDbBlockReference
  2
block 8
 10
0.0
 20
0.0
 30
0.0
  0
INSERT
  5
1D6
330
1F
100
AcDbEntity
  8
_U+30EC_U+30A4_U+30E4_U+30FC 1
100
AcDbBlockReference
  2
block 9
 10
0.0
 20
0.0
 30
0.0
  0
INSERT
  5
1F2
330
1F
100
AcDbEntity
  8
_U+30EC_U+30A4_U+30E4_U+30FC 1
100
AcDbBlockReference
  2
block 10
 10
0.0
 20
0.0
 30
0.0
  0
INSERT
  5
1FA
330
1F
100
AcDbEntity
  8
_U+30EC_U+30A4_U+30E4_U+30FC 1
100
AcDbBlockReference
  2
block 11
 10
0.0
 20
0.0
 30
0.0
  0
INSERT
  5
202
330
1F
100
AcDbEntity
  8
_U+30EC_U+30A4_U+30E4_U+30FC 1
100
AcDbBlockReference
  2
block 12
 10
0.0
 20
0.0
 30
0.0
  0
ENDSEC
  0
SECTION
  2
OBJECTS
  0
DICTIONARY
  5
C
330
0
100
AcDbDictionary
281
     1
  3
ACAD_GROUP
350
D
  3
ACAD_LAYOUT
350
1A
  3
ACAD_MATERIAL
350
3B
  3
ACAD_MLEADERSTYLE
350
20A
  3
ACAD_MLINESTYLE
350
17
  3
ACAD_PLOTSETTINGS
350
19
  3
ACAD_PLOTSTYLENAME
350
E
  3
ACAD_TABLESTYLE
350
209
  3
ACAD_VISUALSTYLE
350
2A
  0
SUN
  5
3F
330
29
100
AcDbSun
 90
        1
290
     0
 63
     7
421
 16777215
 40
1.0
291
     1
 91
  2455826
 92
 54000000
292
     0
 70
     2
 71
   256
280
     1
  0
DICTIONARY
  5
D
102
{ACAD_REACTORS
330
C
102
}
330
C
100
AcDbDictionary
281
     1
  0
DICTIONARY
  5
1A
102
{ACAD_REACTORS
330
C
102
}
330
C
100
AcDbDictionary
281
     1
  3
Layout1
350
1E
  3
Layout2
350
26
  3
Model
350
22
  0
DICTIONARY
  5
3B
102
{ACAD_REACTORS
330
C
102
}
330
C
100
AcDbDictionary
281
     1
  3
ByBlock
350
3D
  3
ByLayer
350
3C
  3
Global
350
3E
  0
DICTIONARY
  5
20A
102
{ACAD_REACTORS
330
C
102
}
330
C
100
AcDbDictionary
281
     1
  0
DICTIONARY
  5
17
102
{ACAD_REACTORS
330
C
102
}
330
C
100
AcDbDictionary
281
     1
  3
Standard
350
18
  0
DICTIONARY
  5
19
102
{ACAD_REACTORS
330
C
102
}
330
C
100
AcDbDictionary
281
     1
  0
ACDBDICTIONARYWDFLT
  5
E
102
{ACAD_REACTORS
330
C
102
}
330
C
100
AcDbDictionary
281
     1
  3
Normal
350
F
100
AcDbDictionaryWithDefault
340
F
  0
DICTIONARY
  5
209
102
{ACAD_REACTORS
330
C
102
}
330
C
100
AcDbDictionary
281
     1
  0
DICTIONARY
  5
2A
102
{ACAD_REACTORS
330
C
102
}
330
C
100
AcDbDictionary
281
     1
  3
2dWireframe
350
2F
  3
3D Hidden
350
31
  3
3dWireframe
350
30
  3
Basic
350
32
  3
Brighten
350
36
  3
ColorChange
350
3A
  3
Conceptual
350
34
  3
Dim
350
35
  3
Facepattern
350
39
  3
Flat
350
2B
  3
FlatWithEdges
350
2C
  3
Gouraud
350
2D
  3
GouraudWithEdges
350
2E
  3
Linepattern
350
38
  3
Realistic
350
33
  3
Thicken
350
37
  0
LAYOUT
  5
1E
102
{ACAD_REACTORS
330
1A
102
}
330
1A
100
AcDbPlotSettings
  1

  2
none_device
  4

  6

 40
0.0
 41
0.0
 42
0.0
 43
0.0
 44
0.0
 45
0.0
 46
0.0
 47
0.0
 48
0.0
 49
0.0
140
0.0
141
0.0
142
1.0
143
1.0
 70
   688
 72
     0
 73
     0
 74
     5
  7

 75
    16
 76
     0
 77
     2
 78
   300
147
1.0
148
0.0
149
0.0
100
AcDbLayout
  1
Layout1
 70
     1
 71
     1
 10
0.0
 20
0.0
 11
12.0
 21
9.0
 12
0.0
 22
0.0
 32
0.0
 14
1.000000000000000E+20
 24
1.000000000000000E+20
 34
1.000000000000000E+20
 15
-1.000000000000000E+20
 25
-1.000000000000000E+20
 35
-1.000000000000000E+20
146
0.0
 13
0.0
 23
0.0
 33
0.0
 16
1.0
 26
0.0
 36
0.0
 17
0.0
 27
1.0
 37
0.0
 76
     0
330
1B
  0
LAYOUT
  5
26
102
{ACAD_REACTORS
330
1A
102
}
330
1A
100
AcDbPlotSettings
  1

  2
none_device
  4

  6

 40
0.0
 41
0.0
 42
0.0
 43
0.0
 44
0.0
 45
0.0
 46
0.0
 47
0.0
 48
0.0
 49
0.0
140
0.0
141
0.0
142
1.0
143
1.0
 70
   688
 72
     0
 73
     0
 74
     5
  7

 75
    16
 76
     0
 77
     2
 78
   300
147
1.0
148
0.0
149
0.0
100
AcDbLayout
  1
Layout2
 70
     1
 71
     2
 10
0.0
 20
0.0
 11
0.0
 21
0.0
 12
0.0
 22
0.0
 32
0.0
 14
0.0
 24
0.0
 34
0.0
 15
0.0
 25
0.0
 35
0.0
146
0.0
 13
0.0
 23
0.0
 33
0.0
 16
1.0
 26
0.0
 36
0.0
 17
0.0
 27
1.0
 37
0.0
 76
     0
330
23
  0
LAYOUT
  5
22
102
{ACAD_REACTORS
330
1A
102
}
330
1A
100
AcDbPlotSettings
  1

  2
none_device
  4

  6

 40
0.0
 41
0.0
 42
0.0
 43
0.0
 44
0.0
 45
0.0
 46
0.0
 47
0.0
 48
0.0
 49
0.0
140
0.0
141
0.0
142
1.0
143
1.0
 70
  1712
 72
     0
 73
     0
 74
     0
  7

 75
     0
 76
     0
 77
     2
 78
   300
147
1.0
148
0.0
149
0.0
100
AcDbLayout
  1
Model
 70
     1
 71
     0
 10
0.0
 20
0.0
 11
12.0
 21
9.0
 12
0.0
 22
0.0
 32
0.0
 14
1.000000000000000E+20
 24
1.000000000000000E+20
 34
1.000000000000000E+20
 15
-1.000000000000000E+20
 25
-1.000000000000000E+20
 35
-1.000000000000000E+20
146
0.0
 13
0.0
 23
0.0
 33
0.0
 16
1.0
 26
0.0
 36
0.0
 17
0.0
 27
1.0
 37
0.0
 76
     0
330
1F
331
29
  0
MATERIAL
  5
3D
102
{ACAD_REACTORS
330
3B
102
}
330
3B
100
AcDbMaterial
  1
ByBlock
 72
     1
 94
      127
  0
MATERIAL
  5
3C
102
{ACAD_REACTORS
330
3B
102
}
330
3B
100
AcDbMaterial
  1
ByLayer
 72
     1
 94
      127
  0
MATERIAL
  5
3E
102
{ACAD_REACTORS
330
3B
102
}
330
3B
100
AcDbMaterial
  1
Global
 72
     1
 94
      127
  0
MLINESTYLE
  5
18
102
{ACAD_REACTORS
330
17
102
}
330
17
100
AcDbMlineStyle
  2
Standard
 70
     0
  3

 62
   256
 51
90.0
 52
90.0
 71
     2
 49
0.5
 62
   256
  6
BYLAYER
 49
-0.5
 62
   256
  6
BYLAYER
  0
ACDBPLACEHOLDER
  5
F
102
{ACAD_REACTORS
330
E
102
}
330
E
  0
VISUALSTYLE
  5
2F
102
{ACAD_REACTORS
330
2A
102
}
330
2A
100
AcDbVisualStyle
  2
2dWireframe
 70
     4
177
     2
291
     0
 71
     0
176
     1
 72
     2
176
     1
 73
     0
176
     1
 90
        0
176
     1
 40
-0.6
176
     1
 41
-30.0
176
     1
 62
     5
 63
     7
421
 16777215
176
     1
 74
     1
176
     1
 91
        4
176
     1
 64
     7
176
     1
 65
   257
176
     1
 75
     1
176
     1
175
     1
176
     1
 42
1.0
176
     1
 92
        0
176
     1
 66
   257
176
     1
 43
1.0
176
     1
 76
     1
176
     1
 77
     6
176
     1
 78
     2
176
     1
 67
     7
176
     1
 79
     5
176
     1
170
     0
176
     1
171
     0
176
     1
290
     0
176
     1
 93
        1
176
     1
 44
0.0
176
     1
173
     0
176
     1
  0
VISUALSTYLE
  5
31
102
{ACAD_REACTORS
330
2A
102
}
330
2A
100
AcDbVisualStyle
  2
3D Hidden
 70
     6
177
     2
291
     0
 71
     1
176
     1
 72
     2
176
     1
 73
     2
176
     1
 90
        0
176
     1
 40
-0.6
176
     1
 41
-30.0
176
     1
 62
     5
 63
     7
421
 16777215
176
     1
 74
     2
176
     1
 91
        2
176
     1
 64
     7
176
     1
 65
   257
176
     1
 75
     2
176
     1
175
     1
176
     1
 42
40.0
176
     1
 92
        0
176
     1
 66
   257
176
     1
 43
1.0
176
     1
 76
     1
176
     1
 77
     6
176
     1
 78
     2
176
     1
 67
     7
176
     1
 79
     3
176
     1
170
     0
176
     1
171
     0
176
     1
290
     0
176
     1
 93
        1
176
     1
 44
0.0
176
     1
173
     0
176
     1
  0
VISUALSTYLE
  5
30
102
{ACAD_REACTORS
330
2A
102
}
330
2A
100
AcDbVisualStyle
  2
3dWireframe
 70
     5
177
     2
291
     0
 71
     0
176
     1
 72
     2
176
     1
 73
     0
176
     1
 90
        0
176
     1
 40
-0.6
176
     1
 41
-30.0
176
     1
 62
     5
 63
     7
421
 16777215
176
     1
 74
     1
176
     1
 91
        4
176
     1
 64
     7
176
     1
 65
   257
176
     1
 75
     1
176
     1
175
     1
176
     1
 42
1.0
176
     1
 92
        0
176
     1
 66
   257
176
     1
 43
1.0
176
     1
 76
     1
176
     1
 77
     6
176
     1
 78
     2
176
     1
 67
     7
176
     1
 79
     5
176
     1
170
     0
176
     1
171
     0
176
     1
290
     0
176
     1
 93
        1
176
     1
 44
0.0
176
     1
173
     0
176
     1
  0
VISUALSTYLE
  5
32
102
{ACAD_REACTORS
330
2A
102
}
330
2A
100
AcDbVisualStyle
  2
Basic
 70
     7
177
     2
291
     1
 71
     1
176
     1
 72
     0
176
     1
 73
     1
176
     1
 90
        0
176
     1
 40
-0.6
176
     1
 41
-30.0
176
     1
 62
     5
 63
     7
421
 16777215
176
     1
 74
     0
176
     1
 91
        4
176
     1
 64
     7
176
     1
 65
   257
176
     1
 75
     1
176
     1
175
     1
176
     1
 42
1.0
176
     1
 92
        8
176
     1
 66
     7
176
     1
 43
1.0
176
     1
 76
     1
176
     1
 77
     6
176
     1
 78
     2
176
     1
 67
     7
176
     1
 79
     5
176
     1
170
     0
176
     1
171
     0
176
     1
290
     0
176
     1
 93
        1
176
     1
 44
0.0
176
     1
173
     0
176
     1
  0
VISUALSTYLE
  5
36
102
{ACAD_REACTORS
330
2A
102
}
330
2A
100
AcDbVisualStyle
  2
Brighten
 70
    12
177
     2
291
     1
 71
     2
176
     1
 72
     2
176
     1
 73
     0
176
     1
 90
        0
176
     1
 40
-0.6
176
     1
 41
-30.0
176
     1
 62
     5
 63
     7
421
 16777215
176
     1
 74
     1
176
     1
 91
        4
176
     1
 64
     7
176
     1
 65
   257
176
     1
 75
     1
176
     1
175
     1
176
     1
 42
1.0
176
     1
 92
        8
176
     1
 66
     7
176
     1
 43
1.0
176
     1
 76
     1
176
     1
 77
     6
176
     1
 78
     2
176
     1
 67
     7
176
     1
 79
     5
176
     1
170
     0
176
     1
171
     0
176
     1
290
     0
176
     1
 93
        1
176
     1
 44
50.0
176
     1
173
     0
176
     1
  0
VISUALSTYLE
  5
3A
102
{ACAD_REACTORS
330
2A
102
}
330
2A
100
AcDbVisualStyle
  2
ColorChange
 70
    16
177
     2
291
     1
 71
     2
176
     1
 72
     2
176
     1
 73
     3
176
     1
 90
        0
176
     1
 40
-0.6
176
     1
 41
-30.0
176
     1
 62
     5
 63
     8
421
  8421504
176
     1
 74
     1
176
     1
 91
        4
176
     1
 64
     7
176
     1
 65
   257
176
     1
 75
     1
176
     1
175
     1
176
     1
 42
1.0
176
     1
 92
        8
176
     1
 66
     8
424
  8421504
176
     1
 43
1.0
176
     1
 76
     1
176
     1
 77
     6
176
     1
 78
     2
176
     1
 67
     7
176
     1
 79
     5
176
     1
170
     0
176
     1
171
     0
176
     1
290
     0
176
     1
 93
        1
176
     1
 44
0.0
176
     1
173
     0
176
     1
  0
VISUALSTYLE
  5
34
102
{ACAD_REACTORS
330
2A
102
}
330
2A
100
AcDbVisualStyle
  2
Conceptual
 70
     9
177
     2
291
     0
 71
     3
176
     1
 72
     2
176
     1
 73
     0
176
     1
 90
        0
176
     1
 40
-0.6
176
     1
 41
-30.0
176
     1
 62
     5
 63
     7
421
 16777215
176
     1
 74
     2
176
     1
 91
        2
176
     1
 64
     7
176
     1
 65
   257
176
     1
 75
     1
176
     1
175
     1
176
     1
 42
40.0
176
     1
 92
        8
176
     1
 66
     7
176
     1
 43
1.0
176
     1
 76
     1
176
     1
 77
     6
176
     1
 78
     2
176
     1
 67
     7
176
     1
 79
     3
176
     1
170
     0
176
     1
171
     0
176
     1
290
     0
176
     1
 93
        1
176
     1
 44
0.0
176
     1
173
     0
176
     1
  0
VISUALSTYLE
  5
35
102
{ACAD_REACTORS
330
2A
102
}
330
2A
100
AcDbVisualStyle
  2
Dim
 70
    11
177
     2
291
     1
 71
     2
176
     1
 72
     2
176
     1
 73
     0
176
     1
 90
        0
176
     1
 40
-0.6
176
     1
 41
-30.0
176
     1
 62
     5
 63
     7
421
 16777215
176
     1
 74
     1
176
     1
 91
        4
176
     1
 64
     7
176
     1
 65
   257
176
     1
 75
     1
176
     1
175
     1
176
     1
 42
1.0
176
     1
 92
        8
176
     1
 66
     7
176
     1
 43
1.0
176
     1
 76
     1
176
     1
 77
     6
176
     1
 78
     2
176
     1
 67
     7
176
     1
 79
     5
176
     1
170
     0
176
     1
171
     0
176
     1
290
     0
176
     1
 93
        1
176
     1
 44
-50.0
176
     1
173
     0
176
     1
  0
VISUALSTYLE
  5
39
102
{ACAD_REACTORS
330
2A
102
}
330
2A
100
AcDbVisualStyle
  2
Facepattern
 70
    15
177
     2
291
     1
 71
     2
176
     1
 72
     2
176
     1
 73
     0
176
     1
 90
        0
176
     1
 40
-0.6
176
     1
 41
-30.0
176
     1
 62
     5
 63
     7
421
 16777215
176
     1
 74
     1
176
     1
 91
        4
176
     1
 64
     7
176
     1
 65
   257
176
     1
 75
     1
176
     1
175
     1
176
     1
 42
1.0
176
     1
 92
        8
176
     1
 66
     7
176
     1
 43
1.0
176
     1
 76
     1
176
     1
 77
     6
176
     1
 78
     2
176
     1
 67
     7
176
     1
 79
     5
176
     1
170
     0
176
     1
171
     0
176
     1
290
     0
176
     1
 93
        1
176
     1
 44
0.0
176
     1
173
     0
176
     1
  0
VISUALSTYLE
  5
2B
102
{ACAD_REACTORS
330
2A
102
}
330
2A
100
AcDbVisualStyle
  2
Flat
 70
     0
177
     2
291
     1
 71
     2
176
     1
 72
     1
176
     1
 73
     1
176
     1
 90
        2
176
     1
 40
-0.6
176
     1
 41
30.0
176
     1
 62
     5
 63
     7
421
 16777215
176
     1
 74
     0
176
     1
 91
        4
176
     1
 64
     7
176
     1
 65
   257
176
     1
 75
     1
176
     1
175
     1
176
     1
 42
1.0
176
     1
 92
        8
176
     1
 66
     7
176
     1
 43
1.0
176
     1
 76
     1
176
     1
 77
     6
176
     1
 78
     2
176
     1
 67
     7
176
     1
 79
     5
176
     1
170
     0
176
     1
171
     0
176
     1
290
     0
176
     1
 93
       13
176
     1
 44
0.0
176
     1
173
     0
176
     1
  0
VISUALSTYLE
  5
2C
102
{ACAD_REACTORS
330
2A
102
}
330
2A
100
AcDbVisualStyle
  2
FlatWithEdges
 70
     1
177
     2
291
     1
 71
     2
176
     1
 72
     1
176
     1
 73
     1
176
     1
 90
        2
176
     1
 40
-0.6
176
     1
 41
30.0
176
     1
 62
     5
 63
     7
421
 16777215
176
     1
 74
     1
176
     1
 91
        4
176
     1
 64
     7
176
     1
 65
   257
176
     1
 75
     1
176
     1
175
     1
176
     1
 42
1.0
176
     1
 92
        0
176
     1
 66
   257
176
     1
 43
1.0
176
     1
 76
     1
176
     1
 77
     6
176
     1
 78
     2
176
     1
 67
     7
176
     1
 79
     5
176
     1
170
     0
176
     1
171
     0
176
     1
290
     0
176
     1
 93
       13
176
     1
 44
0.0
176
     1
173
     0
176
     1
  0
VISUALSTYLE
  5
2D
102
{ACAD_REACTORS
330
2A
102
}
330
2A
100
AcDbVisualStyle
  2
Gouraud
 70
     2
177
     2
291
     1
 71
     2
176
     1
 72
     2
176
     1
 73
     1
176
     1
 90
        2
176
     1
 40
-0.6
176
     1
 41
30.0
176
     1
 62
     5
 63
     7
421
 16777215
176
     1
 74
     0
176
     1
 91
        4
176
     1
 64
     7
176
     1
 65
   257
176
     1
 75
     1
176
     1
175
     1
176
     1
 42
1.0
176
     1
 92
        0
176
     1
 66
     7
176
     1
 43
1.0
176
     1
 76
     1
176
     1
 77
     6
176
     1
 78
     2
176
     1
 67
     7
176
     1
 79
     5
176
     1
170
     0
176
     1
171
     0
176
     1
290
     0
176
     1
 93
       13
176
     1
 44
0.0
176
     1
173
     0
176
     1
  0
VISUALSTYLE
  5
2E
102
{ACAD_REACTORS
330
2A
102
}
330
2A
100
AcDbVisualStyle
  2
GouraudWithEdges
 70
     3
177
     2
291
     1
 71
     2
176
     1
 72
     2
176
     1
 73
     1
176
     1
 90
        2
176
     1
 40
-0.6
176
     1
 41
30.0
176
     1
 62
     5
 63
     7
421
 16777215
176
     1
 74
     1
176
     1
 91
        4
176
     1
 64
     7
176
     1
 65
   257
176
     1
 75
     1
176
     1
175
     1
176
     1
 42
1.0
176
     1
 92
        0
176
     1
 66
   257
176
     1
 43
1.0
176
     1
 76
     1
176
     1
 77
     6
176
     1
 78
     2
176
     1
 67
     7
176
     1
 79
     5
176
     1
170
     0
176
     1
171
     0
176
     1
290
     0
176
     1
 93
       13
176
     1
 44
0.0
176
     1
173
     0
176
     1
  0
VISUALSTYLE
  5
38
102
{ACAD_REACTORS
330
2A
102
}
330
2A
100
AcDbVisualStyle
  2
Linepattern
 70
    14
177
     2
291
     1
 71
     2
176
     1
 72
     2
176
     1
 73
     0
176
     1
 90
        0
176
     1
 40
-0.6
176
     1
 41
-30.0
176
     1
 62
     5
 63
     7
421
 16777215
176
     1
 74
     1
176
     1
 91
        4
176
     1
 64
     7
176
     1
 65
   257
176
     1
 75
     7
176
     1
175
     7
176
     1
 42
1.0
176
     1
 92
        8
176
     1
 66
     7
176
     1
 43
1.0
176
     1
 76
     1
176
     1
 77
     6
176
     1
 78
     2
176
     1
 67
     7
176
     1
 79
     5
176
     1
170
     0
176
     1
171
     0
176
     1
290
     0
176
     1
 93
        1
176
     1
 44
0.0
176
     1
173
     0
176
     1
  0
VISUALSTYLE
  5
33
102
{ACAD_REACTORS
330
2A
102
}
330
2A
100
AcDbVisualStyle
  2
Realistic
 70
     8
177
     2
291
     0
 71
     2
176
     1
 72
     2
176
     1
 73
     0
176
     1
 90
        0
176
     1
 40
-0.6
176
     1
 41
-30.0
176
     1
 62
     5
 63
     7
421
 16777215
176
     1
 74
     1
176
     1
 91
        0
176
     1
 64
     7
176
     1
 65
   257
176
     1
 75
     1
176
     1
175
     1
176
     1
 42
1.0
176
     1
 92
        8
176
     1
 66
     8
424
  7895160
176
     1
 43
1.0
176
     1
 76
     1
176
     1
 77
     6
176
     1
 78
     2
176
     1
 67
     7
176
     1
 79
     5
176
     1
170
     0
176
     1
171
     0
176
     1
290
     0
176
     1
 93
       13
176
     1
 44
0.0
176
     1
173
     0
176
     1
  0
VISUALSTYLE
  5
37
102
{ACAD_REACTORS
330
2A
102
}
330
2A
100
AcDbVisualStyle
  2
Thicken
 70
    13
177
     2
291
     1
 71
     2
176
     1
 72
     2
176
     1
 73
     0
176
     1
 90
        0
176
     1
 40
-0.6
176
     1
 41
-30.0
176
     1
 62
     5
 63
     7
421
 16777215
176
     1
 74
     1
176
     1
 91
        4
176
     1
 64
     7
176
     1
 65
   257
176
     1
 75
     1
176
     1
175
     1
176
     1
 42
1.0
176
     1
 92
       12
176
     1
 66
     7
176
     1
 43
1.0
176
     1
 76
     1
176
     1
 77
     6
176
     1
 78
     2
176
     1
 67
     7
176
     1
 79
     5
176
     1
170
     0
176
     1
171
     0
176
     1
290
     0
176
     1
 93
        1
176
     1
 44
0.0
176
     1
173
     0
176
     1
  0
ENDSEC
  0
EOF
