  0
SECTION
  2
HEADER
  9
$ACADVER
  1
AC1024
  9
$ACADMAINTVER
 70
     6
  9
$DWGCODEPAGE
  3
UNDEFINED
  9
$INSBASE
 10
0.0
 20
0.0
 30
0.0
  9
$EXTMIN
 10
1.000000000000000E+20
 20
1.000000000000000E+20
 30
1.000000000000000E+20
  9
$EXTMAX
 10
-1.000000000000000E+20
 20
-1.000000000000000E+20
 30
-1.000000000000000E+20
  9
$LIMMIN
 10
0.0
 20
0.0
  9
$LIMMAX
 10
12.0
 20
9.0
  9
$ORTHOMODE
 70
     0
  9
$REGENMODE
 70
     1
  9
$FILLMODE
 70
     1
  9
$QTEXTMODE
 70
     0
  9
$MIRRTEXT
 70
     1
  9
$LTSCALE
 40
1.0
  9
$ATTMODE
 70
     1
  9
$TEXTSIZE
 40
0.2
  9
$TRACEWID
 40
0.05
  9
$TEXTSTYLE
  7
Standard
  9
$CLAYER
  8
0
  9
$CELTYPE
  6
ByLayer
  9
$CECOLOR
 62
   256
  9
$CELTSCALE
 40
1.0
  9
$DISPSILH
 70
     0
  9
$DIMSCALE
 40
1.0
  9
$DIMASZ
 40
0.18
  9
$DIMEXO
 40
0.0625
  9
$DIMDLI
 40
0.38
  9
$DIMRND
 40
0.0
  9
$DIMDLE
 40
0.0
  9
$DIMEXE
 40
0.18
  9
$DIMTP
 40
0.0
  9
$DIMTM
 40
0.0
  9
$DIMTXT
 40
0.18
  9
$DIMCEN
 40
0.09
  9
$DIMTSZ
 40
0.0
  9
$DIMTOL
 70
     0
  9
$DIMLIM
 70
     0
  9
$DIMTIH
 70
     1
  9
$DIMTOH
 70
     1
  9
$DIMSE1
 70
     0
  9
$DIMSE2
 70
     0
  9
$DIMTAD
 70
     0
  9
$DIMZIN
 70
     0
  9
$DIMBLK
  1

  9
$DIMASO
 70
     1
  9
$DIMSHO
 70
     1
  9
$DIMPOST
  1

  9
$DIMAPOST
  1

  9
$DIMALT
 70
     0
  9
$DIMALTD
 70
     2
  9
$DIMALTF
 40
25.4
  9
$DIMLFAC
 40
1.0
  9
$DIMTOFL
 70
     0
  9
$DIMTVP
 40
0.0
  9
$DIMTIX
 70
     0
  9
$DIMSOXD
 70
     0
  9
$DIMSAH
 70
     0
  9
$DIMBLK1
  1

  9
$DIMBLK2
  1

  9
$DIMSTYLE
  2
Standard
  9
$DIMCLRD
 70
     0
  9
$DIMCLRE
 70
     0
  9
$DIMCLRT
 70
     0
  9
$DIMTFAC
 40
1.0
  9
$DIMGAP
 40
0.09
  9
$DIMJUST
 70
     0
  9
$DIMSD1
 70
     0
  9
$DIMSD2
 70
     0
  9
$DIMTOLJ
 70
     1
  9
$DIMTZIN
 70
     0
  9
$DIMALTZ
 70
     0
  9
$DIMALTTZ
 70
     0
  9
$DIMUPT
 70
     0
  9
$DIMDEC
 70
     4
  9
$DIMTDEC
 70
     4
  9
$DIMALTU
 70
     2
  9
$DIMALTTD
 70
     2
  9
$DIMTXSTY
  7
Standard
  9
$DIMAUNIT
 70
     0
  9
$DIMADEC
 70
     0
  9
$DIMALTRND
 40
0.0
  9
$DIMAZIN
 70
     0
  9
$DIMDSEP
 70
    46
  9
$DIMATFIT
 70
     3
  9
$DIMFRAC
 70
     0
  9
$DIMLDRBLK
  1

  9
$DIMLUNIT
 70
     2
  9
$DIMLWD
 70
    -2
  9
$DIMLWE
 70
    -2
  9
$DIMTMOVE
 70
     0
  9
$DIMFXL
 40
1.0
  9
$DIMFXLON
 70
     0
  9
$DIMJOGANG
 40
0.7853981633974483
  9
$DIMTFILL
 70
     0
  9
$DIMTFILLCLR
 70
     0
  9
$DIMARCSYM
 70
     0
  9
$DIMLTYPE
  6

  9
$DIMLTEX1
  6

  9
$DIMLTEX2
  6

  9
$DIMTXTDIRECTION
 70
     0
  9
$LUNITS
 70
     2
  9
$LUPREC
 70
     4
  9
$SKETCHINC
 40
0.1
  9
$FILLETRAD
 40
0.5
  9
$AUNITS
 70
     0
  9
$AUPREC
 70
     0
  9
$MENU
  1
.
  9
$ELEVATION
 40
0.0
  9
$PELEVATION
 40
0.0
  9
$THICKNESS
 40
0.0
  9
$LIMCHECK
 70
     0
  9
$CHAMFERA
 40
0.5
  9
$CHAMFERB
 40
0.5
  9
$CHAMFERC
 40
1.0
  9
$CHAMFERD
 40
0.0
  9
$SKPOLY
 70
     0
  9
$TDCREATE
 40
2457917.613715278
  9
$TDUCREATE
 40
2457917.238715278
  9
$TDUPDATE
 40
2457917.613715278
  9
$TDUUPDATE
 40
2457917.238715278
  9
$TDINDWG
 40
0.0000000116
  9
$TDUSRTIMER
 40
0.0000000116
  9
$USRTIMER
 70
     1
  9
$ANGBASE
 50
0.0
  9
$ANGDIR
 70
     0
  9
$PDMODE
 70
     0
  9
$PDSIZE
 40
0.0
  9
$PLINEWID
 40
0.0
  9
$SPLFRAME
 70
     0
  9
$SPLINETYPE
 70
     6
  9
$SPLINESEGS
 70
     8
  9
$HANDSEED
  5
179
  9
$SURFTAB1
 70
     6
  9
$SURFTAB2
 70
     6
  9
$SURFTYPE
 70
     6
  9
$SURFU
 70
     6
  9
$SURFV
 70
     6
  9
$UCSBASE
  2

  9
$UCSNAME
  2

  9
$UCSORG
 10
0.0
 20
0.0
 30
0.0
  9
$UCSXDIR
 10
1.0
 20
0.0
 30
0.0
  9
$UCSYDIR
 10
0.0
 20
1.0
 30
0.0
  9
$UCSORTHOREF
  2

  9
$UCSORTHOVIEW
 70
     0
  9
$UCSORGTOP
 10
0.0
 20
0.0
 30
0.0
  9
$UCSORGBOTTOM
 10
0.0
 20
0.0
 30
0.0
  9
$UCSORGLEFT
 10
0.0
 20
0.0
 30
0.0
  9
$UCSORGRIGHT
 10
0.0
 20
0.0
 30
0.0
  9
$UCSORGFRONT
 10
0.0
 20
0.0
 30
0.0
  9
$UCSORGBACK
 10
0.0
 20
0.0
 30
0.0
  9
$PUCSBASE
  2

  9
$PUCSNAME
  2

  9
$PUCSORG
 10
0.0
 20
0.0
 30
0.0
  9
$PUCSXDIR
 10
1.0
 20
0.0
 30
0.0
  9
$PUCSYDIR
 10
0.0
 20
1.0
 30
0.0
  9
$PUCSORTHOREF
  2

  9
$PUCSORTHOVIEW
 70
     0
  9
$PUCSORGTOP
 10
0.0
 20
0.0
 30
0.0
  9
$PUCSORGBOTTOM
 10
0.0
 20
0.0
 30
0.0
  9
$PUCSORGLEFT
 10
0.0
 20
0.0
 30
0.0
  9
$PUCSORGRIGHT
 10
0.0
 20
0.0
 30
0.0
  9
$PUCSORGFRONT
 10
0.0
 20
0.0
 30
0.0
  9
$PUCSORGBACK
 10
0.0
 20
0.0
 30
0.0
  9
$USERI1
 70
     0
  9
$USERI2
 70
     0
  9
$USERI3
 70
     0
  9
$USERI4
 70
     0
  9
$USERI5
 70
     0
  9
$USERR1
 40
0.0
  9
$USERR2
 40
0.0
  9
$USERR3
 40
0.0
  9
$USERR4
 40
0.0
  9
$USERR5
 40
0.0
  9
$WORLDVIEW
 70
     1
  9
$SHADEDGE
 70
     3
  9
$SHADEDIF
 70
    70
  9
$TILEMODE
 70
     1
  9
$MAXACTVP
 70
    64
  9
$PINSBASE
 10
0.0
 20
0.0
 30
0.0
  9
$PLIMCHECK
 70
     0
  9
$PEXTMIN
 10
1.000000000000000E+20
 20
1.000000000000000E+20
 30
1.000000000000000E+20
  9
$PEXTMAX
 10
-1.000000000000000E+20
 20
-1.000000000000000E+20
 30
-1.000000000000000E+20
  9
$PLIMMIN
 10
0.0
 20
0.0
  9
$PLIMMAX
 10
12.0
 20
9.0
  9
$UNITMODE
 70
     0
  9
$VISRETAIN
 70
     1
  9
$PLINEGEN
 70
     0
  9
$PSLTSCALE
 70
     1
  9
$TREEDEPTH
 70
  3020
  9
$CMLSTYLE
  2
Standard
  9
$CMLJUST
 70
     0
  9
$CMLSCALE
 40
1.0
  9
$PROXYGRAPHICS
 70
     1
  9
$MEASUREMENT
 70
     0
  9
$CELWEIGHT
370
    -1
  9
$ENDCAPS
280
     0
  9
$JOINSTYLE
280
     0
  9
$LWDISPLAY
290
     1
  9
$INSUNITS
 70
     1
  9
$HYPERLINKBASE
  1

  9
$STYLESHEET
  1

  9
$XEDIT
290
     1
  9
$CEPSNTYPE
380
     0
  9
$PSTYLEMODE
290
     1
  9
$FINGERPRINTGUID
  2
{9A6F234C-B453-9103-50E3-ABF73F153B9E}
  9
$VERSIONGUID
  2
{FAEB1C32-E019-11D5-929B-00C0DF256EC4}
  9
$EXTNAMES
290
     1
  9
$PSVPSCALE
 40
0.0
  9
$OLESTARTUP
290
     0
  9
$SORTENTS
280
   127
  9
$INDEXCTL
280
     0
  9
$HIDETEXT
280
     1
  9
$XCLIPFRAME
280
     2
  9
$HALOGAP
280
     0
  9
$OBSCOLOR
 70
   257
  9
$OBSLTYPE
280
     0
  9
$INTERSECTIONDISPLAY
280
     0
  9
$INTERSECTIONCOLOR
 70
   257
  9
$DIMASSOC
280
     2
  9
$PROJECTNAME
  1

  9
$CAMERADISPLAY
290
     0
  9
$LENSLENGTH
 40
50.0
  9
$CAMERAHEIGHT
 40
0.0
  9
$STEPSPERSEC
 40
2.0
  9
$STEPSIZE
 40
6.0
  9
$3DDWFPREC
 40
2.0
  9
$PSOLWIDTH
 40
0.25
  9
$PSOLHEIGHT
 40
4.0
  9
$LOFTANG1
 40
1.570796326794897
  9
$LOFTANG2
 40
1.570796326794897
  9
$LOFTMAG1
 40
0.0
  9
$LOFTMAG2
 40
0.0
  9
$LOFTPARAM
 70
     7
  9
$LOFTNORMALS
280
     1
  9
$LATITUDE
 40
37.795
  9
$LONGITUDE
 40
-122.394
  9
$NORTHDIRECTION
 40
0.0
  9
$TIMEZONE
 70
 -8000
  9
$LIGHTGLYPHDISPLAY
280
     1
  9
$TILEMODELIGHTSYNCH
280
     1
  9
$CMATERIAL
347
3C
  9
$SOLIDHIST
280
     1
  9
$SHOWHIST
280
     1
  9
$DWFFRAME
280
     2
  9
$DGNFRAME
280
     2
  9
$REALWORLDSCALE
290
     1
  9
$INTERFERECOLOR
 62
   256
  9
$CSHADOW
280
     0
  9
$SHADOWPLANELOCATION
 40
0.0
  0
ENDSEC
  0
SECTION
  2
CLASSES
  0
CLASS
  1
ACDBDICTIONARYWDFLT
  2
AcDbDictionaryWithDefault
  3
ObjectDBX Classes
 90
        0
 91
        4
280
     0
281
     0
  0
CLASS
  1
VISUALSTYLE
  2
AcDbVisualStyle
  3
ObjectDBX Classes
 90
     4095
 91
        4
280
     0
281
     0
  0
CLASS
  1
MATERIAL
  2
AcDbMaterial
  3
ObjectDBX Classes
 90
     1153
 91
        4
280
     0
281
     0
  0
CLASS
  1
SUN
  2
AcDbSun
  3
SCENEOE
 90
     1024
 91
        4
280
     0
281
     0
  0
ENDSEC
  0
SECTION
  2
TABLES
  0
TABLE
  2
VPORT
  5
8
330
0
100
AcDbSymbolTable
 70
     1
  0
VPORT
  5
29
330
8
100
AcDbSymbolTableRecord
100
AcDbViewportTableRecord
  2
*Active
 70
     0
 10
0.0
 20
0.0
 11
1.0
 21
1.0
 12
0.0
 22
0.0
 13
0.0
 23
0.0
 14
0.5
 24
0.5
 15
0.5
 25
0.5
 16
0.0
 26
0.0
 36
1.0
 17
91.00082462281999
 27
-128.4993055234307
 37
0.0
 40
256.9986110468615
 41
0.7081814508812795
 42
50.0
 43
0.0
 44
0.0
 50
0.0
 51
0.0
 71
     0
 72
   100
 73
     1
 74
     3
 75
     0
 76
     0
 77
     0
 78
     0
281
     0
 65
     1
110
0.0
120
0.0
130
0.0
111
1.0
121
0.0
131
0.0
112
0.0
122
1.0
132
0.0
 79
     0
146
0.0
 60
     3
 61
     5
292
     1
282
     1
141
0.0
142
0.0
 63
   250
361
3F
  0
ENDTAB
  0
TABLE
  2
LTYPE
  5
5
330
0
100
AcDbSymbolTable
 70
     1
  0
LTYPE
  5
14
330
5
100
AcDbSymbolTableRecord
100
AcDbLinetypeTableRecord
  2
ByBlock
 70
     0
  3

 72
    65
 73
     0
 40
0.0
  0
LTYPE
  5
15
330
5
100
AcDbSymbolTableRecord
100
AcDbLinetypeTableRecord
  2
ByLayer
 70
     0
  3

 72
    65
 73
     0
 40
0.0
  0
LTYPE
  5
16
330
5
100
AcDbSymbolTableRecord
100
AcDbLinetypeTableRecord
  2
Continuous
 70
     0
  3
Solid line
 72
    65
 73
     0
 40
0.0
  0
ENDTAB
  0
TABLE
  2
LAYER
  5
2
330
0
100
AcDbSymbolTable
 70
     2
  0
LAYER
  5
10
330
2
100
AcDbSymbolTableRecord
100
AcDbLayerTableRecord
  2
0
 70
     0
 62
     7
  6
Continuous
370
    -3
390
F
347
3E
  0
LAYER
  5
40
330
2
100
AcDbSymbolTableRecord
100
AcDbLayerTableRecord
  2
_U+30EC_U+30A4_U+30E4_U+30FC 1
 70
     0
 62
     7
  6
Continuous
370
    -3
390
F
347
3E
  0
ENDTAB
  0
TABLE
  2
STYLE
  5
3
330
0
100
AcDbSymbolTable
 70
     1
  0
STYLE
  5
11
330
3
100
AcDbSymbolTableRecord
100
AcDbTextStyleTableRecord
  2
Standard
 70
     0
 40
0.0
 41
1.0
 50
0.0
 71
     0
 42
0.2
  3
txt
  4

  0
ENDTAB
  0
TABLE
  2
VIEW
  5
6
330
0
100
AcDbSymbolTable
 70
     0
  0
ENDTAB
  0
TABLE
  2
UCS
  5
7
330
0
100
AcDbSymbolTable
 70
     0
  0
ENDTAB
  0
TABLE
  2
APPID
  5
9
330
0
100
AcDbSymbolTable
 70
     1
  0
APPID
  5
12
330
9
100
AcDbSymbolTableRecord
100
AcDbRegAppTableRecord
  2
ACAD
 70
     0
  0
ENDTAB
  0
TABLE
  2
DIMSTYLE
  5
A
330
0
100
AcDbSymbolTable
 70
     1
100
AcDbDimStyleTable
  0
DIMSTYLE
105
27
330
A
100
AcDbSymbolTableRecord
100
AcDbDimStyleTableRecord
  2
Standard
 70
     0
178
     0
340
11
  0
ENDTAB
  0
TABLE
  2
BLOCK_RECORD
  5
1
330
0
100
AcDbSymbolTable
 70
     9
  0
BLOCK_RECORD
  5
1F
330
1
100
AcDbSymbolTableRecord
100
AcDbBlockTableRecord
  2
*Model_Space
340
22
 70
     0
280
     1
281
     0
  0
BLOCK_RECORD
  5
1B
330
1
100
AcDbSymbolTableRecord
100
AcDbBlockTableRecord
  2
*Paper_Space
340
1E
 70
     0
280
     1
281
     0
  0
BLOCK_RECORD
  5
23
330
1
100
AcDbSymbolTableRecord
100
AcDbBlockTableRecord
  2
*Paper_Space0
340
26
 70
     0
280
     1
281
     0
  0
BLOCK_RECORD
  5
F6
330
1
100
AcDbSymbolTableRecord
100
AcDbBlockTableRecord
  2
block 2
340
0
102
{BLKREFS
331
F7
102
}
 70
     0
280
     1
281
     0
  0
BLOCK_RECORD
  5
106
330
1
100
AcDbSymbolTableRecord
100
AcDbBlockTableRecord
  2
block 3
340
0
102
{BLKREFS
331
107
102
}
 70
     0
280
     1
281
     0
  0
BLOCK_RECORD
  5
110
330
1
100
AcDbSymbolTableRecord
100
AcDbBlockTableRecord
  2
block 4
340
0
102
{BLKREFS
331
111
102
}
 70
     0
280
     1
281
     0
  0
BLOCK_RECORD
  5
122
330
1
100
AcDbSymbolTableRecord
100
AcDbBlockTableRecord
  2
block 5
340
0
102
{BLKREFS
331
123
102
}
 70
     0
280
     1
281
     0
  0
BLOCK_RECORD
  5
13B
330
1
100
AcDbSymbolTableRecord
100
AcDbBlockTableRecord
  2
block 6
340
0
102
{BLKREFS
331
13C
102
}
 70
     0
280
     1
281
     0
  0
BLOCK_RECORD
  5
144
330
1
100
AcDbSymbolTableRecord
100
AcDbBlockTableRecord
  2
block 7
340
0
102
{BLKREFS
331
145
102
}
 70
     0
280
     1
281
     0
  0
BLOCK_RECORD
  5
15D
330
1
100
AcDbSymbolTableRecord
100
AcDbBlockTableRecord
  2
block 8
340
0
102
{BLKREFS
331
15E
102
}
 70
     0
280
     1
281
     0
  0
BLOCK_RECORD
  5
16F
330
1
100
AcDbSymbolTableRecord
100
AcDbBlockTableRecord
  2
block 9
340
0
102
{BLKREFS
331
170
102
}
 70
     0
280
     1
281
     0
  0
ENDTAB
  0
ENDSEC
  0
SECTION
  2
BLOCKS
  0
BLOCK
  5
20
330
1F
100
AcDbEntity
  8
0
100
AcDbBlockBegin
  2
*Model_Space
 70
     0
 10
0.0
 20
0.0
 30
0.0
  3
*Model_Space
  1

  0
ENDBLK
  5
21
330
1F
100
AcDbEntity
  8
0
100
AcDbBlockEnd
  0
BLOCK
  5
1C
330
1B
100
AcDbEntity
 67
     1
  8
0
100
AcDbBlockBegin
  2
*Paper_Space
 70
     0
 10
0.0
 20
0.0
 30
0.0
  3
*Paper_Space
  1

  0
ENDBLK
  5
1D
330
1B
100
AcDbEntity
 67
     1
  8
0
100
AcDbBlockEnd
  0
BLOCK
  5
24
330
23
100
AcDbEntity
  8
0
100
AcDbBlockBegin
  2
*Paper_Space0
 70
     0
 10
0.0
 20
0.0
 30
0.0
  3
*Paper_Space0
  1

  0
ENDBLK
  5
25
330
23
100
AcDbEntity
  8
0
100
AcDbBlockEnd
  0
BLOCK
  5
F8
330
F6
100
AcDbEntity
  8
0
100
AcDbBlockBegin
  2
block 2
 70
     0
 10
0.0
 20
0.0
 30
0.0
  3
block 2
  1

  0
SPLINE
  5
FA
330
F6
100
AcDbEntity
  8
_U+30EC_U+30A4_U+30E4_U+30FC 1
370
     0
100
AcDbSpline
210
0.0
220
0.0
230
1.0
 70
    11
 71
     3
 72
    26
 73
    22
 74
     0
 42
0.0000000001
 43
0.0000000001
 12
1.0
 22
0.0
 32
0.0
 13
1.0
 23
0.0
 33
0.0
 40
0.0
 40
0.0
 40
0.0
 40
0.0
 40
1.0
 40
1.0
 40
1.0
 40
2.0
 40
2.0
 40
2.0
 40
3.0
 40
3.0
 40
3.0
 40
4.0
 40
4.0
 40
4.0
 40
5.0
 40
5.0
 40
5.0
 40
6.0
 40
6.0
 40
6.0
 40
7.0
 40
7.0
 40
7.0
 40
7.0
 10
97.56441512317835
 20
-85.97425263692658
 30
0.0
 10
97.56441512317835
 20
-85.97425263692658
 30
0.0
 10
97.56441512317835
 20
-84.86992727912974
 30
0.0
 10
97.56441512317835
 20
-84.86992727912974
 30
0.0
 10
97.56441512317835
 20
-84.86992727912974
 30
0.0
 10
97.23437497569141
 20
-84.86992727912974
 30
0.0
 10
97.23437497569141
 20
-84.86992727912974
 30
0.0
 10
97.23437497569141
 20
-84.86992727912974
 30
0.0
 10
97.23437497569141
 20
-84.72196042803826
 30
0.0
 10
97.23437497569141
 20
-84.72196042803826
 30
0.0
 10
97.56648218046949
 20
-84.70714651745169
 30
0.0
 10
97.61299096952037
 20
-84.54419350099937
 30
0.0
 10
97.64261879069352
 20
-84.42998858566334
 30
0.0
 10
97.64261879069352
 20
-84.42998858566334
 30
0.0
 10
97.78869083926811
 20
-84.42998858566334
 30
0.0
 10
97.78869083926811
 20
-84.42998858566334
 30
0.0
 10
97.78869083926811
 20
-84.42998858566334
 30
0.0
 10
97.78869083926811
 20
-85.97425263692658
 30
0.0
 10
97.78869083926811
 20
-85.97425263692658
 30
0.0
 10
97.78869083926811
 20
-85.97425263692658
 30
0.0
 10
97.56441512317835
 20
-85.97425263692658
 30
0.0
 10
97.56441512317835
 20
-85.97425263692658
 30
0.0
  0
HATCH
  5
FB
330
F6
100
AcDbEntity
  8
_U+30EC_U+30A4_U+30E4_U+30FC 1
 62
   179
420
  2234388
100
AcDbHatch
 10
0.0
 20
0.0
 30
0.0
210
0.0
220
0.0
230
1.0
  2
SOLID
 70
     1
 71
     0
 91
        1
 92
        1
 93
        1
 72
     4
 94
        3
 73
     0
 74
     1
 95
       26
 96
       22
 40
0.0
 40
0.0
 40
0.0
 40
0.0
 40
1.0
 40
1.0
 40
1.0
 40
2.0
 40
2.0
 40
2.0
 40
3.0
 40
3.0
 40
3.0
 40
4.0
 40
4.0
 40
4.0
 40
5.0
 40
5.0
 40
5.0
 40
6.0
 40
6.0
 40
6.0
 40
7.0
 40
7.0
 40
7.0
 40
7.0
 10
97.56441512317835
 20
-85.97425263692658
 10
97.56441512317835
 20
-85.97425263692658
 10
97.56441512317835
 20
-84.86992727912974
 10
97.56441512317835
 20
-84.86992727912974
 10
97.56441512317835
 20
-84.86992727912974
 10
97.23437497569141
 20
-84.86992727912974
 10
97.23437497569141
 20
-84.86992727912974
 10
97.23437497569141
 20
-84.86992727912974
 10
97.23437497569141
 20
-84.72196042803826
 10
97.23437497569141
 20
-84.72196042803826
 10
97.56648218046949
 20
-84.70714651745169
 10
97.61299096952037
 20
-84.54419350099937
 10
97.64261879069352
 20
-84.42998858566334
 10
97.64261879069352
 20
-84.42998858566334
 10
97.78869083926811
 20
-84.42998858566334
 10
97.78869083926811
 20
-84.42998858566334
 10
97.78869083926811
 20
-84.42998858566334
 10
97.78869083926811
 20
-85.97425263692658
 10
97.78869083926811
 20
-85.97425263692658
 10
97.78869083926811
 20
-85.97425263692658
 10
97.56441512317835
 20
-85.97425263692658
 10
97.56441512317835
 20
-85.97425263692658
 97
        0
 97
        0
 75
     2
 76
     1
 98
        0
  0
POLYLINE
  5
FC
330
F6
100
AcDbEntity
  8
_U+30EC_U+30A4_U+30E4_U+30FC 1
370
     0
100
AcDb2dPolyline
 66
     1
 10
0.0
 20
0.0
 30
0.0
  0
VERTEX
  5
FD
330
FC
100
AcDbEntity
  8
_U+30EC_U+30A4_U+30E4_U+30FC 1
370
     0
100
AcDbVertex
100
AcDb2dVertex
 10
98.34989689381531
 20
-85.97425263692658
 30
0.0
  0
VERTEX
  5
FE
330
FC
100
AcDbEntity
  8
_U+30EC_U+30A4_U+30E4_U+30FC 1
370
     0
100
AcDbVertex
100
AcDb2dVertex
 10
98.34989689381531
 20
-85.72258841172908
 30
0.0
  0
VERTEX
  5
FF
330
FC
100
AcDbEntity
  8
_U+30EC_U+30A4_U+30E4_U+30FC 1
370
     0
100
AcDbVertex
100
AcDb2dVertex
 10
98.60138886423854
 20
-85.72258841172908
 30
0.0
  0
VERTEX
  5
100
330
FC
100
AcDbEntity
  8
_U+30EC_U+30A4_U+30E4_U+30FC 1
370
     0
100
AcDbVertex
100
AcDb2dVertex
 10
98.60138886423854
 20
-85.97425263692658
 30
0.0
  0
VERTEX
  5
101
330
FC
100
AcDbEntity
  8
_U+30EC_U+30A4_U+30E4_U+30FC 1
370
     0
100
AcDbVertex
100
AcDb2dVertex
 10
98.34989689381531
 20
-85.97425263692658
 30
0.0
  0
SEQEND
  5
102
330
FC
100
AcDbEntity
  8
_U+30EC_U+30A4_U+30E4_U+30FC 1
370
     0
  0
HATCH
  5
103
330
F6
100
AcDbEntity
  8
_U+30EC_U+30A4_U+30E4_U+30FC 1
 62
   179
420
  2234388
100
AcDbHatch
 10
0.0
 20
0.0
 30
0.0
210
0.0
220
0.0
230
1.0
  2
SOLID
 70
     1
 71
     0
 91
        1
 92
        1
 93
        4
 72
     1
 10
98.34989689381531
 20
-85.97425263692658
 11
98.34989689381531
 21
-85.72258841172908
 72
     1
 10
98.34989689381531
 20
-85.72258841172908
 11
98.60138886423854
 21
-85.72258841172908
 72
     1
 10
98.60138886423854
 20
-85.72258841172908
 11
98.60138886423854
 21
-85.97425263692658
 72
     1
 10
98.60138886423854
 20
-85.97425263692658
 11
98.34989689381531
 21
-85.97425263692658
 97
        0
 75
     2
 76
     1
 98
        0
  0
SPLINE
  5
104
330
F6
100
AcDbEntity
  8
_U+30EC_U+30A4_U+30E4_U+30FC 1
370
     0
100
AcDbSpline
210
0.0
220
0.0
230
1.0
 70
    11
 71
     3
 72
    44
 73
    40
 74
     0
 42
0.0000000001
 43
0.0000000001
 12
1.0
 22
0.0
 32
0.0
 13
1.0
 23
0.0
 33
0.0
 40
0.0
 40
0.0
 40
0.0
 40
0.0
 40
1.0
 40
1.0
 40
1.0
 40
2.0
 40
2.0
 40
2.0
 40
3.0
 40
3.0
 40
3.0
 40
4.0
 40
4.0
 40
4.0
 40
5.0
 40
5.0
 40
5.0
 40
6.0
 40
6.0
 40
6.0
 40
7.0
 40
7.0
 40
7.0
 40
8.0
 40
8.0
 40
8.0
 40
9.0
 40
9.0
 40
9.0
 40
10.0
 40
10.0
 40
10.0
 40
11.0
 40
11.0
 40
11.0
 40
12.0
 40
12.0
 40
12.0
 40
13.0
 40
13.0
 40
13.0
 40
13.0
 10
99.43096785708671
 20
-85.39254826424215
 30
0.0
 10
99.21323782241892
 20
-85.5511949113379
 30
0.0
 10
99.11987573476864
 20
-85.62526446427077
 30
0.0
 10
99.07129988842662
 20
-85.76909720077995
 30
0.0
 10
99.07129988842662
 20
-85.76909720077995
 30
0.0
 10
99.84989146809309
 20
-85.76909720077995
 30
0.0
 10
99.84989146809309
 20
-85.76909720077995
 30
0.0
 10
99.84989146809309
 20
-85.76909720077995
 30
0.0
 10
99.84989146809309
 20
-85.97425263692658
 30
0.0
 10
99.84989146809309
 20
-85.97425263692658
 30
0.0
 10
99.84989146809309
 20
-85.97425263692658
 30
0.0
 10
98.82187497529453
 20
-85.97425263692658
 30
0.0
 10
98.82187497529453
 20
-85.97425263692658
 30
0.0
 10
98.85356985375883
 20
-85.61665172555765
 30
0.0
 10
98.91902666797859
 20
-85.53844805804248
 30
0.0
 10
99.30418834322951
 20
-85.24010278901984
 30
0.0
 10
99.56015893778357
 20
-85.04132077952093
 30
0.0
 10
99.62561575200333
 20
-84.97362465323576
 30
0.0
 10
99.62561575200333
 20
-84.83616534337429
 30
0.0
 10
99.62561575200333
 20
-84.7176540586817
 30
0.0
 10
99.5536132563616
 20
-84.58656817546795
 30
0.0
 10
99.35689830415383
 20
-84.58656817546795
 30
0.0
 10
99.09679359501747
 20
-84.58656817546795
 30
0.0
 10
99.08818085630435
 20
-84.81704506343117
 30
0.0
 10
99.08404674172205
 20
-84.9334892908326
 30
0.0
 10
99.08404674172205
 20
-84.9334892908326
 30
0.0
 10
98.85977102563228
 20
-84.9334892908326
 30
0.0
 10
98.85977102563228
 20
-84.9334892908326
 30
0.0
 10
98.86838376434541
 20
-84.80653752220115
 30
0.0
 10
98.87871905080115
 20
-84.69439966415626
 30
0.0
 10
98.959334285156
 20
-84.57588837946368
 30
0.0
 10
99.06923283113548
 20
-84.41517467507677
 30
0.0
 10
99.25526798733897
 20
-84.38124048454705
 30
0.0
 10
99.37171221474041
 20
-84.38124048454705
 30
0.0
 10
99.64904240130302
 20
-84.38124048454705
 30
0.0
 10
99.85609263996653
 20
-84.56538083823366
 30
0.0
 10
99.85609263996653
 20
-84.83823240066545
 30
0.0
 10
99.85609263996653
 20
-85.06664223133751
 30
0.0
 10
99.73999292211361
 20
-85.16620549086123
 30
0.0
 10
99.43096785708671
 20
-85.39254826424215
 30
0.0
  0
HATCH
  5
105
330
F6
100
AcDbEntity
  8
_U+30EC_U+30A4_U+30E4_U+30FC 1
 62
   179
420
  2234388
100
AcDbHatch
 10
0.0
 20
0.0
 30
0.0
210
0.0
220
0.0
230
1.0
  2
SOLID
 70
     1
 71
     0
 91
        1
 92
        1
 93
        1
 72
     4
 94
        3
 73
     0
 74
     1
 95
       44
 96
       40
 40
0.0
 40
0.0
 40
0.0
 40
0.0
 40
1.0
 40
1.0
 40
1.0
 40
2.0
 40
2.0
 40
2.0
 40
3.0
 40
3.0
 40
3.0
 40
4.0
 40
4.0
 40
4.0
 40
5.0
 40
5.0
 40
5.0
 40
6.0
 40
6.0
 40
6.0
 40
7.0
 40
7.0
 40
7.0
 40
8.0
 40
8.0
 40
8.0
 40
9.0
 40
9.0
 40
9.0
 40
10.0
 40
10.0
 40
10.0
 40
11.0
 40
11.0
 40
11.0
 40
12.0
 40
12.0
 40
12.0
 40
13.0
 40
13.0
 40
13.0
 40
13.0
 10
99.43096785708671
 20
-85.39254826424215
 10
99.21323782241892
 20
-85.5511949113379
 10
99.11987573476864
 20
-85.62526446427077
 10
99.07129988842662
 20
-85.76909720077995
 10
99.07129988842662
 20
-85.76909720077995
 10
99.84989146809309
 20
-85.76909720077995
 10
99.84989146809309
 20
-85.76909720077995
 10
99.84989146809309
 20
-85.76909720077995
 10
99.84989146809309
 20
-85.97425263692658
 10
99.84989146809309
 20
-85.97425263692658
 10
99.84989146809309
 20
-85.97425263692658
 10
98.82187497529453
 20
-85.97425263692658
 10
98.82187497529453
 20
-85.97425263692658
 10
98.85356985375883
 20
-85.61665172555765
 10
98.91902666797859
 20
-85.53844805804248
 10
99.30418834322951
 20
-85.24010278901984
 10
99.56015893778357
 20
-85.04132077952093
 10
99.62561575200333
 20
-84.97362465323576
 10
99.62561575200333
 20
-84.83616534337429
 10
99.62561575200333
 20
-84.7176540586817
 10
99.5536132563616
 20
-84.58656817546795
 10
99.35689830415383
 20
-84.58656817546795
 10
99.09679359501747
 20
-84.58656817546795
 10
99.08818085630435
 20
-84.81704506343117
 10
99.08404674172205
 20
-84.9334892908326
 10
99.08404674172205
 20
-84.9334892908326
 10
98.85977102563228
 20
-84.9334892908326
 10
98.85977102563228
 20
-84.9334892908326
 10
98.86838376434541
 20
-84.80653752220115
 10
98.87871905080115
 20
-84.69439966415626
 10
98.959334285156
 20
-84.57588837946368
 10
99.06923283113548
 20
-84.41517467507677
 10
99.25526798733897
 20
-84.38124048454705
 10
99.37171221474041
 20
-84.38124048454705
 10
99.64904240130302
 20
-84.38124048454705
 10
99.85609263996653
 20
-84.56538083823366
 10
99.85609263996653
 20
-84.83823240066545
 10
99.85609263996653
 20
-85.06664223133751
 10
99.73999292211361
 20
-85.16620549086123
 10
99.43096785708671
 20
-85.39254826424215
 97
        0
 97
        0
 75
     2
 76
     1
 98
        0
  0
ENDBLK
  5
F9
330
F6
100
AcDbEntity
  8
0
100
AcDbBlockEnd
  0
BLOCK
  5
108
330
106
100
AcDbEntity
  8
0
100
AcDbBlockBegin
  2
block 3
 70
     0
 10
0.0
 20
0.0
 30
0.0
  3
block 3
  1

  0
SPLINE
  5
10A
330
106
100
AcDbEntity
  8
_U+30EC_U+30A4_U+30E4_U+30FC 1
370
     0
100
AcDbSpline
210
0.0
220
0.0
230
1.0
 70
    11
 71
     3
 72
    53
 73
    49
 74
     0
 42
0.0000000001
 43
0.0000000001
 12
1.0
 22
0.0
 32
0.0
 13
1.0
 23
0.0
 33
0.0
 40
0.0
 40
0.0
 40
0.0
 40
0.0
 40
1.0
 40
1.0
 40
1.0
 40
2.0
 40
2.0
 40
2.0
 40
3.0
 40
3.0
 40
3.0
 40
4.0
 40
4.0
 40
4.0
 40
5.0
 40
5.0
 40
5.0
 40
6.0
 40
6.0
 40
6.0
 40
7.0
 40
7.0
 40
7.0
 40
8.0
 40
8.0
 40
8.0
 40
9.0
 40
9.0
 40
9.0
 40
10.0
 40
10.0
 40
10.0
 40
11.0
 40
11.0
 40
11.0
 40
12.0
 40
12.0
 40
12.0
 40
13.0
 40
13.0
 40
13.0
 40
14.0
 40
14.0
 40
14.0
 40
15.0
 40
15.0
 40
15.0
 40
16.0
 40
16.0
 40
16.0
 40
16.0
 10
109.2915201549688
 20
-119.9368652043908
 30
0.0
 10
109.2915201549688
 20
-120.015068871906
 30
0.0
 10
109.2746391870911
 20
-120.1166991887208
 30
0.0
 10
109.2112494301625
 20
-120.2183295055357
 30
0.0
 10
109.101350884183
 20
-120.3916178084438
 30
0.0
 10
108.970092746195
 20
-120.4129774004523
 30
0.0
 10
108.8622612575067
 20
-120.4319254256212
 30
0.0
 10
108.8622612575067
 20
-120.4319254256212
 30
0.0
 10
108.8622612575067
 20
-120.2097167668226
 30
0.0
 10
108.8622612575067
 20
-120.2097167668226
 30
0.0
 10
109.0610432670056
 20
-120.1549397486071
 30
0.0
 10
109.0906710881787
 20
-120.0278157252014
 30
0.0
 10
109.0906710881787
 20
-119.9347981470996
 30
0.0
 10
109.0906710881787
 20
-119.795271779947
 30
0.0
 10
108.991107828655
 20
-119.642998559499
 30
0.0
 10
108.7585638834006
 20
-119.642998559499
 30
0.0
 10
108.5025932888466
 20
-119.642998559499
 30
0.0
 10
108.432657850496
 20
-119.822832543829
 30
0.0
 10
108.432657850496
 20
-119.9434108858128
 30
0.0
 10
108.432657850496
 20
-119.9751057642771
 30
0.0
 10
108.432657850496
 20
-120.1166991887208
 30
0.0
 10
108.5618489311929
 20
-120.2055826522403
 30
0.0
 10
108.5618489311929
 20
-120.2055826522403
 30
0.0
 10
108.542900906024
 20
-120.381282521988
 30
0.0
 10
108.542900906024
 20
-120.381282521988
 30
0.0
 10
108.542900906024
 20
-120.381282521988
 30
0.0
 10
107.6964409452981
 20
-120.2607041800043
 30
0.0
 10
107.6964409452981
 20
-120.2607041800043
 30
0.0
 10
107.6964409452981
 20
-120.2607041800043
 30
0.0
 10
107.6964409452981
 20
-119.4821126003378
 30
0.0
 10
107.6964409452981
 20
-119.4821126003378
 30
0.0
 10
107.6964409452981
 20
-119.4821126003378
 30
0.0
 10
107.8910888402147
 20
-119.4821126003378
 30
0.0
 10
107.8910888402147
 20
-119.4821126003378
 30
0.0
 10
107.8910888402147
 20
-119.4821126003378
 30
0.0
 10
107.8910888402147
 20
-120.097751163552
 30
0.0
 10
107.8910888402147
 20
-120.097751163552
 30
0.0
 10
107.8910888402147
 20
-120.097751163552
 30
0.0
 10
108.3141465658034
 20
-120.1632079777717
 30
0.0
 10
108.3141465658034
 20
-120.1632079777717
 30
0.0
 10
108.280384630048
 20
-120.1018852781343
 30
0.0
 10
108.2400770128705
 20
-120.0195474960368
 30
0.0
 10
108.2400770128705
 20
-119.9010362113442
 30
0.0
 10
108.2400770128705
 20
-119.6471326740813
 30
0.0
 10
108.4264566786226
 20
-119.4101101046961
 30
0.0
 10
108.7396158582318
 20
-119.4101101046961
 30
0.0
 10
109.0569091524233
 20
-119.4101101046961
 30
0.0
 10
109.2915201549688
 20
-119.6343858207859
 30
0.0
 10
109.2915201549688
 20
-119.9368652043908
 30
0.0
  0
HATCH
  5
10B
330
106
100
AcDbEntity
  8
_U+30EC_U+30A4_U+30E4_U+30FC 1
 62
   179
420
  2234388
100
AcDbHatch
 10
0.0
 20
0.0
 30
0.0
210
0.0
220
0.0
230
1.0
  2
SOLID
 70
     1
 71
     0
 91
        1
 92
        1
 93
        1
 72
     4
 94
        3
 73
     0
 74
     1
 95
       53
 96
       49
 40
0.0
 40
0.0
 40
0.0
 40
0.0
 40
1.0
 40
1.0
 40
1.0
 40
2.0
 40
2.0
 40
2.0
 40
3.0
 40
3.0
 40
3.0
 40
4.0
 40
4.0
 40
4.0
 40
5.0
 40
5.0
 40
5.0
 40
6.0
 40
6.0
 40
6.0
 40
7.0
 40
7.0
 40
7.0
 40
8.0
 40
8.0
 40
8.0
 40
9.0
 40
9.0
 40
9.0
 40
10.0
 40
10.0
 40
10.0
 40
11.0
 40
11.0
 40
11.0
 40
12.0
 40
12.0
 40
12.0
 40
13.0
 40
13.0
 40
13.0
 40
14.0
 40
14.0
 40
14.0
 40
15.0
 40
15.0
 40
15.0
 40
16.0
 40
16.0
 40
16.0
 40
16.0
 10
109.2915201549688
 20
-119.9368652043908
 10
109.2915201549688
 20
-120.015068871906
 10
109.2746391870911
 20
-120.1166991887208
 10
109.2112494301625
 20
-120.2183295055357
 10
109.101350884183
 20
-120.3916178084438
 10
108.970092746195
 20
-120.4129774004523
 10
108.8622612575067
 20
-120.4319254256212
 10
108.8622612575067
 20
-120.4319254256212
 10
108.8622612575067
 20
-120.2097167668226
 10
108.8622612575067
 20
-120.2097167668226
 10
109.0610432670056
 20
-120.1549397486071
 10
109.0906710881787
 20
-120.0278157252014
 10
109.0906710881787
 20
-119.9347981470996
 10
109.0906710881787
 20
-119.795271779947
 10
108.991107828655
 20
-119.642998559499
 10
108.7585638834006
 20
-119.642998559499
 10
108.5025932888466
 20
-119.642998559499
 10
108.432657850496
 20
-119.822832543829
 10
108.432657850496
 20
-119.9434108858128
 10
108.432657850496
 20
-119.9751057642771
 10
108.432657850496
 20
-120.1166991887208
 10
108.5618489311929
 20
-120.2055826522403
 10
108.5618489311929
 20
-120.2055826522403
 10
108.542900906024
 20
-120.381282521988
 10
108.542900906024
 20
-120.381282521988
 10
108.542900906024
 20
-120.381282521988
 10
107.6964409452981
 20
-120.2607041800043
 10
107.6964409452981
 20
-120.2607041800043
 10
107.6964409452981
 20
-120.2607041800043
 10
107.6964409452981
 20
-119.4821126003378
 10
107.6964409452981
 20
-119.4821126003378
 10
107.6964409452981
 20
-119.4821126003378
 10
107.8910888402147
 20
-119.4821126003378
 10
107.8910888402147
 20
-119.4821126003378
 10
107.8910888402147
 20
-119.4821126003378
 10
107.8910888402147
 20
-120.097751163552
 10
107.8910888402147
 20
-120.097751163552
 10
107.8910888402147
 20
-120.097751163552
 10
108.3141465658034
 20
-120.1632079777717
 10
108.3141465658034
 20
-120.1632079777717
 10
108.280384630048
 20
-120.1018852781343
 10
108.2400770128705
 20
-120.0195474960368
 10
108.2400770128705
 20
-119.9010362113442
 10
108.2400770128705
 20
-119.6471326740813
 10
108.4264566786226
 20
-119.4101101046961
 10
108.7396158582318
 20
-119.4101101046961
 10
109.0569091524233
 20
-119.4101101046961
 10
109.2915201549688
 20
-119.6343858207859
 10
109.2915201549688
 20
-119.9368652043908
 97
        0
 97
        0
 75
     2
 76
     1
 98
        0
  0
SPLINE
  5
10C
330
106
100
AcDbEntity
  8
_U+30EC_U+30A4_U+30E4_U+30FC 1
370
     0
100
AcDbSpline
210
0.0
220
0.0
230
1.0
 70
    11
 71
     3
 72
    29
 73
    25
 74
     0
 42
0.0000000001
 43
0.0000000001
 12
1.0
 22
0.0
 32
0.0
 13
1.0
 23
0.0
 33
0.0
 40
0.0
 40
0.0
 40
0.0
 40
0.0
 40
1.0
 40
1.0
 40
1.0
 40
2.0
 40
2.0
 40
2.0
 40
3.0
 40
3.0
 40
3.0
 40
4.0
 40
4.0
 40
4.0
 40
5.0
 40
5.0
 40
5.0
 40
6.0
 40
6.0
 40
6.0
 40
7.0
 40
7.0
 40
7.0
 40
8.0
 40
8.0
 40
8.0
 40
8.0
 10
109.2915201549688
 20
-118.7410725614606
 30
0.0
 10
109.2915201549688
 20
-119.0077229520189
 30
0.0
 10
109.1540608451073
 20
-119.2616264892818
 30
0.0
 10
108.8050726724515
 20
-119.2616264892818
 30
0.0
 10
108.5491020778975
 20
-119.2616264892818
 30
0.0
 10
108.4540174425046
 20
-119.1196885552895
 30
0.0
 10
108.3926947428671
 20
-119.0139241238924
 30
0.0
 10
108.3334391005208
 20
-119.1386365804584
 30
0.0
 10
108.2190619304105
 20
-119.2147731906824
 30
0.0
 10
108.0581759712494
 20
-119.2147731906824
 30
0.0
 10
107.7832573515264
 20
-119.2147731906824
 30
0.0
 10
107.6478650989561
 20
-119.0159911811835
 30
0.0
 10
107.6478650989561
 20
-118.7410725614606
 30
0.0
 10
107.6478650989561
 20
-118.4575412030245
 30
0.0
 10
107.7918700902395
 20
-118.2670274226902
 30
0.0
 10
108.0581759712494
 20
-118.2670274226902
 30
0.0
 10
108.2190619304105
 20
-118.2670274226902
 30
0.0
 10
108.3334391005208
 20
-118.3455755997539
 30
0.0
 10
108.3926947428671
 20
-118.4702880563199
 30
0.0
 10
108.4433376465003
 20
-118.3814045928005
 30
0.0
 10
108.5384222818932
 20
-118.2225856909305
 30
0.0
 10
108.8009385578692
 20
-118.2225856909305
 30
0.0
 10
109.1754204371159
 20
-118.2225856909305
 30
0.0
 10
109.2915201549688
 20
-118.5019829347842
 30
0.0
 10
109.2915201549688
 20
-118.7410725614606
 30
0.0
  0
SPLINE
  5
10D
330
106
100
AcDbEntity
  8
_U+30EC_U+30A4_U+30E4_U+30FC 1
370
     0
100
AcDbSpline
210
0.0
220
0.0
230
1.0
 70
    11
 71
     3
 72
    17
 73
    13
 74
     0
 42
0.0000000001
 43
0.0000000001
 12
1.0
 22
0.0
 32
0.0
 13
1.0
 23
0.0
 33
0.0
 40
0.0
 40
0.0
 40
0.0
 40
0.0
 40
1.0
 40
1.0
 40
1.0
 40
2.0
 40
2.0
 40
2.0
 40
3.0
 40
3.0
 40
3.0
 40
4.0
 40
4.0
 40
4.0
 40
4.0
 10
107.8404459365816
 20
-118.7410725614606
 30
0.0
 10
107.8404459365816
 20
-118.906092635204
 30
0.0
 10
107.9355305719745
 20
-118.9908419841412
 30
0.0
 10
108.0709228245448
 20
-118.9908419841412
 30
0.0
 10
108.1935682238197
 20
-118.9908419841412
 30
0.0
 10
108.3120795085123
 20
-118.9188394884995
 30
0.0
 10
108.3120795085123
 20
-118.7410725614606
 30
0.0
 10
108.3120795085123
 20
-118.5633056344217
 30
0.0
 10
108.1935682238197
 20
-118.49130313878
 30
0.0
 10
108.0709228245448
 20
-118.49130313878
 30
0.0
 10
107.9355305719745
 20
-118.49130313878
 30
0.0
 10
107.8404459365816
 20
-118.5781195450082
 30
0.0
 10
107.8404459365816
 20
-118.7410725614606
 30
0.0
  0
SPLINE
  5
10E
330
106
100
AcDbEntity
  8
_U+30EC_U+30A4_U+30E4_U+30FC 1
370
     0
100
AcDbSpline
210
0.0
220
0.0
230
1.0
 70
    11
 71
     3
 72
    17
 73
    13
 74
     0
 42
0.0000000001
 43
0.0000000001
 12
1.0
 22
0.0
 32
0.0
 13
1.0
 23
0.0
 33
0.0
 40
0.0
 40
0.0
 40
0.0
 40
0.0
 40
1.0
 40
1.0
 40
1.0
 40
2.0
 40
2.0
 40
2.0
 40
3.0
 40
3.0
 40
3.0
 40
4.0
 40
4.0
 40
4.0
 40
4.0
 10
108.5005262315554
 20
-118.7410725614606
 30
0.0
 10
108.5005262315554
 20
-118.8847330431955
 30
0.0
 10
108.5873426377837
 20
-119.0373507731921
 30
0.0
 10
108.7902587618649
 20
-119.0373507731921
 30
0.0
 10
108.9955864527858
 20
-119.0373507731921
 30
0.0
 10
109.0968722600522
 20
-118.9102267497863
 30
0.0
 10
109.0968722600522
 20
-118.7410725614606
 30
0.0
 10
109.0968722600522
 20
-118.5550374052571
 30
0.0
 10
108.9742268607773
 20
-118.4447943497291
 30
0.0
 10
108.7964599337384
 20
-118.4447943497291
 30
0.0
 10
108.5745957844883
 20
-118.4447943497291
 30
0.0
 10
108.5005262315554
 20
-118.6077473661814
 30
0.0
 10
108.5005262315554
 20
-118.7410725614606
 30
0.0
  0
HATCH
  5
10F
330
106
100
AcDbEntity
  8
_U+30EC_U+30A4_U+30E4_U+30FC 1
 62
   179
420
  2234388
100
AcDbHatch
 10
0.0
 20
0.0
 30
0.0
210
0.0
220
0.0
230
1.0
  2
SOLID
 70
     1
 71
     0
 91
        3
 92
        1
 93
        1
 72
     4
 94
        3
 73
     0
 74
     1
 95
       29
 96
       25
 40
0.0
 40
0.0
 40
0.0
 40
0.0
 40
1.0
 40
1.0
 40
1.0
 40
2.0
 40
2.0
 40
2.0
 40
3.0
 40
3.0
 40
3.0
 40
4.0
 40
4.0
 40
4.0
 40
5.0
 40
5.0
 40
5.0
 40
6.0
 40
6.0
 40
6.0
 40
7.0
 40
7.0
 40
7.0
 40
8.0
 40
8.0
 40
8.0
 40
8.0
 10
109.2915201549688
 20
-118.7410725614606
 10
109.2915201549688
 20
-119.0077229520189
 10
109.1540608451073
 20
-119.2616264892818
 10
108.8050726724515
 20
-119.2616264892818
 10
108.5491020778975
 20
-119.2616264892818
 10
108.4540174425046
 20
-119.1196885552895
 10
108.3926947428671
 20
-119.0139241238924
 10
108.3334391005208
 20
-119.1386365804584
 10
108.2190619304105
 20
-119.2147731906824
 10
108.0581759712494
 20
-119.2147731906824
 10
107.7832573515264
 20
-119.2147731906824
 10
107.6478650989561
 20
-119.0159911811835
 10
107.6478650989561
 20
-118.7410725614606
 10
107.6478650989561
 20
-118.4575412030245
 10
107.7918700902395
 20
-118.2670274226902
 10
108.0581759712494
 20
-118.2670274226902
 10
108.2190619304105
 20
-118.2670274226902
 10
108.3334391005208
 20
-118.3455755997539
 10
108.3926947428671
 20
-118.4702880563199
 10
108.4433376465003
 20
-118.3814045928005
 10
108.5384222818932
 20
-118.2225856909305
 10
108.8009385578692
 20
-118.2225856909305
 10
109.1754204371159
 20
-118.2225856909305
 10
109.2915201549688
 20
-118.5019829347842
 10
109.2915201549688
 20
-118.7410725614606
 97
        0
 97
        0
 92
        1
 93
        1
 72
     4
 94
        3
 73
     0
 74
     1
 95
       17
 96
       13
 40
0.0
 40
0.0
 40
0.0
 40
0.0
 40
1.0
 40
1.0
 40
1.0
 40
2.0
 40
2.0
 40
2.0
 40
3.0
 40
3.0
 40
3.0
 40
4.0
 40
4.0
 40
4.0
 40
4.0
 10
107.8404459365816
 20
-118.7410725614606
 10
107.8404459365816
 20
-118.906092635204
 10
107.9355305719745
 20
-118.9908419841412
 10
108.0709228245448
 20
-118.9908419841412
 10
108.1935682238197
 20
-118.9908419841412
 10
108.3120795085123
 20
-118.9188394884995
 10
108.3120795085123
 20
-118.7410725614606
 10
108.3120795085123
 20
-118.5633056344217
 10
108.1935682238197
 20
-118.49130313878
 10
108.0709228245448
 20
-118.49130313878
 10
107.9355305719745
 20
-118.49130313878
 10
107.8404459365816
 20
-118.5781195450082
 10
107.8404459365816
 20
-118.7410725614606
 97
        0
 97
        0
 92
        1
 93
        1
 72
     4
 94
        3
 73
     0
 74
     1
 95
       17
 96
       13
 40
0.0
 40
0.0
 40
0.0
 40
0.0
 40
1.0
 40
1.0
 40
1.0
 40
2.0
 40
2.0
 40
2.0
 40
3.0
 40
3.0
 40
3.0
 40
4.0
 40
4.0
 40
4.0
 40
4.0
 10
108.5005262315554
 20
-118.7410725614606
 10
108.5005262315554
 20
-118.8847330431955
 10
108.5873426377837
 20
-119.0373507731921
 10
108.7902587618649
 20
-119.0373507731921
 10
108.9955864527858
 20
-119.0373507731921
 10
109.0968722600522
 20
-118.9102267497863
 10
109.0968722600522
 20
-118.7410725614606
 10
109.0968722600522
 20
-118.5550374052571
 10
108.9742268607773
 20
-118.4447943497291
 10
108.7964599337384
 20
-118.4447943497291
 10
108.5745957844883
 20
-118.4447943497291
 10
108.5005262315554
 20
-118.6077473661814
 10
108.5005262315554
 20
-118.7410725614606
 97
        0
 97
        0
 75
     2
 76
     1
 98
        0
  0
ENDBLK
  5
109
330
106
100
AcDbEntity
  8
0
100
AcDbBlockEnd
  0
BLOCK
  5
112
330
110
100
AcDbEntity
  8
0
100
AcDbBlockBegin
  2
block 4
 70
     0
 10
0.0
 20
0.0
 30
0.0
  3
block 4
  1

  0
SPLINE
  5
114
330
110
100
AcDbEntity
  8
_U+30EC_U+30A4_U+30E4_U+30FC 1
370
     0
100
AcDbSpline
210
0.0
220
0.0
230
1.0
 70
    11
 71
     3
 72
    26
 73
    22
 74
     0
 42
0.0000000001
 43
0.0000000001
 12
1.0
 22
0.0
 32
0.0
 13
1.0
 23
0.0
 33
0.0
 40
0.0
 40
0.0
 40
0.0
 40
0.0
 40
1.0
 40
1.0
 40
1.0
 40
2.0
 40
2.0
 40
2.0
 40
3.0
 40
3.0
 40
3.0
 40
4.0
 40
4.0
 40
4.0
 40
5.0
 40
5.0
 40
5.0
 40
6.0
 40
6.0
 40
6.0
 40
7.0
 40
7.0
 40
7.0
 40
7.0
 10
109.2408772513356
 20
-157.9755424952284
 30
0.0
 10
109.2408772513356
 20
-157.9755424952284
 30
0.0
 10
108.136724148313
 20
-157.9755424952284
 30
0.0
 10
108.136724148313
 20
-157.9755424952284
 30
0.0
 10
108.136724148313
 20
-157.9755424952284
 30
0.0
 10
108.136724148313
 20
-158.3055826427153
 30
0.0
 10
108.136724148313
 20
-158.3055826427153
 30
0.0
 10
108.136724148313
 20
-158.3055826427153
 30
0.0
 10
107.9885850424473
 20
-158.3055826427153
 30
0.0
 10
107.9885850424473
 20
-158.3055826427153
 30
0.0
 10
107.9737711318607
 20
-157.9734754379372
 30
0.0
 10
107.8108181154084
 20
-157.9269666488863
 30
0.0
 10
107.6964409452981
 20
-157.8973388277132
 30
0.0
 10
107.6964409452981
 20
-157.8973388277132
 30
0.0
 10
107.6964409452981
 20
-157.7512667791386
 30
0.0
 10
107.6964409452981
 20
-157.7512667791386
 30
0.0
 10
107.6964409452981
 20
-157.7512667791386
 30
0.0
 10
109.2408772513356
 20
-157.7512667791386
 30
0.0
 10
109.2408772513356
 20
-157.7512667791386
 30
0.0
 10
109.2408772513356
 20
-157.7512667791386
 30
0.0
 10
109.2408772513356
 20
-157.9755424952284
 30
0.0
 10
109.2408772513356
 20
-157.9755424952284
 30
0.0
  0
HATCH
  5
115
330
110
100
AcDbEntity
  8
_U+30EC_U+30A4_U+30E4_U+30FC 1
 62
   179
420
  2234388
100
AcDbHatch
 10
0.0
 20
0.0
 30
0.0
210
0.0
220
0.0
230
1.0
  2
SOLID
 70
     1
 71
     0
 91
        1
 92
        1
 93
        1
 72
     4
 94
        3
 73
     0
 74
     1
 95
       26
 96
       22
 40
0.0
 40
0.0
 40
0.0
 40
0.0
 40
1.0
 40
1.0
 40
1.0
 40
2.0
 40
2.0
 40
2.0
 40
3.0
 40
3.0
 40
3.0
 40
4.0
 40
4.0
 40
4.0
 40
5.0
 40
5.0
 40
5.0
 40
6.0
 40
6.0
 40
6.0
 40
7.0
 40
7.0
 40
7.0
 40
7.0
 10
109.2408772513356
 20
-157.9755424952284
 10
109.2408772513356
 20
-157.9755424952284
 10
108.136724148313
 20
-157.9755424952284
 10
108.136724148313
 20
-157.9755424952284
 10
108.136724148313
 20
-157.9755424952284
 10
108.136724148313
 20
-158.3055826427153
 10
108.136724148313
 20
-158.3055826427153
 10
108.136724148313
 20
-158.3055826427153
 10
107.9885850424473
 20
-158.3055826427153
 10
107.9885850424473
 20
-158.3055826427153
 10
107.9737711318607
 20
-157.9734754379372
 10
107.8108181154084
 20
-157.9269666488863
 10
107.6964409452981
 20
-157.8973388277132
 10
107.6964409452981
 20
-157.8973388277132
 10
107.6964409452981
 20
-157.7512667791386
 10
107.6964409452981
 20
-157.7512667791386
 10
107.6964409452981
 20
-157.7512667791386
 10
109.2408772513356
 20
-157.7512667791386
 10
109.2408772513356
 20
-157.7512667791386
 10
109.2408772513356
 20
-157.7512667791386
 10
109.2408772513356
 20
-157.9755424952284
 10
109.2408772513356
 20
-157.9755424952284
 97
        0
 97
        0
 75
     2
 76
     1
 98
        0
  0
SPLINE
  5
116
330
110
100
AcDbEntity
  8
_U+30EC_U+30A4_U+30E4_U+30FC 1
370
     0
100
AcDbSpline
210
0.0
220
0.0
230
1.0
 70
    11
 71
     3
 72
    53
 73
    49
 74
     0
 42
0.0000000001
 43
0.0000000001
 12
1.0
 22
0.0
 32
0.0
 13
1.0
 23
0.0
 33
0.0
 40
0.0
 40
0.0
 40
0.0
 40
0.0
 40
1.0
 40
1.0
 40
1.0
 40
2.0
 40
2.0
 40
2.0
 40
3.0
 40
3.0
 40
3.0
 40
4.0
 40
4.0
 40
4.0
 40
5.0
 40
5.0
 40
5.0
 40
6.0
 40
6.0
 40
6.0
 40
7.0
 40
7.0
 40
7.0
 40
8.0
 40
8.0
 40
8.0
 40
9.0
 40
9.0
 40
9.0
 40
10.0
 40
10.0
 40
10.0
 40
11.0
 40
11.0
 40
11.0
 40
12.0
 40
12.0
 40
12.0
 40
13.0
 40
13.0
 40
13.0
 40
14.0
 40
14.0
 40
14.0
 40
15.0
 40
15.0
 40
15.0
 40
16.0
 40
16.0
 40
16.0
 40
16.0
 10
109.2915201549688
 20
-156.7690700562939
 30
0.0
 10
109.2915201549688
 20
-156.847273723809
 30
0.0
 10
109.2746391870911
 20
-156.9489040406239
 30
0.0
 10
109.2112494301625
 20
-157.0505343574387
 30
0.0
 10
109.101350884183
 20
-157.2238226603468
 30
0.0
 10
108.970092746195
 20
-157.2451822523554
 30
0.0
 10
108.8622612575067
 20
-157.2641302775243
 30
0.0
 10
108.8622612575067
 20
-157.2641302775243
 30
0.0
 10
108.8622612575067
 20
-157.0419216187256
 30
0.0
 10
108.8622612575067
 20
-157.0419216187256
 30
0.0
 10
109.0610432670056
 20
-156.9871446005102
 30
0.0
 10
109.0906710881787
 20
-156.8600205771045
 30
0.0
 10
109.0906710881787
 20
-156.7670029990027
 30
0.0
 10
109.0906710881787
 20
-156.6274766318501
 30
0.0
 10
108.991107828655
 20
-156.475203411402
 30
0.0
 10
108.7585638834006
 20
-156.475203411402
 30
0.0
 10
108.5025932888466
 20
-156.475203411402
 30
0.0
 10
108.432657850496
 20
-156.6550373957321
 30
0.0
 10
108.432657850496
 20
-156.7756157377158
 30
0.0
 10
108.432657850496
 20
-156.8073106161801
 30
0.0
 10
108.432657850496
 20
-156.9489040406239
 30
0.0
 10
108.5618489311929
 20
-157.0377875041433
 30
0.0
 10
108.5618489311929
 20
-157.0377875041433
 30
0.0
 10
108.542900906024
 20
-157.2134873738911
 30
0.0
 10
108.542900906024
 20
-157.2134873738911
 30
0.0
 10
108.542900906024
 20
-157.2134873738911
 30
0.0
 10
107.6964409452981
 20
-157.0929090319073
 30
0.0
 10
107.6964409452981
 20
-157.0929090319073
 30
0.0
 10
107.6964409452981
 20
-157.0929090319073
 30
0.0
 10
107.6964409452981
 20
-156.3143174522409
 30
0.0
 10
107.6964409452981
 20
-156.3143174522409
 30
0.0
 10
107.6964409452981
 20
-156.3143174522409
 30
0.0
 10
107.8910888402147
 20
-156.3143174522409
 30
0.0
 10
107.8910888402147
 20
-156.3143174522409
 30
0.0
 10
107.8910888402147
 20
-156.3143174522409
 30
0.0
 10
107.8910888402147
 20
-156.929956015455
 30
0.0
 10
107.8910888402147
 20
-156.929956015455
 30
0.0
 10
107.8910888402147
 20
-156.929956015455
 30
0.0
 10
108.3141465658034
 20
-156.9954128296748
 30
0.0
 10
108.3141465658034
 20
-156.9954128296748
 30
0.0
 10
108.280384630048
 20
-156.9340901300373
 30
0.0
 10
108.2400770128705
 20
-156.8517523479399
 30
0.0
 10
108.2400770128705
 20
-156.7332410632472
 30
0.0
 10
108.2400770128705
 20
-156.4793375259843
 30
0.0
 10
108.4264566786226
 20
-156.2423149565992
 30
0.0
 10
108.7396158582318
 20
-156.2423149565992
 30
0.0
 10
109.0569091524233
 20
-156.2423149565992
 30
0.0
 10
109.2915201549688
 20
-156.4665906726889
 30
0.0
 10
109.2915201549688
 20
-156.7690700562939
 30
0.0
  0
HATCH
  5
117
330
110
100
AcDbEntity
  8
_U+30EC_U+30A4_U+30E4_U+30FC 1
 62
   179
420
  2234388
100
AcDbHatch
 10
0.0
 20
0.0
 30
0.0
210
0.0
220
0.0
230
1.0
  2
SOLID
 70
     1
 71
     0
 91
        1
 92
        1
 93
        1
 72
     4
 94
        3
 73
     0
 74
     1
 95
       53
 96
       49
 40
0.0
 40
0.0
 40
0.0
 40
0.0
 40
1.0
 40
1.0
 40
1.0
 40
2.0
 40
2.0
 40
2.0
 40
3.0
 40
3.0
 40
3.0
 40
4.0
 40
4.0
 40
4.0
 40
5.0
 40
5.0
 40
5.0
 40
6.0
 40
6.0
 40
6.0
 40
7.0
 40
7.0
 40
7.0
 40
8.0
 40
8.0
 40
8.0
 40
9.0
 40
9.0
 40
9.0
 40
10.0
 40
10.0
 40
10.0
 40
11.0
 40
11.0
 40
11.0
 40
12.0
 40
12.0
 40
12.0
 40
13.0
 40
13.0
 40
13.0
 40
14.0
 40
14.0
 40
14.0
 40
15.0
 40
15.0
 40
15.0
 40
16.0
 40
16.0
 40
16.0
 40
16.0
 10
109.2915201549688
 20
-156.7690700562939
 10
109.2915201549688
 20
-156.847273723809
 10
109.2746391870911
 20
-156.9489040406239
 10
109.2112494301625
 20
-157.0505343574387
 10
109.101350884183
 20
-157.2238226603468
 10
108.970092746195
 20
-157.2451822523554
 10
108.8622612575067
 20
-157.2641302775243
 10
108.8622612575067
 20
-157.2641302775243
 10
108.8622612575067
 20
-157.0419216187256
 10
108.8622612575067
 20
-157.0419216187256
 10
109.0610432670056
 20
-156.9871446005102
 10
109.0906710881787
 20
-156.8600205771045
 10
109.0906710881787
 20
-156.7670029990027
 10
109.0906710881787
 20
-156.6274766318501
 10
108.991107828655
 20
-156.475203411402
 10
108.7585638834006
 20
-156.475203411402
 10
108.5025932888466
 20
-156.475203411402
 10
108.432657850496
 20
-156.6550373957321
 10
108.432657850496
 20
-156.7756157377158
 10
108.432657850496
 20
-156.8073106161801
 10
108.432657850496
 20
-156.9489040406239
 10
108.5618489311929
 20
-157.0377875041433
 10
108.5618489311929
 20
-157.0377875041433
 10
108.542900906024
 20
-157.2134873738911
 10
108.542900906024
 20
-157.2134873738911
 10
108.542900906024
 20
-157.2134873738911
 10
107.6964409452981
 20
-157.0929090319073
 10
107.6964409452981
 20
-157.0929090319073
 10
107.6964409452981
 20
-157.0929090319073
 10
107.6964409452981
 20
-156.3143174522409
 10
107.6964409452981
 20
-156.3143174522409
 10
107.6964409452981
 20
-156.3143174522409
 10
107.8910888402147
 20
-156.3143174522409
 10
107.8910888402147
 20
-156.3143174522409
 10
107.8910888402147
 20
-156.3143174522409
 10
107.8910888402147
 20
-156.929956015455
 10
107.8910888402147
 20
-156.929956015455
 10
107.8910888402147
 20
-156.929956015455
 10
108.3141465658034
 20
-156.9954128296748
 10
108.3141465658034
 20
-156.9954128296748
 10
108.280384630048
 20
-156.9340901300373
 10
108.2400770128705
 20
-156.8517523479399
 10
108.2400770128705
 20
-156.7332410632472
 10
108.2400770128705
 20
-156.4793375259843
 10
108.4264566786226
 20
-156.2423149565992
 10
108.7396158582318
 20
-156.2423149565992
 10
109.0569091524233
 20
-156.2423149565992
 10
109.2915201549688
 20
-156.4665906726889
 10
109.2915201549688
 20
-156.7690700562939
 97
        0
 97
        0
 75
     2
 76
     1
 98
        0
  0
POLYLINE
  5
118
330
110
100
AcDbEntity
  8
_U+30EC_U+30A4_U+30E4_U+30FC 1
370
     0
100
AcDb2dPolyline
 66
     1
 10
0.0
 20
0.0
 30
0.0
  0
VERTEX
  5
119
330
118
100
AcDbEntity
  8
_U+30EC_U+30A4_U+30E4_U+30FC 1
370
     0
100
AcDbVertex
100
AcDb2dVertex
 10
109.2408772513356
 20
-156.01321610683
 30
0.0
  0
VERTEX
  5
11A
330
118
100
AcDbEntity
  8
_U+30EC_U+30A4_U+30E4_U+30FC 1
370
     0
100
AcDbVertex
100
AcDb2dVertex
 10
108.9890407713639
 20
-156.01321610683
 30
0.0
  0
VERTEX
  5
11B
330
118
100
AcDbEntity
  8
_U+30EC_U+30A4_U+30E4_U+30FC 1
370
     0
100
AcDbVertex
100
AcDb2dVertex
 10
108.9890407713639
 20
-155.7613796268583
 30
0.0
  0
VERTEX
  5
11C
330
118
100
AcDbEntity
  8
_U+30EC_U+30A4_U+30E4_U+30FC 1
370
     0
100
AcDbVertex
100
AcDb2dVertex
 10
109.2408772513356
 20
-155.7613796268583
 30
0.0
  0
VERTEX
  5
11D
330
118
100
AcDbEntity
  8
_U+30EC_U+30A4_U+30E4_U+30FC 1
370
     0
100
AcDbVertex
100
AcDb2dVertex
 10
109.2408772513356
 20
-156.01321610683
 30
0.0
  0
SEQEND
  5
11E
330
118
100
AcDbEntity
  8
_U+30EC_U+30A4_U+30E4_U+30FC 1
370
     0
  0
HATCH
  5
11F
330
110
100
AcDbEntity
  8
_U+30EC_U+30A4_U+30E4_U+30FC 1
 62
   179
420
  2234388
100
AcDbHatch
 10
0.0
 20
0.0
 30
0.0
210
0.0
220
0.0
230
1.0
  2
SOLID
 70
     1
 71
     0
 91
        1
 92
        1
 93
        4
 72
     1
 10
109.2408772513356
 20
-156.01321610683
 11
108.9890407713639
 21
-156.01321610683
 72
     1
 10
108.9890407713639
 20
-156.01321610683
 11
108.9890407713639
 21
-155.7613796268583
 72
     1
 10
108.9890407713639
 20
-155.7613796268583
 11
109.2408772513356
 21
-155.7613796268583
 72
     1
 10
109.2408772513356
 20
-155.7613796268583
 11
109.2408772513356
 21
-156.01321610683
 97
        0
 75
     2
 76
     1
 98
        0
  0
SPLINE
  5
120
330
110
100
AcDbEntity
  8
_U+30EC_U+30A4_U+30E4_U+30FC 1
370
     0
100
AcDbSpline
210
0.0
220
0.0
230
1.0
 70
    11
 71
     3
 72
    53
 73
    49
 74
     0
 42
0.0000000001
 43
0.0000000001
 12
1.0
 22
0.0
 32
0.0
 13
1.0
 23
0.0
 33
0.0
 40
0.0
 40
0.0
 40
0.0
 40
0.0
 40
1.0
 40
1.0
 40
1.0
 40
2.0
 40
2.0
 40
2.0
 40
3.0
 40
3.0
 40
3.0
 40
4.0
 40
4.0
 40
4.0
 40
5.0
 40
5.0
 40
5.0
 40
6.0
 40
6.0
 40
6.0
 40
7.0
 40
7.0
 40
7.0
 40
8.0
 40
8.0
 40
8.0
 40
9.0
 40
9.0
 40
9.0
 40
10.0
 40
10.0
 40
10.0
 40
11.0
 40
11.0
 40
11.0
 40
12.0
 40
12.0
 40
12.0
 40
13.0
 40
13.0
 40
13.0
 40
14.0
 40
14.0
 40
14.0
 40
15.0
 40
15.0
 40
15.0
 40
16.0
 40
16.0
 40
16.0
 40
16.0
 10
109.2915201549688
 20
-155.0441107468293
 30
0.0
 10
109.2915201549688
 20
-155.1223144143444
 30
0.0
 10
109.2746391870911
 20
-155.2239447311593
 30
0.0
 10
109.2112494301625
 20
-155.3255750479742
 30
0.0
 10
109.101350884183
 20
-155.4988633508822
 30
0.0
 10
108.970092746195
 20
-155.5202229428908
 30
0.0
 10
108.8622612575067
 20
-155.5391709680597
 30
0.0
 10
108.8622612575067
 20
-155.5391709680597
 30
0.0
 10
108.8622612575067
 20
-155.316962309261
 30
0.0
 10
108.8622612575067
 20
-155.316962309261
 30
0.0
 10
109.0610432670056
 20
-155.2621852910456
 30
0.0
 10
109.0906710881787
 20
-155.1350612676399
 30
0.0
 10
109.0906710881787
 20
-155.0420436895381
 30
0.0
 10
109.0906710881787
 20
-154.9025173223855
 30
0.0
 10
108.991107828655
 20
-154.7502441019375
 30
0.0
 10
108.7585638834006
 20
-154.7502441019375
 30
0.0
 10
108.5025932888466
 20
-154.7502441019375
 30
0.0
 10
108.432657850496
 20
-154.9300780862675
 30
0.0
 10
108.432657850496
 20
-155.0506564282512
 30
0.0
 10
108.432657850496
 20
-155.0823513067155
 30
0.0
 10
108.432657850496
 20
-155.2239447311593
 30
0.0
 10
108.5618489311929
 20
-155.3128281946788
 30
0.0
 10
108.5618489311929
 20
-155.3128281946788
 30
0.0
 10
108.542900906024
 20
-155.4885280644265
 30
0.0
 10
108.542900906024
 20
-155.4885280644265
 30
0.0
 10
108.542900906024
 20
-155.4885280644265
 30
0.0
 10
107.6964409452981
 20
-155.3679497224427
 30
0.0
 10
107.6964409452981
 20
-155.3679497224427
 30
0.0
 10
107.6964409452981
 20
-155.3679497224427
 30
0.0
 10
107.6964409452981
 20
-154.5893581427763
 30
0.0
 10
107.6964409452981
 20
-154.5893581427763
 30
0.0
 10
107.6964409452981
 20
-154.5893581427763
 30
0.0
 10
107.8910888402147
 20
-154.5893581427763
 30
0.0
 10
107.8910888402147
 20
-154.5893581427763
 30
0.0
 10
107.8910888402147
 20
-154.5893581427763
 30
0.0
 10
107.8910888402147
 20
-155.2049967059904
 30
0.0
 10
107.8910888402147
 20
-155.2049967059904
 30
0.0
 10
107.8910888402147
 20
-155.2049967059904
 30
0.0
 10
108.3141465658034
 20
-155.2704535202102
 30
0.0
 10
108.3141465658034
 20
-155.2704535202102
 30
0.0
 10
108.280384630048
 20
-155.2091308205727
 30
0.0
 10
108.2400770128705
 20
-155.1267930384753
 30
0.0
 10
108.2400770128705
 20
-155.0082817537827
 30
0.0
 10
108.2400770128705
 20
-154.7543782165197
 30
0.0
 10
108.4264566786226
 20
-154.5173556471346
 30
0.0
 10
108.7396158582318
 20
-154.5173556471346
 30
0.0
 10
109.0569091524233
 20
-154.5173556471346
 30
0.0
 10
109.2915201549688
 20
-154.7416313632243
 30
0.0
 10
109.2915201549688
 20
-155.0441107468293
 30
0.0
  0
HATCH
  5
121
330
110
100
AcDbEntity
  8
_U+30EC_U+30A4_U+30E4_U+30FC 1
 62
   179
420
  2234388
100
AcDbHatch
 10
0.0
 20
0.0
 30
0.0
210
0.0
220
0.0
230
1.0
  2
SOLID
 70
     1
 71
     0
 91
        1
 92
        1
 93
        1
 72
     4
 94
        3
 73
     0
 74
     1
 95
       53
 96
       49
 40
0.0
 40
0.0
 40
0.0
 40
0.0
 40
1.0
 40
1.0
 40
1.0
 40
2.0
 40
2.0
 40
2.0
 40
3.0
 40
3.0
 40
3.0
 40
4.0
 40
4.0
 40
4.0
 40
5.0
 40
5.0
 40
5.0
 40
6.0
 40
6.0
 40
6.0
 40
7.0
 40
7.0
 40
7.0
 40
8.0
 40
8.0
 40
8.0
 40
9.0
 40
9.0
 40
9.0
 40
10.0
 40
10.0
 40
10.0
 40
11.0
 40
11.0
 40
11.0
 40
12.0
 40
12.0
 40
12.0
 40
13.0
 40
13.0
 40
13.0
 40
14.0
 40
14.0
 40
14.0
 40
15.0
 40
15.0
 40
15.0
 40
16.0
 40
16.0
 40
16.0
 40
16.0
 10
109.2915201549688
 20
-155.0441107468293
 10
109.2915201549688
 20
-155.1223144143444
 10
109.2746391870911
 20
-155.2239447311593
 10
109.2112494301625
 20
-155.3255750479742
 10
109.101350884183
 20
-155.4988633508822
 10
108.970092746195
 20
-155.5202229428908
 10
108.8622612575067
 20
-155.5391709680597
 10
108.8622612575067
 20
-155.5391709680597
 10
108.8622612575067
 20
-155.316962309261
 10
108.8622612575067
 20
-155.316962309261
 10
109.0610432670056
 20
-155.2621852910456
 10
109.0906710881787
 20
-155.1350612676399
 10
109.0906710881787
 20
-155.0420436895381
 10
109.0906710881787
 20
-154.9025173223855
 10
108.991107828655
 20
-154.7502441019375
 10
108.7585638834006
 20
-154.7502441019375
 10
108.5025932888466
 20
-154.7502441019375
 10
108.432657850496
 20
-154.9300780862675
 10
108.432657850496
 20
-155.0506564282512
 10
108.432657850496
 20
-155.0823513067155
 10
108.432657850496
 20
-155.2239447311593
 10
108.5618489311929
 20
-155.3128281946788
 10
108.5618489311929
 20
-155.3128281946788
 10
108.542900906024
 20
-155.4885280644265
 10
108.542900906024
 20
-155.4885280644265
 10
108.542900906024
 20
-155.4885280644265
 10
107.6964409452981
 20
-155.3679497224427
 10
107.6964409452981
 20
-155.3679497224427
 10
107.6964409452981
 20
-155.3679497224427
 10
107.6964409452981
 20
-154.5893581427763
 10
107.6964409452981
 20
-154.5893581427763
 10
107.6964409452981
 20
-154.5893581427763
 10
107.8910888402147
 20
-154.5893581427763
 10
107.8910888402147
 20
-154.5893581427763
 10
107.8910888402147
 20
-154.5893581427763
 10
107.8910888402147
 20
-155.2049967059904
 10
107.8910888402147
 20
-155.2049967059904
 10
107.8910888402147
 20
-155.2049967059904
 10
108.3141465658034
 20
-155.2704535202102
 10
108.3141465658034
 20
-155.2704535202102
 10
108.280384630048
 20
-155.2091308205727
 10
108.2400770128705
 20
-155.1267930384753
 10
108.2400770128705
 20
-155.0082817537827
 10
108.2400770128705
 20
-154.7543782165197
 10
108.4264566786226
 20
-154.5173556471346
 10
108.7396158582318
 20
-154.5173556471346
 10
109.0569091524233
 20
-154.5173556471346
 10
109.2915201549688
 20
-154.7416313632243
 10
109.2915201549688
 20
-155.0441107468293
 97
        0
 97
        0
 75
     2
 76
     1
 98
        0
  0
ENDBLK
  5
113
330
110
100
AcDbEntity
  8
0
100
AcDbBlockEnd
  0
BLOCK
  5
124
330
122
100
AcDbEntity
  8
0
100
AcDbBlockBegin
  2
block 5
 70
     0
 10
0.0
 20
0.0
 30
0.0
  3
block 5
  1

  0
POLYLINE
  5
126
330
122
100
AcDbEntity
  8
_U+30EC_U+30A4_U+30E4_U+30FC 1
370
     0
100
AcDb2dPolyline
 66
     1
 10
0.0
 20
0.0
 30
0.0
  0
VERTEX
  5
127
330
126
100
AcDbEntity
  8
_U+30EC_U+30A4_U+30E4_U+30FC 1
370
     0
100
AcDbVertex
100
AcDb2dVertex
 10
108.893956135971
 20
-166.4945746111541
 30
0.0
  0
VERTEX
  5
128
330
126
100
AcDbEntity
  8
_U+30EC_U+30A4_U+30E4_U+30FC 1
370
     0
100
AcDbVertex
100
AcDb2dVertex
 10
109.2408772513356
 20
-166.4945746111541
 30
0.0
  0
VERTEX
  5
129
330
126
100
AcDbEntity
  8
_U+30EC_U+30A4_U+30E4_U+30FC 1
370
     0
100
AcDbVertex
100
AcDb2dVertex
 10
109.2408772513356
 20
-166.7123046458219
 30
0.0
  0
VERTEX
  5
12A
330
126
100
AcDbEntity
  8
_U+30EC_U+30A4_U+30E4_U+30FC 1
370
     0
100
AcDbVertex
100
AcDb2dVertex
 10
108.893956135971
 20
-166.7123046458219
 30
0.0
  0
VERTEX
  5
12B
330
126
100
AcDbEntity
  8
_U+30EC_U+30A4_U+30E4_U+30FC 1
370
     0
100
AcDbVertex
100
AcDb2dVertex
 10
108.893956135971
 20
-167.3682508262135
 30
0.0
  0
VERTEX
  5
12C
330
126
100
AcDbEntity
  8
_U+30EC_U+30A4_U+30E4_U+30FC 1
370
     0
100
AcDbVertex
100
AcDb2dVertex
 10
108.6696804198812
 20
-167.3682508262135
 30
0.0
  0
VERTEX
  5
12D
330
126
100
AcDbEntity
  8
_U+30EC_U+30A4_U+30E4_U+30FC 1
370
     0
100
AcDbVertex
100
AcDb2dVertex
 10
107.6964409452981
 20
-166.6892225060708
 30
0.0
  0
VERTEX
  5
12E
330
126
100
AcDbEntity
  8
_U+30EC_U+30A4_U+30E4_U+30FC 1
370
     0
100
AcDbVertex
100
AcDb2dVertex
 10
107.6964409452981
 20
-166.4945746111541
 30
0.0
  0
VERTEX
  5
12F
330
126
100
AcDbEntity
  8
_U+30EC_U+30A4_U+30E4_U+30FC 1
370
     0
100
AcDbVertex
100
AcDb2dVertex
 10
108.695174126472
 20
-166.4945746111541
 30
0.0
  0
VERTEX
  5
130
330
126
100
AcDbEntity
  8
_U+30EC_U+30A4_U+30E4_U+30FC 1
370
     0
100
AcDbVertex
100
AcDb2dVertex
 10
108.695174126472
 20
-166.2871798629421
 30
0.0
  0
VERTEX
  5
131
330
126
100
AcDbEntity
  8
_U+30EC_U+30A4_U+30E4_U+30FC 1
370
     0
100
AcDbVertex
100
AcDb2dVertex
 10
108.893956135971
 20
-166.2871798629421
 30
0.0
  0
VERTEX
  5
132
330
126
100
AcDbEntity
  8
_U+30EC_U+30A4_U+30E4_U+30FC 1
370
     0
100
AcDbVertex
100
AcDb2dVertex
 10
108.893956135971
 20
-166.4945746111541
 30
0.0
  0
SEQEND
  5
133
330
126
100
AcDbEntity
  8
_U+30EC_U+30A4_U+30E4_U+30FC 1
370
     0
  0
POLYLINE
  5
134
330
122
100
AcDbEntity
  8
_U+30EC_U+30A4_U+30E4_U+30FC 1
370
     0
100
AcDb2dPolyline
 66
     1
 10
0.0
 20
0.0
 30
0.0
  0
VERTEX
  5
135
330
134
100
AcDbEntity
  8
_U+30EC_U+30A4_U+30E4_U+30FC 1
370
     0
100
AcDbVertex
100
AcDb2dVertex
 10
108.0392279460805
 20
-166.7123046458219
 30
0.0
  0
VERTEX
  5
136
330
134
100
AcDbEntity
  8
_U+30EC_U+30A4_U+30E4_U+30FC 1
370
     0
100
AcDbVertex
100
AcDb2dVertex
 10
108.695174126472
 20
-167.1694688167146
 30
0.0
  0
VERTEX
  5
137
330
134
100
AcDbEntity
  8
_U+30EC_U+30A4_U+30E4_U+30FC 1
370
     0
100
AcDbVertex
100
AcDb2dVertex
 10
108.695174126472
 20
-166.7123046458219
 30
0.0
  0
VERTEX
  5
138
330
134
100
AcDbEntity
  8
_U+30EC_U+30A4_U+30E4_U+30FC 1
370
     0
100
AcDbVertex
100
AcDb2dVertex
 10
108.0392279460805
 20
-166.7123046458219
 30
0.0
  0
SEQEND
  5
139
330
134
100
AcDbEntity
  8
_U+30EC_U+30A4_U+30E4_U+30FC 1
370
     0
  0
HATCH
  5
13A
330
122
100
AcDbEntity
  8
_U+30EC_U+30A4_U+30E4_U+30FC 1
 62
   179
420
  2234388
100
AcDbHatch
 10
0.0
 20
0.0
 30
0.0
210
0.0
220
0.0
230
1.0
  2
SOLID
 70
     1
 71
     0
 91
        2
 92
        1
 93
       11
 72
     1
 10
108.893956135971
 20
-166.4945746111541
 11
109.2408772513356
 21
-166.4945746111541
 72
     1
 10
109.2408772513356
 20
-166.4945746111541
 11
109.2408772513356
 21
-166.7123046458219
 72
     1
 10
109.2408772513356
 20
-166.7123046458219
 11
108.893956135971
 21
-166.7123046458219
 72
     1
 10
108.893956135971
 20
-166.7123046458219
 11
108.893956135971
 21
-167.3682508262135
 72
     1
 10
108.893956135971
 20
-167.3682508262135
 11
108.6696804198812
 21
-167.3682508262135
 72
     1
 10
108.6696804198812
 20
-167.3682508262135
 11
107.6964409452981
 21
-166.6892225060708
 72
     1
 10
107.6964409452981
 20
-166.6892225060708
 11
107.6964409452981
 21
-166.4945746111541
 72
     1
 10
107.6964409452981
 20
-166.4945746111541
 11
108.695174126472
 21
-166.4945746111541
 72
     1
 10
108.695174126472
 20
-166.4945746111541
 11
108.695174126472
 21
-166.2871798629421
 72
     1
 10
108.695174126472
 20
-166.2871798629421
 11
108.893956135971
 21
-166.2871798629421
 72
     1
 10
108.893956135971
 20
-166.2871798629421
 11
108.893956135971
 21
-166.4945746111541
 97
        0
 92
        1
 93
        3
 72
     1
 10
108.0392279460805
 20
-166.7123046458219
 11
108.695174126472
 21
-167.1694688167146
 72
     1
 10
108.695174126472
 20
-167.1694688167146
 11
108.695174126472
 21
-166.7123046458219
 72
     1
 10
108.695174126472
 20
-166.7123046458219
 11
108.0392279460805
 21
-166.7123046458219
 97
        0
 75
     2
 76
     1
 98
        0
  0
ENDBLK
  5
125
330
122
100
AcDbEntity
  8
0
100
AcDbBlockEnd
  0
BLOCK
  5
13D
330
13B
100
AcDbEntity
  8
0
100
AcDbBlockBegin
  2
block 6
 70
     0
 10
0.0
 20
0.0
 30
0.0
  3
block 6
  1

  0
SPLINE
  5
13F
330
13B
100
AcDbEntity
  8
_U+30EC_U+30A4_U+30E4_U+30FC 1
370
     0
100
AcDbSpline
210
0.0
220
0.0
230
1.0
 70
    11
 71
     3
 72
    62
 73
    58
 74
     0
 42
0.0000000001
 43
0.0000000001
 12
1.0
 22
0.0
 32
0.0
 13
1.0
 23
0.0
 33
0.0
 40
0.0
 40
0.0
 40
0.0
 40
0.0
 40
1.0
 40
1.0
 40
1.0
 40
2.0
 40
2.0
 40
2.0
 40
3.0
 40
3.0
 40
3.0
 40
4.0
 40
4.0
 40
4.0
 40
5.0
 40
5.0
 40
5.0
 40
6.0
 40
6.0
 40
6.0
 40
7.0
 40
7.0
 40
7.0
 40
8.0
 40
8.0
 40
8.0
 40
9.0
 40
9.0
 40
9.0
 40
10.0
 40
10.0
 40
10.0
 40
11.0
 40
11.0
 40
11.0
 40
12.0
 40
12.0
 40
12.0
 40
13.0
 40
13.0
 40
13.0
 40
14.0
 40
14.0
 40
14.0
 40
15.0
 40
15.0
 40
15.0
 40
16.0
 40
16.0
 40
16.0
 40
17.0
 40
17.0
 40
17.0
 40
18.0
 40
18.0
 40
18.0
 40
19.0
 40
19.0
 40
19.0
 40
19.0
 10
73.93932832352905
 20
-154.6727294535193
 30
0.0
 10
73.93932832352905
 20
-154.7681585984608
 30
0.0
 10
73.91831324106903
 20
-154.9858886331285
 30
0.0
 10
73.73227808486554
 20
-155.1109455992431
 30
0.0
 10
73.6199679720464
 20
-155.185015152176
 30
0.0
 10
73.5207492220712
 20
-155.1891492667583
 30
0.0
 10
73.43599987313407
 20
-155.1932833813406
 30
0.0
 10
73.43599987313407
 20
-155.1932833813406
 30
0.0
 10
73.43599987313407
 20
-154.9731417798331
 30
0.0
 10
73.43599987313407
 20
-154.9731417798331
 30
0.0
 10
73.51006942606693
 20
-154.971074722542
 30
0.0
 10
73.74468042861244
 20
-154.9607394360862
 30
0.0
 10
73.74468042861244
 20
-154.6772080776501
 30
0.0
 10
73.74468042861244
 20
-154.5397487677887
 30
0.0
 10
73.6750894998104
 20
-154.3871310377921
 30
0.0
 10
73.44667966913833
 20
-154.3871310377921
 30
0.0
 10
73.33023544173689
 20
-154.3871310377921
 30
0.0
 10
73.28165959539487
 20
-154.4253715976784
 30
0.0
 10
73.24996471693056
 20
-154.4570664761427
 30
0.0
 10
73.1758951639977
 20
-154.5311360290756
 30
0.0
 10
73.16314831070227
 20
-154.647580256477
 30
0.0
 10
73.16314831070227
 20
-154.7023572746925
 30
0.0
 10
73.16314831070227
 20
-154.7216498094099
 30
0.0
 10
73.16521536799343
 20
-154.7574788024565
 30
0.0
 10
73.16934948257573
 20
-154.7850395663385
 30
0.0
 10
73.16934948257573
 20
-154.7850395663385
 30
0.0
 10
72.97470158765911
 20
-154.7850395663385
 30
0.0
 10
72.97470158765911
 20
-154.7850395663385
 30
0.0
 10
72.98124726908108
 20
-154.7467990064522
 30
0.0
 10
72.98331432637222
 20
-154.7047688415321
 30
0.0
 10
72.98331432637222
 20
-154.6982231601102
 30
0.0
 10
72.98331432637222
 20
-154.6327663458904
 30
0.0
 10
72.96195473436369
 20
-154.4339843363915
 30
0.0
 10
72.72527667452702
 20
-154.4339843363915
 30
0.0
 10
72.54750974748812
 20
-154.4339843363915
 30
0.0
 10
72.49238821972413
 20
-154.564897964831
 30
0.0
 10
72.49238821972413
 20
-154.675141020359
 30
0.0
 10
72.49238821972413
 20
-154.9393798440776
 30
0.0
 10
72.72527667452702
 20
-154.9479925827908
 30
0.0
 10
72.79693466062021
 20
-154.9521266973731
 30
0.0
 10
72.79693466062021
 20
-154.9521266973731
 30
0.0
 10
72.79693466062021
 20
-155.1553873310028
 30
0.0
 10
72.79693466062021
 20
-155.1553873310028
 30
0.0
 10
72.67222220405417
 20
-155.1467745922897
 30
0.0
 10
72.29567326751636
 20
-155.1192138284077
 30
0.0
 10
72.29567326751636
 20
-154.6623941670636
 30
0.0
 10
72.29567326751636
 20
-154.4381184509738
 30
0.0
 10
72.42279729092208
 20
-154.1969617670063
 30
0.0
 10
72.71873099310504
 20
-154.1969617670063
 30
0.0
 10
72.90511065885705
 20
-154.1969617670063
 30
0.0
 10
72.98744844095452
 20
-154.2920464023992
 30
0.0
 10
73.04877114059198
 20
-154.3916096619229
 30
0.0
 10
73.07633190447397
 20
-154.3302869622855
 30
0.0
 10
73.1566026292803
 20
-154.1483859206643
 30
0.0
 10
73.43393281584291
 20
-154.1483859206643
 30
0.0
 10
73.77224119249445
 20
-154.1483859206643
 30
0.0
 10
73.93932832352905
 20
-154.3957437765052
 30
0.0
 10
73.93932832352905
 20
-154.6727294535193
 30
0.0
  0
HATCH
  5
140
330
13B
100
AcDbEntity
  8
_U+30EC_U+30A4_U+30E4_U+30FC 1
 62
   179
420
  2234388
100
AcDbHatch
 10
0.0
 20
0.0
 30
0.0
210
0.0
220
0.0
230
1.0
  2
SOLID
 70
     1
 71
     0
 91
        1
 92
        1
 93
        1
 72
     4
 94
        3
 73
     0
 74
     1
 95
       62
 96
       58
 40
0.0
 40
0.0
 40
0.0
 40
0.0
 40
1.0
 40
1.0
 40
1.0
 40
2.0
 40
2.0
 40
2.0
 40
3.0
 40
3.0
 40
3.0
 40
4.0
 40
4.0
 40
4.0
 40
5.0
 40
5.0
 40
5.0
 40
6.0
 40
6.0
 40
6.0
 40
7.0
 40
7.0
 40
7.0
 40
8.0
 40
8.0
 40
8.0
 40
9.0
 40
9.0
 40
9.0
 40
10.0
 40
10.0
 40
10.0
 40
11.0
 40
11.0
 40
11.0
 40
12.0
 40
12.0
 40
12.0
 40
13.0
 40
13.0
 40
13.0
 40
14.0
 40
14.0
 40
14.0
 40
15.0
 40
15.0
 40
15.0
 40
16.0
 40
16.0
 40
16.0
 40
17.0
 40
17.0
 40
17.0
 40
18.0
 40
18.0
 40
18.0
 40
19.0
 40
19.0
 40
19.0
 40
19.0
 10
73.93932832352905
 20
-154.6727294535193
 10
73.93932832352905
 20
-154.7681585984608
 10
73.91831324106903
 20
-154.9858886331285
 10
73.73227808486554
 20
-155.1109455992431
 10
73.6199679720464
 20
-155.185015152176
 10
73.5207492220712
 20
-155.1891492667583
 10
73.43599987313407
 20
-155.1932833813406
 10
73.43599987313407
 20
-155.1932833813406
 10
73.43599987313407
 20
-154.9731417798331
 10
73.43599987313407
 20
-154.9731417798331
 10
73.51006942606693
 20
-154.971074722542
 10
73.74468042861244
 20
-154.9607394360862
 10
73.74468042861244
 20
-154.6772080776501
 10
73.74468042861244
 20
-154.5397487677887
 10
73.6750894998104
 20
-154.3871310377921
 10
73.44667966913833
 20
-154.3871310377921
 10
73.33023544173689
 20
-154.3871310377921
 10
73.28165959539487
 20
-154.4253715976784
 10
73.24996471693056
 20
-154.4570664761427
 10
73.1758951639977
 20
-154.5311360290756
 10
73.16314831070227
 20
-154.647580256477
 10
73.16314831070227
 20
-154.7023572746925
 10
73.16314831070227
 20
-154.7216498094099
 10
73.16521536799343
 20
-154.7574788024565
 10
73.16934948257573
 20
-154.7850395663385
 10
73.16934948257573
 20
-154.7850395663385
 10
72.97470158765911
 20
-154.7850395663385
 10
72.97470158765911
 20
-154.7850395663385
 10
72.98124726908108
 20
-154.7467990064522
 10
72.98331432637222
 20
-154.7047688415321
 10
72.98331432637222
 20
-154.6982231601102
 10
72.98331432637222
 20
-154.6327663458904
 10
72.96195473436369
 20
-154.4339843363915
 10
72.72527667452702
 20
-154.4339843363915
 10
72.54750974748812
 20
-154.4339843363915
 10
72.49238821972413
 20
-154.564897964831
 10
72.49238821972413
 20
-154.675141020359
 10
72.49238821972413
 20
-154.9393798440776
 10
72.72527667452702
 20
-154.9479925827908
 10
72.79693466062021
 20
-154.9521266973731
 10
72.79693466062021
 20
-154.9521266973731
 10
72.79693466062021
 20
-155.1553873310028
 10
72.79693466062021
 20
-155.1553873310028
 10
72.67222220405417
 20
-155.1467745922897
 10
72.29567326751636
 20
-155.1192138284077
 10
72.29567326751636
 20
-154.6623941670636
 10
72.29567326751636
 20
-154.4381184509738
 10
72.42279729092208
 20
-154.1969617670063
 10
72.71873099310504
 20
-154.1969617670063
 10
72.90511065885705
 20
-154.1969617670063
 10
72.98744844095452
 20
-154.2920464023992
 10
73.04877114059198
 20
-154.3916096619229
 10
73.07633190447397
 20
-154.3302869622855
 10
73.1566026292803
 20
-154.1483859206643
 10
73.43393281584291
 20
-154.1483859206643
 10
73.77224119249445
 20
-154.1483859206643
 10
73.93932832352905
 20
-154.3957437765052
 10
73.93932832352905
 20
-154.6727294535193
 97
        0
 97
        0
 75
     2
 76
     1
 98
        0
  0
SPLINE
  5
141
330
13B
100
AcDbEntity
  8
_U+30EC_U+30A4_U+30E4_U+30FC 1
370
     0
100
AcDbSpline
210
0.0
220
0.0
230
1.0
 70
    11
 71
     3
 72
    29
 73
    25
 74
     0
 42
0.0000000001
 43
0.0000000001
 12
1.0
 22
0.0
 32
0.0
 13
1.0
 23
0.0
 33
0.0
 40
0.0
 40
0.0
 40
0.0
 40
0.0
 40
1.0
 40
1.0
 40
1.0
 40
2.0
 40
2.0
 40
2.0
 40
3.0
 40
3.0
 40
3.0
 40
4.0
 40
4.0
 40
4.0
 40
5.0
 40
5.0
 40
5.0
 40
6.0
 40
6.0
 40
6.0
 40
7.0
 40
7.0
 40
7.0
 40
8.0
 40
8.0
 40
8.0
 40
8.0
 10
73.71091849285699
 20
-153.089708078047
 30
0.0
 10
73.92038029836019
 20
-153.1978840762839
 30
0.0
 10
73.93932832352905
 20
-153.3711723791919
 30
0.0
 10
73.93932832352905
 20
-153.4876166065934
 30
0.0
 10
73.93932832352905
 20
-153.6485025657545
 30
0.0
 10
73.89281953447819
 20
-153.7900959901983
 30
0.0
 10
73.71091849285699
 20
-153.8851806255912
 30
0.0
 10
73.51627059794038
 20
-153.9888779996972
 30
0.0
 10
73.27924802855519
 20
-154.0081705344146
 30
0.0
 10
73.1166395216514
 20
-154.0081705344146
 30
0.0
 10
72.97263453036796
 20
-154.0081705344146
 30
0.0
 10
72.7207980503962
 20
-153.9909450569884
 30
0.0
 10
72.52201604089727
 20
-153.8851806255912
 30
0.0
 10
72.31909991681606
 20
-153.7773491369029
 30
0.0
 10
72.29567326751636
 20
-153.6164631777417
 30
0.0
 10
72.29567326751636
 20
-153.4876166065934
 30
0.0
 10
72.29567326751636
 20
-153.3287977047234
 30
0.0
 10
72.34011499927608
 20
-153.1851372229885
 30
0.0
 10
72.52201604089727
 20
-153.089708078047
 30
0.0
 10
72.71459687852274
 20
-152.9904893280718
 30
0.0
 10
72.9430067091948
 20
-152.9670626787721
 30
0.0
 10
73.1166395216514
 20
-152.9670626787721
 30
0.0
 10
73.28786076726831
 20
-152.9670626787721
 30
0.0
 10
73.51833765523153
 20
-152.9884222707807
 30
0.0
 10
73.71091849285699
 20
-153.089708078047
 30
0.0
  0
SPLINE
  5
142
330
13B
100
AcDbEntity
  8
_U+30EC_U+30A4_U+30E4_U+30FC 1
370
     0
100
AcDbSpline
210
0.0
220
0.0
230
1.0
 70
    11
 71
     3
 72
    17
 73
    13
 74
     0
 42
0.0000000001
 43
0.0000000001
 12
1.0
 22
0.0
 32
0.0
 13
1.0
 23
0.0
 33
0.0
 40
0.0
 40
0.0
 40
0.0
 40
0.0
 40
1.0
 40
1.0
 40
1.0
 40
2.0
 40
2.0
 40
2.0
 40
3.0
 40
3.0
 40
3.0
 40
4.0
 40
4.0
 40
4.0
 40
4.0
 10
72.48825410514183
 20
-153.4876166065934
 30
0.0
 10
72.48825410514183
 20
-153.737386029274
 30
0.0
 10
72.77178546357788
 20
-153.7838948183249
 30
0.0
 10
73.1166395216514
 20
-153.7838948183249
 30
0.0
 10
73.43599987313407
 20
-153.7838948183249
 30
0.0
 10
73.74468042861244
 20
-153.7477213157297
 30
0.0
 10
73.74468042861244
 20
-153.4876166065934
 30
0.0
 10
73.74468042861244
 20
-153.2399142412039
 30
0.0
 10
73.46356063701606
 20
-153.1913383948619
 30
0.0
 10
73.1166395216514
 20
-153.1913383948619
 30
0.0
 10
72.79693466062021
 20
-153.1913383948619
 30
0.0
 10
72.48825410514183
 20
-153.2295789547482
 30
0.0
 10
72.48825410514183
 20
-153.4876166065934
 30
0.0
  0
HATCH
  5
143
330
13B
100
AcDbEntity
  8
_U+30EC_U+30A4_U+30E4_U+30FC 1
 62
   179
420
  2234388
100
AcDbHatch
 10
0.0
 20
0.0
 30
0.0
210
0.0
220
0.0
230
1.0
  2
SOLID
 70
     1
 71
     0
 91
        2
 92
        1
 93
        1
 72
     4
 94
        3
 73
     0
 74
     1
 95
       29
 96
       25
 40
0.0
 40
0.0
 40
0.0
 40
0.0
 40
1.0
 40
1.0
 40
1.0
 40
2.0
 40
2.0
 40
2.0
 40
3.0
 40
3.0
 40
3.0
 40
4.0
 40
4.0
 40
4.0
 40
5.0
 40
5.0
 40
5.0
 40
6.0
 40
6.0
 40
6.0
 40
7.0
 40
7.0
 40
7.0
 40
8.0
 40
8.0
 40
8.0
 40
8.0
 10
73.71091849285699
 20
-153.089708078047
 10
73.92038029836019
 20
-153.1978840762839
 10
73.93932832352905
 20
-153.3711723791919
 10
73.93932832352905
 20
-153.4876166065934
 10
73.93932832352905
 20
-153.6485025657545
 10
73.89281953447819
 20
-153.7900959901983
 10
73.71091849285699
 20
-153.8851806255912
 10
73.51627059794038
 20
-153.9888779996972
 10
73.27924802855519
 20
-154.0081705344146
 10
73.1166395216514
 20
-154.0081705344146
 10
72.97263453036796
 20
-154.0081705344146
 10
72.7207980503962
 20
-153.9909450569884
 10
72.52201604089727
 20
-153.8851806255912
 10
72.31909991681606
 20
-153.7773491369029
 10
72.29567326751636
 20
-153.6164631777417
 10
72.29567326751636
 20
-153.4876166065934
 10
72.29567326751636
 20
-153.3287977047234
 10
72.34011499927608
 20
-153.1851372229885
 10
72.52201604089727
 20
-153.089708078047
 10
72.71459687852274
 20
-152.9904893280718
 10
72.9430067091948
 20
-152.9670626787721
 10
73.1166395216514
 20
-152.9670626787721
 10
73.28786076726831
 20
-152.9670626787721
 10
73.51833765523153
 20
-152.9884222707807
 10
73.71091849285699
 20
-153.089708078047
 97
        0
 97
        0
 92
        1
 93
        1
 72
     4
 94
        3
 73
     0
 74
     1
 95
       17
 96
       13
 40
0.0
 40
0.0
 40
0.0
 40
0.0
 40
1.0
 40
1.0
 40
1.0
 40
2.0
 40
2.0
 40
2.0
 40
3.0
 40
3.0
 40
3.0
 40
4.0
 40
4.0
 40
4.0
 40
4.0
 10
72.48825410514183
 20
-153.4876166065934
 10
72.48825410514183
 20
-153.737386029274
 10
72.77178546357788
 20
-153.7838948183249
 10
73.1166395216514
 20
-153.7838948183249
 10
73.43599987313407
 20
-153.7838948183249
 10
73.74468042861244
 20
-153.7477213157297
 10
73.74468042861244
 20
-153.4876166065934
 10
73.74468042861244
 20
-153.2399142412039
 10
73.46356063701606
 20
-153.1913383948619
 10
73.1166395216514
 20
-153.1913383948619
 10
72.79693466062021
 20
-153.1913383948619
 10
72.48825410514183
 20
-153.2295789547482
 10
72.48825410514183
 20
-153.4876166065934
 97
        0
 97
        0
 75
     2
 76
     1
 98
        0
  0
ENDBLK
  5
13E
330
13B
100
AcDbEntity
  8
0
100
AcDbBlockEnd
  0
BLOCK
  5
146
330
144
100
AcDbEntity
  8
0
100
AcDbBlockBegin
  2
block 7
 70
     0
 10
0.0
 20
0.0
 30
0.0
  3
block 7
  1

  0
POLYLINE
  5
148
330
144
100
AcDbEntity
  8
_U+30EC_U+30A4_U+30E4_U+30FC 1
370
     0
100
AcDb2dPolyline
 66
     1
 10
0.0
 20
0.0
 30
0.0
  0
VERTEX
  5
149
330
148
100
AcDbEntity
  8
_U+30EC_U+30A4_U+30E4_U+30FC 1
370
     0
100
AcDbVertex
100
AcDb2dVertex
 10
80.87034367552894
 20
-133.1860134215646
 30
0.0
  0
VERTEX
  5
14A
330
148
100
AcDbEntity
  8
_U+30EC_U+30A4_U+30E4_U+30FC 1
370
     0
100
AcDbVertex
100
AcDb2dVertex
 10
80.87034367552894
 20
-133.5329345369293
 30
0.0
  0
VERTEX
  5
14B
330
148
100
AcDbEntity
  8
_U+30EC_U+30A4_U+30E4_U+30FC 1
370
     0
100
AcDbVertex
100
AcDb2dVertex
 10
80.65261364086116
 20
-133.5329345369293
 30
0.0
  0
VERTEX
  5
14C
330
148
100
AcDbEntity
  8
_U+30EC_U+30A4_U+30E4_U+30FC 1
370
     0
100
AcDbVertex
100
AcDb2dVertex
 10
80.65261364086116
 20
-133.1860134215646
 30
0.0
  0
VERTEX
  5
14D
330
148
100
AcDbEntity
  8
_U+30EC_U+30A4_U+30E4_U+30FC 1
370
     0
100
AcDbVertex
100
AcDb2dVertex
 10
79.99666746046958
 20
-133.1860134215646
 30
0.0
  0
VERTEX
  5
14E
330
148
100
AcDbEntity
  8
_U+30EC_U+30A4_U+30E4_U+30FC 1
370
     0
100
AcDbVertex
100
AcDb2dVertex
 10
79.99666746046958
 20
-132.9617377054749
 30
0.0
  0
VERTEX
  5
14F
330
148
100
AcDbEntity
  8
_U+30EC_U+30A4_U+30E4_U+30FC 1
370
     0
100
AcDbVertex
100
AcDb2dVertex
 10
80.67569578061233
 20
-131.9884982308918
 30
0.0
  0
VERTEX
  5
150
330
148
100
AcDbEntity
  8
_U+30EC_U+30A4_U+30E4_U+30FC 1
370
     0
100
AcDbVertex
100
AcDb2dVertex
 10
80.87034367552894
 20
-131.9884982308918
 30
0.0
  0
VERTEX
  5
151
330
148
100
AcDbEntity
  8
_U+30EC_U+30A4_U+30E4_U+30FC 1
370
     0
100
AcDbVertex
100
AcDb2dVertex
 10
80.87034367552894
 20
-132.9868869025172
 30
0.0
  0
VERTEX
  5
152
330
148
100
AcDbEntity
  8
_U+30EC_U+30A4_U+30E4_U+30FC 1
370
     0
100
AcDbVertex
100
AcDb2dVertex
 10
81.07773842374098
 20
-132.9868869025172
 30
0.0
  0
VERTEX
  5
153
330
148
100
AcDbEntity
  8
_U+30EC_U+30A4_U+30E4_U+30FC 1
370
     0
100
AcDbVertex
100
AcDb2dVertex
 10
81.07773842374098
 20
-133.1860134215646
 30
0.0
  0
VERTEX
  5
154
330
148
100
AcDbEntity
  8
_U+30EC_U+30A4_U+30E4_U+30FC 1
370
     0
100
AcDbVertex
100
AcDb2dVertex
 10
80.87034367552894
 20
-133.1860134215646
 30
0.0
  0
SEQEND
  5
155
330
148
100
AcDbEntity
  8
_U+30EC_U+30A4_U+30E4_U+30FC 1
370
     0
  0
POLYLINE
  5
156
330
144
100
AcDbEntity
  8
_U+30EC_U+30A4_U+30E4_U+30FC 1
370
     0
100
AcDb2dPolyline
 66
     1
 10
0.0
 20
0.0
 30
0.0
  0
VERTEX
  5
157
330
156
100
AcDbEntity
  8
_U+30EC_U+30A4_U+30E4_U+30FC 1
370
     0
100
AcDbVertex
100
AcDb2dVertex
 10
80.65261364086116
 20
-132.3312852316741
 30
0.0
  0
VERTEX
  5
158
330
156
100
AcDbEntity
  8
_U+30EC_U+30A4_U+30E4_U+30FC 1
370
     0
100
AcDbVertex
100
AcDb2dVertex
 10
80.19544946996851
 20
-132.9868869025172
 30
0.0
  0
VERTEX
  5
159
330
156
100
AcDbEntity
  8
_U+30EC_U+30A4_U+30E4_U+30FC 1
370
     0
100
AcDbVertex
100
AcDb2dVertex
 10
80.65261364086116
 20
-132.9868869025172
 30
0.0
  0
VERTEX
  5
15A
330
156
100
AcDbEntity
  8
_U+30EC_U+30A4_U+30E4_U+30FC 1
370
     0
100
AcDbVertex
100
AcDb2dVertex
 10
80.65261364086116
 20
-132.3312852316741
 30
0.0
  0
SEQEND
  5
15B
330
156
100
AcDbEntity
  8
_U+30EC_U+30A4_U+30E4_U+30FC 1
370
     0
  0
HATCH
  5
15C
330
144
100
AcDbEntity
  8
_U+30EC_U+30A4_U+30E4_U+30FC 1
 62
   179
420
  2234388
100
AcDbHatch
 10
0.0
 20
0.0
 30
0.0
210
0.0
220
0.0
230
1.0
  2
SOLID
 70
     1
 71
     0
 91
        2
 92
        1
 93
       11
 72
     1
 10
80.87034367552894
 20
-133.1860134215646
 11
80.87034367552894
 21
-133.5329345369293
 72
     1
 10
80.87034367552894
 20
-133.5329345369293
 11
80.65261364086116
 21
-133.5329345369293
 72
     1
 10
80.65261364086116
 20
-133.5329345369293
 11
80.65261364086116
 21
-133.1860134215646
 72
     1
 10
80.65261364086116
 20
-133.1860134215646
 11
79.99666746046958
 21
-133.1860134215646
 72
     1
 10
79.99666746046958
 20
-133.1860134215646
 11
79.99666746046958
 21
-132.9617377054749
 72
     1
 10
79.99666746046958
 20
-132.9617377054749
 11
80.67569578061233
 21
-131.9884982308918
 72
     1
 10
80.67569578061233
 20
-131.9884982308918
 11
80.87034367552894
 21
-131.9884982308918
 72
     1
 10
80.87034367552894
 20
-131.9884982308918
 11
80.87034367552894
 21
-132.9868869025172
 72
     1
 10
80.87034367552894
 20
-132.9868869025172
 11
81.07773842374098
 21
-132.9868869025172
 72
     1
 10
81.07773842374098
 20
-132.9868869025172
 11
81.07773842374098
 21
-133.1860134215646
 72
     1
 10
81.07773842374098
 20
-133.1860134215646
 11
80.87034367552894
 21
-133.1860134215646
 97
        0
 92
        1
 93
        3
 72
     1
 10
80.65261364086116
 20
-132.3312852316741
 11
80.19544946996851
 21
-132.9868869025172
 72
     1
 10
80.19544946996851
 20
-132.9868869025172
 11
80.65261364086116
 21
-132.9868869025172
 72
     1
 10
80.65261364086116
 20
-132.9868869025172
 11
80.65261364086116
 21
-132.3312852316741
 97
        0
 75
     2
 76
     1
 98
        0
  0
ENDBLK
  5
147
330
144
100
AcDbEntity
  8
0
100
AcDbBlockEnd
  0
BLOCK
  5
15F
330
15D
100
AcDbEntity
  8
0
100
AcDbBlockBegin
  2
block 8
 70
     0
 10
0.0
 20
0.0
 30
0.0
  3
block 8
  1

  0
SPLINE
  5
161
330
15D
100
AcDbEntity
  8
_U+30EC_U+30A4_U+30E4_U+30FC 1
370
     0
100
AcDbSpline
210
0.0
220
0.0
230
1.0
 70
    11
 71
     3
 72
    26
 73
    22
 74
     0
 42
0.0000000001
 43
0.0000000001
 12
1.0
 22
0.0
 32
0.0
 13
1.0
 23
0.0
 33
0.0
 40
0.0
 40
0.0
 40
0.0
 40
0.0
 40
1.0
 40
1.0
 40
1.0
 40
2.0
 40
2.0
 40
2.0
 40
3.0
 40
3.0
 40
3.0
 40
4.0
 40
4.0
 40
4.0
 40
5.0
 40
5.0
 40
5.0
 40
6.0
 40
6.0
 40
6.0
 40
7.0
 40
7.0
 40
7.0
 40
7.0
 10
88.78906790314996
 20
-133.5329345369293
 30
0.0
 10
88.78906790314996
 20
-133.5329345369293
 30
0.0
 10
88.78906790314996
 20
-132.4284369243582
 30
0.0
 10
88.78906790314996
 20
-132.4284369243582
 30
0.0
 10
88.78906790314996
 20
-132.4284369243582
 30
0.0
 10
88.45902775566303
 20
-132.4284369243582
 30
0.0
 10
88.45902775566303
 20
-132.4284369243582
 30
0.0
 10
88.45902775566303
 20
-132.4284369243582
 30
0.0
 10
88.45902775566303
 20
-132.280642328041
 30
0.0
 10
88.45902775566303
 20
-132.280642328041
 30
0.0
 10
88.79113496044111
 20
-132.2658284174544
 30
0.0
 10
88.83764374949199
 20
-132.1028754010021
 30
0.0
 10
88.86727157066512
 20
-131.9884982308918
 30
0.0
 10
88.86727157066512
 20
-131.9884982308918
 30
0.0
 10
89.01334361923972
 20
-131.9884982308918
 30
0.0
 10
89.01334361923972
 20
-131.9884982308918
 30
0.0
 10
89.01334361923972
 20
-131.9884982308918
 30
0.0
 10
89.01334361923972
 20
-133.5329345369293
 30
0.0
 10
89.01334361923972
 20
-133.5329345369293
 30
0.0
 10
89.01334361923972
 20
-133.5329345369293
 30
0.0
 10
88.78906790314996
 20
-133.5329345369293
 30
0.0
 10
88.78906790314996
 20
-133.5329345369293
 30
0.0
  0
HATCH
  5
162
330
15D
100
AcDbEntity
  8
_U+30EC_U+30A4_U+30E4_U+30FC 1
 62
   179
420
  2234388
100
AcDbHatch
 10
0.0
 20
0.0
 30
0.0
210
0.0
220
0.0
230
1.0
  2
SOLID
 70
     1
 71
     0
 91
        1
 92
        1
 93
        1
 72
     4
 94
        3
 73
     0
 74
     1
 95
       26
 96
       22
 40
0.0
 40
0.0
 40
0.0
 40
0.0
 40
1.0
 40
1.0
 40
1.0
 40
2.0
 40
2.0
 40
2.0
 40
3.0
 40
3.0
 40
3.0
 40
4.0
 40
4.0
 40
4.0
 40
5.0
 40
5.0
 40
5.0
 40
6.0
 40
6.0
 40
6.0
 40
7.0
 40
7.0
 40
7.0
 40
7.0
 10
88.78906790314996
 20
-133.5329345369293
 10
88.78906790314996
 20
-133.5329345369293
 10
88.78906790314996
 20
-132.4284369243582
 10
88.78906790314996
 20
-132.4284369243582
 10
88.78906790314996
 20
-132.4284369243582
 10
88.45902775566303
 20
-132.4284369243582
 10
88.45902775566303
 20
-132.4284369243582
 10
88.45902775566303
 20
-132.4284369243582
 10
88.45902775566303
 20
-132.280642328041
 10
88.45902775566303
 20
-132.280642328041
 10
88.79113496044111
 20
-132.2658284174544
 10
88.83764374949199
 20
-132.1028754010021
 10
88.86727157066512
 20
-131.9884982308918
 10
88.86727157066512
 20
-131.9884982308918
 10
89.01334361923972
 20
-131.9884982308918
 10
89.01334361923972
 20
-131.9884982308918
 10
89.01334361923972
 20
-131.9884982308918
 10
89.01334361923972
 20
-133.5329345369293
 10
89.01334361923972
 20
-133.5329345369293
 10
89.01334361923972
 20
-133.5329345369293
 10
88.78906790314996
 20
-133.5329345369293
 10
88.78906790314996
 20
-133.5329345369293
 97
        0
 97
        0
 75
     2
 76
     1
 98
        0
  0
SPLINE
  5
163
330
15D
100
AcDbEntity
  8
_U+30EC_U+30A4_U+30E4_U+30FC 1
370
     0
100
AcDbSpline
210
0.0
220
0.0
230
1.0
 70
    11
 71
     3
 72
    53
 73
    49
 74
     0
 42
0.0000000001
 43
0.0000000001
 12
1.0
 22
0.0
 32
0.0
 13
1.0
 23
0.0
 33
0.0
 40
0.0
 40
0.0
 40
0.0
 40
0.0
 40
1.0
 40
1.0
 40
1.0
 40
2.0
 40
2.0
 40
2.0
 40
3.0
 40
3.0
 40
3.0
 40
4.0
 40
4.0
 40
4.0
 40
5.0
 40
5.0
 40
5.0
 40
6.0
 40
6.0
 40
6.0
 40
7.0
 40
7.0
 40
7.0
 40
8.0
 40
8.0
 40
8.0
 40
9.0
 40
9.0
 40
9.0
 40
10.0
 40
10.0
 40
10.0
 40
11.0
 40
11.0
 40
11.0
 40
12.0
 40
12.0
 40
12.0
 40
13.0
 40
13.0
 40
13.0
 40
14.0
 40
14.0
 40
14.0
 40
15.0
 40
15.0
 40
15.0
 40
16.0
 40
16.0
 40
16.0
 40
16.0
 10
89.99554034208445
 20
-133.5835774405624
 30
0.0
 10
89.91733667456928
 20
-133.5835774405624
 30
0.0
 10
89.81570635775441
 20
-133.5666964726847
 30
0.0
 10
89.71407604093955
 20
-133.5033067157561
 30
0.0
 10
89.54078773803147
 20
-133.3930636602281
 30
0.0
 10
89.51942814602292
 20
-133.2621500317886
 30
0.0
 10
89.50048012085405
 20
-133.1543185431003
 30
0.0
 10
89.50048012085405
 20
-133.1543185431003
 30
0.0
 10
89.72268877965267
 20
-133.1543185431003
 30
0.0
 10
89.72268877965267
 20
-133.1543185431003
 30
0.0
 10
89.77746579786813
 20
-133.3531005525992
 30
0.0
 10
89.90458982127386
 20
-133.3827283737724
 30
0.0
 10
89.9976073993756
 20
-133.3827283737724
 30
0.0
 10
90.13713376652822
 20
-133.3827283737724
 30
0.0
 10
90.28940698697626
 20
-133.2831651142486
 30
0.0
 10
90.28940698697626
 20
-133.0506211689943
 30
0.0
 10
90.28940698697626
 20
-132.7946505744402
 30
0.0
 10
90.10957300264621
 20
-132.7247151360897
 30
0.0
 10
89.98899466066248
 20
-132.7247151360897
 30
0.0
 10
89.95729978219818
 20
-132.7247151360897
 30
0.0
 10
89.81570635775441
 20
-132.7247151360897
 30
0.0
 10
89.72682289423497
 20
-132.8539062167865
 30
0.0
 10
89.72682289423497
 20
-132.8539062167865
 30
0.0
 10
89.55112302448723
 20
-132.8346136820691
 30
0.0
 10
89.55112302448723
 20
-132.8346136820691
 30
0.0
 10
89.55112302448723
 20
-132.8346136820691
 30
0.0
 10
89.67170136647097
 20
-131.9884982308918
 30
0.0
 10
89.67170136647097
 20
-131.9884982308918
 30
0.0
 10
89.67170136647097
 20
-131.9884982308918
 30
0.0
 10
90.45029294613744
 20
-131.9884982308918
 30
0.0
 10
90.45029294613744
 20
-131.9884982308918
 30
0.0
 10
90.45029294613744
 20
-131.9884982308918
 30
0.0
 10
90.45029294613744
 20
-132.1831461258084
 30
0.0
 10
90.45029294613744
 20
-132.1831461258084
 30
0.0
 10
90.45029294613744
 20
-132.1831461258084
 30
0.0
 10
89.83465438292329
 20
-132.1831461258084
 30
0.0
 10
89.83465438292329
 20
-132.1831461258084
 30
0.0
 10
89.83465438292329
 20
-132.1831461258084
 30
0.0
 10
89.76919756870353
 20
-132.6062038513971
 30
0.0
 10
89.76919756870353
 20
-132.6062038513971
 30
0.0
 10
89.83052026834099
 20
-132.5724419156416
 30
0.0
 10
89.91285805043846
 20
-132.5321342984642
 30
0.0
 10
90.03136933513105
 20
-132.5321342984642
 30
0.0
 10
90.28527287239396
 20
-132.5321342984642
 30
0.0
 10
90.52229544177915
 20
-132.7185139642162
 30
0.0
 10
90.52229544177915
 20
-133.0313286342769
 30
0.0
 10
90.52229544177915
 20
-133.3489664380169
 30
0.0
 10
90.29801972568939
 20
-133.5835774405624
 30
0.0
 10
89.99554034208445
 20
-133.5835774405624
 30
0.0
  0
HATCH
  5
164
330
15D
100
AcDbEntity
  8
_U+30EC_U+30A4_U+30E4_U+30FC 1
 62
   179
420
  2234388
100
AcDbHatch
 10
0.0
 20
0.0
 30
0.0
210
0.0
220
0.0
230
1.0
  2
SOLID
 70
     1
 71
     0
 91
        1
 92
        1
 93
        1
 72
     4
 94
        3
 73
     0
 74
     1
 95
       53
 96
       49
 40
0.0
 40
0.0
 40
0.0
 40
0.0
 40
1.0
 40
1.0
 40
1.0
 40
2.0
 40
2.0
 40
2.0
 40
3.0
 40
3.0
 40
3.0
 40
4.0
 40
4.0
 40
4.0
 40
5.0
 40
5.0
 40
5.0
 40
6.0
 40
6.0
 40
6.0
 40
7.0
 40
7.0
 40
7.0
 40
8.0
 40
8.0
 40
8.0
 40
9.0
 40
9.0
 40
9.0
 40
10.0
 40
10.0
 40
10.0
 40
11.0
 40
11.0
 40
11.0
 40
12.0
 40
12.0
 40
12.0
 40
13.0
 40
13.0
 40
13.0
 40
14.0
 40
14.0
 40
14.0
 40
15.0
 40
15.0
 40
15.0
 40
16.0
 40
16.0
 40
16.0
 40
16.0
 10
89.99554034208445
 20
-133.5835774405624
 10
89.91733667456928
 20
-133.5835774405624
 10
89.81570635775441
 20
-133.5666964726847
 10
89.71407604093955
 20
-133.5033067157561
 10
89.54078773803147
 20
-133.3930636602281
 10
89.51942814602292
 20
-133.2621500317886
 10
89.50048012085405
 20
-133.1543185431003
 10
89.50048012085405
 20
-133.1543185431003
 10
89.72268877965267
 20
-133.1543185431003
 10
89.72268877965267
 20
-133.1543185431003
 10
89.77746579786813
 20
-133.3531005525992
 10
89.90458982127386
 20
-133.3827283737724
 10
89.9976073993756
 20
-133.3827283737724
 10
90.13713376652822
 20
-133.3827283737724
 10
90.28940698697626
 20
-133.2831651142486
 10
90.28940698697626
 20
-133.0506211689943
 10
90.28940698697626
 20
-132.7946505744402
 10
90.10957300264621
 20
-132.7247151360897
 10
89.98899466066248
 20
-132.7247151360897
 10
89.95729978219818
 20
-132.7247151360897
 10
89.81570635775441
 20
-132.7247151360897
 10
89.72682289423497
 20
-132.8539062167865
 10
89.72682289423497
 20
-132.8539062167865
 10
89.55112302448723
 20
-132.8346136820691
 10
89.55112302448723
 20
-132.8346136820691
 10
89.55112302448723
 20
-132.8346136820691
 10
89.67170136647097
 20
-131.9884982308918
 10
89.67170136647097
 20
-131.9884982308918
 10
89.67170136647097
 20
-131.9884982308918
 10
90.45029294613744
 20
-131.9884982308918
 10
90.45029294613744
 20
-131.9884982308918
 10
90.45029294613744
 20
-131.9884982308918
 10
90.45029294613744
 20
-132.1831461258084
 10
90.45029294613744
 20
-132.1831461258084
 10
90.45029294613744
 20
-132.1831461258084
 10
89.83465438292329
 20
-132.1831461258084
 10
89.83465438292329
 20
-132.1831461258084
 10
89.83465438292329
 20
-132.1831461258084
 10
89.76919756870353
 20
-132.6062038513971
 10
89.76919756870353
 20
-132.6062038513971
 10
89.83052026834099
 20
-132.5724419156416
 10
89.91285805043846
 20
-132.5321342984642
 10
90.03136933513105
 20
-132.5321342984642
 10
90.28527287239396
 20
-132.5321342984642
 10
90.52229544177915
 20
-132.7185139642162
 10
90.52229544177915
 20
-133.0313286342769
 10
90.52229544177915
 20
-133.3489664380169
 10
90.29801972568939
 20
-133.5835774405624
 10
89.99554034208445
 20
-133.5835774405624
 97
        0
 97
        0
 75
     2
 76
     1
 98
        0
  0
POLYLINE
  5
165
330
15D
100
AcDbEntity
  8
_U+30EC_U+30A4_U+30E4_U+30FC 1
370
     0
100
AcDb2dPolyline
 66
     1
 10
0.0
 20
0.0
 30
0.0
  0
VERTEX
  5
166
330
165
100
AcDbEntity
  8
_U+30EC_U+30A4_U+30E4_U+30FC 1
370
     0
100
AcDbVertex
100
AcDb2dVertex
 10
90.75139429154827
 20
-133.5329345369293
 30
0.0
  0
VERTEX
  5
167
330
165
100
AcDbEntity
  8
_U+30EC_U+30A4_U+30E4_U+30FC 1
370
     0
100
AcDbVertex
100
AcDb2dVertex
 10
90.75139429154827
 20
-133.2810980569575
 30
0.0
  0
VERTEX
  5
168
330
165
100
AcDbEntity
  8
_U+30EC_U+30A4_U+30E4_U+30FC 1
370
     0
100
AcDbVertex
100
AcDb2dVertex
 10
91.00323077152002
 20
-133.2810980569575
 30
0.0
  0
VERTEX
  5
169
330
165
100
AcDbEntity
  8
_U+30EC_U+30A4_U+30E4_U+30FC 1
370
     0
100
AcDbVertex
100
AcDb2dVertex
 10
91.00323077152002
 20
-133.5329345369293
 30
0.0
  0
VERTEX
  5
16A
330
165
100
AcDbEntity
  8
_U+30EC_U+30A4_U+30E4_U+30FC 1
370
     0
100
AcDbVertex
100
AcDb2dVertex
 10
90.75139429154827
 20
-133.5329345369293
 30
0.0
  0
SEQEND
  5
16B
330
165
100
AcDbEntity
  8
_U+30EC_U+30A4_U+30E4_U+30FC 1
370
     0
  0
HATCH
  5
16C
330
15D
100
AcDbEntity
  8
_U+30EC_U+30A4_U+30E4_U+30FC 1
 62
   179
420
  2234388
100
AcDbHatch
 10
0.0
 20
0.0
 30
0.0
210
0.0
220
0.0
230
1.0
  2
SOLID
 70
     1
 71
     0
 91
        1
 92
        1
 93
        4
 72
     1
 10
90.75139429154827
 20
-133.5329345369293
 11
90.75139429154827
 21
-133.2810980569575
 72
     1
 10
90.75139429154827
 20
-133.2810980569575
 11
91.00323077152002
 21
-133.2810980569575
 72
     1
 10
91.00323077152002
 20
-133.2810980569575
 11
91.00323077152002
 21
-133.5329345369293
 72
     1
 10
91.00323077152002
 20
-133.5329345369293
 11
90.75139429154827
 21
-133.5329345369293
 97
        0
 75
     2
 76
     1
 98
        0
  0
SPLINE
  5
16D
330
15D
100
AcDbEntity
  8
_U+30EC_U+30A4_U+30E4_U+30FC 1
370
     0
100
AcDbSpline
210
0.0
220
0.0
230
1.0
 70
    11
 71
     3
 72
    53
 73
    49
 74
     0
 42
0.0000000001
 43
0.0000000001
 12
1.0
 22
0.0
 32
0.0
 13
1.0
 23
0.0
 33
0.0
 40
0.0
 40
0.0
 40
0.0
 40
0.0
 40
1.0
 40
1.0
 40
1.0
 40
2.0
 40
2.0
 40
2.0
 40
3.0
 40
3.0
 40
3.0
 40
4.0
 40
4.0
 40
4.0
 40
5.0
 40
5.0
 40
5.0
 40
6.0
 40
6.0
 40
6.0
 40
7.0
 40
7.0
 40
7.0
 40
8.0
 40
8.0
 40
8.0
 40
9.0
 40
9.0
 40
9.0
 40
10.0
 40
10.0
 40
10.0
 40
11.0
 40
11.0
 40
11.0
 40
12.0
 40
12.0
 40
12.0
 40
13.0
 40
13.0
 40
13.0
 40
14.0
 40
14.0
 40
14.0
 40
15.0
 40
15.0
 40
15.0
 40
16.0
 40
16.0
 40
16.0
 40
16.0
 10
91.72049965154905
 20
-133.5835774405624
 30
0.0
 10
91.64229598403388
 20
-133.5835774405624
 30
0.0
 10
91.540665667219
 20
-133.5666964726847
 30
0.0
 10
91.43903535040414
 20
-133.5033067157561
 30
0.0
 10
91.26574704749606
 20
-133.3930636602281
 30
0.0
 10
91.24438745548751
 20
-133.2621500317886
 30
0.0
 10
91.22543943031864
 20
-133.1543185431003
 30
0.0
 10
91.22543943031864
 20
-133.1543185431003
 30
0.0
 10
91.44764808911727
 20
-133.1543185431003
 30
0.0
 10
91.44764808911727
 20
-133.1543185431003
 30
0.0
 10
91.50242510733273
 20
-133.3531005525992
 30
0.0
 10
91.62954913073845
 20
-133.3827283737724
 30
0.0
 10
91.72256670884019
 20
-133.3827283737724
 30
0.0
 10
91.86209307599282
 20
-133.3827283737724
 30
0.0
 10
92.01436629644085
 20
-133.2831651142486
 30
0.0
 10
92.01436629644085
 20
-133.0506211689943
 30
0.0
 10
92.01436629644085
 20
-132.7946505744402
 30
0.0
 10
91.83453231211081
 20
-132.7247151360897
 30
0.0
 10
91.71395397012706
 20
-132.7247151360897
 30
0.0
 10
91.68225909166277
 20
-132.7247151360897
 30
0.0
 10
91.540665667219
 20
-132.7247151360897
 30
0.0
 10
91.45178220369957
 20
-132.8539062167865
 30
0.0
 10
91.45178220369957
 20
-132.8539062167865
 30
0.0
 10
91.27608233395182
 20
-132.8346136820691
 30
0.0
 10
91.27608233395182
 20
-132.8346136820691
 30
0.0
 10
91.27608233395182
 20
-132.8346136820691
 30
0.0
 10
91.39666067593556
 20
-131.9884982308918
 30
0.0
 10
91.39666067593556
 20
-131.9884982308918
 30
0.0
 10
91.39666067593556
 20
-131.9884982308918
 30
0.0
 10
92.17525225560202
 20
-131.9884982308918
 30
0.0
 10
92.17525225560202
 20
-131.9884982308918
 30
0.0
 10
92.17525225560202
 20
-131.9884982308918
 30
0.0
 10
92.17525225560202
 20
-132.1831461258084
 30
0.0
 10
92.17525225560202
 20
-132.1831461258084
 30
0.0
 10
92.17525225560202
 20
-132.1831461258084
 30
0.0
 10
91.55961369238788
 20
-132.1831461258084
 30
0.0
 10
91.55961369238788
 20
-132.1831461258084
 30
0.0
 10
91.55961369238788
 20
-132.1831461258084
 30
0.0
 10
91.49415687816813
 20
-132.6062038513971
 30
0.0
 10
91.49415687816813
 20
-132.6062038513971
 30
0.0
 10
91.55547957780558
 20
-132.5724419156416
 30
0.0
 10
91.63781735990305
 20
-132.5321342984642
 30
0.0
 10
91.75632864459564
 20
-132.5321342984642
 30
0.0
 10
92.01023218185856
 20
-132.5321342984642
 30
0.0
 10
92.24725475124374
 20
-132.7185139642162
 30
0.0
 10
92.24725475124374
 20
-133.0313286342769
 30
0.0
 10
92.24725475124374
 20
-133.3489664380169
 30
0.0
 10
92.02297903515398
 20
-133.5835774405624
 30
0.0
 10
91.72049965154905
 20
-133.5835774405624
 30
0.0
  0
HATCH
  5
16E
330
15D
100
AcDbEntity
  8
_U+30EC_U+30A4_U+30E4_U+30FC 1
 62
   179
420
  2234388
100
AcDbHatch
 10
0.0
 20
0.0
 30
0.0
210
0.0
220
0.0
230
1.0
  2
SOLID
 70
     1
 71
     0
 91
        1
 92
        1
 93
        1
 72
     4
 94
        3
 73
     0
 74
     1
 95
       53
 96
       49
 40
0.0
 40
0.0
 40
0.0
 40
0.0
 40
1.0
 40
1.0
 40
1.0
 40
2.0
 40
2.0
 40
2.0
 40
3.0
 40
3.0
 40
3.0
 40
4.0
 40
4.0
 40
4.0
 40
5.0
 40
5.0
 40
5.0
 40
6.0
 40
6.0
 40
6.0
 40
7.0
 40
7.0
 40
7.0
 40
8.0
 40
8.0
 40
8.0
 40
9.0
 40
9.0
 40
9.0
 40
10.0
 40
10.0
 40
10.0
 40
11.0
 40
11.0
 40
11.0
 40
12.0
 40
12.0
 40
12.0
 40
13.0
 40
13.0
 40
13.0
 40
14.0
 40
14.0
 40
14.0
 40
15.0
 40
15.0
 40
15.0
 40
16.0
 40
16.0
 40
16.0
 40
16.0
 10
91.72049965154905
 20
-133.5835774405624
 10
91.64229598403388
 20
-133.5835774405624
 10
91.540665667219
 20
-133.5666964726847
 10
91.43903535040414
 20
-133.5033067157561
 10
91.26574704749606
 20
-133.3930636602281
 10
91.24438745548751
 20
-133.2621500317886
 10
91.22543943031864
 20
-133.1543185431003
 10
91.22543943031864
 20
-133.1543185431003
 10
91.44764808911727
 20
-133.1543185431003
 10
91.44764808911727
 20
-133.1543185431003
 10
91.50242510733273
 20
-133.3531005525992
 10
91.62954913073845
 20
-133.3827283737724
 10
91.72256670884019
 20
-133.3827283737724
 10
91.86209307599282
 20
-133.3827283737724
 10
92.01436629644085
 20
-133.2831651142486
 10
92.01436629644085
 20
-133.0506211689943
 10
92.01436629644085
 20
-132.7946505744402
 10
91.83453231211081
 20
-132.7247151360897
 10
91.71395397012706
 20
-132.7247151360897
 10
91.68225909166277
 20
-132.7247151360897
 10
91.540665667219
 20
-132.7247151360897
 10
91.45178220369957
 20
-132.8539062167865
 10
91.45178220369957
 20
-132.8539062167865
 10
91.27608233395182
 20
-132.8346136820691
 10
91.27608233395182
 20
-132.8346136820691
 10
91.27608233395182
 20
-132.8346136820691
 10
91.39666067593556
 20
-131.9884982308918
 10
91.39666067593556
 20
-131.9884982308918
 10
91.39666067593556
 20
-131.9884982308918
 10
92.17525225560202
 20
-131.9884982308918
 10
92.17525225560202
 20
-131.9884982308918
 10
92.17525225560202
 20
-131.9884982308918
 10
92.17525225560202
 20
-132.1831461258084
 10
92.17525225560202
 20
-132.1831461258084
 10
92.17525225560202
 20
-132.1831461258084
 10
91.55961369238788
 20
-132.1831461258084
 10
91.55961369238788
 20
-132.1831461258084
 10
91.55961369238788
 20
-132.1831461258084
 10
91.49415687816813
 20
-132.6062038513971
 10
91.49415687816813
 20
-132.6062038513971
 10
91.55547957780558
 20
-132.5724419156416
 10
91.63781735990305
 20
-132.5321342984642
 10
91.75632864459564
 20
-132.5321342984642
 10
92.01023218185856
 20
-132.5321342984642
 10
92.24725475124374
 20
-132.7185139642162
 10
92.24725475124374
 20
-133.0313286342769
 10
92.24725475124374
 20
-133.3489664380169
 10
92.02297903515398
 20
-133.5835774405624
 10
91.72049965154905
 20
-133.5835774405624
 97
        0
 97
        0
 75
     2
 76
     1
 98
        0
  0
ENDBLK
  5
160
330
15D
100
AcDbEntity
  8
0
100
AcDbBlockEnd
  0
BLOCK
  5
171
330
16F
100
AcDbEntity
  8
0
100
AcDbBlockBegin
  2
block 9
 70
     0
 10
0.0
 20
0.0
 30
0.0
  3
block 9
  1

  0
SPLINE
  5
173
330
16F
100
AcDbEntity
  8
_U+30EC_U+30A4_U+30E4_U+30FC 1
370
     0
100
AcDbSpline
210
0.0
220
0.0
230
1.0
 70
    11
 71
     3
 72
    44
 73
    40
 74
     0
 42
0.0000000001
 43
0.0000000001
 12
1.0
 22
0.0
 32
0.0
 13
1.0
 23
0.0
 33
0.0
 40
0.0
 40
0.0
 40
0.0
 40
0.0
 40
1.0
 40
1.0
 40
1.0
 40
2.0
 40
2.0
 40
2.0
 40
3.0
 40
3.0
 40
3.0
 40
4.0
 40
4.0
 40
4.0
 40
5.0
 40
5.0
 40
5.0
 40
6.0
 40
6.0
 40
6.0
 40
7.0
 40
7.0
 40
7.0
 40
8.0
 40
8.0
 40
8.0
 40
9.0
 40
9.0
 40
9.0
 40
10.0
 40
10.0
 40
10.0
 40
11.0
 40
11.0
 40
11.0
 40
12.0
 40
12.0
 40
12.0
 40
13.0
 40
13.0
 40
13.0
 40
13.0
 10
90.54313826946492
 20
-171.5981390630033
 30
0.0
 10
90.32540823479712
 20
-171.7573024744218
 30
0.0
 10
90.23239065669537
 20
-171.8310275178061
 30
0.0
 10
90.18347030080483
 20
-171.9750325090896
 30
0.0
 10
90.18347030080483
 20
-171.9750325090896
 30
0.0
 10
90.9620618804713
 20
-171.9750325090896
 30
0.0
 10
90.9620618804713
 20
-171.9750325090896
 30
0.0
 10
90.9620618804713
 20
-171.9750325090896
 30
0.0
 10
90.9620618804713
 20
-172.1803602000105
 30
0.0
 10
90.9620618804713
 20
-172.1803602000105
 30
0.0
 10
90.9620618804713
 20
-172.1803602000105
 30
0.0
 10
89.93404538767274
 20
-172.1803602000105
 30
0.0
 10
89.93404538767274
 20
-172.1803602000105
 30
0.0
 10
89.96574026613705
 20
-171.8227592886415
 30
0.0
 10
90.03119708035679
 20
-171.7442111115778
 30
0.0
 10
90.41635875560772
 20
-171.4458658425552
 30
0.0
 10
90.67232935016179
 20
-171.2474283426048
 30
0.0
 10
90.73778616438153
 20
-171.1792154519969
 30
0.0
 10
90.73778616438153
 20
-171.0421006516839
 30
0.0
 10
90.73778616438153
 20
-170.9235893669913
 30
0.0
 10
90.6657836687398
 20
-170.7926757385518
 30
0.0
 10
90.46906871653204
 20
-170.7926757385518
 30
0.0
 10
90.20896400739568
 20
-170.7926757385518
 30
0.0
 10
90.20069577823108
 20
-171.0228081169665
 30
0.0
 10
90.19621715410025
 20
-171.139252344368
 30
0.0
 10
90.19621715410025
 20
-171.139252344368
 30
0.0
 10
89.97194143801049
 20
-171.139252344368
 30
0.0
 10
89.97194143801049
 20
-171.139252344368
 30
0.0
 10
89.98055417672362
 20
-171.0124728305108
 30
0.0
 10
89.99123397272788
 20
-170.9001627176916
 30
0.0
 10
90.07150469753421
 20
-170.781651432999
 30
0.0
 10
90.18140324351369
 20
-170.6211099833864
 30
0.0
 10
90.3677829092657
 20
-170.5873480476309
 30
0.0
 10
90.48388262711862
 20
-170.5873480476309
 30
0.0
 10
90.76121281368123
 20
-170.5873480476309
 30
0.0
 10
90.96860756189326
 20
-170.7713161465433
 30
0.0
 10
90.96860756189326
 20
-171.0441677089751
 30
0.0
 10
90.96860756189326
 20
-171.2729220491957
 30
0.0
 10
90.85216333449182
 20
-171.3721407991709
 30
0.0
 10
90.54313826946492
 20
-171.5981390630033
 30
0.0
  0
HATCH
  5
174
330
16F
100
AcDbEntity
  8
_U+30EC_U+30A4_U+30E4_U+30FC 1
 62
   179
420
  2234388
100
AcDbHatch
 10
0.0
 20
0.0
 30
0.0
210
0.0
220
0.0
230
1.0
  2
SOLID
 70
     1
 71
     0
 91
        1
 92
        1
 93
        1
 72
     4
 94
        3
 73
     0
 74
     1
 95
       44
 96
       40
 40
0.0
 40
0.0
 40
0.0
 40
0.0
 40
1.0
 40
1.0
 40
1.0
 40
2.0
 40
2.0
 40
2.0
 40
3.0
 40
3.0
 40
3.0
 40
4.0
 40
4.0
 40
4.0
 40
5.0
 40
5.0
 40
5.0
 40
6.0
 40
6.0
 40
6.0
 40
7.0
 40
7.0
 40
7.0
 40
8.0
 40
8.0
 40
8.0
 40
9.0
 40
9.0
 40
9.0
 40
10.0
 40
10.0
 40
10.0
 40
11.0
 40
11.0
 40
11.0
 40
12.0
 40
12.0
 40
12.0
 40
13.0
 40
13.0
 40
13.0
 40
13.0
 10
90.54313826946492
 20
-171.5981390630033
 10
90.32540823479712
 20
-171.7573024744218
 10
90.23239065669537
 20
-171.8310275178061
 10
90.18347030080483
 20
-171.9750325090896
 10
90.18347030080483
 20
-171.9750325090896
 10
90.9620618804713
 20
-171.9750325090896
 10
90.9620618804713
 20
-171.9750325090896
 10
90.9620618804713
 20
-171.9750325090896
 10
90.9620618804713
 20
-172.1803602000105
 10
90.9620618804713
 20
-172.1803602000105
 10
90.9620618804713
 20
-172.1803602000105
 10
89.93404538767274
 20
-172.1803602000105
 10
89.93404538767274
 20
-172.1803602000105
 10
89.96574026613705
 20
-171.8227592886415
 10
90.03119708035679
 20
-171.7442111115778
 10
90.41635875560772
 20
-171.4458658425552
 10
90.67232935016179
 20
-171.2474283426048
 10
90.73778616438153
 20
-171.1792154519969
 10
90.73778616438153
 20
-171.0421006516839
 10
90.73778616438153
 20
-170.9235893669913
 10
90.6657836687398
 20
-170.7926757385518
 10
90.46906871653204
 20
-170.7926757385518
 10
90.20896400739568
 20
-170.7926757385518
 10
90.20069577823108
 20
-171.0228081169665
 10
90.19621715410025
 20
-171.139252344368
 10
90.19621715410025
 20
-171.139252344368
 10
89.97194143801049
 20
-171.139252344368
 10
89.97194143801049
 20
-171.139252344368
 10
89.98055417672362
 20
-171.0124728305108
 10
89.99123397272788
 20
-170.9001627176916
 10
90.07150469753421
 20
-170.781651432999
 10
90.18140324351369
 20
-170.6211099833864
 10
90.3677829092657
 20
-170.5873480476309
 10
90.48388262711862
 20
-170.5873480476309
 10
90.76121281368123
 20
-170.5873480476309
 10
90.96860756189326
 20
-170.7713161465433
 10
90.96860756189326
 20
-171.0441677089751
 10
90.96860756189326
 20
-171.2729220491957
 10
90.85216333449182
 20
-171.3721407991709
 10
90.54313826946492
 20
-171.5981390630033
 97
        0
 97
        0
 75
     2
 76
     1
 98
        0
  0
SPLINE
  5
175
330
16F
100
AcDbEntity
  8
_U+30EC_U+30A4_U+30E4_U+30FC 1
370
     0
100
AcDbSpline
210
0.0
220
0.0
230
1.0
 70
    11
 71
     3
 72
    53
 73
    49
 74
     0
 42
0.0000000001
 43
0.0000000001
 12
1.0
 22
0.0
 32
0.0
 13
1.0
 23
0.0
 33
0.0
 40
0.0
 40
0.0
 40
0.0
 40
0.0
 40
1.0
 40
1.0
 40
1.0
 40
2.0
 40
2.0
 40
2.0
 40
3.0
 40
3.0
 40
3.0
 40
4.0
 40
4.0
 40
4.0
 40
5.0
 40
5.0
 40
5.0
 40
6.0
 40
6.0
 40
6.0
 40
7.0
 40
7.0
 40
7.0
 40
8.0
 40
8.0
 40
8.0
 40
9.0
 40
9.0
 40
9.0
 40
10.0
 40
10.0
 40
10.0
 40
11.0
 40
11.0
 40
11.0
 40
12.0
 40
12.0
 40
12.0
 40
13.0
 40
13.0
 40
13.0
 40
14.0
 40
14.0
 40
14.0
 40
15.0
 40
15.0
 40
15.0
 40
16.0
 40
16.0
 40
16.0
 40
16.0
 10
91.60784502918138
 20
-172.2306585940951
 30
0.0
 10
91.52998587121473
 20
-172.2306585940951
 30
0.0
 10
91.42801104485133
 20
-172.2141221357659
 30
0.0
 10
91.32655298281072
 20
-172.1507323788373
 30
0.0
 10
91.15326467990266
 20
-172.0404893233093
 30
0.0
 10
91.13190508789411
 20
-171.9095756948698
 30
0.0
 10
91.11295706272524
 20
-171.801399696633
 30
0.0
 10
91.11295706272524
 20
-171.801399696633
 30
0.0
 10
91.33516572152385
 20
-171.801399696633
 30
0.0
 10
91.33516572152385
 20
-171.801399696633
 30
0.0
 10
91.39011499451358
 20
-172.0005262156804
 30
0.0
 10
91.51689450837078
 20
-172.0301540368536
 30
0.0
 10
91.60991208647252
 20
-172.0301540368536
 30
0.0
 10
91.74978296317367
 20
-172.0301540368536
 30
0.0
 10
91.90205618362171
 20
-171.9302462677813
 30
0.0
 10
91.90205618362171
 20
-171.6980468320755
 30
0.0
 10
91.90205618362171
 20
-171.4417317279729
 30
0.0
 10
91.72222219929166
 20
-171.3721407991709
 30
0.0
 10
91.60164385730792
 20
-171.3721407991709
 30
0.0
 10
91.56994897884363
 20
-171.3721407991709
 30
0.0
 10
91.42801104485133
 20
-171.3721407991709
 30
0.0
 10
91.33929983610615
 20
-171.5009873703192
 30
0.0
 10
91.33929983610615
 20
-171.5009873703192
 30
0.0
 10
91.1635999663584
 20
-171.4823838546989
 30
0.0
 10
91.1635999663584
 20
-171.4823838546989
 30
0.0
 10
91.1635999663584
 20
-171.4823838546989
 30
0.0
 10
91.28417830834215
 20
-170.6355793844245
 30
0.0
 10
91.28417830834215
 20
-170.6355793844245
 30
0.0
 10
91.28417830834215
 20
-170.6355793844245
 30
0.0
 10
92.06259763323436
 20
-170.6355793844245
 30
0.0
 10
92.06259763323436
 20
-170.6355793844245
 30
0.0
 10
92.06259763323436
 20
-170.6355793844245
 30
0.0
 10
92.06259763323436
 20
-170.8305717888896
 30
0.0
 10
92.06259763323436
 20
-170.8305717888896
 30
0.0
 10
92.06259763323436
 20
-170.8305717888896
 30
0.0
 10
91.44730357956874
 20
-170.8305717888896
 30
0.0
 10
91.44730357956874
 20
-170.8305717888896
 30
0.0
 10
91.44730357956874
 20
-170.8305717888896
 30
0.0
 10
91.38184676534898
 20
-171.2536295144783
 30
0.0
 10
91.38184676534898
 20
-171.2536295144783
 30
0.0
 10
91.44316946498644
 20
-171.2198675787228
 30
0.0
 10
91.52516273753538
 20
-171.1792154519969
 30
0.0
 10
91.64367402222797
 20
-171.1792154519969
 30
0.0
 10
91.89792206903941
 20
-171.1792154519969
 30
0.0
 10
92.1349446384246
 20
-171.3659396272974
 30
0.0
 10
92.1349446384246
 20
-171.6787542973581
 30
0.0
 10
92.1349446384246
 20
-171.9963921010981
 30
0.0
 10
91.91032441278631
 20
-172.2306585940951
 30
0.0
 10
91.60784502918138
 20
-172.2306585940951
 30
0.0
  0
HATCH
  5
176
330
16F
100
AcDbEntity
  8
_U+30EC_U+30A4_U+30E4_U+30FC 1
 62
   179
420
  2234388
100
AcDbHatch
 10
0.0
 20
0.0
 30
0.0
210
0.0
220
0.0
230
1.0
  2
SOLID
 70
     1
 71
     0
 91
        1
 92
        1
 93
        1
 72
     4
 94
        3
 73
     0
 74
     1
 95
       53
 96
       49
 40
0.0
 40
0.0
 40
0.0
 40
0.0
 40
1.0
 40
1.0
 40
1.0
 40
2.0
 40
2.0
 40
2.0
 40
3.0
 40
3.0
 40
3.0
 40
4.0
 40
4.0
 40
4.0
 40
5.0
 40
5.0
 40
5.0
 40
6.0
 40
6.0
 40
6.0
 40
7.0
 40
7.0
 40
7.0
 40
8.0
 40
8.0
 40
8.0
 40
9.0
 40
9.0
 40
9.0
 40
10.0
 40
10.0
 40
10.0
 40
11.0
 40
11.0
 40
11.0
 40
12.0
 40
12.0
 40
12.0
 40
13.0
 40
13.0
 40
13.0
 40
14.0
 40
14.0
 40
14.0
 40
15.0
 40
15.0
 40
15.0
 40
16.0
 40
16.0
 40
16.0
 40
16.0
 10
91.60784502918138
 20
-172.2306585940951
 10
91.52998587121473
 20
-172.2306585940951
 10
91.42801104485133
 20
-172.2141221357659
 10
91.32655298281072
 20
-172.1507323788373
 10
91.15326467990266
 20
-172.0404893233093
 10
91.13190508789411
 20
-171.9095756948698
 10
91.11295706272524
 20
-171.801399696633
 10
91.11295706272524
 20
-171.801399696633
 10
91.33516572152385
 20
-171.801399696633
 10
91.33516572152385
 20
-171.801399696633
 10
91.39011499451358
 20
-172.0005262156804
 10
91.51689450837078
 20
-172.0301540368536
 10
91.60991208647252
 20
-172.0301540368536
 10
91.74978296317367
 20
-172.0301540368536
 10
91.90205618362171
 20
-171.9302462677813
 10
91.90205618362171
 20
-171.6980468320755
 10
91.90205618362171
 20
-171.4417317279729
 10
91.72222219929166
 20
-171.3721407991709
 10
91.60164385730792
 20
-171.3721407991709
 10
91.56994897884363
 20
-171.3721407991709
 10
91.42801104485133
 20
-171.3721407991709
 10
91.33929983610615
 20
-171.5009873703192
 10
91.33929983610615
 20
-171.5009873703192
 10
91.1635999663584
 20
-171.4823838546989
 10
91.1635999663584
 20
-171.4823838546989
 10
91.1635999663584
 20
-171.4823838546989
 10
91.28417830834215
 20
-170.6355793844245
 10
91.28417830834215
 20
-170.6355793844245
 10
91.28417830834215
 20
-170.6355793844245
 10
92.06259763323436
 20
-170.6355793844245
 10
92.06259763323436
 20
-170.6355793844245
 10
92.06259763323436
 20
-170.6355793844245
 10
92.06259763323436
 20
-170.8305717888896
 10
92.06259763323436
 20
-170.8305717888896
 10
92.06259763323436
 20
-170.8305717888896
 10
91.44730357956874
 20
-170.8305717888896
 10
91.44730357956874
 20
-170.8305717888896
 10
91.44730357956874
 20
-170.8305717888896
 10
91.38184676534898
 20
-171.2536295144783
 10
91.38184676534898
 20
-171.2536295144783
 10
91.44316946498644
 20
-171.2198675787228
 10
91.52516273753538
 20
-171.1792154519969
 10
91.64367402222797
 20
-171.1792154519969
 10
91.89792206903941
 20
-171.1792154519969
 10
92.1349446384246
 20
-171.3659396272974
 10
92.1349446384246
 20
-171.6787542973581
 10
92.1349446384246
 20
-171.9963921010981
 10
91.91032441278631
 20
-172.2306585940951
 10
91.60784502918138
 20
-172.2306585940951
 97
        0
 97
        0
 75
     2
 76
     1
 98
        0
  0
ENDBLK
  5
172
330
16F
100
AcDbEntity
  8
0
100
AcDbBlockEnd
  0
ENDSEC
  0
SECTION
  2
ENTITIES
  0
POLYLINE
  5
41
330
1F
100
AcDbEntity
  8
_U+30EC_U+30A4_U+30E4_U+30FC 1
370
     0
100
AcDb2dPolyline
 66
     1
 10
0.0
 20
0.0
 30
0.0
  0
VERTEX
  5
42
330
41
100
AcDbEntity
  8
_U+30EC_U+30A4_U+30E4_U+30FC 1
370
     0
100
AcDbVertex
100
AcDb2dVertex
 10
82.53881483870384
 20
-139.8254124650435
 30
0.0
  0
VERTEX
  5
43
330
41
100
AcDbEntity
  8
_U+30EC_U+30A4_U+30E4_U+30FC 1
370
     0
100
AcDbVertex
100
AcDb2dVertex
 10
79.53882797079544
 20
-139.8254124650435
 30
0.0
  0
VERTEX
  5
44
330
41
100
AcDbEntity
  8
_U+30EC_U+30A4_U+30E4_U+30FC 1
370
     0
100
AcDbVertex
100
AcDb2dVertex
 10
79.53882797079544
 20
-148.3254871851406
 30
0.0
  0
VERTEX
  5
45
330
41
100
AcDbEntity
  8
_U+30EC_U+30A4_U+30E4_U+30FC 1
370
     0
100
AcDbVertex
100
AcDb2dVertex
 10
98.03916444325698
 20
-148.3254871851406
 30
0.0
  0
VERTEX
  5
46
330
41
100
AcDbEntity
  8
_U+30EC_U+30A4_U+30E4_U+30FC 1
370
     0
100
AcDbVertex
100
AcDb2dVertex
 10
98.03916444325698
 20
-91.32587636605753
 30
0.0
  0
VERTEX
  5
47
330
41
100
AcDbEntity
  8
_U+30EC_U+30A4_U+30E4_U+30FC 1
370
     0
100
AcDbVertex
100
AcDb2dVertex
 10
99.23871469043168
 20
-91.32587636605753
 30
0.0
  0
VERTEX
  5
48
330
41
100
AcDbEntity
  8
_U+30EC_U+30A4_U+30E4_U+30FC 1
370
     0
100
AcDbVertex
100
AcDb2dVertex
 10
99.23871469043168
 20
-149.3252594071132
 30
0.0
  0
VERTEX
  5
49
330
41
100
AcDbEntity
  8
_U+30EC_U+30A4_U+30E4_U+30FC 1
370
     0
100
AcDbVertex
100
AcDb2dVertex
 10
79.53882797079544
 20
-149.3252594071132
 30
0.0
  0
VERTEX
  5
4A
330
41
100
AcDbEntity
  8
_U+30EC_U+30A4_U+30E4_U+30FC 1
370
     0
100
AcDbVertex
100
AcDb2dVertex
 10
79.53882797079544
 20
-167.8254199580436
 30
0.0
  0
VERTEX
  5
4B
330
41
100
AcDbEntity
  8
_U+30EC_U+30A4_U+30E4_U+30FC 1
370
     0
100
AcDbVertex
100
AcDb2dVertex
 10
102.5391271062311
 20
-167.8254199580436
 30
0.0
  0
VERTEX
  5
4C
330
41
100
AcDbEntity
  8
_U+30EC_U+30A4_U+30E4_U+30FC 1
370
     0
100
AcDbVertex
100
AcDb2dVertex
 10
102.5391271062311
 20
-164.8250802365715
 30
0.0
  0
VERTEX
  5
4D
330
41
100
AcDbEntity
  8
_U+30EC_U+30A4_U+30E4_U+30FC 1
370
     0
100
AcDbVertex
100
AcDb2dVertex
 10
103.5388993029471
 20
-164.8250802365715
 30
0.0
  0
VERTEX
  5
4E
330
41
100
AcDbEntity
  8
_U+30EC_U+30A4_U+30E4_U+30FC 1
370
     0
100
AcDbVertex
100
AcDb2dVertex
 10
103.5388993029471
 20
-168.8251921800161
 30
0.0
  0
VERTEX
  5
4F
330
41
100
AcDbEntity
  8
_U+30EC_U+30A4_U+30E4_U+30FC 1
370
     0
100
AcDbVertex
100
AcDb2dVertex
 10
78.53870299631076
 20
-168.8251921800161
 30
0.0
  0
VERTEX
  5
50
330
41
100
AcDbEntity
  8
_U+30EC_U+30A4_U+30E4_U+30FC 1
370
     0
100
AcDbVertex
100
AcDb2dVertex
 10
78.53870299631076
 20
-138.8256402430716
 30
0.0
  0
VERTEX
  5
51
330
41
100
AcDbEntity
  8
_U+30EC_U+30A4_U+30E4_U+30FC 1
370
     0
100
AcDbVertex
100
AcDb2dVertex
 10
82.53881483870384
 20
-138.8256402430716
 30
0.0
  0
VERTEX
  5
52
330
41
100
AcDbEntity
  8
_U+30EC_U+30A4_U+30E4_U+30FC 1
370
     0
100
AcDbVertex
100
AcDb2dVertex
 10
82.53881483870384
 20
-139.8254124650435
 30
0.0
  0
SEQEND
  5
54
330
41
100
AcDbEntity
  8
_U+30EC_U+30A4_U+30E4_U+30FC 1
370
     0
  0
HATCH
  5
53
330
1F
100
AcDbEntity
  8
_U+30EC_U+30A4_U+30E4_U+30FC 1
 62
   253
420
 11711154
100
AcDbHatch
 10
0.0
 20
0.0
 30
0.0
210
0.0
220
0.0
230
1.0
  2
SOLID
 70
     1
 71
     0
 91
        1
 92
        1
 93
       16
 72
     1
 10
82.53881483870384
 20
-139.8254124650435
 11
79.53882797079544
 21
-139.8254124650435
 72
     1
 10
79.53882797079544
 20
-139.8254124650435
 11
79.53882797079544
 21
-148.3254871851406
 72
     1
 10
79.53882797079544
 20
-148.3254871851406
 11
98.03916444325698
 21
-148.3254871851406
 72
     1
 10
98.03916444325698
 20
-148.3254871851406
 11
98.03916444325698
 21
-91.32587636605753
 72
     1
 10
98.03916444325698
 20
-91.32587636605753
 11
99.23871469043168
 21
-91.32587636605753
 72
     1
 10
99.23871469043168
 20
-91.32587636605753
 11
99.23871469043168
 21
-149.3252594071132
 72
     1
 10
99.23871469043168
 20
-149.3252594071132
 11
79.53882797079544
 21
-149.3252594071132
 72
     1
 10
79.53882797079544
 20
-149.3252594071132
 11
79.53882797079544
 21
-167.8254199580436
 72
     1
 10
79.53882797079544
 20
-167.8254199580436
 11
102.5391271062311
 21
-167.8254199580436
 72
     1
 10
102.5391271062311
 20
-167.8254199580436
 11
102.5391271062311
 21
-164.8250802365715
 72
     1
 10
102.5391271062311
 20
-164.8250802365715
 11
103.5388993029471
 21
-164.8250802365715
 72
     1
 10
103.5388993029471
 20
-164.8250802365715
 11
103.5388993029471
 21
-168.8251921800161
 72
     1
 10
103.5388993029471
 20
-168.8251921800161
 11
78.53870299631076
 21
-168.8251921800161
 72
     1
 10
78.53870299631076
 20
-168.8251921800161
 11
78.53870299631076
 21
-138.8256402430716
 72
     1
 10
78.53870299631076
 20
-138.8256402430716
 11
82.53881483870384
 21
-138.8256402430716
 72
     1
 10
82.53881483870384
 20
-138.8256402430716
 11
82.53881483870384
 21
-139.8254124650435
 97
        0
 75
     2
 76
     1
 98
        0
  0
POLYLINE
  5
55
330
1F
100
AcDbEntity
  8
_U+30EC_U+30A4_U+30E4_U+30FC 1
 62
   179
420
  2234388
370
    25
100
AcDb2dPolyline
 66
     1
 10
0.0
 20
0.0
 30
0.0
  0
VERTEX
  5
56
330
55
100
AcDbEntity
  8
_U+30EC_U+30A4_U+30E4_U+30FC 1
 62
   179
420
  2234388
370
    25
100
AcDbVertex
100
AcDb2dVertex
 10
98.03916444325698
 20
-91.32587636605753
 30
0.0
  0
VERTEX
  5
57
330
55
100
AcDbEntity
  8
_U+30EC_U+30A4_U+30E4_U+30FC 1
 62
   179
420
  2234388
370
    25
100
AcDbVertex
100
AcDb2dVertex
 10
98.03916444325698
 20
-148.3254871851406
 30
0.0
  0
SEQEND
  5
58
330
55
100
AcDbEntity
  8
_U+30EC_U+30A4_U+30E4_U+30FC 1
 62
   179
420
  2234388
370
    25
  0
POLYLINE
  5
59
330
1F
100
AcDbEntity
  8
_U+30EC_U+30A4_U+30E4_U+30FC 1
 62
   179
420
  2234388
370
    25
100
AcDb2dPolyline
 66
     1
 10
0.0
 20
0.0
 30
0.0
  0
VERTEX
  5
5A
330
59
100
AcDbEntity
  8
_U+30EC_U+30A4_U+30E4_U+30FC 1
 62
   179
420
  2234388
370
    25
100
AcDbVertex
100
AcDb2dVertex
 10
99.23871469043168
 20
-91.32587636605753
 30
0.0
  0
VERTEX
  5
5B
330
59
100
AcDbEntity
  8
_U+30EC_U+30A4_U+30E4_U+30FC 1
 62
   179
420
  2234388
370
    25
100
AcDbVertex
100
AcDb2dVertex
 10
98.03916444325698
 20
-91.32587636605753
 30
0.0
  0
SEQEND
  5
5C
330
59
100
AcDbEntity
  8
_U+30EC_U+30A4_U+30E4_U+30FC 1
 62
   179
420
  2234388
370
    25
  0
POLYLINE
  5
5D
330
1F
100
AcDbEntity
  8
_U+30EC_U+30A4_U+30E4_U+30FC 1
 62
   179
420
  2234388
370
    25
100
AcDb2dPolyline
 66
     1
 10
0.0
 20
0.0
 30
0.0
  0
VERTEX
  5
5E
330
5D
100
AcDbEntity
  8
_U+30EC_U+30A4_U+30E4_U+30FC 1
 62
   179
420
  2234388
370
    25
100
AcDbVertex
100
AcDb2dVertex
 10
99.23871469043168
 20
-91.32587636605753
 30
0.0
  0
VERTEX
  5
5F
330
5D
100
AcDbEntity
  8
_U+30EC_U+30A4_U+30E4_U+30FC 1
 62
   179
420
  2234388
370
    25
100
AcDbVertex
100
AcDb2dVertex
 10
99.23871469043168
 20
-149.3252594071132
 30
0.0
  0
SEQEND
  5
60
330
5D
100
AcDbEntity
  8
_U+30EC_U+30A4_U+30E4_U+30FC 1
 62
   179
420
  2234388
370
    25
  0
POLYLINE
  5
61
330
1F
100
AcDbEntity
  8
_U+30EC_U+30A4_U+30E4_U+30FC 1
 62
   179
420
  2234388
370
    25
100
AcDb2dPolyline
 66
     1
 10
0.0
 20
0.0
 30
0.0
  0
VERTEX
  5
62
330
61
100
AcDbEntity
  8
_U+30EC_U+30A4_U+30E4_U+30FC 1
 62
   179
420
  2234388
370
    25
100
AcDbVertex
100
AcDb2dVertex
 10
99.23871469043168
 20
-149.3252594071132
 30
0.0
  0
VERTEX
  5
63
330
61
100
AcDbEntity
  8
_U+30EC_U+30A4_U+30E4_U+30FC 1
 62
   179
420
  2234388
370
    25
100
AcDbVertex
100
AcDb2dVertex
 10
79.53882797079544
 20
-149.3252594071132
 30
0.0
  0
SEQEND
  5
64
330
61
100
AcDbEntity
  8
_U+30EC_U+30A4_U+30E4_U+30FC 1
 62
   179
420
  2234388
370
    25
  0
POLYLINE
  5
65
330
1F
100
AcDbEntity
  8
_U+30EC_U+30A4_U+30E4_U+30FC 1
 62
   179
420
  2234388
370
    25
100
AcDb2dPolyline
 66
     1
 10
0.0
 20
0.0
 30
0.0
  0
VERTEX
  5
66
330
65
100
AcDbEntity
  8
_U+30EC_U+30A4_U+30E4_U+30FC 1
 62
   179
420
  2234388
370
    25
100
AcDbVertex
100
AcDb2dVertex
 10
82.53881483870384
 20
-138.8256402430716
 30
0.0
  0
VERTEX
  5
67
330
65
100
AcDbEntity
  8
_U+30EC_U+30A4_U+30E4_U+30FC 1
 62
   179
420
  2234388
370
    25
100
AcDbVertex
100
AcDb2dVertex
 10
82.53881483870384
 20
-139.8254124650435
 30
0.0
  0
SEQEND
  5
68
330
65
100
AcDbEntity
  8
_U+30EC_U+30A4_U+30E4_U+30FC 1
 62
   179
420
  2234388
370
    25
  0
POLYLINE
  5
69
330
1F
100
AcDbEntity
  8
_U+30EC_U+30A4_U+30E4_U+30FC 1
 62
   179
420
  2234388
370
    25
100
AcDb2dPolyline
 66
     1
 10
0.0
 20
0.0
 30
0.0
  0
VERTEX
  5
6A
330
69
100
AcDbEntity
  8
_U+30EC_U+30A4_U+30E4_U+30FC 1
 62
   179
420
  2234388
370
    25
100
AcDbVertex
100
AcDb2dVertex
 10
78.53870299631076
 20
-138.8256402430716
 30
0.0
  0
VERTEX
  5
6B
330
69
100
AcDbEntity
  8
_U+30EC_U+30A4_U+30E4_U+30FC 1
 62
   179
420
  2234388
370
    25
100
AcDbVertex
100
AcDb2dVertex
 10
78.53870299631076
 20
-168.8251921800161
 30
0.0
  0
SEQEND
  5
6C
330
69
100
AcDbEntity
  8
_U+30EC_U+30A4_U+30E4_U+30FC 1
 62
   179
420
  2234388
370
    25
  0
POLYLINE
  5
6D
330
1F
100
AcDbEntity
  8
_U+30EC_U+30A4_U+30E4_U+30FC 1
 62
   179
420
  2234388
370
    25
100
AcDb2dPolyline
 66
     1
 10
0.0
 20
0.0
 30
0.0
  0
VERTEX
  5
6E
330
6D
100
AcDbEntity
  8
_U+30EC_U+30A4_U+30E4_U+30FC 1
 62
   179
420
  2234388
370
    25
100
AcDbVertex
100
AcDb2dVertex
 10
103.5388993029471
 20
-164.8250802365715
 30
0.0
  0
VERTEX
  5
6F
330
6D
100
AcDbEntity
  8
_U+30EC_U+30A4_U+30E4_U+30FC 1
 62
   179
420
  2234388
370
    25
100
AcDbVertex
100
AcDb2dVertex
 10
102.5391271062311
 20
-164.8250802365715
 30
0.0
  0
SEQEND
  5
70
330
6D
100
AcDbEntity
  8
_U+30EC_U+30A4_U+30E4_U+30FC 1
 62
   179
420
  2234388
370
    25
  0
POLYLINE
  5
71
330
1F
100
AcDbEntity
  8
_U+30EC_U+30A4_U+30E4_U+30FC 1
 62
   179
420
  2234388
370
    25
100
AcDb2dPolyline
 66
     1
 10
0.0
 20
0.0
 30
0.0
  0
VERTEX
  5
72
330
71
100
AcDbEntity
  8
_U+30EC_U+30A4_U+30E4_U+30FC 1
 62
   179
420
  2234388
370
    25
100
AcDbVertex
100
AcDb2dVertex
 10
103.5388993029471
 20
-168.8251921800161
 30
0.0
  0
VERTEX
  5
73
330
71
100
AcDbEntity
  8
_U+30EC_U+30A4_U+30E4_U+30FC 1
 62
   179
420
  2234388
370
    25
100
AcDbVertex
100
AcDb2dVertex
 10
78.53870299631076
 20
-168.8251921800161
 30
0.0
  0
SEQEND
  5
74
330
71
100
AcDbEntity
  8
_U+30EC_U+30A4_U+30E4_U+30FC 1
 62
   179
420
  2234388
370
    25
  0
POLYLINE
  5
75
330
1F
100
AcDbEntity
  8
_U+30EC_U+30A4_U+30E4_U+30FC 1
 62
   179
420
  2234388
370
    25
100
AcDb2dPolyline
 66
     1
 10
0.0
 20
0.0
 30
0.0
  0
VERTEX
  5
76
330
75
100
AcDbEntity
  8
_U+30EC_U+30A4_U+30E4_U+30FC 1
 62
   179
420
  2234388
370
    25
100
AcDbVertex
100
AcDb2dVertex
 10
82.53881483870384
 20
-138.8256402430716
 30
0.0
  0
VERTEX
  5
77
330
75
100
AcDbEntity
  8
_U+30EC_U+30A4_U+30E4_U+30FC 1
 62
   179
420
  2234388
370
    25
100
AcDbVertex
100
AcDb2dVertex
 10
78.53870299631076
 20
-138.8256402430716
 30
0.0
  0
SEQEND
  5
78
330
75
100
AcDbEntity
  8
_U+30EC_U+30A4_U+30E4_U+30FC 1
 62
   179
420
  2234388
370
    25
  0
POLYLINE
  5
79
330
1F
100
AcDbEntity
  8
_U+30EC_U+30A4_U+30E4_U+30FC 1
 62
   179
420
  2234388
370
    25
100
AcDb2dPolyline
 66
     1
 10
0.0
 20
0.0
 30
0.0
  0
VERTEX
  5
7A
330
79
100
AcDbEntity
  8
_U+30EC_U+30A4_U+30E4_U+30FC 1
 62
   179
420
  2234388
370
    25
100
AcDbVertex
100
AcDb2dVertex
 10
103.5388993029471
 20
-164.8250802365715
 30
0.0
  0
VERTEX
  5
7B
330
79
100
AcDbEntity
  8
_U+30EC_U+30A4_U+30E4_U+30FC 1
 62
   179
420
  2234388
370
    25
100
AcDbVertex
100
AcDb2dVertex
 10
103.5388993029471
 20
-168.8251921800161
 30
0.0
  0
SEQEND
  5
7C
330
79
100
AcDbEntity
  8
_U+30EC_U+30A4_U+30E4_U+30FC 1
 62
   179
420
  2234388
370
    25
  0
POLYLINE
  5
7D
330
1F
100
AcDbEntity
  8
_U+30EC_U+30A4_U+30E4_U+30FC 1
 62
   179
420
  2234388
370
    25
100
AcDb2dPolyline
 66
     1
 10
0.0
 20
0.0
 30
0.0
  0
VERTEX
  5
7E
330
7D
100
AcDbEntity
  8
_U+30EC_U+30A4_U+30E4_U+30FC 1
 62
   179
420
  2234388
370
    25
100
AcDbVertex
100
AcDb2dVertex
 10
98.03916444325698
 20
-148.3254871851406
 30
0.0
  0
VERTEX
  5
7F
330
7D
100
AcDbEntity
  8
_U+30EC_U+30A4_U+30E4_U+30FC 1
 62
   179
420
  2234388
370
    25
100
AcDbVertex
100
AcDb2dVertex
 10
79.53882797079544
 20
-148.3254871851406
 30
0.0
  0
SEQEND
  5
80
330
7D
100
AcDbEntity
  8
_U+30EC_U+30A4_U+30E4_U+30FC 1
 62
   179
420
  2234388
370
    25
  0
POLYLINE
  5
81
330
1F
100
AcDbEntity
  8
_U+30EC_U+30A4_U+30E4_U+30FC 1
 62
   179
420
  2234388
370
    25
100
AcDb2dPolyline
 66
     1
 10
0.0
 20
0.0
 30
0.0
  0
VERTEX
  5
82
330
81
100
AcDbEntity
  8
_U+30EC_U+30A4_U+30E4_U+30FC 1
 62
   179
420
  2234388
370
    25
100
AcDbVertex
100
AcDb2dVertex
 10
79.53882797079544
 20
-139.8254124650435
 30
0.0
  0
VERTEX
  5
83
330
81
100
AcDbEntity
  8
_U+30EC_U+30A4_U+30E4_U+30FC 1
 62
   179
420
  2234388
370
    25
100
AcDbVertex
100
AcDb2dVertex
 10
79.53882797079544
 20
-148.3254871851406
 30
0.0
  0
SEQEND
  5
84
330
81
100
AcDbEntity
  8
_U+30EC_U+30A4_U+30E4_U+30FC 1
 62
   179
420
  2234388
370
    25
  0
POLYLINE
  5
85
330
1F
100
AcDbEntity
  8
_U+30EC_U+30A4_U+30E4_U+30FC 1
 62
   179
420
  2234388
370
    25
100
AcDb2dPolyline
 66
     1
 10
0.0
 20
0.0
 30
0.0
  0
VERTEX
  5
86
330
85
100
AcDbEntity
  8
_U+30EC_U+30A4_U+30E4_U+30FC 1
 62
   179
420
  2234388
370
    25
100
AcDbVertex
100
AcDb2dVertex
 10
82.53881483870384
 20
-139.8254124650435
 30
0.0
  0
VERTEX
  5
87
330
85
100
AcDbEntity
  8
_U+30EC_U+30A4_U+30E4_U+30FC 1
 62
   179
420
  2234388
370
    25
100
AcDbVertex
100
AcDb2dVertex
 10
79.53882797079544
 20
-139.8254124650435
 30
0.0
  0
SEQEND
  5
88
330
85
100
AcDbEntity
  8
_U+30EC_U+30A4_U+30E4_U+30FC 1
 62
   179
420
  2234388
370
    25
  0
POLYLINE
  5
89
330
1F
100
AcDbEntity
  8
_U+30EC_U+30A4_U+30E4_U+30FC 1
 62
   179
420
  2234388
370
    25
100
AcDb2dPolyline
 66
     1
 10
0.0
 20
0.0
 30
0.0
  0
VERTEX
  5
8A
330
89
100
AcDbEntity
  8
_U+30EC_U+30A4_U+30E4_U+30FC 1
 62
   179
420
  2234388
370
    25
100
AcDbVertex
100
AcDb2dVertex
 10
102.5391271062311
 20
-167.8254199580436
 30
0.0
  0
VERTEX
  5
8B
330
89
100
AcDbEntity
  8
_U+30EC_U+30A4_U+30E4_U+30FC 1
 62
   179
420
  2234388
370
    25
100
AcDbVertex
100
AcDb2dVertex
 10
79.53882797079544
 20
-167.8254199580436
 30
0.0
  0
SEQEND
  5
8C
330
89
100
AcDbEntity
  8
_U+30EC_U+30A4_U+30E4_U+30FC 1
 62
   179
420
  2234388
370
    25
  0
POLYLINE
  5
8D
330
1F
100
AcDbEntity
  8
_U+30EC_U+30A4_U+30E4_U+30FC 1
 62
   179
420
  2234388
370
    25
100
AcDb2dPolyline
 66
     1
 10
0.0
 20
0.0
 30
0.0
  0
VERTEX
  5
8E
330
8D
100
AcDbEntity
  8
_U+30EC_U+30A4_U+30E4_U+30FC 1
 62
   179
420
  2234388
370
    25
100
AcDbVertex
100
AcDb2dVertex
 10
102.5391271062311
 20
-164.8250802365715
 30
0.0
  0
VERTEX
  5
8F
330
8D
100
AcDbEntity
  8
_U+30EC_U+30A4_U+30E4_U+30FC 1
 62
   179
420
  2234388
370
    25
100
AcDbVertex
100
AcDb2dVertex
 10
102.5391271062311
 20
-167.8254199580436
 30
0.0
  0
SEQEND
  5
90
330
8D
100
AcDbEntity
  8
_U+30EC_U+30A4_U+30E4_U+30FC 1
 62
   179
420
  2234388
370
    25
  0
POLYLINE
  5
91
330
1F
100
AcDbEntity
  8
_U+30EC_U+30A4_U+30E4_U+30FC 1
 62
   179
420
  2234388
370
    25
100
AcDb2dPolyline
 66
     1
 10
0.0
 20
0.0
 30
0.0
  0
VERTEX
  5
92
330
91
100
AcDbEntity
  8
_U+30EC_U+30A4_U+30E4_U+30FC 1
 62
   179
420
  2234388
370
    25
100
AcDbVertex
100
AcDb2dVertex
 10
79.53882797079544
 20
-149.3252594071132
 30
0.0
  0
VERTEX
  5
93
330
91
100
AcDbEntity
  8
_U+30EC_U+30A4_U+30E4_U+30FC 1
 62
   179
420
  2234388
370
    25
100
AcDbVertex
100
AcDb2dVertex
 10
79.53882797079544
 20
-167.8254199580436
 30
0.0
  0
SEQEND
  5
94
330
91
100
AcDbEntity
  8
_U+30EC_U+30A4_U+30E4_U+30FC 1
 62
   179
420
  2234388
370
    25
  0
SPLINE
  5
95
330
1F
100
AcDbEntity
  8
_U+30EC_U+30A4_U+30E4_U+30FC 1
 62
   179
420
  2234388
370
     9
100
AcDbSpline
210
0.0
220
0.0
230
1.0
 70
    11
 71
     3
 72
    17
 73
    13
 74
     0
 42
0.0000000001
 43
0.0000000001
 12
1.0
 22
0.0
 32
0.0
 13
1.0
 23
0.0
 33
0.0
 40
0.0
 40
0.0
 40
0.0
 40
0.0
 40
1.0
 40
1.0
 40
1.0
 40
2.0
 40
2.0
 40
2.0
 40
3.0
 40
3.0
 40
3.0
 40
4.0
 40
4.0
 40
4.0
 40
4.0
 10
97.93855222360159
 20
-87.32541164483544
 30
0.0
 10
97.93855222360159
 20
-87.2703077559602
 30
0.0
 10
97.98332219772625
 20
-87.22550497819348
 30
0.0
 10
98.03916444325698
 20
-87.22550497819348
 30
0.0
 10
98.09426833074005
 20
-87.22550497819348
 30
0.0
 10
98.13907110737482
 20
-87.2703077559602
 30
0.0
 10
98.13907110737482
 20
-87.32541164483544
 30
0.0
 10
98.13907110737482
 20
-87.3805508114882
 30
0.0
 10
98.09426833074005
 20
-87.42531831147708
 30
0.0
 10
98.03916444325698
 20
-87.42531831147708
 30
0.0
 10
97.98332219772625
 20
-87.42531831147708
 30
0.0
 10
97.93855222360159
 20
-87.3805508114882
 30
0.0
 10
97.93855222360159
 20
-87.32541164483544
 30
0.0
  0
SPLINE
  5
96
330
1F
100
AcDbEntity
  8
_U+30EC_U+30A4_U+30E4_U+30FC 1
 62
   179
420
  2234388
370
     9
100
AcDbSpline
210
0.0
220
0.0
230
1.0
 70
    11
 71
     3
 72
    17
 73
    13
 74
     0
 42
0.0000000001
 43
0.0000000001
 12
1.0
 22
0.0
 32
0.0
 13
1.0
 23
0.0
 33
0.0
 40
0.0
 40
0.0
 40
0.0
 40
0.0
 40
1.0
 40
1.0
 40
1.0
 40
2.0
 40
2.0
 40
2.0
 40
3.0
 40
3.0
 40
3.0
 40
4.0
 40
4.0
 40
4.0
 40
4.0
 10
99.13880802631385
 20
-87.32541164483544
 30
0.0
 10
99.13880802631385
 20
-87.2703077559602
 30
0.0
 10
99.1836108029486
 20
-87.22550497819348
 30
0.0
 10
99.23871469043168
 20
-87.22550497819348
 30
0.0
 10
99.29385385569164
 20
-87.22550497819348
 30
0.0
 10
99.33862135454952
 20
-87.2703077559602
 30
0.0
 10
99.33862135454952
 20
-87.32541164483544
 30
0.0
 10
99.33862135454952
 20
-87.3805508114882
 30
0.0
 10
99.29385385569164
 20
-87.42531831147708
 30
0.0
 10
99.23871469043168
 20
-87.42531831147708
 30
0.0
 10
99.1836108029486
 20
-87.42531831147708
 30
0.0
 10
99.13880802631385
 20
-87.3805508114882
 30
0.0
 10
99.13880802631385
 20
-87.32541164483544
 30
0.0
  0
SPLINE
  5
97
330
1F
100
AcDbEntity
  8
_U+30EC_U+30A4_U+30E4_U+30FC 1
 62
   179
420
  2234388
370
     9
100
AcDbSpline
210
0.0
220
0.0
230
1.0
 70
    11
 71
     3
 72
    17
 73
    13
 74
     0
 42
0.0000000001
 43
0.0000000001
 12
1.0
 22
0.0
 32
0.0
 13
1.0
 23
0.0
 33
0.0
 40
0.0
 40
0.0
 40
0.0
 40
0.0
 40
1.0
 40
1.0
 40
1.0
 40
2.0
 40
2.0
 40
2.0
 40
3.0
 40
3.0
 40
3.0
 40
4.0
 40
4.0
 40
4.0
 40
4.0
 10
78.43879633219292
 20
-133.8250857998771
 30
0.0
 10
78.43879633219292
 20
-133.769946633224
 30
0.0
 10
78.4835638310508
 20
-133.7251791332355
 30
0.0
 10
78.53870299631076
 20
-133.7251791332355
 30
0.0
 10
78.59415966156261
 20
-133.7251791332355
 30
0.0
 10
78.63896243819737
 20
-133.769946633224
 30
0.0
 10
78.63896243819737
 20
-133.8250857998771
 30
0.0
 10
78.63896243819737
 20
-133.880189688752
 30
0.0
 10
78.59415966156261
 20
-133.9249924665187
 30
0.0
 10
78.53870299631076
 20
-133.9249924665187
 30
0.0
 10
78.4835638310508
 20
-133.9249924665187
 30
0.0
 10
78.43879633219292
 20
-133.880189688752
 30
0.0
 10
78.43879633219292
 20
-133.8250857998771
 30
0.0
  0
SPLINE
  5
98
330
1F
100
AcDbEntity
  8
_U+30EC_U+30A4_U+30E4_U+30FC 1
 62
   179
420
  2234388
370
     9
100
AcDbSpline
210
0.0
220
0.0
230
1.0
 70
    11
 71
     3
 72
    17
 73
    13
 74
     0
 42
0.0000000001
 43
0.0000000001
 12
1.0
 22
0.0
 32
0.0
 13
1.0
 23
0.0
 33
0.0
 40
0.0
 40
0.0
 40
0.0
 40
0.0
 40
1.0
 40
1.0
 40
1.0
 40
2.0
 40
2.0
 40
2.0
 40
3.0
 40
3.0
 40
3.0
 40
4.0
 40
4.0
 40
4.0
 40
4.0
 10
82.43890817458602
 20
-133.8250857998771
 30
0.0
 10
82.43890817458602
 20
-133.769946633224
 30
0.0
 10
82.48367775715683
 20
-133.7251791332355
 30
0.0
 10
82.53881483870384
 20
-133.7251791332355
 30
0.0
 10
82.59391872618691
 20
-133.7251791332355
 30
0.0
 10
82.63872150282168
 20
-133.769946633224
 30
0.0
 10
82.63872150282168
 20
-133.8250857998771
 30
0.0
 10
82.63872150282168
 20
-133.880189688752
 30
0.0
 10
82.59391872618691
 20
-133.9249924665187
 30
0.0
 10
82.53881483870384
 20
-133.9249924665187
 30
0.0
 10
82.48367775715683
 20
-133.9249924665187
 30
0.0
 10
82.43890817458602
 20
-133.880189688752
 30
0.0
 10
82.43890817458602
 20
-133.8250857998771
 30
0.0
  0
SPLINE
  5
99
330
1F
100
AcDbEntity
  8
_U+30EC_U+30A4_U+30E4_U+30FC 1
 62
   179
420
  2234388
370
     9
100
AcDbSpline
210
0.0
220
0.0
230
1.0
 70
    11
 71
     3
 72
    17
 73
    13
 74
     0
 42
0.0000000001
 43
0.0000000001
 12
1.0
 22
0.0
 32
0.0
 13
1.0
 23
0.0
 33
0.0
 40
0.0
 40
0.0
 40
0.0
 40
0.0
 40
1.0
 40
1.0
 40
1.0
 40
2.0
 40
2.0
 40
2.0
 40
3.0
 40
3.0
 40
3.0
 40
4.0
 40
4.0
 40
4.0
 40
4.0
 10
97.93855222360159
 20
-138.3250485765302
 30
0.0
 10
97.93855222360159
 20
-138.2699446876546
 30
0.0
 10
97.98332219772625
 20
-138.2251419098879
 30
0.0
 10
98.03916444325698
 20
-138.2251419098879
 30
0.0
 10
98.09426833074005
 20
-138.2251419098879
 30
0.0
 10
98.13907110737482
 20
-138.2699446876546
 30
0.0
 10
98.13907110737482
 20
-138.3250485765302
 30
0.0
 10
98.13907110737482
 20
-138.3801877431826
 30
0.0
 10
98.09426833074005
 20
-138.4249552431718
 30
0.0
 10
98.03916444325698
 20
-138.4249552431718
 30
0.0
 10
97.98332219772625
 20
-138.4249552431718
 30
0.0
 10
97.93855222360159
 20
-138.3801877431826
 30
0.0
 10
97.93855222360159
 20
-138.3250485765302
 30
0.0
  0
SPLINE
  5
9A
330
1F
100
AcDbEntity
  8
_U+30EC_U+30A4_U+30E4_U+30FC 1
 62
   179
420
  2234388
370
     9
100
AcDbSpline
210
0.0
220
0.0
230
1.0
 70
    11
 71
     3
 72
    17
 73
    13
 74
     0
 42
0.0000000001
 43
0.0000000001
 12
1.0
 22
0.0
 32
0.0
 13
1.0
 23
0.0
 33
0.0
 40
0.0
 40
0.0
 40
0.0
 40
0.0
 40
1.0
 40
1.0
 40
1.0
 40
2.0
 40
2.0
 40
2.0
 40
3.0
 40
3.0
 40
3.0
 40
4.0
 40
4.0
 40
4.0
 40
4.0
 10
74.43868448979983
 20
-168.8251921800161
 30
0.0
 10
74.43868448979983
 20
-168.770053013363
 30
0.0
 10
74.4834872664346
 20
-168.7252855133745
 30
0.0
 10
74.53894393168645
 20
-168.7252855133745
 30
0.0
 10
74.59408309694639
 20
-168.7252855133745
 30
0.0
 10
74.63885059580429
 20
-168.770053013363
 30
0.0
 10
74.63885059580429
 20
-168.8251921800161
 30
0.0
 10
74.63885059580429
 20
-168.880296068891
 30
0.0
 10
74.59408309694639
 20
-168.9250988466577
 30
0.0
 10
74.53894393168645
 20
-168.9250988466577
 30
0.0
 10
74.4834872664346
 20
-168.9250988466577
 30
0.0
 10
74.43868448979983
 20
-168.880296068891
 30
0.0
 10
74.43868448979983
 20
-168.8251921800161
 30
0.0
  0
SPLINE
  5
9B
330
1F
100
AcDbEntity
  8
_U+30EC_U+30A4_U+30E4_U+30FC 1
 62
   179
420
  2234388
370
     9
100
AcDbSpline
210
0.0
220
0.0
230
1.0
 70
    11
 71
     3
 72
    17
 73
    13
 74
     0
 42
0.0000000001
 43
0.0000000001
 12
1.0
 22
0.0
 32
0.0
 13
1.0
 23
0.0
 33
0.0
 40
0.0
 40
0.0
 40
0.0
 40
0.0
 40
1.0
 40
1.0
 40
1.0
 40
2.0
 40
2.0
 40
2.0
 40
3.0
 40
3.0
 40
3.0
 40
4.0
 40
4.0
 40
4.0
 40
4.0
 10
74.43868448979983
 20
-138.8256402430716
 30
0.0
 10
74.43868448979983
 20
-138.7705010764186
 30
0.0
 10
74.4834872664346
 20
-138.72573357643
 30
0.0
 10
74.53894393168645
 20
-138.72573357643
 30
0.0
 10
74.59408309694639
 20
-138.72573357643
 30
0.0
 10
74.63885059580429
 20
-138.7705010764186
 30
0.0
 10
74.63885059580429
 20
-138.8256402430716
 30
0.0
 10
74.63885059580429
 20
-138.8807441319466
 30
0.0
 10
74.59408309694639
 20
-138.9255469097133
 30
0.0
 10
74.53894393168645
 20
-138.9255469097133
 30
0.0
 10
74.4834872664346
 20
-138.9255469097133
 30
0.0
 10
74.43868448979983
 20
-138.8807441319466
 30
0.0
 10
74.43868448979983
 20
-138.8256402430716
 30
0.0
  0
SPLINE
  5
9C
330
1F
100
AcDbEntity
  8
_U+30EC_U+30A4_U+30E4_U+30FC 1
 62
   179
420
  2234388
370
     9
100
AcDbSpline
210
0.0
220
0.0
230
1.0
 70
    11
 71
     3
 72
    17
 73
    13
 74
     0
 42
0.0000000001
 43
0.0000000001
 12
1.0
 22
0.0
 32
0.0
 13
1.0
 23
0.0
 33
0.0
 40
0.0
 40
0.0
 40
0.0
 40
0.0
 40
1.0
 40
1.0
 40
1.0
 40
2.0
 40
2.0
 40
2.0
 40
3.0
 40
3.0
 40
3.0
 40
4.0
 40
4.0
 40
4.0
 40
4.0
 10
78.43879633219292
 20
-172.8256216234604
 30
0.0
 10
78.43879633219292
 20
-172.7698121790299
 30
0.0
 10
78.4835638310508
 20
-172.7250446790407
 30
0.0
 10
78.53870299631076
 20
-172.7250446790407
 30
0.0
 10
78.59415966156261
 20
-172.7250446790407
 30
0.0
 10
78.63896243819737
 20
-172.7698121790299
 30
0.0
 10
78.63896243819737
 20
-172.8256216234604
 30
0.0
 10
78.63896243819737
 20
-172.8807607901134
 30
0.0
 10
78.59415966156261
 20
-172.925528290102
 30
0.0
 10
78.53870299631076
 20
-172.925528290102
 30
0.0
 10
78.4835638310508
 20
-172.925528290102
 30
0.0
 10
78.43879633219292
 20
-172.8807607901134
 30
0.0
 10
78.43879633219292
 20
-172.8256216234604
 30
0.0
  0
SPLINE
  5
9D
330
1F
100
AcDbEntity
  8
_U+30EC_U+30A4_U+30E4_U+30FC 1
 62
   179
420
  2234388
370
     9
100
AcDbSpline
210
0.0
220
0.0
230
1.0
 70
    11
 71
     3
 72
    17
 73
    13
 74
     0
 42
0.0000000001
 43
0.0000000001
 12
1.0
 22
0.0
 32
0.0
 13
1.0
 23
0.0
 33
0.0
 40
0.0
 40
0.0
 40
0.0
 40
0.0
 40
1.0
 40
1.0
 40
1.0
 40
2.0
 40
2.0
 40
2.0
 40
3.0
 40
3.0
 40
3.0
 40
4.0
 40
4.0
 40
4.0
 40
4.0
 10
109.9392052507728
 20
-168.8251921800161
 30
0.0
 10
109.9392052507728
 20
-168.770053013363
 30
0.0
 10
109.98330247187
 20
-168.7252855133745
 30
0.0
 10
110.0391119148906
 20
-168.7252855133745
 30
0.0
 10
110.0942158023737
 20
-168.7252855133745
 30
0.0
 10
110.1390185790084
 20
-168.770053013363
 30
0.0
 10
110.1390185790084
 20
-168.8251921800161
 30
0.0
 10
110.1390185790084
 20
-168.880296068891
 30
0.0
 10
110.0942158023737
 20
-168.9250988466577
 30
0.0
 10
110.0391119148906
 20
-168.9250988466577
 30
0.0
 10
109.98330247187
 20
-168.9250988466577
 30
0.0
 10
109.9392052507728
 20
-168.880296068891
 30
0.0
 10
109.9392052507728
 20
-168.8251921800161
 30
0.0
  0
SPLINE
  5
9E
330
1F
100
AcDbEntity
  8
_U+30EC_U+30A4_U+30E4_U+30FC 1
 62
   179
420
  2234388
370
     9
100
AcDbSpline
210
0.0
220
0.0
230
1.0
 70
    11
 71
     3
 72
    17
 73
    13
 74
     0
 42
0.0000000001
 43
0.0000000001
 12
1.0
 22
0.0
 32
0.0
 13
1.0
 23
0.0
 33
0.0
 40
0.0
 40
0.0
 40
0.0
 40
0.0
 40
1.0
 40
1.0
 40
1.0
 40
2.0
 40
2.0
 40
2.0
 40
3.0
 40
3.0
 40
3.0
 40
4.0
 40
4.0
 40
4.0
 40
4.0
 10
109.9392052507728
 20
-164.8250802365715
 30
0.0
 10
109.9392052507728
 20
-164.7699763476965
 30
0.0
 10
109.98330247187
 20
-164.7251735699298
 30
0.0
 10
110.0391119148906
 20
-164.7251735699298
 30
0.0
 10
110.0942158023737
 20
-164.7251735699298
 30
0.0
 10
110.1390185790084
 20
-164.7699763476965
 30
0.0
 10
110.1390185790084
 20
-164.8250802365715
 30
0.0
 10
110.1390185790084
 20
-164.8808896810019
 30
0.0
 10
110.0942158023737
 20
-164.9256924587686
 30
0.0
 10
110.0391119148906
 20
-164.9256924587686
 30
0.0
 10
109.98330247187
 20
-164.9256924587686
 30
0.0
 10
109.9392052507728
 20
-164.8808896810019
 30
0.0
 10
109.9392052507728
 20
-164.8250802365715
 30
0.0
  0
SPLINE
  5
9F
330
1F
100
AcDbEntity
  8
_U+30EC_U+30A4_U+30E4_U+30FC 1
 62
   179
420
  2234388
370
     9
100
AcDbSpline
210
0.0
220
0.0
230
1.0
 70
    11
 71
     3
 72
    17
 73
    13
 74
     0
 42
0.0000000001
 43
0.0000000001
 12
1.0
 22
0.0
 32
0.0
 13
1.0
 23
0.0
 33
0.0
 40
0.0
 40
0.0
 40
0.0
 40
0.0
 40
1.0
 40
1.0
 40
1.0
 40
2.0
 40
2.0
 40
2.0
 40
3.0
 40
3.0
 40
3.0
 40
4.0
 40
4.0
 40
4.0
 40
4.0
 10
103.4389926388292
 20
-172.8256216234604
 30
0.0
 10
103.4389926388292
 20
-172.7698121790299
 30
0.0
 10
103.4837601376871
 20
-172.7250446790407
 30
0.0
 10
103.5388993029471
 20
-172.7250446790407
 30
0.0
 10
103.5940031904301
 20
-172.7250446790407
 30
0.0
 10
103.6388059670649
 20
-172.7698121790299
 30
0.0
 10
103.6388059670649
 20
-172.8256216234604
 30
0.0
 10
103.6388059670649
 20
-172.8807607901134
 30
0.0
 10
103.5940031904301
 20
-172.925528290102
 30
0.0
 10
103.5388993029471
 20
-172.925528290102
 30
0.0
 10
103.4837601376871
 20
-172.925528290102
 30
0.0
 10
103.4389926388292
 20
-172.8807607901134
 30
0.0
 10
103.4389926388292
 20
-172.8256216234604
 30
0.0
  0
SPLINE
  5
A0
330
1F
100
AcDbEntity
  8
_U+30EC_U+30A4_U+30E4_U+30FC 1
 62
   179
420
  2234388
370
     9
100
AcDbSpline
210
0.0
220
0.0
230
1.0
 70
    11
 71
     3
 72
    17
 73
    13
 74
     0
 42
0.0000000001
 43
0.0000000001
 12
1.0
 22
0.0
 32
0.0
 13
1.0
 23
0.0
 33
0.0
 40
0.0
 40
0.0
 40
0.0
 40
0.0
 40
1.0
 40
1.0
 40
1.0
 40
2.0
 40
2.0
 40
2.0
 40
3.0
 40
3.0
 40
3.0
 40
4.0
 40
4.0
 40
4.0
 40
4.0
 10
109.9392052507728
 20
-149.3252594071132
 30
0.0
 10
109.9392052507728
 20
-149.2701202404601
 30
0.0
 10
109.98330247187
 20
-149.2253527404715
 30
0.0
 10
110.0391119148906
 20
-149.2253527404715
 30
0.0
 10
110.0942158023737
 20
-149.2253527404715
 30
0.0
 10
110.1390185790084
 20
-149.2701202404601
 30
0.0
 10
110.1390185790084
 20
-149.3252594071132
 30
0.0
 10
110.1390185790084
 20
-149.3803632959881
 30
0.0
 10
110.0942158023737
 20
-149.4251660737548
 30
0.0
 10
110.0391119148906
 20
-149.4251660737548
 30
0.0
 10
109.98330247187
 20
-149.4251660737548
 30
0.0
 10
109.9392052507728
 20
-149.3803632959881
 30
0.0
 10
109.9392052507728
 20
-149.3252594071132
 30
0.0
  0
SPLINE
  5
A1
330
1F
100
AcDbEntity
  8
_U+30EC_U+30A4_U+30E4_U+30FC 1
 62
   179
420
  2234388
370
     9
100
AcDbSpline
210
0.0
220
0.0
230
1.0
 70
    11
 71
     3
 72
    17
 73
    13
 74
     0
 42
0.0000000001
 43
0.0000000001
 12
1.0
 22
0.0
 32
0.0
 13
1.0
 23
0.0
 33
0.0
 40
0.0
 40
0.0
 40
0.0
 40
0.0
 40
1.0
 40
1.0
 40
1.0
 40
2.0
 40
2.0
 40
2.0
 40
3.0
 40
3.0
 40
3.0
 40
4.0
 40
4.0
 40
4.0
 40
4.0
 10
109.9392052507728
 20
-91.32587636605753
 30
0.0
 10
109.9392052507728
 20
-91.27073719940445
 30
0.0
 10
109.98330247187
 20
-91.2259696994159
 30
0.0
 10
110.0391119148906
 20
-91.2259696994159
 30
0.0
 10
110.0942158023737
 20
-91.2259696994159
 30
0.0
 10
110.1390185790084
 20
-91.27073719940445
 30
0.0
 10
110.1390185790084
 20
-91.32587636605753
 30
0.0
 10
110.1390185790084
 20
-91.38098025493245
 30
0.0
 10
110.0942158023737
 20
-91.42578303269917
 30
0.0
 10
110.0391119148906
 20
-91.42578303269917
 30
0.0
 10
109.98330247187
 20
-91.42578303269917
 30
0.0
 10
109.9392052507728
 20
-91.38098025493245
 30
0.0
 10
109.9392052507728
 20
-91.32587636605753
 30
0.0
  0
POLYLINE
  5
A2
330
1F
100
AcDbEntity
  8
_U+30EC_U+30A4_U+30E4_U+30FC 1
 62
   179
420
  2234388
370
     9
100
AcDb2dPolyline
 66
     1
 10
0.0
 20
0.0
 30
0.0
  0
VERTEX
  5
A3
330
A2
100
AcDbEntity
  8
_U+30EC_U+30A4_U+30E4_U+30FC 1
 62
   179
420
  2234388
370
     9
100
AcDbVertex
100
AcDb2dVertex
 10
99.23871469043168
 20
-87.32541164483544
 30
0.0
  0
VERTEX
  5
A4
330
A2
100
AcDbEntity
  8
_U+30EC_U+30A4_U+30E4_U+30FC 1
 62
   179
420
  2234388
370
     9
100
AcDbVertex
100
AcDb2dVertex
 10
104.4966203896247
 20
-87.32541164483544
 30
0.0
  0
SEQEND
  5
A5
330
A2
100
AcDbEntity
  8
_U+30EC_U+30A4_U+30E4_U+30FC 1
 62
   179
420
  2234388
370
     9
  0
POLYLINE
  5
A6
330
1F
100
AcDbEntity
  8
_U+30EC_U+30A4_U+30E4_U+30FC 1
 62
   179
420
  2234388
370
     9
100
AcDb2dPolyline
 66
     1
 10
0.0
 20
0.0
 30
0.0
  0
VERTEX
  5
A7
330
A6
100
AcDbEntity
  8
_U+30EC_U+30A4_U+30E4_U+30FC 1
 62
   179
420
  2234388
370
     9
100
AcDbVertex
100
AcDb2dVertex
 10
99.23871469043168
 20
-87.32541164483544
 30
0.0
  0
VERTEX
  5
A8
330
A6
100
AcDbEntity
  8
_U+30EC_U+30A4_U+30E4_U+30FC 1
 62
   179
420
  2234388
370
     9
100
AcDbVertex
100
AcDb2dVertex
 10
97.03868669100352
 20
-87.32541164483544
 30
0.0
  0
SEQEND
  5
A9
330
A6
100
AcDbEntity
  8
_U+30EC_U+30A4_U+30E4_U+30FC 1
 62
   179
420
  2234388
370
     9
  0
POLYLINE
  5
AA
330
1F
100
AcDbEntity
  8
_U+30EC_U+30A4_U+30E4_U+30FC 1
 62
   179
420
  2234388
370
     9
100
AcDb2dPolyline
 66
     1
 10
0.0
 20
0.0
 30
0.0
  0
VERTEX
  5
AB
330
AA
100
AcDbEntity
  8
_U+30EC_U+30A4_U+30E4_U+30FC 1
 62
   179
420
  2234388
370
     9
100
AcDbVertex
100
AcDb2dVertex
 10
99.23871469043168
 20
-88.78545303335915
 30
0.0
  0
VERTEX
  5
AC
330
AA
100
AcDbEntity
  8
_U+30EC_U+30A4_U+30E4_U+30FC 1
 62
   179
420
  2234388
370
     9
100
AcDbVertex
100
AcDb2dVertex
 10
99.23871469043168
 20
-86.3256394228629
 30
0.0
  0
SEQEND
  5
AD
330
AA
100
AcDbEntity
  8
_U+30EC_U+30A4_U+30E4_U+30FC 1
 62
   179
420
  2234388
370
     9
  0
POLYLINE
  5
AE
330
1F
100
AcDbEntity
  8
_U+30EC_U+30A4_U+30E4_U+30FC 1
 62
   179
420
  2234388
370
     9
100
AcDb2dPolyline
 66
     1
 10
0.0
 20
0.0
 30
0.0
  0
VERTEX
  5
AF
330
AE
100
AcDbEntity
  8
_U+30EC_U+30A4_U+30E4_U+30FC 1
 62
   179
420
  2234388
370
     9
100
AcDbVertex
100
AcDb2dVertex
 10
98.03916444325698
 20
-88.78545303335915
 30
0.0
  0
VERTEX
  5
B0
330
AE
100
AcDbEntity
  8
_U+30EC_U+30A4_U+30E4_U+30FC 1
 62
   179
420
  2234388
370
     9
100
AcDbVertex
100
AcDb2dVertex
 10
98.03916444325698
 20
-86.3256394228629
 30
0.0
  0
SEQEND
  5
B1
330
AE
100
AcDbEntity
  8
_U+30EC_U+30A4_U+30E4_U+30FC 1
 62
   179
420
  2234388
370
     9
  0
POLYLINE
  5
B2
330
1F
100
AcDbEntity
  8
_U+30EC_U+30A4_U+30E4_U+30FC 1
 62
   179
420
  2234388
370
     9
100
AcDb2dPolyline
 66
     1
 10
0.0
 20
0.0
 30
0.0
  0
VERTEX
  5
B3
330
B2
100
AcDbEntity
  8
_U+30EC_U+30A4_U+30E4_U+30FC 1
 62
   179
420
  2234388
370
     9
100
AcDbVertex
100
AcDb2dVertex
 10
110.0391119148906
 20
-149.3252594071132
 30
0.0
  0
VERTEX
  5
B4
330
B2
100
AcDbEntity
  8
_U+30EC_U+30A4_U+30E4_U+30FC 1
 62
   179
420
  2234388
370
     9
100
AcDbVertex
100
AcDb2dVertex
 10
110.0391119148906
 20
-91.32587636605753
 30
0.0
  0
SEQEND
  5
B5
330
B2
100
AcDbEntity
  8
_U+30EC_U+30A4_U+30E4_U+30FC 1
 62
   179
420
  2234388
370
     9
  0
POLYLINE
  5
B6
330
1F
100
AcDbEntity
  8
_U+30EC_U+30A4_U+30E4_U+30FC 1
 62
   179
420
  2234388
370
     9
100
AcDb2dPolyline
 66
     1
 10
0.0
 20
0.0
 30
0.0
  0
VERTEX
  5
B7
330
B6
100
AcDbEntity
  8
_U+30EC_U+30A4_U+30E4_U+30FC 1
 62
   179
420
  2234388
370
     9
100
AcDbVertex
100
AcDb2dVertex
 10
101.7791379589534
 20
-149.3252594071132
 30
0.0
  0
VERTEX
  5
B8
330
B6
100
AcDbEntity
  8
_U+30EC_U+30A4_U+30E4_U+30FC 1
 62
   179
420
  2234388
370
     9
100
AcDbVertex
100
AcDb2dVertex
 10
111.0388841116065
 20
-149.3252594071132
 30
0.0
  0
SEQEND
  5
B9
330
B6
100
AcDbEntity
  8
_U+30EC_U+30A4_U+30E4_U+30FC 1
 62
   179
420
  2234388
370
     9
  0
POLYLINE
  5
BA
330
1F
100
AcDbEntity
  8
_U+30EC_U+30A4_U+30E4_U+30FC 1
 62
   179
420
  2234388
370
     9
100
AcDb2dPolyline
 66
     1
 10
0.0
 20
0.0
 30
0.0
  0
VERTEX
  5
BB
330
BA
100
AcDbEntity
  8
_U+30EC_U+30A4_U+30E4_U+30FC 1
 62
   179
420
  2234388
370
     9
100
AcDbVertex
100
AcDb2dVertex
 10
101.7791379589534
 20
-91.32587636605753
 30
0.0
  0
VERTEX
  5
BC
330
BA
100
AcDbEntity
  8
_U+30EC_U+30A4_U+30E4_U+30FC 1
 62
   179
420
  2234388
370
     9
100
AcDbVertex
100
AcDb2dVertex
 10
111.0388841116065
 20
-91.32587636605753
 30
0.0
  0
SEQEND
  5
BD
330
BA
100
AcDbEntity
  8
_U+30EC_U+30A4_U+30E4_U+30FC 1
 62
   179
420
  2234388
370
     9
  0
POLYLINE
  5
BE
330
1F
100
AcDbEntity
  8
_U+30EC_U+30A4_U+30E4_U+30FC 1
 62
   179
420
  2234388
370
     9
100
AcDb2dPolyline
 66
     1
 10
0.0
 20
0.0
 30
0.0
  0
VERTEX
  5
BF
330
BE
100
AcDbEntity
  8
_U+30EC_U+30A4_U+30E4_U+30FC 1
 62
   179
420
  2234388
370
     9
100
AcDbVertex
100
AcDb2dVertex
 10
110.0391119148906
 20
-164.8250802365715
 30
0.0
  0
VERTEX
  5
C0
330
BE
100
AcDbEntity
  8
_U+30EC_U+30A4_U+30E4_U+30FC 1
 62
   179
420
  2234388
370
     9
100
AcDbVertex
100
AcDb2dVertex
 10
110.0391119148906
 20
-149.3252594071132
 30
0.0
  0
SEQEND
  5
C1
330
BE
100
AcDbEntity
  8
_U+30EC_U+30A4_U+30E4_U+30FC 1
 62
   179
420
  2234388
370
     9
  0
POLYLINE
  5
C2
330
1F
100
AcDbEntity
  8
_U+30EC_U+30A4_U+30E4_U+30FC 1
 62
   179
420
  2234388
370
     9
100
AcDb2dPolyline
 66
     1
 10
0.0
 20
0.0
 30
0.0
  0
VERTEX
  5
C3
330
C2
100
AcDbEntity
  8
_U+30EC_U+30A4_U+30E4_U+30FC 1
 62
   179
420
  2234388
370
     9
100
AcDbVertex
100
AcDb2dVertex
 10
108.5790705632505
 20
-164.8250802365715
 30
0.0
  0
VERTEX
  5
C4
330
C2
100
AcDbEntity
  8
_U+30EC_U+30A4_U+30E4_U+30FC 1
 62
   179
420
  2234388
370
     9
100
AcDbVertex
100
AcDb2dVertex
 10
111.0388841116065
 20
-164.8250802365715
 30
0.0
  0
SEQEND
  5
C5
330
C2
100
AcDbEntity
  8
_U+30EC_U+30A4_U+30E4_U+30FC 1
 62
   179
420
  2234388
370
     9
  0
POLYLINE
  5
C6
330
1F
100
AcDbEntity
  8
_U+30EC_U+30A4_U+30E4_U+30FC 1
 62
   179
420
  2234388
370
     9
100
AcDb2dPolyline
 66
     1
 10
0.0
 20
0.0
 30
0.0
  0
VERTEX
  5
C7
330
C6
100
AcDbEntity
  8
_U+30EC_U+30A4_U+30E4_U+30FC 1
 62
   179
420
  2234388
370
     9
100
AcDbVertex
100
AcDb2dVertex
 10
110.0391119148906
 20
-164.8250802365715
 30
0.0
  0
VERTEX
  5
C8
330
C6
100
AcDbEntity
  8
_U+30EC_U+30A4_U+30E4_U+30FC 1
 62
   179
420
  2234388
370
     9
100
AcDbVertex
100
AcDb2dVertex
 10
110.0391119148906
 20
-168.8251921800161
 30
0.0
  0
SEQEND
  5
C9
330
C6
100
AcDbEntity
  8
_U+30EC_U+30A4_U+30E4_U+30FC 1
 62
   179
420
  2234388
370
     9
  0
POLYLINE
  5
CA
330
1F
100
AcDbEntity
  8
_U+30EC_U+30A4_U+30E4_U+30FC 1
 62
   179
420
  2234388
370
     9
100
AcDb2dPolyline
 66
     1
 10
0.0
 20
0.0
 30
0.0
  0
VERTEX
  5
CB
330
CA
100
AcDbEntity
  8
_U+30EC_U+30A4_U+30E4_U+30FC 1
 62
   179
420
  2234388
370
     9
100
AcDbVertex
100
AcDb2dVertex
 10
108.5790705632505
 20
-168.8251921800161
 30
0.0
  0
VERTEX
  5
CC
330
CA
100
AcDbEntity
  8
_U+30EC_U+30A4_U+30E4_U+30FC 1
 62
   179
420
  2234388
370
     9
100
AcDbVertex
100
AcDb2dVertex
 10
111.0388841116065
 20
-168.8251921800161
 30
0.0
  0
SEQEND
  5
CD
330
CA
100
AcDbEntity
  8
_U+30EC_U+30A4_U+30E4_U+30FC 1
 62
   179
420
  2234388
370
     9
  0
POLYLINE
  5
CE
330
1F
100
AcDbEntity
  8
_U+30EC_U+30A4_U+30E4_U+30FC 1
 62
   179
420
  2234388
370
     9
100
AcDb2dPolyline
 66
     1
 10
0.0
 20
0.0
 30
0.0
  0
VERTEX
  5
CF
330
CE
100
AcDbEntity
  8
_U+30EC_U+30A4_U+30E4_U+30FC 1
 62
   179
420
  2234388
370
     9
100
AcDbVertex
100
AcDb2dVertex
 10
74.53894393168645
 20
-138.8256402430716
 30
0.0
  0
VERTEX
  5
D0
330
CE
100
AcDbEntity
  8
_U+30EC_U+30A4_U+30E4_U+30FC 1
 62
   179
420
  2234388
370
     9
100
AcDbVertex
100
AcDb2dVertex
 10
74.53894393168645
 20
-168.8251921800161
 30
0.0
  0
SEQEND
  5
D1
330
CE
100
AcDbEntity
  8
_U+30EC_U+30A4_U+30E4_U+30FC 1
 62
   179
420
  2234388
370
     9
  0
POLYLINE
  5
D2
330
1F
100
AcDbEntity
  8
_U+30EC_U+30A4_U+30E4_U+30FC 1
 62
   179
420
  2234388
370
     9
100
AcDb2dPolyline
 66
     1
 10
0.0
 20
0.0
 30
0.0
  0
VERTEX
  5
D3
330
D2
100
AcDbEntity
  8
_U+30EC_U+30A4_U+30E4_U+30FC 1
 62
   179
420
  2234388
370
     9
100
AcDbVertex
100
AcDb2dVertex
 10
75.99898528332658
 20
-138.8256402430716
 30
0.0
  0
VERTEX
  5
D4
330
D2
100
AcDbEntity
  8
_U+30EC_U+30A4_U+30E4_U+30FC 1
 62
   179
420
  2234388
370
     9
100
AcDbVertex
100
AcDb2dVertex
 10
73.53881895720176
 20
-138.8256402430716
 30
0.0
  0
SEQEND
  5
D5
330
D2
100
AcDbEntity
  8
_U+30EC_U+30A4_U+30E4_U+30FC 1
 62
   179
420
  2234388
370
     9
  0
POLYLINE
  5
D6
330
1F
100
AcDbEntity
  8
_U+30EC_U+30A4_U+30E4_U+30FC 1
 62
   179
420
  2234388
370
     9
100
AcDb2dPolyline
 66
     1
 10
0.0
 20
0.0
 30
0.0
  0
VERTEX
  5
D7
330
D6
100
AcDbEntity
  8
_U+30EC_U+30A4_U+30E4_U+30FC 1
 62
   179
420
  2234388
370
     9
100
AcDbVertex
100
AcDb2dVertex
 10
75.99898528332658
 20
-168.8251921800161
 30
0.0
  0
VERTEX
  5
D8
330
D6
100
AcDbEntity
  8
_U+30EC_U+30A4_U+30E4_U+30FC 1
 62
   179
420
  2234388
370
     9
100
AcDbVertex
100
AcDb2dVertex
 10
73.53881895720176
 20
-168.8251921800161
 30
0.0
  0
SEQEND
  5
D9
330
D6
100
AcDbEntity
  8
_U+30EC_U+30A4_U+30E4_U+30FC 1
 62
   179
420
  2234388
370
     9
  0
POLYLINE
  5
DA
330
1F
100
AcDbEntity
  8
_U+30EC_U+30A4_U+30E4_U+30FC 1
 62
   179
420
  2234388
370
     9
100
AcDb2dPolyline
 66
     1
 10
0.0
 20
0.0
 30
0.0
  0
VERTEX
  5
DB
330
DA
100
AcDbEntity
  8
_U+30EC_U+30A4_U+30E4_U+30FC 1
 62
   179
420
  2234388
370
     9
100
AcDbVertex
100
AcDb2dVertex
 10
82.53881483870384
 20
-133.8250857998771
 30
0.0
  0
VERTEX
  5
DC
330
DA
100
AcDbEntity
  8
_U+30EC_U+30A4_U+30E4_U+30FC 1
 62
   179
420
  2234388
370
     9
100
AcDbVertex
100
AcDb2dVertex
 10
78.53870299631076
 20
-133.8250857998771
 30
0.0
  0
SEQEND
  5
DD
330
DA
100
AcDbEntity
  8
_U+30EC_U+30A4_U+30E4_U+30FC 1
 62
   179
420
  2234388
370
     9
  0
POLYLINE
  5
DE
330
1F
100
AcDbEntity
  8
_U+30EC_U+30A4_U+30E4_U+30FC 1
 62
   179
420
  2234388
370
     9
100
AcDb2dPolyline
 66
     1
 10
0.0
 20
0.0
 30
0.0
  0
VERTEX
  5
DF
330
DE
100
AcDbEntity
  8
_U+30EC_U+30A4_U+30E4_U+30FC 1
 62
   179
420
  2234388
370
     9
100
AcDbVertex
100
AcDb2dVertex
 10
82.53881483870384
 20
-135.2851271884008
 30
0.0
  0
VERTEX
  5
E0
330
DE
100
AcDbEntity
  8
_U+30EC_U+30A4_U+30E4_U+30FC 1
 62
   179
420
  2234388
370
     9
100
AcDbVertex
100
AcDb2dVertex
 10
82.53881483870384
 20
-132.8253135779046
 30
0.0
  0
SEQEND
  5
E1
330
DE
100
AcDbEntity
  8
_U+30EC_U+30A4_U+30E4_U+30FC 1
 62
   179
420
  2234388
370
     9
  0
POLYLINE
  5
E2
330
1F
100
AcDbEntity
  8
_U+30EC_U+30A4_U+30E4_U+30FC 1
 62
   179
420
  2234388
370
     9
100
AcDb2dPolyline
 66
     1
 10
0.0
 20
0.0
 30
0.0
  0
VERTEX
  5
E3
330
E2
100
AcDbEntity
  8
_U+30EC_U+30A4_U+30E4_U+30FC 1
 62
   179
420
  2234388
370
     9
100
AcDbVertex
100
AcDb2dVertex
 10
78.53870299631076
 20
-135.2851271884008
 30
0.0
  0
VERTEX
  5
E4
330
E2
100
AcDbEntity
  8
_U+30EC_U+30A4_U+30E4_U+30FC 1
 62
   179
420
  2234388
370
     9
100
AcDbVertex
100
AcDb2dVertex
 10
78.53870299631076
 20
-132.8253135779046
 30
0.0
  0
SEQEND
  5
E5
330
E2
100
AcDbEntity
  8
_U+30EC_U+30A4_U+30E4_U+30FC 1
 62
   179
420
  2234388
370
     9
  0
POLYLINE
  5
E6
330
1F
100
AcDbEntity
  8
_U+30EC_U+30A4_U+30E4_U+30FC 1
 62
   179
420
  2234388
370
     9
100
AcDb2dPolyline
 66
     1
 10
0.0
 20
0.0
 30
0.0
  0
VERTEX
  5
E7
330
E6
100
AcDbEntity
  8
_U+30EC_U+30A4_U+30E4_U+30FC 1
 62
   179
420
  2234388
370
     9
100
AcDbVertex
100
AcDb2dVertex
 10
82.53881483870384
 20
-133.8250857998771
 30
0.0
  0
VERTEX
  5
E8
330
E6
100
AcDbEntity
  8
_U+30EC_U+30A4_U+30E4_U+30FC 1
 62
   179
420
  2234388
370
     9
100
AcDbVertex
100
AcDb2dVertex
 10
98.03916444325698
 20
-133.8250857998771
 30
0.0
  0
SEQEND
  5
E9
330
E6
100
AcDbEntity
  8
_U+30EC_U+30A4_U+30E4_U+30FC 1
 62
   179
420
  2234388
370
     9
  0
POLYLINE
  5
EA
330
1F
100
AcDbEntity
  8
_U+30EC_U+30A4_U+30E4_U+30FC 1
 62
   179
420
  2234388
370
     9
100
AcDb2dPolyline
 66
     1
 10
0.0
 20
0.0
 30
0.0
  0
VERTEX
  5
EB
330
EA
100
AcDbEntity
  8
_U+30EC_U+30A4_U+30E4_U+30FC 1
 62
   179
420
  2234388
370
     9
100
AcDbVertex
100
AcDb2dVertex
 10
103.5388993029471
 20
-172.8256216234604
 30
0.0
  0
VERTEX
  5
EC
330
EA
100
AcDbEntity
  8
_U+30EC_U+30A4_U+30E4_U+30FC 1
 62
   179
420
  2234388
370
     9
100
AcDbVertex
100
AcDb2dVertex
 10
78.53870299631076
 20
-172.8256216234604
 30
0.0
  0
SEQEND
  5
ED
330
EA
100
AcDbEntity
  8
_U+30EC_U+30A4_U+30E4_U+30FC 1
 62
   179
420
  2234388
370
     9
  0
POLYLINE
  5
EE
330
1F
100
AcDbEntity
  8
_U+30EC_U+30A4_U+30E4_U+30FC 1
 62
   179
420
  2234388
370
     9
100
AcDb2dPolyline
 66
     1
 10
0.0
 20
0.0
 30
0.0
  0
VERTEX
  5
EF
330
EE
100
AcDbEntity
  8
_U+30EC_U+30A4_U+30E4_U+30FC 1
 62
   179
420
  2234388
370
     9
100
AcDbVertex
100
AcDb2dVertex
 10
103.5388993029471
 20
-171.3655802349367
 30
0.0
  0
VERTEX
  5
F0
330
EE
100
AcDbEntity
  8
_U+30EC_U+30A4_U+30E4_U+30FC 1
 62
   179
420
  2234388
370
     9
100
AcDbVertex
100
AcDb2dVertex
 10
103.5388993029471
 20
-173.8253938454322
 30
0.0
  0
SEQEND
  5
F1
330
EE
100
AcDbEntity
  8
_U+30EC_U+30A4_U+30E4_U+30FC 1
 62
   179
420
  2234388
370
     9
  0
POLYLINE
  5
F2
330
1F
100
AcDbEntity
  8
_U+30EC_U+30A4_U+30E4_U+30FC 1
 62
   179
420
  2234388
370
     9
100
AcDb2dPolyline
 66
     1
 10
0.0
 20
0.0
 30
0.0
  0
VERTEX
  5
F3
330
F2
100
AcDbEntity
  8
_U+30EC_U+30A4_U+30E4_U+30FC 1
 62
   179
420
  2234388
370
     9
100
AcDbVertex
100
AcDb2dVertex
 10
78.53870299631076
 20
-171.3655802349367
 30
0.0
  0
VERTEX
  5
F4
330
F2
100
AcDbEntity
  8
_U+30EC_U+30A4_U+30E4_U+30FC 1
 62
   179
420
  2234388
370
     9
100
AcDbVertex
100
AcDb2dVertex
 10
78.53870299631076
 20
-173.8253938454322
 30
0.0
  0
SEQEND
  5
F5
330
F2
100
AcDbEntity
  8
_U+30EC_U+30A4_U+30E4_U+30FC 1
 62
   179
420
  2234388
370
     9
  0
INSERT
  5
F7
330
1F
100
AcDbEntity
  8
_U+30EC_U+30A4_U+30E4_U+30FC 1
100
AcDbBlockReference
  2
block 2
 10
0.0
 20
0.0
 30
0.0
  0
INSERT
  5
107
330
1F
100
AcDbEntity
  8
_U+30EC_U+30A4_U+30E4_U+30FC 1
100
AcDbBlockReference
  2
block 3
 10
0.0
 20
0.0
 30
0.0
  0
INSERT
  5
111
330
1F
100
AcDbEntity
  8
_U+30EC_U+30A4_U+30E4_U+30FC 1
100
AcDbBlockReference
  2
block 4
 10
0.0
 20
0.0
 30
0.0
  0
INSERT
  5
123
330
1F
100
AcDbEntity
  8
_U+30EC_U+30A4_U+30E4_U+30FC 1
100
AcDbBlockReference
  2
block 5
 10
0.0
 20
0.0
 30
0.0
  0
INSERT
  5
13C
330
1F
100
AcDbEntity
  8
_U+30EC_U+30A4_U+30E4_U+30FC 1
100
AcDbBlockReference
  2
block 6
 10
0.0
 20
0.0
 30
0.0
  0
INSERT
  5
145
330
1F
100
AcDbEntity
  8
_U+30EC_U+30A4_U+30E4_U+30FC 1
100
AcDbBlockReference
  2
block 7
 10
0.0
 20
0.0
 30
0.0
  0
INSERT
  5
15E
330
1F
100
AcDbEntity
  8
_U+30EC_U+30A4_U+30E4_U+30FC 1
100
AcDbBlockReference
  2
block 8
 10
0.0
 20
0.0
 30
0.0
  0
INSERT
  5
170
330
1F
100
AcDbEntity
  8
_U+30EC_U+30A4_U+30E4_U+30FC 1
100
AcDbBlockReference
  2
block 9
 10
0.0
 20
0.0
 30
0.0
  0
ENDSEC
  0
SECTION
  2
OBJECTS
  0
DICTIONARY
  5
C
330
0
100
AcDbDictionary
281
     1
  3
ACAD_GROUP
350
D
  3
ACAD_LAYOUT
350
1A
  3
ACAD_MATERIAL
350
3B
  3
ACAD_MLEADERSTYLE
350
178
  3
ACAD_MLINESTYLE
350
17
  3
ACAD_PLOTSETTINGS
350
19
  3
ACAD_PLOTSTYLENAME
350
E
  3
ACAD_TABLESTYLE
350
177
  3
ACAD_VISUALSTYLE
350
2A
  0
SUN
  5
3F
330
29
100
AcDbSun
 90
        1
290
     0
 63
     7
421
 16777215
 40
1.0
291
     1
 91
  2455826
 92
 54000000
292
     0
 70
     2
 71
   256
280
     1
  0
DICTIONARY
  5
D
102
{ACAD_REACTORS
330
C
102
}
330
C
100
AcDbDictionary
281
     1
  0
DICTIONARY
  5
1A
102
{ACAD_REACTORS
330
C
102
}
330
C
100
AcDbDictionary
281
     1
  3
Layout1
350
1E
  3
Layout2
350
26
  3
Model
350
22
  0
DICTIONARY
  5
3B
102
{ACAD_REACTORS
330
C
102
}
330
C
100
AcDbDictionary
281
     1
  3
ByBlock
350
3D
  3
ByLayer
350
3C
  3
Global
350
3E
  0
DICTIONARY
  5
178
102
{ACAD_REACTORS
330
C
102
}
330
C
100
AcDbDictionary
281
     1
  0
DICTIONARY
  5
17
102
{ACAD_REACTORS
330
C
102
}
330
C
100
AcDbDictionary
281
     1
  3
Standard
350
18
  0
DICTIONARY
  5
19
102
{ACAD_REACTORS
330
C
102
}
330
C
100
AcDbDictionary
281
     1
  0
ACDBDICTIONARYWDFLT
  5
E
102
{ACAD_REACTORS
330
C
102
}
330
C
100
AcDbDictionary
281
     1
  3
Normal
350
F
100
AcDbDictionaryWithDefault
340
F
  0
DICTIONARY
  5
177
102
{ACAD_REACTORS
330
C
102
}
330
C
100
AcDbDictionary
281
     1
  0
DICTIONARY
  5
2A
102
{ACAD_REACTORS
330
C
102
}
330
C
100
AcDbDictionary
281
     1
  3
2dWireframe
350
2F
  3
3D Hidden
350
31
  3
3dWireframe
350
30
  3
Basic
350
32
  3
Brighten
350
36
  3
ColorChange
350
3A
  3
Conceptual
350
34
  3
Dim
350
35
  3
Facepattern
350
39
  3
Flat
350
2B
  3
FlatWithEdges
350
2C
  3
Gouraud
350
2D
  3
GouraudWithEdges
350
2E
  3
Linepattern
350
38
  3
Realistic
350
33
  3
Thicken
350
37
  0
LAYOUT
  5
1E
102
{ACAD_REACTORS
330
1A
102
}
330
1A
100
AcDbPlotSettings
  1

  2
none_device
  4

  6

 40
0.0
 41
0.0
 42
0.0
 43
0.0
 44
0.0
 45
0.0
 46
0.0
 47
0.0
 48
0.0
 49
0.0
140
0.0
141
0.0
142
1.0
143
1.0
 70
   688
 72
     0
 73
     0
 74
     5
  7

 75
    16
 76
     0
 77
     2
 78
   300
147
1.0
148
0.0
149
0.0
100
AcDbLayout
  1
Layout1
 70
     1
 71
     1
 10
0.0
 20
0.0
 11
12.0
 21
9.0
 12
0.0
 22
0.0
 32
0.0
 14
1.000000000000000E+20
 24
1.000000000000000E+20
 34
1.000000000000000E+20
 15
-1.000000000000000E+20
 25
-1.000000000000000E+20
 35
-1.000000000000000E+20
146
0.0
 13
0.0
 23
0.0
 33
0.0
 16
1.0
 26
0.0
 36
0.0
 17
0.0
 27
1.0
 37
0.0
 76
     0
330
1B
  0
LAYOUT
  5
26
102
{ACAD_REACTORS
330
1A
102
}
330
1A
100
AcDbPlotSettings
  1

  2
none_device
  4

  6

 40
0.0
 41
0.0
 42
0.0
 43
0.0
 44
0.0
 45
0.0
 46
0.0
 47
0.0
 48
0.0
 49
0.0
140
0.0
141
0.0
142
1.0
143
1.0
 70
   688
 72
     0
 73
     0
 74
     5
  7

 75
    16
 76
     0
 77
     2
 78
   300
147
1.0
148
0.0
149
0.0
100
AcDbLayout
  1
Layout2
 70
     1
 71
     2
 10
0.0
 20
0.0
 11
0.0
 21
0.0
 12
0.0
 22
0.0
 32
0.0
 14
0.0
 24
0.0
 34
0.0
 15
0.0
 25
0.0
 35
0.0
146
0.0
 13
0.0
 23
0.0
 33
0.0
 16
1.0
 26
0.0
 36
0.0
 17
0.0
 27
1.0
 37
0.0
 76
     0
330
23
  0
LAYOUT
  5
22
102
{ACAD_REACTORS
330
1A
102
}
330
1A
100
AcDbPlotSettings
  1

  2
none_device
  4

  6

 40
0.0
 41
0.0
 42
0.0
 43
0.0
 44
0.0
 45
0.0
 46
0.0
 47
0.0
 48
0.0
 49
0.0
140
0.0
141
0.0
142
1.0
143
1.0
 70
  1712
 72
     0
 73
     0
 74
     0
  7

 75
     0
 76
     0
 77
     2
 78
   300
147
1.0
148
0.0
149
0.0
100
AcDbLayout
  1
Model
 70
     1
 71
     0
 10
0.0
 20
0.0
 11
12.0
 21
9.0
 12
0.0
 22
0.0
 32
0.0
 14
1.000000000000000E+20
 24
1.000000000000000E+20
 34
1.000000000000000E+20
 15
-1.000000000000000E+20
 25
-1.000000000000000E+20
 35
-1.000000000000000E+20
146
0.0
 13
0.0
 23
0.0
 33
0.0
 16
1.0
 26
0.0
 36
0.0
 17
0.0
 27
1.0
 37
0.0
 76
     0
330
1F
331
29
  0
MATERIAL
  5
3D
102
{ACAD_REACTORS
330
3B
102
}
330
3B
100
AcDbMaterial
  1
ByBlock
 72
     1
 94
      127
  0
MATERIAL
  5
3C
102
{ACAD_REACTORS
330
3B
102
}
330
3B
100
AcDbMaterial
  1
ByLayer
 72
     1
 94
      127
  0
MATERIAL
  5
3E
102
{ACAD_REACTORS
330
3B
102
}
330
3B
100
AcDbMaterial
  1
Global
 72
     1
 94
      127
  0
MLINESTYLE
  5
18
102
{ACAD_REACTORS
330
17
102
}
330
17
100
AcDbMlineStyle
  2
Standard
 70
     0
  3

 62
   256
 51
90.0
 52
90.0
 71
     2
 49
0.5
 62
   256
  6
BYLAYER
 49
-0.5
 62
   256
  6
BYLAYER
  0
ACDBPLACEHOLDER
  5
F
102
{ACAD_REACTORS
330
E
102
}
330
E
  0
VISUALSTYLE
  5
2F
102
{ACAD_REACTORS
330
2A
102
}
330
2A
100
AcDbVisualStyle
  2
2dWireframe
 70
     4
177
     2
291
     0
 71
     0
176
     1
 72
     2
176
     1
 73
     0
176
     1
 90
        0
176
     1
 40
-0.6
176
     1
 41
-30.0
176
     1
 62
     5
 63
     7
421
 16777215
176
     1
 74
     1
176
     1
 91
        4
176
     1
 64
     7
176
     1
 65
   257
176
     1
 75
     1
176
     1
175
     1
176
     1
 42
1.0
176
     1
 92
        0
176
     1
 66
   257
176
     1
 43
1.0
176
     1
 76
     1
176
     1
 77
     6
176
     1
 78
     2
176
     1
 67
     7
176
     1
 79
     5
176
     1
170
     0
176
     1
171
     0
176
     1
290
     0
176
     1
 93
        1
176
     1
 44
0.0
176
     1
173
     0
176
     1
  0
VISUALSTYLE
  5
31
102
{ACAD_REACTORS
330
2A
102
}
330
2A
100
AcDbVisualStyle
  2
3D Hidden
 70
     6
177
     2
291
     0
 71
     1
176
     1
 72
     2
176
     1
 73
     2
176
     1
 90
        0
176
     1
 40
-0.6
176
     1
 41
-30.0
176
     1
 62
     5
 63
     7
421
 16777215
176
     1
 74
     2
176
     1
 91
        2
176
     1
 64
     7
176
     1
 65
   257
176
     1
 75
     2
176
     1
175
     1
176
     1
 42
40.0
176
     1
 92
        0
176
     1
 66
   257
176
     1
 43
1.0
176
     1
 76
     1
176
     1
 77
     6
176
     1
 78
     2
176
     1
 67
     7
176
     1
 79
     3
176
     1
170
     0
176
     1
171
     0
176
     1
290
     0
176
     1
 93
        1
176
     1
 44
0.0
176
     1
173
     0
176
     1
  0
VISUALSTYLE
  5
30
102
{ACAD_REACTORS
330
2A
102
}
330
2A
100
AcDbVisualStyle
  2
3dWireframe
 70
     5
177
     2
291
     0
 71
     0
176
     1
 72
     2
176
     1
 73
     0
176
     1
 90
        0
176
     1
 40
-0.6
176
     1
 41
-30.0
176
     1
 62
     5
 63
     7
421
 16777215
176
     1
 74
     1
176
     1
 91
        4
176
     1
 64
     7
176
     1
 65
   257
176
     1
 75
     1
176
     1
175
     1
176
     1
 42
1.0
176
     1
 92
        0
176
     1
 66
   257
176
     1
 43
1.0
176
     1
 76
     1
176
     1
 77
     6
176
     1
 78
     2
176
     1
 67
     7
176
     1
 79
     5
176
     1
170
     0
176
     1
171
     0
176
     1
290
     0
176
     1
 93
        1
176
     1
 44
0.0
176
     1
173
     0
176
     1
  0
VISUALSTYLE
  5
32
102
{ACAD_REACTORS
330
2A
102
}
330
2A
100
AcDbVisualStyle
  2
Basic
 70
     7
177
     2
291
     1
 71
     1
176
     1
 72
     0
176
     1
 73
     1
176
     1
 90
        0
176
     1
 40
-0.6
176
     1
 41
-30.0
176
     1
 62
     5
 63
     7
421
 16777215
176
     1
 74
     0
176
     1
 91
        4
176
     1
 64
     7
176
     1
 65
   257
176
     1
 75
     1
176
     1
175
     1
176
     1
 42
1.0
176
     1
 92
        8
176
     1
 66
     7
176
     1
 43
1.0
176
     1
 76
     1
176
     1
 77
     6
176
     1
 78
     2
176
     1
 67
     7
176
     1
 79
     5
176
     1
170
     0
176
     1
171
     0
176
     1
290
     0
176
     1
 93
        1
176
     1
 44
0.0
176
     1
173
     0
176
     1
  0
VISUALSTYLE
  5
36
102
{ACAD_REACTORS
330
2A
102
}
330
2A
100
AcDbVisualStyle
  2
Brighten
 70
    12
177
     2
291
     1
 71
     2
176
     1
 72
     2
176
     1
 73
     0
176
     1
 90
        0
176
     1
 40
-0.6
176
     1
 41
-30.0
176
     1
 62
     5
 63
     7
421
 16777215
176
     1
 74
     1
176
     1
 91
        4
176
     1
 64
     7
176
     1
 65
   257
176
     1
 75
     1
176
     1
175
     1
176
     1
 42
1.0
176
     1
 92
        8
176
     1
 66
     7
176
     1
 43
1.0
176
     1
 76
     1
176
     1
 77
     6
176
     1
 78
     2
176
     1
 67
     7
176
     1
 79
     5
176
     1
170
     0
176
     1
171
     0
176
     1
290
     0
176
     1
 93
        1
176
     1
 44
50.0
176
     1
173
     0
176
     1
  0
VISUALSTYLE
  5
3A
102
{ACAD_REACTORS
330
2A
102
}
330
2A
100
AcDbVisualStyle
  2
ColorChange
 70
    16
177
     2
291
     1
 71
     2
176
     1
 72
     2
176
     1
 73
     3
176
     1
 90
        0
176
     1
 40
-0.6
176
     1
 41
-30.0
176
     1
 62
     5
 63
     8
421
  8421504
176
     1
 74
     1
176
     1
 91
        4
176
     1
 64
     7
176
     1
 65
   257
176
     1
 75
     1
176
     1
175
     1
176
     1
 42
1.0
176
     1
 92
        8
176
     1
 66
     8
424
  8421504
176
     1
 43
1.0
176
     1
 76
     1
176
     1
 77
     6
176
     1
 78
     2
176
     1
 67
     7
176
     1
 79
     5
176
     1
170
     0
176
     1
171
     0
176
     1
290
     0
176
     1
 93
        1
176
     1
 44
0.0
176
     1
173
     0
176
     1
  0
VISUALSTYLE
  5
34
102
{ACAD_REACTORS
330
2A
102
}
330
2A
100
AcDbVisualStyle
  2
Conceptual
 70
     9
177
     2
291
     0
 71
     3
176
     1
 72
     2
176
     1
 73
     0
176
     1
 90
        0
176
     1
 40
-0.6
176
     1
 41
-30.0
176
     1
 62
     5
 63
     7
421
 16777215
176
     1
 74
     2
176
     1
 91
        2
176
     1
 64
     7
176
     1
 65
   257
176
     1
 75
     1
176
     1
175
     1
176
     1
 42
40.0
176
     1
 92
        8
176
     1
 66
     7
176
     1
 43
1.0
176
     1
 76
     1
176
     1
 77
     6
176
     1
 78
     2
176
     1
 67
     7
176
     1
 79
     3
176
     1
170
     0
176
     1
171
     0
176
     1
290
     0
176
     1
 93
        1
176
     1
 44
0.0
176
     1
173
     0
176
     1
  0
VISUALSTYLE
  5
35
102
{ACAD_REACTORS
330
2A
102
}
330
2A
100
AcDbVisualStyle
  2
Dim
 70
    11
177
     2
291
     1
 71
     2
176
     1
 72
     2
176
     1
 73
     0
176
     1
 90
        0
176
     1
 40
-0.6
176
     1
 41
-30.0
176
     1
 62
     5
 63
     7
421
 16777215
176
     1
 74
     1
176
     1
 91
        4
176
     1
 64
     7
176
     1
 65
   257
176
     1
 75
     1
176
     1
175
     1
176
     1
 42
1.0
176
     1
 92
        8
176
     1
 66
     7
176
     1
 43
1.0
176
     1
 76
     1
176
     1
 77
     6
176
     1
 78
     2
176
     1
 67
     7
176
     1
 79
     5
176
     1
170
     0
176
     1
171
     0
176
     1
290
     0
176
     1
 93
        1
176
     1
 44
-50.0
176
     1
173
     0
176
     1
  0
VISUALSTYLE
  5
39
102
{ACAD_REACTORS
330
2A
102
}
330
2A
100
AcDbVisualStyle
  2
Facepattern
 70
    15
177
     2
291
     1
 71
     2
176
     1
 72
     2
176
     1
 73
     0
176
     1
 90
        0
176
     1
 40
-0.6
176
     1
 41
-30.0
176
     1
 62
     5
 63
     7
421
 16777215
176
     1
 74
     1
176
     1
 91
        4
176
     1
 64
     7
176
     1
 65
   257
176
     1
 75
     1
176
     1
175
     1
176
     1
 42
1.0
176
     1
 92
        8
176
     1
 66
     7
176
     1
 43
1.0
176
     1
 76
     1
176
     1
 77
     6
176
     1
 78
     2
176
     1
 67
     7
176
     1
 79
     5
176
     1
170
     0
176
     1
171
     0
176
     1
290
     0
176
     1
 93
        1
176
     1
 44
0.0
176
     1
173
     0
176
     1
  0
VISUALSTYLE
  5
2B
102
{ACAD_REACTORS
330
2A
102
}
330
2A
100
AcDbVisualStyle
  2
Flat
 70
     0
177
     2
291
     1
 71
     2
176
     1
 72
     1
176
     1
 73
     1
176
     1
 90
        2
176
     1
 40
-0.6
176
     1
 41
30.0
176
     1
 62
     5
 63
     7
421
 16777215
176
     1
 74
     0
176
     1
 91
        4
176
     1
 64
     7
176
     1
 65
   257
176
     1
 75
     1
176
     1
175
     1
176
     1
 42
1.0
176
     1
 92
        8
176
     1
 66
     7
176
     1
 43
1.0
176
     1
 76
     1
176
     1
 77
     6
176
     1
 78
     2
176
     1
 67
     7
176
     1
 79
     5
176
     1
170
     0
176
     1
171
     0
176
     1
290
     0
176
     1
 93
       13
176
     1
 44
0.0
176
     1
173
     0
176
     1
  0
VISUALSTYLE
  5
2C
102
{ACAD_REACTORS
330
2A
102
}
330
2A
100
AcDbVisualStyle
  2
FlatWithEdges
 70
     1
177
     2
291
     1
 71
     2
176
     1
 72
     1
176
     1
 73
     1
176
     1
 90
        2
176
     1
 40
-0.6
176
     1
 41
30.0
176
     1
 62
     5
 63
     7
421
 16777215
176
     1
 74
     1
176
     1
 91
        4
176
     1
 64
     7
176
     1
 65
   257
176
     1
 75
     1
176
     1
175
     1
176
     1
 42
1.0
176
     1
 92
        0
176
     1
 66
   257
176
     1
 43
1.0
176
     1
 76
     1
176
     1
 77
     6
176
     1
 78
     2
176
     1
 67
     7
176
     1
 79
     5
176
     1
170
     0
176
     1
171
     0
176
     1
290
     0
176
     1
 93
       13
176
     1
 44
0.0
176
     1
173
     0
176
     1
  0
VISUALSTYLE
  5
2D
102
{ACAD_REACTORS
330
2A
102
}
330
2A
100
AcDbVisualStyle
  2
Gouraud
 70
     2
177
     2
291
     1
 71
     2
176
     1
 72
     2
176
     1
 73
     1
176
     1
 90
        2
176
     1
 40
-0.6
176
     1
 41
30.0
176
     1
 62
     5
 63
     7
421
 16777215
176
     1
 74
     0
176
     1
 91
        4
176
     1
 64
     7
176
     1
 65
   257
176
     1
 75
     1
176
     1
175
     1
176
     1
 42
1.0
176
     1
 92
        0
176
     1
 66
     7
176
     1
 43
1.0
176
     1
 76
     1
176
     1
 77
     6
176
     1
 78
     2
176
     1
 67
     7
176
     1
 79
     5
176
     1
170
     0
176
     1
171
     0
176
     1
290
     0
176
     1
 93
       13
176
     1
 44
0.0
176
     1
173
     0
176
     1
  0
VISUALSTYLE
  5
2E
102
{ACAD_REACTORS
330
2A
102
}
330
2A
100
AcDbVisualStyle
  2
GouraudWithEdges
 70
     3
177
     2
291
     1
 71
     2
176
     1
 72
     2
176
     1
 73
     1
176
     1
 90
        2
176
     1
 40
-0.6
176
     1
 41
30.0
176
     1
 62
     5
 63
     7
421
 16777215
176
     1
 74
     1
176
     1
 91
        4
176
     1
 64
     7
176
     1
 65
   257
176
     1
 75
     1
176
     1
175
     1
176
     1
 42
1.0
176
     1
 92
        0
176
     1
 66
   257
176
     1
 43
1.0
176
     1
 76
     1
176
     1
 77
     6
176
     1
 78
     2
176
     1
 67
     7
176
     1
 79
     5
176
     1
170
     0
176
     1
171
     0
176
     1
290
     0
176
     1
 93
       13
176
     1
 44
0.0
176
     1
173
     0
176
     1
  0
VISUALSTYLE
  5
38
102
{ACAD_REACTORS
330
2A
102
}
330
2A
100
AcDbVisualStyle
  2
Linepattern
 70
    14
177
     2
291
     1
 71
     2
176
     1
 72
     2
176
     1
 73
     0
176
     1
 90
        0
176
     1
 40
-0.6
176
     1
 41
-30.0
176
     1
 62
     5
 63
     7
421
 16777215
176
     1
 74
     1
176
     1
 91
        4
176
     1
 64
     7
176
     1
 65
   257
176
     1
 75
     7
176
     1
175
     7
176
     1
 42
1.0
176
     1
 92
        8
176
     1
 66
     7
176
     1
 43
1.0
176
     1
 76
     1
176
     1
 77
     6
176
     1
 78
     2
176
     1
 67
     7
176
     1
 79
     5
176
     1
170
     0
176
     1
171
     0
176
     1
290
     0
176
     1
 93
        1
176
     1
 44
0.0
176
     1
173
     0
176
     1
  0
VISUALSTYLE
  5
33
102
{ACAD_REACTORS
330
2A
102
}
330
2A
100
AcDbVisualStyle
  2
Realistic
 70
     8
177
     2
291
     0
 71
     2
176
     1
 72
     2
176
     1
 73
     0
176
     1
 90
        0
176
     1
 40
-0.6
176
     1
 41
-30.0
176
     1
 62
     5
 63
     7
421
 16777215
176
     1
 74
     1
176
     1
 91
        0
176
     1
 64
     7
176
     1
 65
   257
176
     1
 75
     1
176
     1
175
     1
176
     1
 42
1.0
176
     1
 92
        8
176
     1
 66
     8
424
  7895160
176
     1
 43
1.0
176
     1
 76
     1
176
     1
 77
     6
176
     1
 78
     2
176
     1
 67
     7
176
     1
 79
     5
176
     1
170
     0
176
     1
171
     0
176
     1
290
     0
176
     1
 93
       13
176
     1
 44
0.0
176
     1
173
     0
176
     1
  0
VISUALSTYLE
  5
37
102
{ACAD_REACTORS
330
2A
102
}
330
2A
100
AcDbVisualStyle
  2
Thicken
 70
    13
177
     2
291
     1
 71
     2
176
     1
 72
     2
176
     1
 73
     0
176
     1
 90
        0
176
     1
 40
-0.6
176
     1
 41
-30.0
176
     1
 62
     5
 63
     7
421
 16777215
176
     1
 74
     1
176
     1
 91
        4
176
     1
 64
     7
176
     1
 65
   257
176
     1
 75
     1
176
     1
175
     1
176
     1
 42
1.0
176
     1
 92
       12
176
     1
 66
     7
176
     1
 43
1.0
176
     1
 76
     1
176
     1
 77
     6
176
     1
 78
     2
176
     1
 67
     7
176
     1
 79
     5
176
     1
170
     0
176
     1
171
     0
176
     1
290
     0
176
     1
 93
        1
176
     1
 44
0.0
176
     1
173
     0
176
     1
  0
ENDSEC
  0
EOF
