  0
SECTION
  2
HEADER
  9
$ACADVER
  1
AC1024
  9
$ACADMAINTVER
 70
     6
  9
$DWGCODEPAGE
  3
UNDEFINED
  9
$INSBASE
 10
0.0
 20
0.0
 30
0.0
  9
$EXTMIN
 10
1.000000000000000E+20
 20
1.000000000000000E+20
 30
1.000000000000000E+20
  9
$EXTMAX
 10
-1.000000000000000E+20
 20
-1.000000000000000E+20
 30
-1.000000000000000E+20
  9
$LIMMIN
 10
0.0
 20
0.0
  9
$LIMMAX
 10
12.0
 20
9.0
  9
$ORTHOMODE
 70
     0
  9
$REGENMODE
 70
     1
  9
$FILLMODE
 70
     1
  9
$QTEXTMODE
 70
     0
  9
$MIRRTEXT
 70
     1
  9
$LTSCALE
 40
1.0
  9
$ATTMODE
 70
     1
  9
$TEXTSIZE
 40
0.2
  9
$TRACEWID
 40
0.05
  9
$TEXTSTYLE
  7
Standard
  9
$CLAYER
  8
0
  9
$CELTYPE
  6
ByLayer
  9
$CECOLOR
 62
   256
  9
$CELTSCALE
 40
1.0
  9
$DISPSILH
 70
     0
  9
$DIMSCALE
 40
1.0
  9
$DIMASZ
 40
0.18
  9
$DIMEXO
 40
0.0625
  9
$DIMDLI
 40
0.38
  9
$DIMRND
 40
0.0
  9
$DIMDLE
 40
0.0
  9
$DIMEXE
 40
0.18
  9
$DIMTP
 40
0.0
  9
$DIMTM
 40
0.0
  9
$DIMTXT
 40
0.18
  9
$DIMCEN
 40
0.09
  9
$DIMTSZ
 40
0.0
  9
$DIMTOL
 70
     0
  9
$DIMLIM
 70
     0
  9
$DIMTIH
 70
     1
  9
$DIMTOH
 70
     1
  9
$DIMSE1
 70
     0
  9
$DIMSE2
 70
     0
  9
$DIMTAD
 70
     0
  9
$DIMZIN
 70
     0
  9
$DIMBLK
  1

  9
$DIMASO
 70
     1
  9
$DIMSHO
 70
     1
  9
$DIMPOST
  1

  9
$DIMAPOST
  1

  9
$DIMALT
 70
     0
  9
$DIMALTD
 70
     2
  9
$DIMALTF
 40
25.4
  9
$DIMLFAC
 40
1.0
  9
$DIMTOFL
 70
     0
  9
$DIMTVP
 40
0.0
  9
$DIMTIX
 70
     0
  9
$DIMSOXD
 70
     0
  9
$DIMSAH
 70
     0
  9
$DIMBLK1
  1

  9
$DIMBLK2
  1

  9
$DIMSTYLE
  2
Standard
  9
$DIMCLRD
 70
     0
  9
$DIMCLRE
 70
     0
  9
$DIMCLRT
 70
     0
  9
$DIMTFAC
 40
1.0
  9
$DIMGAP
 40
0.09
  9
$DIMJUST
 70
     0
  9
$DIMSD1
 70
     0
  9
$DIMSD2
 70
     0
  9
$DIMTOLJ
 70
     1
  9
$DIMTZIN
 70
     0
  9
$DIMALTZ
 70
     0
  9
$DIMALTTZ
 70
     0
  9
$DIMUPT
 70
     0
  9
$DIMDEC
 70
     4
  9
$DIMTDEC
 70
     4
  9
$DIMALTU
 70
     2
  9
$DIMALTTD
 70
     2
  9
$DIMTXSTY
  7
Standard
  9
$DIMAUNIT
 70
     0
  9
$DIMADEC
 70
     0
  9
$DIMALTRND
 40
0.0
  9
$DIMAZIN
 70
     0
  9
$DIMDSEP
 70
    46
  9
$DIMATFIT
 70
     3
  9
$DIMFRAC
 70
     0
  9
$DIMLDRBLK
  1

  9
$DIMLUNIT
 70
     2
  9
$DIMLWD
 70
    -2
  9
$DIMLWE
 70
    -2
  9
$DIMTMOVE
 70
     0
  9
$DIMFXL
 40
1.0
  9
$DIMFXLON
 70
     0
  9
$DIMJOGANG
 40
0.7853981633974483
  9
$DIMTFILL
 70
     0
  9
$DIMTFILLCLR
 70
     0
  9
$DIMARCSYM
 70
     0
  9
$DIMLTYPE
  6

  9
$DIMLTEX1
  6

  9
$DIMLTEX2
  6

  9
$DIMTXTDIRECTION
 70
     0
  9
$LUNITS
 70
     2
  9
$LUPREC
 70
     4
  9
$SKETCHINC
 40
0.1
  9
$FILLETRAD
 40
0.5
  9
$AUNITS
 70
     0
  9
$AUPREC
 70
     0
  9
$MENU
  1
.
  9
$ELEVATION
 40
0.0
  9
$PELEVATION
 40
0.0
  9
$THICKNESS
 40
0.0
  9
$LIMCHECK
 70
     0
  9
$CHAMFERA
 40
0.5
  9
$CHAMFERB
 40
0.5
  9
$CHAMFERC
 40
1.0
  9
$CHAMFERD
 40
0.0
  9
$SKPOLY
 70
     0
  9
$TDCREATE
 40
2457917.613692118
  9
$TDUCREATE
 40
2457917.238692129
  9
$TDUPDATE
 40
2457917.613692118
  9
$TDUUPDATE
 40
2457917.238692129
  9
$TDINDWG
 40
0.0000000116
  9
$TDUSRTIMER
 40
0.0000000116
  9
$USRTIMER
 70
     1
  9
$ANGBASE
 50
0.0
  9
$ANGDIR
 70
     0
  9
$PDMODE
 70
     0
  9
$PDSIZE
 40
0.0
  9
$PLINEWID
 40
0.0
  9
$SPLFRAME
 70
     0
  9
$SPLINETYPE
 70
     6
  9
$SPLINESEGS
 70
     8
  9
$HANDSEED
  5
13D
  9
$SURFTAB1
 70
     6
  9
$SURFTAB2
 70
     6
  9
$SURFTYPE
 70
     6
  9
$SURFU
 70
     6
  9
$SURFV
 70
     6
  9
$UCSBASE
  2

  9
$UCSNAME
  2

  9
$UCSORG
 10
0.0
 20
0.0
 30
0.0
  9
$UCSXDIR
 10
1.0
 20
0.0
 30
0.0
  9
$UCSYDIR
 10
0.0
 20
1.0
 30
0.0
  9
$UCSORTHOREF
  2

  9
$UCSORTHOVIEW
 70
     0
  9
$UCSORGTOP
 10
0.0
 20
0.0
 30
0.0
  9
$UCSORGBOTTOM
 10
0.0
 20
0.0
 30
0.0
  9
$UCSORGLEFT
 10
0.0
 20
0.0
 30
0.0
  9
$UCSORGRIGHT
 10
0.0
 20
0.0
 30
0.0
  9
$UCSORGFRONT
 10
0.0
 20
0.0
 30
0.0
  9
$UCSORGBACK
 10
0.0
 20
0.0
 30
0.0
  9
$PUCSBASE
  2

  9
$PUCSNAME
  2

  9
$PUCSORG
 10
0.0
 20
0.0
 30
0.0
  9
$PUCSXDIR
 10
1.0
 20
0.0
 30
0.0
  9
$PUCSYDIR
 10
0.0
 20
1.0
 30
0.0
  9
$PUCSORTHOREF
  2

  9
$PUCSORTHOVIEW
 70
     0
  9
$PUCSORGTOP
 10
0.0
 20
0.0
 30
0.0
  9
$PUCSORGBOTTOM
 10
0.0
 20
0.0
 30
0.0
  9
$PUCSORGLEFT
 10
0.0
 20
0.0
 30
0.0
  9
$PUCSORGRIGHT
 10
0.0
 20
0.0
 30
0.0
  9
$PUCSORGFRONT
 10
0.0
 20
0.0
 30
0.0
  9
$PUCSORGBACK
 10
0.0
 20
0.0
 30
0.0
  9
$USERI1
 70
     0
  9
$USERI2
 70
     0
  9
$USERI3
 70
     0
  9
$USERI4
 70
     0
  9
$USERI5
 70
     0
  9
$USERR1
 40
0.0
  9
$USERR2
 40
0.0
  9
$USERR3
 40
0.0
  9
$USERR4
 40
0.0
  9
$USERR5
 40
0.0
  9
$WORLDVIEW
 70
     1
  9
$SHADEDGE
 70
     3
  9
$SHADEDIF
 70
    70
  9
$TILEMODE
 70
     1
  9
$MAXACTVP
 70
    64
  9
$PINSBASE
 10
0.0
 20
0.0
 30
0.0
  9
$PLIMCHECK
 70
     0
  9
$PEXTMIN
 10
1.000000000000000E+20
 20
1.000000000000000E+20
 30
1.000000000000000E+20
  9
$PEXTMAX
 10
-1.000000000000000E+20
 20
-1.000000000000000E+20
 30
-1.000000000000000E+20
  9
$PLIMMIN
 10
0.0
 20
0.0
  9
$PLIMMAX
 10
12.0
 20
9.0
  9
$UNITMODE
 70
     0
  9
$VISRETAIN
 70
     1
  9
$PLINEGEN
 70
     0
  9
$PSLTSCALE
 70
     1
  9
$TREEDEPTH
 70
  3020
  9
$CMLSTYLE
  2
Standard
  9
$CMLJUST
 70
     0
  9
$CMLSCALE
 40
1.0
  9
$PROXYGRAPHICS
 70
     1
  9
$MEASUREMENT
 70
     0
  9
$CELWEIGHT
370
    -1
  9
$ENDCAPS
280
     0
  9
$JOINSTYLE
280
     0
  9
$LWDISPLAY
290
     1
  9
$INSUNITS
 70
     1
  9
$HYPERLINKBASE
  1

  9
$STYLESHEET
  1

  9
$XEDIT
290
     1
  9
$CEPSNTYPE
380
     0
  9
$PSTYLEMODE
290
     1
  9
$FINGERPRINTGUID
  2
{16601A8C-9AC0-B954-A620-F10408605932}
  9
$VERSIONGUID
  2
{FAEB1C32-E019-11D5-929B-00C0DF256EC4}
  9
$EXTNAMES
290
     1
  9
$PSVPSCALE
 40
0.0
  9
$OLESTARTUP
290
     0
  9
$SORTENTS
280
   127
  9
$INDEXCTL
280
     0
  9
$HIDETEXT
280
     1
  9
$XCLIPFRAME
280
     2
  9
$HALOGAP
280
     0
  9
$OBSCOLOR
 70
   257
  9
$OBSLTYPE
280
     0
  9
$INTERSECTIONDISPLAY
280
     0
  9
$INTERSECTIONCOLOR
 70
   257
  9
$DIMASSOC
280
     2
  9
$PROJECTNAME
  1

  9
$CAMERADISPLAY
290
     0
  9
$LENSLENGTH
 40
50.0
  9
$CAMERAHEIGHT
 40
0.0
  9
$STEPSPERSEC
 40
2.0
  9
$STEPSIZE
 40
6.0
  9
$3DDWFPREC
 40
2.0
  9
$PSOLWIDTH
 40
0.25
  9
$PSOLHEIGHT
 40
4.0
  9
$LOFTANG1
 40
1.570796326794897
  9
$LOFTANG2
 40
1.570796326794897
  9
$LOFTMAG1
 40
0.0
  9
$LOFTMAG2
 40
0.0
  9
$LOFTPARAM
 70
     7
  9
$LOFTNORMALS
280
     1
  9
$LATITUDE
 40
37.795
  9
$LONGITUDE
 40
-122.394
  9
$NORTHDIRECTION
 40
0.0
  9
$TIMEZONE
 70
 -8000
  9
$LIGHTGLYPHDISPLAY
280
     1
  9
$TILEMODELIGHTSYNCH
280
     1
  9
$CMATERIAL
347
3C
  9
$SOLIDHIST
280
     1
  9
$SHOWHIST
280
     1
  9
$DWFFRAME
280
     2
  9
$DGNFRAME
280
     2
  9
$REALWORLDSCALE
290
     1
  9
$INTERFERECOLOR
 62
   256
  9
$CSHADOW
280
     0
  9
$SHADOWPLANELOCATION
 40
0.0
  0
ENDSEC
  0
SECTION
  2
CLASSES
  0
CLASS
  1
ACDBDICTIONARYWDFLT
  2
AcDbDictionaryWithDefault
  3
ObjectDBX Classes
 90
        0
 91
        4
280
     0
281
     0
  0
CLASS
  1
VISUALSTYLE
  2
AcDbVisualStyle
  3
ObjectDBX Classes
 90
     4095
 91
        4
280
     0
281
     0
  0
CLASS
  1
MATERIAL
  2
AcDbMaterial
  3
ObjectDBX Classes
 90
     1153
 91
        4
280
     0
281
     0
  0
CLASS
  1
SUN
  2
AcDbSun
  3
SCENEOE
 90
     1024
 91
        4
280
     0
281
     0
  0
ENDSEC
  0
SECTION
  2
TABLES
  0
TABLE
  2
VPORT
  5
8
330
0
100
AcDbSymbolTable
 70
     1
  0
VPORT
  5
29
330
8
100
AcDbSymbolTableRecord
100
AcDbViewportTableRecord
  2
*Active
 70
     0
 10
0.0
 20
0.0
 11
1.0
 21
1.0
 12
0.0
 22
0.0
 13
0.0
 23
0.0
 14
0.5
 24
0.5
 15
0.5
 25
0.5
 16
0.0
 26
0.0
 36
1.0
 17
91.00082462281999
 27
-128.4993055234307
 37
0.0
 40
256.9986110468615
 41
0.7081814508812795
 42
50.0
 43
0.0
 44
0.0
 50
0.0
 51
0.0
 71
     0
 72
   100
 73
     1
 74
     3
 75
     0
 76
     0
 77
     0
 78
     0
281
     0
 65
     1
110
0.0
120
0.0
130
0.0
111
1.0
121
0.0
131
0.0
112
0.0
122
1.0
132
0.0
 79
     0
146
0.0
 60
     3
 61
     5
292
     1
282
     1
141
0.0
142
0.0
 63
   250
361
3F
  0
ENDTAB
  0
TABLE
  2
LTYPE
  5
5
330
0
100
AcDbSymbolTable
 70
     1
  0
LTYPE
  5
14
330
5
100
AcDbSymbolTableRecord
100
AcDbLinetypeTableRecord
  2
ByBlock
 70
     0
  3

 72
    65
 73
     0
 40
0.0
  0
LTYPE
  5
15
330
5
100
AcDbSymbolTableRecord
100
AcDbLinetypeTableRecord
  2
ByLayer
 70
     0
  3

 72
    65
 73
     0
 40
0.0
  0
LTYPE
  5
16
330
5
100
AcDbSymbolTableRecord
100
AcDbLinetypeTableRecord
  2
Continuous
 70
     0
  3
Solid line
 72
    65
 73
     0
 40
0.0
  0
ENDTAB
  0
TABLE
  2
LAYER
  5
2
330
0
100
AcDbSymbolTable
 70
     2
  0
LAYER
  5
10
330
2
100
AcDbSymbolTableRecord
100
AcDbLayerTableRecord
  2
0
 70
     0
 62
     7
  6
Continuous
370
    -3
390
F
347
3E
  0
LAYER
  5
40
330
2
100
AcDbSymbolTableRecord
100
AcDbLayerTableRecord
  2
_U+30EC_U+30A4_U+30E4_U+30FC 1
 70
     0
 62
     7
  6
Continuous
370
    -3
390
F
347
3E
  0
ENDTAB
  0
TABLE
  2
STYLE
  5
3
330
0
100
AcDbSymbolTable
 70
     1
  0
STYLE
  5
11
330
3
100
AcDbSymbolTableRecord
100
AcDbTextStyleTableRecord
  2
Standard
 70
     0
 40
0.0
 41
1.0
 50
0.0
 71
     0
 42
0.2
  3
txt
  4

  0
ENDTAB
  0
TABLE
  2
VIEW
  5
6
330
0
100
AcDbSymbolTable
 70
     0
  0
ENDTAB
  0
TABLE
  2
UCS
  5
7
330
0
100
AcDbSymbolTable
 70
     0
  0
ENDTAB
  0
TABLE
  2
APPID
  5
9
330
0
100
AcDbSymbolTable
 70
     1
  0
APPID
  5
12
330
9
100
AcDbSymbolTableRecord
100
AcDbRegAppTableRecord
  2
ACAD
 70
     0
  0
ENDTAB
  0
TABLE
  2
DIMSTYLE
  5
A
330
0
100
AcDbSymbolTable
 70
     1
100
AcDbDimStyleTable
  0
DIMSTYLE
105
27
330
A
100
AcDbSymbolTableRecord
100
AcDbDimStyleTableRecord
  2
Standard
 70
     0
178
     0
340
11
  0
ENDTAB
  0
TABLE
  2
BLOCK_RECORD
  5
1
330
0
100
AcDbSymbolTable
 70
     9
  0
BLOCK_RECORD
  5
1F
330
1
100
AcDbSymbolTableRecord
100
AcDbBlockTableRecord
  2
*Model_Space
340
22
 70
     0
280
     1
281
     0
  0
BLOCK_RECORD
  5
1B
330
1
100
AcDbSymbolTableRecord
100
AcDbBlockTableRecord
  2
*Paper_Space
340
1E
 70
     0
280
     1
281
     0
  0
BLOCK_RECORD
  5
23
330
1
100
AcDbSymbolTableRecord
100
AcDbBlockTableRecord
  2
*Paper_Space0
340
26
 70
     0
280
     1
281
     0
  0
BLOCK_RECORD
  5
FA
330
1
100
AcDbSymbolTableRecord
100
AcDbBlockTableRecord
  2
block 2
340
0
102
{BLKREFS
331
FB
102
}
 70
     0
280
     1
281
     0
  0
BLOCK_RECORD
  5
10A
330
1
100
AcDbSymbolTableRecord
100
AcDbBlockTableRecord
  2
block 3
340
0
102
{BLKREFS
331
10B
102
}
 70
     0
280
     1
281
     0
  0
BLOCK_RECORD
  5
110
330
1
100
AcDbSymbolTableRecord
100
AcDbBlockTableRecord
  2
block 4
340
0
102
{BLKREFS
331
111
102
}
 70
     0
280
     1
281
     0
  0
BLOCK_RECORD
  5
116
330
1
100
AcDbSymbolTableRecord
100
AcDbBlockTableRecord
  2
block 5
340
0
102
{BLKREFS
331
117
102
}
 70
     0
280
     1
281
     0
  0
BLOCK_RECORD
  5
11E
330
1
100
AcDbSymbolTableRecord
100
AcDbBlockTableRecord
  2
block 6
340
0
102
{BLKREFS
331
11F
102
}
 70
     0
280
     1
281
     0
  0
BLOCK_RECORD
  5
126
330
1
100
AcDbSymbolTableRecord
100
AcDbBlockTableRecord
  2
block 7
340
0
102
{BLKREFS
331
127
102
}
 70
     0
280
     1
281
     0
  0
BLOCK_RECORD
  5
12C
330
1
100
AcDbSymbolTableRecord
100
AcDbBlockTableRecord
  2
block 8
340
0
102
{BLKREFS
331
12D
102
}
 70
     0
280
     1
281
     0
  0
BLOCK_RECORD
  5
132
330
1
100
AcDbSymbolTableRecord
100
AcDbBlockTableRecord
  2
block 9
340
0
102
{BLKREFS
331
133
102
}
 70
     0
280
     1
281
     0
  0
ENDTAB
  0
ENDSEC
  0
SECTION
  2
BLOCKS
  0
BLOCK
  5
20
330
1F
100
AcDbEntity
  8
0
100
AcDbBlockBegin
  2
*Model_Space
 70
     0
 10
0.0
 20
0.0
 30
0.0
  3
*Model_Space
  1

  0
ENDBLK
  5
21
330
1F
100
AcDbEntity
  8
0
100
AcDbBlockEnd
  0
BLOCK
  5
1C
330
1B
100
AcDbEntity
 67
     1
  8
0
100
AcDbBlockBegin
  2
*Paper_Space
 70
     0
 10
0.0
 20
0.0
 30
0.0
  3
*Paper_Space
  1

  0
ENDBLK
  5
1D
330
1B
100
AcDbEntity
 67
     1
  8
0
100
AcDbBlockEnd
  0
BLOCK
  5
24
330
23
100
AcDbEntity
  8
0
100
AcDbBlockBegin
  2
*Paper_Space0
 70
     0
 10
0.0
 20
0.0
 30
0.0
  3
*Paper_Space0
  1

  0
ENDBLK
  5
25
330
23
100
AcDbEntity
  8
0
100
AcDbBlockEnd
  0
BLOCK
  5
FC
330
FA
100
AcDbEntity
  8
0
100
AcDbBlockBegin
  2
block 2
 70
     0
 10
0.0
 20
0.0
 30
0.0
  3
block 2
  1

  0
SPLINE
  5
FE
330
FA
100
AcDbEntity
  8
_U+30EC_U+30A4_U+30E4_U+30FC 1
370
     0
100
AcDbSpline
210
0.0
220
0.0
230
1.0
 70
    11
 71
     3
 72
    26
 73
    22
 74
     0
 42
0.0000000001
 43
0.0000000001
 12
1.0
 22
0.0
 32
0.0
 13
1.0
 23
0.0
 33
0.0
 40
0.0
 40
0.0
 40
0.0
 40
0.0
 40
1.0
 40
1.0
 40
1.0
 40
2.0
 40
2.0
 40
2.0
 40
3.0
 40
3.0
 40
3.0
 40
4.0
 40
4.0
 40
4.0
 40
5.0
 40
5.0
 40
5.0
 40
6.0
 40
6.0
 40
6.0
 40
7.0
 40
7.0
 40
7.0
 40
7.0
 10
94.48484426891352
 20
-94.70222979403277
 30
0.0
 10
94.48484426891352
 20
-94.70222979403277
 30
0.0
 10
94.48484426891352
 20
-93.59790443623595
 30
0.0
 10
94.48484426891352
 20
-93.59790443623595
 30
0.0
 10
94.48484426891352
 20
-93.59790443623595
 30
0.0
 10
94.15480412142658
 20
-93.59790443623595
 30
0.0
 10
94.15480412142658
 20
-93.59790443623595
 30
0.0
 10
94.15480412142658
 20
-93.59790443623595
 30
0.0
 10
94.15480412142658
 20
-93.44993758514447
 30
0.0
 10
94.15480412142658
 20
-93.44993758514447
 30
0.0
 10
94.48691132620466
 20
-93.43512367455789
 30
0.0
 10
94.53342011525554
 20
-93.27217065810557
 30
0.0
 10
94.56304793642869
 20
-93.15796574276953
 30
0.0
 10
94.56304793642869
 20
-93.15796574276953
 30
0.0
 10
94.70911998500328
 20
-93.15796574276953
 30
0.0
 10
94.70911998500328
 20
-93.15796574276953
 30
0.0
 10
94.70911998500328
 20
-93.15796574276953
 30
0.0
 10
94.70911998500328
 20
-94.70222979403277
 30
0.0
 10
94.70911998500328
 20
-94.70222979403277
 30
0.0
 10
94.70911998500328
 20
-94.70222979403277
 30
0.0
 10
94.48484426891352
 20
-94.70222979403277
 30
0.0
 10
94.48484426891352
 20
-94.70222979403277
 30
0.0
  0
HATCH
  5
FF
330
FA
100
AcDbEntity
  8
_U+30EC_U+30A4_U+30E4_U+30FC 1
 62
   179
420
  2234388
100
AcDbHatch
 10
0.0
 20
0.0
 30
0.0
210
0.0
220
0.0
230
1.0
  2
SOLID
 70
     1
 71
     0
 91
        1
 92
        1
 93
        1
 72
     4
 94
        3
 73
     0
 74
     1
 95
       26
 96
       22
 40
0.0
 40
0.0
 40
0.0
 40
0.0
 40
1.0
 40
1.0
 40
1.0
 40
2.0
 40
2.0
 40
2.0
 40
3.0
 40
3.0
 40
3.0
 40
4.0
 40
4.0
 40
4.0
 40
5.0
 40
5.0
 40
5.0
 40
6.0
 40
6.0
 40
6.0
 40
7.0
 40
7.0
 40
7.0
 40
7.0
 10
94.48484426891352
 20
-94.70222979403277
 10
94.48484426891352
 20
-94.70222979403277
 10
94.48484426891352
 20
-93.59790443623595
 10
94.48484426891352
 20
-93.59790443623595
 10
94.48484426891352
 20
-93.59790443623595
 10
94.15480412142658
 20
-93.59790443623595
 10
94.15480412142658
 20
-93.59790443623595
 10
94.15480412142658
 20
-93.59790443623595
 10
94.15480412142658
 20
-93.44993758514447
 10
94.15480412142658
 20
-93.44993758514447
 10
94.48691132620466
 20
-93.43512367455789
 10
94.53342011525554
 20
-93.27217065810557
 10
94.56304793642869
 20
-93.15796574276953
 10
94.56304793642869
 20
-93.15796574276953
 10
94.70911998500328
 20
-93.15796574276953
 10
94.70911998500328
 20
-93.15796574276953
 10
94.70911998500328
 20
-93.15796574276953
 10
94.70911998500328
 20
-94.70222979403277
 10
94.70911998500328
 20
-94.70222979403277
 10
94.70911998500328
 20
-94.70222979403277
 10
94.48484426891352
 20
-94.70222979403277
 10
94.48484426891352
 20
-94.70222979403277
 97
        0
 97
        0
 75
     2
 76
     1
 98
        0
  0
POLYLINE
  5
100
330
FA
100
AcDbEntity
  8
_U+30EC_U+30A4_U+30E4_U+30FC 1
370
     0
100
AcDb2dPolyline
 66
     1
 10
0.0
 20
0.0
 30
0.0
  0
VERTEX
  5
101
330
100
100
AcDbEntity
  8
_U+30EC_U+30A4_U+30E4_U+30FC 1
370
     0
100
AcDbVertex
100
AcDb2dVertex
 10
95.27032603955048
 20
-94.70222979403277
 30
0.0
  0
VERTEX
  5
102
330
100
100
AcDbEntity
  8
_U+30EC_U+30A4_U+30E4_U+30FC 1
370
     0
100
AcDbVertex
100
AcDb2dVertex
 10
95.27032603955048
 20
-94.45056556883527
 30
0.0
  0
VERTEX
  5
103
330
100
100
AcDbEntity
  8
_U+30EC_U+30A4_U+30E4_U+30FC 1
370
     0
100
AcDbVertex
100
AcDb2dVertex
 10
95.52216251952224
 20
-94.45056556883527
 30
0.0
  0
VERTEX
  5
104
330
100
100
AcDbEntity
  8
_U+30EC_U+30A4_U+30E4_U+30FC 1
370
     0
100
AcDbVertex
100
AcDb2dVertex
 10
95.52216251952224
 20
-94.70222979403277
 30
0.0
  0
VERTEX
  5
105
330
100
100
AcDbEntity
  8
_U+30EC_U+30A4_U+30E4_U+30FC 1
370
     0
100
AcDbVertex
100
AcDb2dVertex
 10
95.27032603955048
 20
-94.70222979403277
 30
0.0
  0
SEQEND
  5
106
330
100
100
AcDbEntity
  8
_U+30EC_U+30A4_U+30E4_U+30FC 1
370
     0
  0
HATCH
  5
107
330
FA
100
AcDbEntity
  8
_U+30EC_U+30A4_U+30E4_U+30FC 1
 62
   179
420
  2234388
100
AcDbHatch
 10
0.0
 20
0.0
 30
0.0
210
0.0
220
0.0
230
1.0
  2
SOLID
 70
     1
 71
     0
 91
        1
 92
        1
 93
        4
 72
     1
 10
95.27032603955048
 20
-94.70222979403277
 11
95.27032603955048
 21
-94.45056556883527
 72
     1
 10
95.27032603955048
 20
-94.45056556883527
 11
95.52216251952224
 21
-94.45056556883527
 72
     1
 10
95.52216251952224
 20
-94.45056556883527
 11
95.52216251952224
 21
-94.70222979403277
 72
     1
 10
95.52216251952224
 20
-94.70222979403277
 11
95.27032603955048
 21
-94.70222979403277
 97
        0
 75
     2
 76
     1
 98
        0
  0
SPLINE
  5
108
330
FA
100
AcDbEntity
  8
_U+30EC_U+30A4_U+30E4_U+30FC 1
370
     0
100
AcDbSpline
210
0.0
220
0.0
230
1.0
 70
    11
 71
     3
 72
    26
 73
    22
 74
     0
 42
0.0000000001
 43
0.0000000001
 12
1.0
 22
0.0
 32
0.0
 13
1.0
 23
0.0
 33
0.0
 40
0.0
 40
0.0
 40
0.0
 40
0.0
 40
1.0
 40
1.0
 40
1.0
 40
2.0
 40
2.0
 40
2.0
 40
3.0
 40
3.0
 40
3.0
 40
4.0
 40
4.0
 40
4.0
 40
5.0
 40
5.0
 40
5.0
 40
6.0
 40
6.0
 40
6.0
 40
7.0
 40
7.0
 40
7.0
 40
7.0
 10
96.20980357837811
 20
-94.70222979403277
 30
0.0
 10
96.20980357837811
 20
-94.70222979403277
 30
0.0
 10
96.20980357837811
 20
-93.59790443623595
 30
0.0
 10
96.20980357837811
 20
-93.59790443623595
 30
0.0
 10
96.20980357837811
 20
-93.59790443623595
 30
0.0
 10
95.87976343089117
 20
-93.59790443623595
 30
0.0
 10
95.87976343089117
 20
-93.59790443623595
 30
0.0
 10
95.87976343089117
 20
-93.59790443623595
 30
0.0
 10
95.87976343089117
 20
-93.44993758514447
 30
0.0
 10
95.87976343089117
 20
-93.44993758514447
 30
0.0
 10
96.21187063566926
 20
-93.43512367455789
 30
0.0
 10
96.25837942472013
 20
-93.27217065810557
 30
0.0
 10
96.28800724589328
 20
-93.15796574276953
 30
0.0
 10
96.28800724589328
 20
-93.15796574276953
 30
0.0
 10
96.43407929446788
 20
-93.15796574276953
 30
0.0
 10
96.43407929446788
 20
-93.15796574276953
 30
0.0
 10
96.43407929446788
 20
-93.15796574276953
 30
0.0
 10
96.43407929446788
 20
-94.70222979403277
 30
0.0
 10
96.43407929446788
 20
-94.70222979403277
 30
0.0
 10
96.43407929446788
 20
-94.70222979403277
 30
0.0
 10
96.20980357837811
 20
-94.70222979403277
 30
0.0
 10
96.20980357837811
 20
-94.70222979403277
 30
0.0
  0
HATCH
  5
109
330
FA
100
AcDbEntity
  8
_U+30EC_U+30A4_U+30E4_U+30FC 1
 62
   179
420
  2234388
100
AcDbHatch
 10
0.0
 20
0.0
 30
0.0
210
0.0
220
0.0
230
1.0
  2
SOLID
 70
     1
 71
     0
 91
        1
 92
        1
 93
        1
 72
     4
 94
        3
 73
     0
 74
     1
 95
       26
 96
       22
 40
0.0
 40
0.0
 40
0.0
 40
0.0
 40
1.0
 40
1.0
 40
1.0
 40
2.0
 40
2.0
 40
2.0
 40
3.0
 40
3.0
 40
3.0
 40
4.0
 40
4.0
 40
4.0
 40
5.0
 40
5.0
 40
5.0
 40
6.0
 40
6.0
 40
6.0
 40
7.0
 40
7.0
 40
7.0
 40
7.0
 10
96.20980357837811
 20
-94.70222979403277
 10
96.20980357837811
 20
-94.70222979403277
 10
96.20980357837811
 20
-93.59790443623595
 10
96.20980357837811
 20
-93.59790443623595
 10
96.20980357837811
 20
-93.59790443623595
 10
95.87976343089117
 20
-93.59790443623595
 10
95.87976343089117
 20
-93.59790443623595
 10
95.87976343089117
 20
-93.59790443623595
 10
95.87976343089117
 20
-93.44993758514447
 10
95.87976343089117
 20
-93.44993758514447
 10
96.21187063566926
 20
-93.43512367455789
 10
96.25837942472013
 20
-93.27217065810557
 10
96.28800724589328
 20
-93.15796574276953
 10
96.28800724589328
 20
-93.15796574276953
 10
96.43407929446788
 20
-93.15796574276953
 10
96.43407929446788
 20
-93.15796574276953
 10
96.43407929446788
 20
-93.15796574276953
 10
96.43407929446788
 20
-94.70222979403277
 10
96.43407929446788
 20
-94.70222979403277
 10
96.43407929446788
 20
-94.70222979403277
 10
96.20980357837811
 20
-94.70222979403277
 10
96.20980357837811
 20
-94.70222979403277
 97
        0
 97
        0
 75
     2
 76
     1
 98
        0
  0
ENDBLK
  5
FD
330
FA
100
AcDbEntity
  8
0
100
AcDbBlockEnd
  0
BLOCK
  5
10C
330
10A
100
AcDbEntity
  8
0
100
AcDbBlockBegin
  2
block 3
 70
     0
 10
0.0
 20
0.0
 30
0.0
  3
block 3
  1

  0
SPLINE
  5
10E
330
10A
100
AcDbEntity
  8
_U+30EC_U+30A4_U+30E4_U+30FC 1
370
     0
100
AcDbSpline
210
0.0
220
0.0
230
1.0
 70
    11
 71
     3
 72
    62
 73
    58
 74
     0
 42
0.0000000001
 43
0.0000000001
 12
1.0
 22
0.0
 32
0.0
 13
1.0
 23
0.0
 33
0.0
 40
0.0
 40
0.0
 40
0.0
 40
0.0
 40
1.0
 40
1.0
 40
1.0
 40
2.0
 40
2.0
 40
2.0
 40
3.0
 40
3.0
 40
3.0
 40
4.0
 40
4.0
 40
4.0
 40
5.0
 40
5.0
 40
5.0
 40
6.0
 40
6.0
 40
6.0
 40
7.0
 40
7.0
 40
7.0
 40
8.0
 40
8.0
 40
8.0
 40
9.0
 40
9.0
 40
9.0
 40
10.0
 40
10.0
 40
10.0
 40
11.0
 40
11.0
 40
11.0
 40
12.0
 40
12.0
 40
12.0
 40
13.0
 40
13.0
 40
13.0
 40
14.0
 40
14.0
 40
14.0
 40
15.0
 40
15.0
 40
15.0
 40
16.0
 40
16.0
 40
16.0
 40
17.0
 40
17.0
 40
17.0
 40
18.0
 40
18.0
 40
18.0
 40
19.0
 40
19.0
 40
19.0
 40
19.0
 10
86.21506481134554
 20
-140.899582213039
 30
0.0
 10
86.11963566640412
 20
-140.899582213039
 30
0.0
 10
85.90190563173633
 20
-140.878567130579
 30
0.0
 10
85.77684866562177
 20
-140.692187464827
 30
0.0
 10
85.70312362223741
 20
-140.5802218615563
 30
0.0
 10
85.69864499810659
 20
-140.4806586020326
 30
0.0
 10
85.69451088352429
 20
-140.396253762644
 30
0.0
 10
85.69451088352429
 20
-140.396253762644
 30
0.0
 10
85.91465248503175
 20
-140.396253762644
 30
0.0
 10
85.91465248503175
 20
-140.396253762644
 30
0.0
 10
85.91671954232291
 20
-140.4703233155769
 30
0.0
 10
85.92705482877865
 20
-140.7052788276709
 30
0.0
 10
86.21058618721472
 20
-140.7052788276709
 30
0.0
 10
86.34804549707619
 20
-140.7052788276709
 30
0.0
 10
86.50066322707275
 20
-140.6353433893203
 30
0.0
 10
86.50066322707275
 20
-140.4069335586483
 30
0.0
 10
86.50066322707275
 20
-140.2904893312468
 30
0.0
 10
86.46242266718649
 20
-140.2415689753563
 30
0.0
 10
86.43072778872218
 20
-140.209874096892
 30
0.0
 10
86.35665823578931
 20
-140.1361490535076
 30
0.0
 10
86.24021400838787
 20
-140.1234022002122
 30
0.0
 10
86.18543699017239
 20
-140.1234022002122
 30
0.0
 10
86.166144455455
 20
-140.1234022002122
 30
0.0
 10
86.13031546240839
 20
-140.1254692575034
 30
0.0
 10
86.1027546985264
 20
-140.1296033720857
 30
0.0
 10
86.1027546985264
 20
-140.1296033720857
 30
0.0
 10
86.1027546985264
 20
-139.934955477169
 30
0.0
 10
86.1027546985264
 20
-139.934955477169
 30
0.0
 10
86.14099525841267
 20
-139.9411566490425
 30
0.0
 10
86.18302542333272
 20
-139.9435682158822
 30
0.0
 10
86.18957110475469
 20
-139.9435682158822
 30
0.0
 10
86.25502791897443
 20
-139.9435682158822
 30
0.0
 10
86.45380992847336
 20
-139.9225531334222
 30
0.0
 10
86.45380992847336
 20
-139.685530564037
 30
0.0
 10
86.45380992847336
 20
-139.5077636369981
 30
0.0
 10
86.32289630003386
 20
-139.4526421092341
 30
0.0
 10
86.21265324450587
 20
-139.4526421092341
 30
0.0
 10
85.9484144207872
 20
-139.4526421092341
 30
0.0
 10
85.93980168207408
 20
-139.685530564037
 30
0.0
 10
85.93566756749178
 20
-139.7571885501302
 30
0.0
 10
85.93566756749178
 20
-139.7571885501302
 30
0.0
 10
85.73240693386204
 20
-139.7571885501302
 30
0.0
 10
85.73240693386204
 20
-139.7571885501302
 30
0.0
 10
85.74101967257516
 20
-139.6324760935641
 30
0.0
 10
85.76858043645717
 20
-139.2559271570263
 30
0.0
 10
86.2254000978013
 20
-139.2559271570263
 30
0.0
 10
86.44967581389106
 20
-139.2559271570263
 30
0.0
 10
86.69083249785855
 20
-139.383051180432
 30
0.0
 10
86.69083249785855
 20
-139.678984882615
 30
0.0
 10
86.69083249785855
 20
-139.865364548367
 30
0.0
 10
86.59574786246566
 20
-139.9477023304645
 30
0.0
 10
86.49618460294192
 20
-140.0090250301019
 30
0.0
 10
86.55750730257938
 20
-140.0365857939839
 30
0.0
 10
86.73940834420057
 20
-140.1168565187902
 30
0.0
 10
86.73940834420057
 20
-140.3941867053528
 30
0.0
 10
86.73940834420057
 20
-140.7328395915529
 30
0.0
 10
86.49205048835962
 20
-140.899582213039
 30
0.0
 10
86.21506481134554
 20
-140.899582213039
 30
0.0
  0
HATCH
  5
10F
330
10A
100
AcDbEntity
  8
_U+30EC_U+30A4_U+30E4_U+30FC 1
 62
   179
420
  2234388
100
AcDbHatch
 10
0.0
 20
0.0
 30
0.0
210
0.0
220
0.0
230
1.0
  2
SOLID
 70
     1
 71
     0
 91
        1
 92
        1
 93
        1
 72
     4
 94
        3
 73
     0
 74
     1
 95
       62
 96
       58
 40
0.0
 40
0.0
 40
0.0
 40
0.0
 40
1.0
 40
1.0
 40
1.0
 40
2.0
 40
2.0
 40
2.0
 40
3.0
 40
3.0
 40
3.0
 40
4.0
 40
4.0
 40
4.0
 40
5.0
 40
5.0
 40
5.0
 40
6.0
 40
6.0
 40
6.0
 40
7.0
 40
7.0
 40
7.0
 40
8.0
 40
8.0
 40
8.0
 40
9.0
 40
9.0
 40
9.0
 40
10.0
 40
10.0
 40
10.0
 40
11.0
 40
11.0
 40
11.0
 40
12.0
 40
12.0
 40
12.0
 40
13.0
 40
13.0
 40
13.0
 40
14.0
 40
14.0
 40
14.0
 40
15.0
 40
15.0
 40
15.0
 40
16.0
 40
16.0
 40
16.0
 40
17.0
 40
17.0
 40
17.0
 40
18.0
 40
18.0
 40
18.0
 40
19.0
 40
19.0
 40
19.0
 40
19.0
 10
86.21506481134554
 20
-140.899582213039
 10
86.11963566640412
 20
-140.899582213039
 10
85.90190563173633
 20
-140.878567130579
 10
85.77684866562177
 20
-140.692187464827
 10
85.70312362223741
 20
-140.5802218615563
 10
85.69864499810659
 20
-140.4806586020326
 10
85.69451088352429
 20
-140.396253762644
 10
85.69451088352429
 20
-140.396253762644
 10
85.91465248503175
 20
-140.396253762644
 10
85.91465248503175
 20
-140.396253762644
 10
85.91671954232291
 20
-140.4703233155769
 10
85.92705482877865
 20
-140.7052788276709
 10
86.21058618721472
 20
-140.7052788276709
 10
86.34804549707619
 20
-140.7052788276709
 10
86.50066322707275
 20
-140.6353433893203
 10
86.50066322707275
 20
-140.4069335586483
 10
86.50066322707275
 20
-140.2904893312468
 10
86.46242266718649
 20
-140.2415689753563
 10
86.43072778872218
 20
-140.209874096892
 10
86.35665823578931
 20
-140.1361490535076
 10
86.24021400838787
 20
-140.1234022002122
 10
86.18543699017239
 20
-140.1234022002122
 10
86.166144455455
 20
-140.1234022002122
 10
86.13031546240839
 20
-140.1254692575034
 10
86.1027546985264
 20
-140.1296033720857
 10
86.1027546985264
 20
-140.1296033720857
 10
86.1027546985264
 20
-139.934955477169
 10
86.1027546985264
 20
-139.934955477169
 10
86.14099525841267
 20
-139.9411566490425
 10
86.18302542333272
 20
-139.9435682158822
 10
86.18957110475469
 20
-139.9435682158822
 10
86.25502791897443
 20
-139.9435682158822
 10
86.45380992847336
 20
-139.9225531334222
 10
86.45380992847336
 20
-139.685530564037
 10
86.45380992847336
 20
-139.5077636369981
 10
86.32289630003386
 20
-139.4526421092341
 10
86.21265324450587
 20
-139.4526421092341
 10
85.9484144207872
 20
-139.4526421092341
 10
85.93980168207408
 20
-139.685530564037
 10
85.93566756749178
 20
-139.7571885501302
 10
85.93566756749178
 20
-139.7571885501302
 10
85.73240693386204
 20
-139.7571885501302
 10
85.73240693386204
 20
-139.7571885501302
 10
85.74101967257516
 20
-139.6324760935641
 10
85.76858043645717
 20
-139.2559271570263
 10
86.2254000978013
 20
-139.2559271570263
 10
86.44967581389106
 20
-139.2559271570263
 10
86.69083249785855
 20
-139.383051180432
 10
86.69083249785855
 20
-139.678984882615
 10
86.69083249785855
 20
-139.865364548367
 10
86.59574786246566
 20
-139.9477023304645
 10
86.49618460294192
 20
-140.0090250301019
 10
86.55750730257938
 20
-140.0365857939839
 10
86.73940834420057
 20
-140.1168565187902
 10
86.73940834420057
 20
-140.3941867053528
 10
86.73940834420057
 20
-140.7328395915529
 10
86.49205048835962
 20
-140.899582213039
 10
86.21506481134554
 20
-140.899582213039
 97
        0
 97
        0
 75
     2
 76
     1
 98
        0
  0
ENDBLK
  5
10D
330
10A
100
AcDbEntity
  8
0
100
AcDbBlockEnd
  0
BLOCK
  5
112
330
110
100
AcDbEntity
  8
0
100
AcDbBlockBegin
  2
block 4
 70
     0
 10
0.0
 20
0.0
 30
0.0
  3
block 4
  1

  0
SPLINE
  5
114
330
110
100
AcDbEntity
  8
_U+30EC_U+30A4_U+30E4_U+30FC 1
370
     0
100
AcDbSpline
210
0.0
220
0.0
230
1.0
 70
    11
 71
     3
 72
    26
 73
    22
 74
     0
 42
0.0000000001
 43
0.0000000001
 12
1.0
 22
0.0
 32
0.0
 13
1.0
 23
0.0
 33
0.0
 40
0.0
 40
0.0
 40
0.0
 40
0.0
 40
1.0
 40
1.0
 40
1.0
 40
2.0
 40
2.0
 40
2.0
 40
3.0
 40
3.0
 40
3.0
 40
4.0
 40
4.0
 40
4.0
 40
5.0
 40
5.0
 40
5.0
 40
6.0
 40
6.0
 40
6.0
 40
7.0
 40
7.0
 40
7.0
 40
7.0
 10
91.08487953452045
 20
-140.8485947998573
 30
0.0
 10
91.08487953452045
 20
-140.8485947998573
 30
0.0
 10
90.84785696513526
 20
-140.8485947998573
 30
0.0
 10
90.84785696513526
 20
-140.8485947998573
 30
0.0
 10
90.87335067172612
 20
-140.5399142443789
 30
0.0
 10
91.06593150935157
 20
-140.0214273738488
 30
0.0
 10
91.47210826706254
 20
-139.5160318661627
 30
0.0
 10
91.47210826706254
 20
-139.5160318661627
 30
0.0
 10
90.63426104504977
 20
-139.5160318661627
 30
0.0
 10
90.63426104504977
 20
-139.5160318661627
 30
0.0
 10
90.63426104504977
 20
-139.5160318661627
 30
0.0
 10
90.63426104504977
 20
-139.3045030033683
 30
0.0
 10
90.63426104504977
 20
-139.3045030033683
 30
0.0
 10
90.63426104504977
 20
-139.3045030033683
 30
0.0
 10
91.70913083644773
 20
-139.3045030033683
 30
0.0
 10
91.70913083644773
 20
-139.3045030033683
 30
0.0
 10
91.70913083644773
 20
-139.3045030033683
 30
0.0
 10
91.70913083644773
 20
-139.5160318661627
 30
0.0
 10
91.70913083644773
 20
-139.5160318661627
 30
0.0
 10
91.38529186083424
 20
-139.8054198869237
 30
0.0
 10
91.1186414702759
 20
-140.3979763103866
 30
0.0
 10
91.08487953452045
 20
-140.8485947998573
 30
0.0
  0
HATCH
  5
115
330
110
100
AcDbEntity
  8
_U+30EC_U+30A4_U+30E4_U+30FC 1
 62
   179
420
  2234388
100
AcDbHatch
 10
0.0
 20
0.0
 30
0.0
210
0.0
220
0.0
230
1.0
  2
SOLID
 70
     1
 71
     0
 91
        1
 92
        1
 93
        1
 72
     4
 94
        3
 73
     0
 74
     1
 95
       26
 96
       22
 40
0.0
 40
0.0
 40
0.0
 40
0.0
 40
1.0
 40
1.0
 40
1.0
 40
2.0
 40
2.0
 40
2.0
 40
3.0
 40
3.0
 40
3.0
 40
4.0
 40
4.0
 40
4.0
 40
5.0
 40
5.0
 40
5.0
 40
6.0
 40
6.0
 40
6.0
 40
7.0
 40
7.0
 40
7.0
 40
7.0
 10
91.08487953452045
 20
-140.8485947998573
 10
91.08487953452045
 20
-140.8485947998573
 10
90.84785696513526
 20
-140.8485947998573
 10
90.84785696513526
 20
-140.8485947998573
 10
90.87335067172612
 20
-140.5399142443789
 10
91.06593150935157
 20
-140.0214273738488
 10
91.47210826706254
 20
-139.5160318661627
 10
91.47210826706254
 20
-139.5160318661627
 10
90.63426104504977
 20
-139.5160318661627
 10
90.63426104504977
 20
-139.5160318661627
 10
90.63426104504977
 20
-139.5160318661627
 10
90.63426104504977
 20
-139.3045030033683
 10
90.63426104504977
 20
-139.3045030033683
 10
90.63426104504977
 20
-139.3045030033683
 10
91.70913083644773
 20
-139.3045030033683
 10
91.70913083644773
 20
-139.3045030033683
 10
91.70913083644773
 20
-139.3045030033683
 10
91.70913083644773
 20
-139.5160318661627
 10
91.70913083644773
 20
-139.5160318661627
 10
91.38529186083424
 20
-139.8054198869237
 10
91.1186414702759
 20
-140.3979763103866
 10
91.08487953452045
 20
-140.8485947998573
 97
        0
 97
        0
 75
     2
 76
     1
 98
        0
  0
ENDBLK
  5
113
330
110
100
AcDbEntity
  8
0
100
AcDbBlockEnd
  0
BLOCK
  5
118
330
116
100
AcDbEntity
  8
0
100
AcDbBlockBegin
  2
block 5
 70
     0
 10
0.0
 20
0.0
 30
0.0
  3
block 5
  1

  0
SPLINE
  5
11A
330
116
100
AcDbEntity
  8
_U+30EC_U+30A4_U+30E4_U+30FC 1
370
     0
100
AcDbSpline
210
0.0
220
0.0
230
1.0
 70
    11
 71
     3
 72
    26
 73
    22
 74
     0
 42
0.0000000001
 43
0.0000000001
 12
1.0
 22
0.0
 32
0.0
 13
1.0
 23
0.0
 33
0.0
 40
0.0
 40
0.0
 40
0.0
 40
0.0
 40
1.0
 40
1.0
 40
1.0
 40
2.0
 40
2.0
 40
2.0
 40
3.0
 40
3.0
 40
3.0
 40
4.0
 40
4.0
 40
4.0
 40
5.0
 40
5.0
 40
5.0
 40
6.0
 40
6.0
 40
6.0
 40
7.0
 40
7.0
 40
7.0
 40
7.0
 10
91.58682994672135
 20
-163.8483967689338
 30
0.0
 10
91.58682994672135
 20
-163.8483967689338
 30
0.0
 10
91.58682994672135
 20
-162.7442436659112
 30
0.0
 10
91.58682994672135
 20
-162.7442436659112
 30
0.0
 10
91.58682994672135
 20
-162.7442436659112
 30
0.0
 10
91.25678979923441
 20
-162.7442436659112
 30
0.0
 10
91.25678979923441
 20
-162.7442436659112
 30
0.0
 10
91.25678979923441
 20
-162.7442436659112
 30
0.0
 10
91.25678979923441
 20
-162.5961045600454
 30
0.0
 10
91.25678979923441
 20
-162.5961045600454
 30
0.0
 10
91.58889700401251
 20
-162.5812906494589
 30
0.0
 10
91.63540579306337
 20
-162.4183376330065
 30
0.0
 10
91.66503361423652
 20
-162.3039604628962
 30
0.0
 10
91.66503361423652
 20
-162.3039604628962
 30
0.0
 10
91.81110566281112
 20
-162.3039604628962
 30
0.0
 10
91.81110566281112
 20
-162.3039604628962
 30
0.0
 10
91.81110566281112
 20
-162.3039604628962
 30
0.0
 10
91.81110566281112
 20
-163.8483967689338
 30
0.0
 10
91.81110566281112
 20
-163.8483967689338
 30
0.0
 10
91.81110566281112
 20
-163.8483967689338
 30
0.0
 10
91.58682994672135
 20
-163.8483967689338
 30
0.0
 10
91.58682994672135
 20
-163.8483967689338
 30
0.0
  0
HATCH
  5
11B
330
116
100
AcDbEntity
  8
_U+30EC_U+30A4_U+30E4_U+30FC 1
 62
   179
420
  2234388
100
AcDbHatch
 10
0.0
 20
0.0
 30
0.0
210
0.0
220
0.0
230
1.0
  2
SOLID
 70
     1
 71
     0
 91
        1
 92
        1
 93
        1
 72
     4
 94
        3
 73
     0
 74
     1
 95
       26
 96
       22
 40
0.0
 40
0.0
 40
0.0
 40
0.0
 40
1.0
 40
1.0
 40
1.0
 40
2.0
 40
2.0
 40
2.0
 40
3.0
 40
3.0
 40
3.0
 40
4.0
 40
4.0
 40
4.0
 40
5.0
 40
5.0
 40
5.0
 40
6.0
 40
6.0
 40
6.0
 40
7.0
 40
7.0
 40
7.0
 40
7.0
 10
91.58682994672135
 20
-163.8483967689338
 10
91.58682994672135
 20
-163.8483967689338
 10
91.58682994672135
 20
-162.7442436659112
 10
91.58682994672135
 20
-162.7442436659112
 10
91.58682994672135
 20
-162.7442436659112
 10
91.25678979923441
 20
-162.7442436659112
 10
91.25678979923441
 20
-162.7442436659112
 10
91.25678979923441
 20
-162.7442436659112
 10
91.25678979923441
 20
-162.5961045600454
 10
91.25678979923441
 20
-162.5961045600454
 10
91.58889700401251
 20
-162.5812906494589
 10
91.63540579306337
 20
-162.4183376330065
 10
91.66503361423652
 20
-162.3039604628962
 10
91.66503361423652
 20
-162.3039604628962
 10
91.81110566281112
 20
-162.3039604628962
 10
91.81110566281112
 20
-162.3039604628962
 10
91.81110566281112
 20
-162.3039604628962
 10
91.81110566281112
 20
-163.8483967689338
 10
91.81110566281112
 20
-163.8483967689338
 10
91.81110566281112
 20
-163.8483967689338
 10
91.58682994672135
 20
-163.8483967689338
 10
91.58682994672135
 20
-163.8483967689338
 97
        0
 97
        0
 75
     2
 76
     1
 98
        0
  0
SPLINE
  5
11C
330
116
100
AcDbEntity
  8
_U+30EC_U+30A4_U+30E4_U+30FC 1
370
     0
100
AcDbSpline
210
0.0
220
0.0
230
1.0
 70
    11
 71
     3
 72
    53
 73
    49
 74
     0
 42
0.0000000001
 43
0.0000000001
 12
1.0
 22
0.0
 32
0.0
 13
1.0
 23
0.0
 33
0.0
 40
0.0
 40
0.0
 40
0.0
 40
0.0
 40
1.0
 40
1.0
 40
1.0
 40
2.0
 40
2.0
 40
2.0
 40
3.0
 40
3.0
 40
3.0
 40
4.0
 40
4.0
 40
4.0
 40
5.0
 40
5.0
 40
5.0
 40
6.0
 40
6.0
 40
6.0
 40
7.0
 40
7.0
 40
7.0
 40
8.0
 40
8.0
 40
8.0
 40
9.0
 40
9.0
 40
9.0
 40
10.0
 40
10.0
 40
10.0
 40
11.0
 40
11.0
 40
11.0
 40
12.0
 40
12.0
 40
12.0
 40
13.0
 40
13.0
 40
13.0
 40
14.0
 40
14.0
 40
14.0
 40
15.0
 40
15.0
 40
15.0
 40
16.0
 40
16.0
 40
16.0
 40
16.0
 10
92.79330238565585
 20
-163.8990396725669
 30
0.0
 10
92.71509871814068
 20
-163.8990396725669
 30
0.0
 10
92.6134684013258
 20
-163.8821587046892
 30
0.0
 10
92.51183808451093
 20
-163.8187689477606
 30
0.0
 10
92.33854978160286
 20
-163.7088704017811
 30
0.0
 10
92.31719018959431
 20
-163.5776122637931
 30
0.0
 10
92.29824216442545
 20
-163.4697807751048
 30
0.0
 10
92.29824216442545
 20
-163.4697807751048
 30
0.0
 10
92.52045082322405
 20
-163.4697807751048
 30
0.0
 10
92.52045082322405
 20
-163.4697807751048
 30
0.0
 10
92.57522784143953
 20
-163.6685627846037
 30
0.0
 10
92.70235186484526
 20
-163.6981906057769
 30
0.0
 10
92.79536944294699
 20
-163.6981906057769
 30
0.0
 10
92.93489581009962
 20
-163.6981906057769
 30
0.0
 10
93.08716903054766
 20
-163.5986273462531
 30
0.0
 10
93.08716903054766
 20
-163.3660834009988
 30
0.0
 10
93.08716903054766
 20
-163.1101128064447
 30
0.0
 10
92.90733504621761
 20
-163.0401773680941
 30
0.0
 10
92.78675670423387
 20
-163.0401773680941
 30
0.0
 10
92.75506182576957
 20
-163.0401773680941
 30
0.0
 10
92.6134684013258
 20
-163.0401773680941
 30
0.0
 10
92.52458493780635
 20
-163.169368448791
 30
0.0
 10
92.52458493780635
 20
-163.169368448791
 30
0.0
 10
92.34888506805862
 20
-163.1504204236221
 30
0.0
 10
92.34888506805862
 20
-163.1504204236221
 30
0.0
 10
92.34888506805862
 20
-163.1504204236221
 30
0.0
 10
92.46946341004237
 20
-162.3039604628962
 30
0.0
 10
92.46946341004237
 20
-162.3039604628962
 30
0.0
 10
92.46946341004237
 20
-162.3039604628962
 30
0.0
 10
93.24805498970882
 20
-162.3039604628962
 30
0.0
 10
93.24805498970882
 20
-162.3039604628962
 30
0.0
 10
93.24805498970882
 20
-162.3039604628962
 30
0.0
 10
93.24805498970882
 20
-162.4986083578129
 30
0.0
 10
93.24805498970882
 20
-162.4986083578129
 30
0.0
 10
93.24805498970882
 20
-162.4986083578129
 30
0.0
 10
92.63241642649467
 20
-162.4986083578129
 30
0.0
 10
92.63241642649467
 20
-162.4986083578129
 30
0.0
 10
92.63241642649467
 20
-162.4986083578129
 30
0.0
 10
92.56695961227493
 20
-162.9216660834015
 30
0.0
 10
92.56695961227493
 20
-162.9216660834015
 30
0.0
 10
92.62828231191237
 20
-162.8879041476461
 30
0.0
 10
92.71062009400985
 20
-162.8475965304686
 30
0.0
 10
92.82913137870244
 20
-162.8475965304686
 30
0.0
 10
93.08303491596536
 20
-162.8475965304686
 30
0.0
 10
93.32005748535055
 20
-163.0339761962207
 30
0.0
 10
93.32005748535055
 20
-163.3471353758299
 30
0.0
 10
93.32005748535055
 20
-163.6644286700214
 30
0.0
 10
93.09578176926078
 20
-163.8990396725669
 30
0.0
 10
92.79330238565585
 20
-163.8990396725669
 30
0.0
  0
HATCH
  5
11D
330
116
100
AcDbEntity
  8
_U+30EC_U+30A4_U+30E4_U+30FC 1
 62
   179
420
  2234388
100
AcDbHatch
 10
0.0
 20
0.0
 30
0.0
210
0.0
220
0.0
230
1.0
  2
SOLID
 70
     1
 71
     0
 91
        1
 92
        1
 93
        1
 72
     4
 94
        3
 73
     0
 74
     1
 95
       53
 96
       49
 40
0.0
 40
0.0
 40
0.0
 40
0.0
 40
1.0
 40
1.0
 40
1.0
 40
2.0
 40
2.0
 40
2.0
 40
3.0
 40
3.0
 40
3.0
 40
4.0
 40
4.0
 40
4.0
 40
5.0
 40
5.0
 40
5.0
 40
6.0
 40
6.0
 40
6.0
 40
7.0
 40
7.0
 40
7.0
 40
8.0
 40
8.0
 40
8.0
 40
9.0
 40
9.0
 40
9.0
 40
10.0
 40
10.0
 40
10.0
 40
11.0
 40
11.0
 40
11.0
 40
12.0
 40
12.0
 40
12.0
 40
13.0
 40
13.0
 40
13.0
 40
14.0
 40
14.0
 40
14.0
 40
15.0
 40
15.0
 40
15.0
 40
16.0
 40
16.0
 40
16.0
 40
16.0
 10
92.79330238565585
 20
-163.8990396725669
 10
92.71509871814068
 20
-163.8990396725669
 10
92.6134684013258
 20
-163.8821587046892
 10
92.51183808451093
 20
-163.8187689477606
 10
92.33854978160286
 20
-163.7088704017811
 10
92.31719018959431
 20
-163.5776122637931
 10
92.29824216442545
 20
-163.4697807751048
 10
92.29824216442545
 20
-163.4697807751048
 10
92.52045082322405
 20
-163.4697807751048
 10
92.52045082322405
 20
-163.4697807751048
 10
92.57522784143953
 20
-163.6685627846037
 10
92.70235186484526
 20
-163.6981906057769
 10
92.79536944294699
 20
-163.6981906057769
 10
92.93489581009962
 20
-163.6981906057769
 10
93.08716903054766
 20
-163.5986273462531
 10
93.08716903054766
 20
-163.3660834009988
 10
93.08716903054766
 20
-163.1101128064447
 10
92.90733504621761
 20
-163.0401773680941
 10
92.78675670423387
 20
-163.0401773680941
 10
92.75506182576957
 20
-163.0401773680941
 10
92.6134684013258
 20
-163.0401773680941
 10
92.52458493780635
 20
-163.169368448791
 10
92.52458493780635
 20
-163.169368448791
 10
92.34888506805862
 20
-163.1504204236221
 10
92.34888506805862
 20
-163.1504204236221
 10
92.34888506805862
 20
-163.1504204236221
 10
92.46946341004237
 20
-162.3039604628962
 10
92.46946341004237
 20
-162.3039604628962
 10
92.46946341004237
 20
-162.3039604628962
 10
93.24805498970882
 20
-162.3039604628962
 10
93.24805498970882
 20
-162.3039604628962
 10
93.24805498970882
 20
-162.3039604628962
 10
93.24805498970882
 20
-162.4986083578129
 10
93.24805498970882
 20
-162.4986083578129
 10
93.24805498970882
 20
-162.4986083578129
 10
92.63241642649467
 20
-162.4986083578129
 10
92.63241642649467
 20
-162.4986083578129
 10
92.63241642649467
 20
-162.4986083578129
 10
92.56695961227493
 20
-162.9216660834015
 10
92.56695961227493
 20
-162.9216660834015
 10
92.62828231191237
 20
-162.8879041476461
 10
92.71062009400985
 20
-162.8475965304686
 10
92.82913137870244
 20
-162.8475965304686
 10
93.08303491596536
 20
-162.8475965304686
 10
93.32005748535055
 20
-163.0339761962207
 10
93.32005748535055
 20
-163.3471353758299
 10
93.32005748535055
 20
-163.6644286700214
 10
93.09578176926078
 20
-163.8990396725669
 10
92.79330238565585
 20
-163.8990396725669
 97
        0
 97
        0
 75
     2
 76
     1
 98
        0
  0
ENDBLK
  5
119
330
116
100
AcDbEntity
  8
0
100
AcDbBlockEnd
  0
BLOCK
  5
120
330
11E
100
AcDbEntity
  8
0
100
AcDbBlockBegin
  2
block 6
 70
     0
 10
0.0
 20
0.0
 30
0.0
  3
block 6
  1

  0
SPLINE
  5
122
330
11E
100
AcDbEntity
  8
_U+30EC_U+30A4_U+30E4_U+30FC 1
370
     0
100
AcDbSpline
210
0.0
220
0.0
230
1.0
 70
    11
 71
     3
 72
    26
 73
    22
 74
     0
 42
0.0000000001
 43
0.0000000001
 12
1.0
 22
0.0
 32
0.0
 13
1.0
 23
0.0
 33
0.0
 40
0.0
 40
0.0
 40
0.0
 40
0.0
 40
1.0
 40
1.0
 40
1.0
 40
2.0
 40
2.0
 40
2.0
 40
3.0
 40
3.0
 40
3.0
 40
4.0
 40
4.0
 40
4.0
 40
5.0
 40
5.0
 40
5.0
 40
6.0
 40
6.0
 40
6.0
 40
7.0
 40
7.0
 40
7.0
 40
7.0
 10
80.06884221088558
 20
-153.6316215978768
 30
0.0
 10
80.06884221088558
 20
-153.6316215978768
 30
0.0
 10
78.964689107863
 20
-153.6316215978768
 30
0.0
 10
78.964689107863
 20
-153.6316215978768
 30
0.0
 10
78.964689107863
 20
-153.6316215978768
 30
0.0
 10
78.964689107863
 20
-153.9616617453638
 30
0.0
 10
78.964689107863
 20
-153.9616617453638
 30
0.0
 10
78.964689107863
 20
-153.9616617453638
 30
0.0
 10
78.81655000199726
 20
-153.9616617453638
 30
0.0
 10
78.81655000199726
 20
-153.9616617453638
 30
0.0
 10
78.80173609141067
 20
-153.6295545405857
 30
0.0
 10
78.63878307495837
 20
-153.5830457515348
 30
0.0
 10
78.52440590484807
 20
-153.5534179303617
 30
0.0
 10
78.52440590484807
 20
-153.5534179303617
 30
0.0
 10
78.52440590484807
 20
-153.4073458817871
 30
0.0
 10
78.52440590484807
 20
-153.4073458817871
 30
0.0
 10
78.52440590484807
 20
-153.4073458817871
 30
0.0
 10
80.06884221088558
 20
-153.4073458817871
 30
0.0
 10
80.06884221088558
 20
-153.4073458817871
 30
0.0
 10
80.06884221088558
 20
-153.4073458817871
 30
0.0
 10
80.06884221088558
 20
-153.6316215978768
 30
0.0
 10
80.06884221088558
 20
-153.6316215978768
 30
0.0
  0
HATCH
  5
123
330
11E
100
AcDbEntity
  8
_U+30EC_U+30A4_U+30E4_U+30FC 1
 62
   179
420
  2234388
100
AcDbHatch
 10
0.0
 20
0.0
 30
0.0
210
0.0
220
0.0
230
1.0
  2
SOLID
 70
     1
 71
     0
 91
        1
 92
        1
 93
        1
 72
     4
 94
        3
 73
     0
 74
     1
 95
       26
 96
       22
 40
0.0
 40
0.0
 40
0.0
 40
0.0
 40
1.0
 40
1.0
 40
1.0
 40
2.0
 40
2.0
 40
2.0
 40
3.0
 40
3.0
 40
3.0
 40
4.0
 40
4.0
 40
4.0
 40
5.0
 40
5.0
 40
5.0
 40
6.0
 40
6.0
 40
6.0
 40
7.0
 40
7.0
 40
7.0
 40
7.0
 10
80.06884221088558
 20
-153.6316215978768
 10
80.06884221088558
 20
-153.6316215978768
 10
78.964689107863
 20
-153.6316215978768
 10
78.964689107863
 20
-153.6316215978768
 10
78.964689107863
 20
-153.6316215978768
 10
78.964689107863
 20
-153.9616617453638
 10
78.964689107863
 20
-153.9616617453638
 10
78.964689107863
 20
-153.9616617453638
 10
78.81655000199726
 20
-153.9616617453638
 10
78.81655000199726
 20
-153.9616617453638
 10
78.80173609141067
 20
-153.6295545405857
 10
78.63878307495837
 20
-153.5830457515348
 10
78.52440590484807
 20
-153.5534179303617
 10
78.52440590484807
 20
-153.5534179303617
 10
78.52440590484807
 20
-153.4073458817871
 10
78.52440590484807
 20
-153.4073458817871
 10
78.52440590484807
 20
-153.4073458817871
 10
80.06884221088558
 20
-153.4073458817871
 10
80.06884221088558
 20
-153.4073458817871
 10
80.06884221088558
 20
-153.4073458817871
 10
80.06884221088558
 20
-153.6316215978768
 10
80.06884221088558
 20
-153.6316215978768
 97
        0
 97
        0
 75
     2
 76
     1
 98
        0
  0
SPLINE
  5
124
330
11E
100
AcDbEntity
  8
_U+30EC_U+30A4_U+30E4_U+30FC 1
370
     0
100
AcDbSpline
210
0.0
220
0.0
230
1.0
 70
    11
 71
     3
 72
    53
 73
    49
 74
     0
 42
0.0000000001
 43
0.0000000001
 12
1.0
 22
0.0
 32
0.0
 13
1.0
 23
0.0
 33
0.0
 40
0.0
 40
0.0
 40
0.0
 40
0.0
 40
1.0
 40
1.0
 40
1.0
 40
2.0
 40
2.0
 40
2.0
 40
3.0
 40
3.0
 40
3.0
 40
4.0
 40
4.0
 40
4.0
 40
5.0
 40
5.0
 40
5.0
 40
6.0
 40
6.0
 40
6.0
 40
7.0
 40
7.0
 40
7.0
 40
8.0
 40
8.0
 40
8.0
 40
9.0
 40
9.0
 40
9.0
 40
10.0
 40
10.0
 40
10.0
 40
11.0
 40
11.0
 40
11.0
 40
12.0
 40
12.0
 40
12.0
 40
13.0
 40
13.0
 40
13.0
 40
14.0
 40
14.0
 40
14.0
 40
15.0
 40
15.0
 40
15.0
 40
16.0
 40
16.0
 40
16.0
 40
16.0
 10
80.11948511451874
 20
-152.4251491589423
 30
0.0
 10
80.11948511451874
 20
-152.5033528264575
 30
0.0
 10
80.10260414664101
 20
-152.6049831432724
 30
0.0
 10
80.03921438971243
 20
-152.7066134600873
 30
0.0
 10
79.92931584373295
 20
-152.8799017629953
 30
0.0
 10
79.79805770574494
 20
-152.9012613550039
 30
0.0
 10
79.69022621705662
 20
-152.9202093801727
 30
0.0
 10
79.69022621705662
 20
-152.9202093801727
 30
0.0
 10
79.69022621705662
 20
-152.6980007213741
 30
0.0
 10
79.69022621705662
 20
-152.6980007213741
 30
0.0
 10
79.88900822655553
 20
-152.6432237031586
 30
0.0
 10
79.91863604772868
 20
-152.5160996797529
 30
0.0
 10
79.91863604772868
 20
-152.4230821016512
 30
0.0
 10
79.91863604772868
 20
-152.2835557344985
 30
0.0
 10
79.81907278820496
 20
-152.1312825140505
 30
0.0
 10
79.5865288429506
 20
-152.1312825140505
 30
0.0
 10
79.33055824839653
 20
-152.1312825140505
 30
0.0
 10
79.26062281004596
 20
-152.3111164983806
 30
0.0
 10
79.26062281004596
 20
-152.4316948403643
 30
0.0
 10
79.26062281004596
 20
-152.4633897188286
 30
0.0
 10
79.26062281004596
 20
-152.6049831432724
 30
0.0
 10
79.38981389074283
 20
-152.6938666067918
 30
0.0
 10
79.38981389074283
 20
-152.6938666067918
 30
0.0
 10
79.37086586557395
 20
-152.8695664765395
 30
0.0
 10
79.37086586557395
 20
-152.8695664765395
 30
0.0
 10
79.37086586557395
 20
-152.8695664765395
 30
0.0
 10
78.52440590484807
 20
-152.7489881345558
 30
0.0
 10
78.52440590484807
 20
-152.7489881345558
 30
0.0
 10
78.52440590484807
 20
-152.7489881345558
 30
0.0
 10
78.52440590484807
 20
-151.9703965548894
 30
0.0
 10
78.52440590484807
 20
-151.9703965548894
 30
0.0
 10
78.52440590484807
 20
-151.9703965548894
 30
0.0
 10
78.71905379976468
 20
-151.9703965548894
 30
0.0
 10
78.71905379976468
 20
-151.9703965548894
 30
0.0
 10
78.71905379976468
 20
-151.9703965548894
 30
0.0
 10
78.71905379976468
 20
-152.5860351181035
 30
0.0
 10
78.71905379976468
 20
-152.5860351181035
 30
0.0
 10
78.71905379976468
 20
-152.5860351181035
 30
0.0
 10
79.14211152535337
 20
-152.6514919323232
 30
0.0
 10
79.14211152535337
 20
-152.6514919323232
 30
0.0
 10
79.10834958959792
 20
-152.5901692326858
 30
0.0
 10
79.06804197242049
 20
-152.5078314505883
 30
0.0
 10
79.06804197242049
 20
-152.3893201658957
 30
0.0
 10
79.06804197242049
 20
-152.1354166286328
 30
0.0
 10
79.25442163817252
 20
-151.8983940592476
 30
0.0
 10
79.56758081778172
 20
-151.8983940592476
 30
0.0
 10
79.88487411197323
 20
-151.8983940592476
 30
0.0
 10
80.11948511451874
 20
-152.1226697753374
 30
0.0
 10
80.11948511451874
 20
-152.4251491589423
 30
0.0
  0
HATCH
  5
125
330
11E
100
AcDbEntity
  8
_U+30EC_U+30A4_U+30E4_U+30FC 1
 62
   179
420
  2234388
100
AcDbHatch
 10
0.0
 20
0.0
 30
0.0
210
0.0
220
0.0
230
1.0
  2
SOLID
 70
     1
 71
     0
 91
        1
 92
        1
 93
        1
 72
     4
 94
        3
 73
     0
 74
     1
 95
       53
 96
       49
 40
0.0
 40
0.0
 40
0.0
 40
0.0
 40
1.0
 40
1.0
 40
1.0
 40
2.0
 40
2.0
 40
2.0
 40
3.0
 40
3.0
 40
3.0
 40
4.0
 40
4.0
 40
4.0
 40
5.0
 40
5.0
 40
5.0
 40
6.0
 40
6.0
 40
6.0
 40
7.0
 40
7.0
 40
7.0
 40
8.0
 40
8.0
 40
8.0
 40
9.0
 40
9.0
 40
9.0
 40
10.0
 40
10.0
 40
10.0
 40
11.0
 40
11.0
 40
11.0
 40
12.0
 40
12.0
 40
12.0
 40
13.0
 40
13.0
 40
13.0
 40
14.0
 40
14.0
 40
14.0
 40
15.0
 40
15.0
 40
15.0
 40
16.0
 40
16.0
 40
16.0
 40
16.0
 10
80.11948511451874
 20
-152.4251491589423
 10
80.11948511451874
 20
-152.5033528264575
 10
80.10260414664101
 20
-152.6049831432724
 10
80.03921438971243
 20
-152.7066134600873
 10
79.92931584373295
 20
-152.8799017629953
 10
79.79805770574494
 20
-152.9012613550039
 10
79.69022621705662
 20
-152.9202093801727
 10
79.69022621705662
 20
-152.9202093801727
 10
79.69022621705662
 20
-152.6980007213741
 10
79.69022621705662
 20
-152.6980007213741
 10
79.88900822655553
 20
-152.6432237031586
 10
79.91863604772868
 20
-152.5160996797529
 10
79.91863604772868
 20
-152.4230821016512
 10
79.91863604772868
 20
-152.2835557344985
 10
79.81907278820496
 20
-152.1312825140505
 10
79.5865288429506
 20
-152.1312825140505
 10
79.33055824839653
 20
-152.1312825140505
 10
79.26062281004596
 20
-152.3111164983806
 10
79.26062281004596
 20
-152.4316948403643
 10
79.26062281004596
 20
-152.4633897188286
 10
79.26062281004596
 20
-152.6049831432724
 10
79.38981389074283
 20
-152.6938666067918
 10
79.38981389074283
 20
-152.6938666067918
 10
79.37086586557395
 20
-152.8695664765395
 10
79.37086586557395
 20
-152.8695664765395
 10
79.37086586557395
 20
-152.8695664765395
 10
78.52440590484807
 20
-152.7489881345558
 10
78.52440590484807
 20
-152.7489881345558
 10
78.52440590484807
 20
-152.7489881345558
 10
78.52440590484807
 20
-151.9703965548894
 10
78.52440590484807
 20
-151.9703965548894
 10
78.52440590484807
 20
-151.9703965548894
 10
78.71905379976468
 20
-151.9703965548894
 10
78.71905379976468
 20
-151.9703965548894
 10
78.71905379976468
 20
-151.9703965548894
 10
78.71905379976468
 20
-152.5860351181035
 10
78.71905379976468
 20
-152.5860351181035
 10
78.71905379976468
 20
-152.5860351181035
 10
79.14211152535337
 20
-152.6514919323232
 10
79.14211152535337
 20
-152.6514919323232
 10
79.10834958959792
 20
-152.5901692326858
 10
79.06804197242049
 20
-152.5078314505883
 10
79.06804197242049
 20
-152.3893201658957
 10
79.06804197242049
 20
-152.1354166286328
 10
79.25442163817252
 20
-151.8983940592476
 10
79.56758081778172
 20
-151.8983940592476
 10
79.88487411197323
 20
-151.8983940592476
 10
80.11948511451874
 20
-152.1226697753374
 10
80.11948511451874
 20
-152.4251491589423
 97
        0
 97
        0
 75
     2
 76
     1
 98
        0
  0
ENDBLK
  5
121
330
11E
100
AcDbEntity
  8
0
100
AcDbBlockEnd
  0
BLOCK
  5
128
330
126
100
AcDbEntity
  8
0
100
AcDbBlockBegin
  2
block 7
 70
     0
 10
0.0
 20
0.0
 30
0.0
  3
block 7
  1

  0
SPLINE
  5
12A
330
126
100
AcDbEntity
  8
_U+30EC_U+30A4_U+30E4_U+30FC 1
370
     0
100
AcDbSpline
210
0.0
220
0.0
230
1.0
 70
    11
 71
     3
 72
    62
 73
    58
 74
     0
 42
0.0000000001
 43
0.0000000001
 12
1.0
 22
0.0
 32
0.0
 13
1.0
 23
0.0
 33
0.0
 40
0.0
 40
0.0
 40
0.0
 40
0.0
 40
1.0
 40
1.0
 40
1.0
 40
2.0
 40
2.0
 40
2.0
 40
3.0
 40
3.0
 40
3.0
 40
4.0
 40
4.0
 40
4.0
 40
5.0
 40
5.0
 40
5.0
 40
6.0
 40
6.0
 40
6.0
 40
7.0
 40
7.0
 40
7.0
 40
8.0
 40
8.0
 40
8.0
 40
9.0
 40
9.0
 40
9.0
 40
10.0
 40
10.0
 40
10.0
 40
11.0
 40
11.0
 40
11.0
 40
12.0
 40
12.0
 40
12.0
 40
13.0
 40
13.0
 40
13.0
 40
14.0
 40
14.0
 40
14.0
 40
15.0
 40
15.0
 40
15.0
 40
16.0
 40
16.0
 40
16.0
 40
17.0
 40
17.0
 40
17.0
 40
18.0
 40
18.0
 40
18.0
 40
19.0
 40
19.0
 40
19.0
 40
19.0
 10
102.9807942450881
 20
-159.0035589880269
 30
0.0
 10
102.9807942450881
 20
-159.0989881329683
 30
0.0
 10
102.9597791626281
 20
-159.3167181676361
 30
0.0
 10
102.7737440064246
 20
-159.4417751337507
 30
0.0
 10
102.6614338936055
 20
-159.515500177135
 30
0.0
 10
102.5622151436303
 20
-159.5199788012658
 30
0.0
 10
102.4774657946931
 20
-159.5241129158481
 30
0.0
 10
102.4774657946931
 20
-159.5241129158481
 30
0.0
 10
102.4774657946931
 20
-159.3039713143407
 30
0.0
 10
102.4774657946931
 20
-159.3039713143407
 30
0.0
 10
102.551535347626
 20
-159.3019042570495
 30
0.0
 10
102.7861463501715
 20
-159.2915689705938
 30
0.0
 10
102.7861463501715
 20
-159.0080376121577
 30
0.0
 10
102.7861463501715
 20
-158.8705783022963
 30
0.0
 10
102.7165554213695
 20
-158.7179605722997
 30
0.0
 10
102.4881455906974
 20
-158.7179605722997
 30
0.0
 10
102.371701363296
 20
-158.7179605722997
 30
0.0
 10
102.323125516954
 20
-158.756201132186
 30
0.0
 10
102.2914306384896
 20
-158.7878960106503
 30
0.0
 10
102.2173610855568
 20
-158.8619655635831
 30
0.0
 10
102.2046142322613
 20
-158.9784097909846
 30
0.0
 10
102.2046142322613
 20
-159.0331868092
 30
0.0
 10
102.2046142322613
 20
-159.0524793439174
 30
0.0
 10
102.2066812895525
 20
-159.088308336964
 30
0.0
 10
102.2108154041348
 20
-159.115869100846
 30
0.0
 10
102.2108154041348
 20
-159.115869100846
 30
0.0
 10
102.0161675092182
 20
-159.115869100846
 30
0.0
 10
102.0161675092182
 20
-159.115869100846
 30
0.0
 10
102.0227131906402
 20
-159.0776285409598
 30
0.0
 10
102.0247802479313
 20
-159.0355983760397
 30
0.0
 10
102.0247802479313
 20
-159.0290526946177
 30
0.0
 10
102.0247802479313
 20
-158.963595880398
 30
0.0
 10
102.0034206559228
 20
-158.7648138708991
 30
0.0
 10
101.7667425960861
 20
-158.7648138708991
 30
0.0
 10
101.5889756690472
 20
-158.7648138708991
 30
0.0
 10
101.5338541412832
 20
-158.8957274993386
 30
0.0
 10
101.5338541412832
 20
-159.0059705548666
 30
0.0
 10
101.5338541412832
 20
-159.2702093785852
 30
0.0
 10
101.7667425960861
 20
-159.2788221172983
 30
0.0
 10
101.8384005821793
 20
-159.2829562318807
 30
0.0
 10
101.8384005821793
 20
-159.2829562318807
 30
0.0
 10
101.8384005821793
 20
-159.4862168655104
 30
0.0
 10
101.8384005821793
 20
-159.4862168655104
 30
0.0
 10
101.7136881256132
 20
-159.4776041267973
 30
0.0
 10
101.3371391890754
 20
-159.4500433629153
 30
0.0
 10
101.3371391890754
 20
-158.9932237015711
 30
0.0
 10
101.3371391890754
 20
-158.7689479854814
 30
0.0
 10
101.4642632124812
 20
-158.5277913015139
 30
0.0
 10
101.7601969146641
 20
-158.5277913015139
 30
0.0
 10
101.9465765804161
 20
-158.5277913015139
 30
0.0
 10
102.0289143625136
 20
-158.6228759369068
 30
0.0
 10
102.0902370621511
 20
-158.7224391964305
 30
0.0
 10
102.1177978260331
 20
-158.6611164967931
 30
0.0
 10
102.1980685508394
 20
-158.4792154551719
 30
0.0
 10
102.475398737402
 20
-158.4792154551719
 30
0.0
 10
102.8137071140535
 20
-158.4792154551719
 30
0.0
 10
102.9807942450881
 20
-158.7265733110128
 30
0.0
 10
102.9807942450881
 20
-159.0035589880269
 30
0.0
  0
HATCH
  5
12B
330
126
100
AcDbEntity
  8
_U+30EC_U+30A4_U+30E4_U+30FC 1
 62
   179
420
  2234388
100
AcDbHatch
 10
0.0
 20
0.0
 30
0.0
210
0.0
220
0.0
230
1.0
  2
SOLID
 70
     1
 71
     0
 91
        1
 92
        1
 93
        1
 72
     4
 94
        3
 73
     0
 74
     1
 95
       62
 96
       58
 40
0.0
 40
0.0
 40
0.0
 40
0.0
 40
1.0
 40
1.0
 40
1.0
 40
2.0
 40
2.0
 40
2.0
 40
3.0
 40
3.0
 40
3.0
 40
4.0
 40
4.0
 40
4.0
 40
5.0
 40
5.0
 40
5.0
 40
6.0
 40
6.0
 40
6.0
 40
7.0
 40
7.0
 40
7.0
 40
8.0
 40
8.0
 40
8.0
 40
9.0
 40
9.0
 40
9.0
 40
10.0
 40
10.0
 40
10.0
 40
11.0
 40
11.0
 40
11.0
 40
12.0
 40
12.0
 40
12.0
 40
13.0
 40
13.0
 40
13.0
 40
14.0
 40
14.0
 40
14.0
 40
15.0
 40
15.0
 40
15.0
 40
16.0
 40
16.0
 40
16.0
 40
17.0
 40
17.0
 40
17.0
 40
18.0
 40
18.0
 40
18.0
 40
19.0
 40
19.0
 40
19.0
 40
19.0
 10
102.9807942450881
 20
-159.0035589880269
 10
102.9807942450881
 20
-159.0989881329683
 10
102.9597791626281
 20
-159.3167181676361
 10
102.7737440064246
 20
-159.4417751337507
 10
102.6614338936055
 20
-159.515500177135
 10
102.5622151436303
 20
-159.5199788012658
 10
102.4774657946931
 20
-159.5241129158481
 10
102.4774657946931
 20
-159.5241129158481
 10
102.4774657946931
 20
-159.3039713143407
 10
102.4774657946931
 20
-159.3039713143407
 10
102.551535347626
 20
-159.3019042570495
 10
102.7861463501715
 20
-159.2915689705938
 10
102.7861463501715
 20
-159.0080376121577
 10
102.7861463501715
 20
-158.8705783022963
 10
102.7165554213695
 20
-158.7179605722997
 10
102.4881455906974
 20
-158.7179605722997
 10
102.371701363296
 20
-158.7179605722997
 10
102.323125516954
 20
-158.756201132186
 10
102.2914306384896
 20
-158.7878960106503
 10
102.2173610855568
 20
-158.8619655635831
 10
102.2046142322613
 20
-158.9784097909846
 10
102.2046142322613
 20
-159.0331868092
 10
102.2046142322613
 20
-159.0524793439174
 10
102.2066812895525
 20
-159.088308336964
 10
102.2108154041348
 20
-159.115869100846
 10
102.2108154041348
 20
-159.115869100846
 10
102.0161675092182
 20
-159.115869100846
 10
102.0161675092182
 20
-159.115869100846
 10
102.0227131906402
 20
-159.0776285409598
 10
102.0247802479313
 20
-159.0355983760397
 10
102.0247802479313
 20
-159.0290526946177
 10
102.0247802479313
 20
-158.963595880398
 10
102.0034206559228
 20
-158.7648138708991
 10
101.7667425960861
 20
-158.7648138708991
 10
101.5889756690472
 20
-158.7648138708991
 10
101.5338541412832
 20
-158.8957274993386
 10
101.5338541412832
 20
-159.0059705548666
 10
101.5338541412832
 20
-159.2702093785852
 10
101.7667425960861
 20
-159.2788221172983
 10
101.8384005821793
 20
-159.2829562318807
 10
101.8384005821793
 20
-159.2829562318807
 10
101.8384005821793
 20
-159.4862168655104
 10
101.8384005821793
 20
-159.4862168655104
 10
101.7136881256132
 20
-159.4776041267973
 10
101.3371391890754
 20
-159.4500433629153
 10
101.3371391890754
 20
-158.9932237015711
 10
101.3371391890754
 20
-158.7689479854814
 10
101.4642632124812
 20
-158.5277913015139
 10
101.7601969146641
 20
-158.5277913015139
 10
101.9465765804161
 20
-158.5277913015139
 10
102.0289143625136
 20
-158.6228759369068
 10
102.0902370621511
 20
-158.7224391964305
 10
102.1177978260331
 20
-158.6611164967931
 10
102.1980685508394
 20
-158.4792154551719
 10
102.475398737402
 20
-158.4792154551719
 10
102.8137071140535
 20
-158.4792154551719
 10
102.9807942450881
 20
-158.7265733110128
 10
102.9807942450881
 20
-159.0035589880269
 97
        0
 97
        0
 75
     2
 76
     1
 98
        0
  0
ENDBLK
  5
129
330
126
100
AcDbEntity
  8
0
100
AcDbBlockEnd
  0
BLOCK
  5
12E
330
12C
100
AcDbEntity
  8
0
100
AcDbBlockBegin
  2
block 8
 70
     0
 10
0.0
 20
0.0
 30
0.0
  3
block 8
  1

  0
SPLINE
  5
130
330
12C
100
AcDbEntity
  8
_U+30EC_U+30A4_U+30E4_U+30FC 1
370
     0
100
AcDbSpline
210
0.0
220
0.0
230
1.0
 70
    11
 71
     3
 72
    26
 73
    22
 74
     0
 42
0.0000000001
 43
0.0000000001
 12
1.0
 22
0.0
 32
0.0
 13
1.0
 23
0.0
 33
0.0
 40
0.0
 40
0.0
 40
0.0
 40
0.0
 40
1.0
 40
1.0
 40
1.0
 40
2.0
 40
2.0
 40
2.0
 40
3.0
 40
3.0
 40
3.0
 40
4.0
 40
4.0
 40
4.0
 40
5.0
 40
5.0
 40
5.0
 40
6.0
 40
6.0
 40
6.0
 40
7.0
 40
7.0
 40
7.0
 40
7.0
 10
102.930151341455
 20
-154.0843071446386
 30
0.0
 10
102.930151341455
 20
-154.0843071446386
 30
0.0
 10
102.930151341455
 20
-154.3213297140238
 30
0.0
 10
102.930151341455
 20
-154.3213297140238
 30
0.0
 10
102.6211262764281
 20
-154.295836007433
 30
0.0
 10
102.1029839154465
 20
-154.1032551698075
 30
0.0
 10
101.5972438982118
 20
-153.6970784120966
 30
0.0
 10
101.5972438982118
 20
-153.6970784120966
 30
0.0
 10
101.5972438982118
 20
-154.5349256341093
 30
0.0
 10
101.5972438982118
 20
-154.5349256341093
 30
0.0
 10
101.5972438982118
 20
-154.5349256341093
 30
0.0
 10
101.3857150354175
 20
-154.5349256341093
 30
0.0
 10
101.3857150354175
 20
-154.5349256341093
 30
0.0
 10
101.3857150354175
 20
-154.5349256341093
 30
0.0
 10
101.3857150354175
 20
-153.4600558427114
 30
0.0
 10
101.3857150354175
 20
-153.4600558427114
 30
0.0
 10
101.3857150354175
 20
-153.4600558427114
 30
0.0
 10
101.5972438982118
 20
-153.4600558427114
 30
0.0
 10
101.5972438982118
 20
-153.4600558427114
 30
0.0
 10
101.8873209380698
 20
-153.7838948183249
 30
0.0
 10
102.4795328519843
 20
-154.0505452088832
 30
0.0
 10
102.930151341455
 20
-154.0843071446386
 30
0.0
  0
HATCH
  5
131
330
12C
100
AcDbEntity
  8
_U+30EC_U+30A4_U+30E4_U+30FC 1
 62
   179
420
  2234388
100
AcDbHatch
 10
0.0
 20
0.0
 30
0.0
210
0.0
220
0.0
230
1.0
  2
SOLID
 70
     1
 71
     0
 91
        1
 92
        1
 93
        1
 72
     4
 94
        3
 73
     0
 74
     1
 95
       26
 96
       22
 40
0.0
 40
0.0
 40
0.0
 40
0.0
 40
1.0
 40
1.0
 40
1.0
 40
2.0
 40
2.0
 40
2.0
 40
3.0
 40
3.0
 40
3.0
 40
4.0
 40
4.0
 40
4.0
 40
5.0
 40
5.0
 40
5.0
 40
6.0
 40
6.0
 40
6.0
 40
7.0
 40
7.0
 40
7.0
 40
7.0
 10
102.930151341455
 20
-154.0843071446386
 10
102.930151341455
 20
-154.0843071446386
 10
102.930151341455
 20
-154.3213297140238
 10
102.930151341455
 20
-154.3213297140238
 10
102.6211262764281
 20
-154.295836007433
 10
102.1029839154465
 20
-154.1032551698075
 10
101.5972438982118
 20
-153.6970784120966
 10
101.5972438982118
 20
-153.6970784120966
 10
101.5972438982118
 20
-154.5349256341093
 10
101.5972438982118
 20
-154.5349256341093
 10
101.5972438982118
 20
-154.5349256341093
 10
101.3857150354175
 20
-154.5349256341093
 10
101.3857150354175
 20
-154.5349256341093
 10
101.3857150354175
 20
-154.5349256341093
 10
101.3857150354175
 20
-153.4600558427114
 10
101.3857150354175
 20
-153.4600558427114
 10
101.3857150354175
 20
-153.4600558427114
 10
101.5972438982118
 20
-153.4600558427114
 10
101.5972438982118
 20
-153.4600558427114
 10
101.8873209380698
 20
-153.7838948183249
 10
102.4795328519843
 20
-154.0505452088832
 10
102.930151341455
 20
-154.0843071446386
 97
        0
 97
        0
 75
     2
 76
     1
 98
        0
  0
ENDBLK
  5
12F
330
12C
100
AcDbEntity
  8
0
100
AcDbBlockEnd
  0
BLOCK
  5
134
330
132
100
AcDbEntity
  8
0
100
AcDbBlockBegin
  2
block 9
 70
     0
 10
0.0
 20
0.0
 30
0.0
  3
block 9
  1

  0
SPLINE
  5
136
330
132
100
AcDbEntity
  8
_U+30EC_U+30A4_U+30E4_U+30FC 1
370
     0
100
AcDbSpline
210
0.0
220
0.0
230
1.0
 70
    11
 71
     3
 72
    53
 73
    49
 74
     0
 42
0.0000000001
 43
0.0000000001
 12
1.0
 22
0.0
 32
0.0
 13
1.0
 23
0.0
 33
0.0
 40
0.0
 40
0.0
 40
0.0
 40
0.0
 40
1.0
 40
1.0
 40
1.0
 40
2.0
 40
2.0
 40
2.0
 40
3.0
 40
3.0
 40
3.0
 40
4.0
 40
4.0
 40
4.0
 40
5.0
 40
5.0
 40
5.0
 40
6.0
 40
6.0
 40
6.0
 40
7.0
 40
7.0
 40
7.0
 40
8.0
 40
8.0
 40
8.0
 40
9.0
 40
9.0
 40
9.0
 40
10.0
 40
10.0
 40
10.0
 40
11.0
 40
11.0
 40
11.0
 40
12.0
 40
12.0
 40
12.0
 40
13.0
 40
13.0
 40
13.0
 40
14.0
 40
14.0
 40
14.0
 40
15.0
 40
15.0
 40
15.0
 40
16.0
 40
16.0
 40
16.0
 40
16.0
 10
102.9807942450881
 20
-126.1025525943424
 30
0.0
 10
102.9807942450881
 20
-126.1807562618576
 30
0.0
 10
102.9639132772104
 20
-126.2823865786725
 30
0.0
 10
102.9005235202818
 20
-126.3840168954873
 30
0.0
 10
102.7906249743023
 20
-126.5573051983954
 30
0.0
 10
102.6593668363143
 20
-126.5786647904039
 30
0.0
 10
102.551535347626
 20
-126.5976128155728
 30
0.0
 10
102.551535347626
 20
-126.5976128155728
 30
0.0
 10
102.551535347626
 20
-126.3754041567742
 30
0.0
 10
102.551535347626
 20
-126.3754041567742
 30
0.0
 10
102.7503173571249
 20
-126.3206271385587
 30
0.0
 10
102.7799451782981
 20
-126.193503115153
 30
0.0
 10
102.7799451782981
 20
-126.1004855370513
 30
0.0
 10
102.7799451782981
 20
-125.9609591698987
 30
0.0
 10
102.6803819187744
 20
-125.8086859494506
 30
0.0
 10
102.44783797352
 20
-125.8086859494506
 30
0.0
 10
102.1918673789659
 20
-125.8086859494506
 30
0.0
 10
102.1219319406154
 20
-125.9885199337807
 30
0.0
 10
102.1219319406154
 20
-126.1090982757644
 30
0.0
 10
102.1219319406154
 20
-126.1407931542287
 30
0.0
 10
102.1219319406154
 20
-126.2823865786725
 30
0.0
 10
102.2511230213122
 20
-126.3712700421919
 30
0.0
 10
102.2511230213122
 20
-126.3712700421919
 30
0.0
 10
102.2321749961434
 20
-126.5469699119397
 30
0.0
 10
102.2321749961434
 20
-126.5469699119397
 30
0.0
 10
102.2321749961434
 20
-126.5469699119397
 30
0.0
 10
101.3857150354175
 20
-126.4263915699559
 30
0.0
 10
101.3857150354175
 20
-126.4263915699559
 30
0.0
 10
101.3857150354175
 20
-126.4263915699559
 30
0.0
 10
101.3857150354175
 20
-125.6477999902894
 30
0.0
 10
101.3857150354175
 20
-125.6477999902894
 30
0.0
 10
101.3857150354175
 20
-125.6477999902894
 30
0.0
 10
101.5803629303341
 20
-125.6477999902894
 30
0.0
 10
101.5803629303341
 20
-125.6477999902894
 30
0.0
 10
101.5803629303341
 20
-125.6477999902894
 30
0.0
 10
101.5803629303341
 20
-126.2634385535036
 30
0.0
 10
101.5803629303341
 20
-126.2634385535036
 30
0.0
 10
101.5803629303341
 20
-126.2634385535036
 30
0.0
 10
102.0034206559228
 20
-126.3288953677233
 30
0.0
 10
102.0034206559228
 20
-126.3288953677233
 30
0.0
 10
101.9696587201673
 20
-126.2675726680859
 30
0.0
 10
101.9293511029899
 20
-126.1852348859884
 30
0.0
 10
101.9293511029899
 20
-126.0667236012958
 30
0.0
 10
101.9293511029899
 20
-125.8128200640329
 30
0.0
 10
102.1157307687419
 20
-125.5757974946477
 30
0.0
 10
102.4288899483511
 20
-125.5757974946477
 30
0.0
 10
102.7461832425426
 20
-125.5757974946477
 30
0.0
 10
102.9807942450881
 20
-125.8000732107375
 30
0.0
 10
102.9807942450881
 20
-126.1025525943424
 30
0.0
  0
HATCH
  5
137
330
132
100
AcDbEntity
  8
_U+30EC_U+30A4_U+30E4_U+30FC 1
 62
   179
420
  2234388
100
AcDbHatch
 10
0.0
 20
0.0
 30
0.0
210
0.0
220
0.0
230
1.0
  2
SOLID
 70
     1
 71
     0
 91
        1
 92
        1
 93
        1
 72
     4
 94
        3
 73
     0
 74
     1
 95
       53
 96
       49
 40
0.0
 40
0.0
 40
0.0
 40
0.0
 40
1.0
 40
1.0
 40
1.0
 40
2.0
 40
2.0
 40
2.0
 40
3.0
 40
3.0
 40
3.0
 40
4.0
 40
4.0
 40
4.0
 40
5.0
 40
5.0
 40
5.0
 40
6.0
 40
6.0
 40
6.0
 40
7.0
 40
7.0
 40
7.0
 40
8.0
 40
8.0
 40
8.0
 40
9.0
 40
9.0
 40
9.0
 40
10.0
 40
10.0
 40
10.0
 40
11.0
 40
11.0
 40
11.0
 40
12.0
 40
12.0
 40
12.0
 40
13.0
 40
13.0
 40
13.0
 40
14.0
 40
14.0
 40
14.0
 40
15.0
 40
15.0
 40
15.0
 40
16.0
 40
16.0
 40
16.0
 40
16.0
 10
102.9807942450881
 20
-126.1025525943424
 10
102.9807942450881
 20
-126.1807562618576
 10
102.9639132772104
 20
-126.2823865786725
 10
102.9005235202818
 20
-126.3840168954873
 10
102.7906249743023
 20
-126.5573051983954
 10
102.6593668363143
 20
-126.5786647904039
 10
102.551535347626
 20
-126.5976128155728
 10
102.551535347626
 20
-126.5976128155728
 10
102.551535347626
 20
-126.3754041567742
 10
102.551535347626
 20
-126.3754041567742
 10
102.7503173571249
 20
-126.3206271385587
 10
102.7799451782981
 20
-126.193503115153
 10
102.7799451782981
 20
-126.1004855370513
 10
102.7799451782981
 20
-125.9609591698987
 10
102.6803819187744
 20
-125.8086859494506
 10
102.44783797352
 20
-125.8086859494506
 10
102.1918673789659
 20
-125.8086859494506
 10
102.1219319406154
 20
-125.9885199337807
 10
102.1219319406154
 20
-126.1090982757644
 10
102.1219319406154
 20
-126.1407931542287
 10
102.1219319406154
 20
-126.2823865786725
 10
102.2511230213122
 20
-126.3712700421919
 10
102.2511230213122
 20
-126.3712700421919
 10
102.2321749961434
 20
-126.5469699119397
 10
102.2321749961434
 20
-126.5469699119397
 10
102.2321749961434
 20
-126.5469699119397
 10
101.3857150354175
 20
-126.4263915699559
 10
101.3857150354175
 20
-126.4263915699559
 10
101.3857150354175
 20
-126.4263915699559
 10
101.3857150354175
 20
-125.6477999902894
 10
101.3857150354175
 20
-125.6477999902894
 10
101.3857150354175
 20
-125.6477999902894
 10
101.5803629303341
 20
-125.6477999902894
 10
101.5803629303341
 20
-125.6477999902894
 10
101.5803629303341
 20
-125.6477999902894
 10
101.5803629303341
 20
-126.2634385535036
 10
101.5803629303341
 20
-126.2634385535036
 10
101.5803629303341
 20
-126.2634385535036
 10
102.0034206559228
 20
-126.3288953677233
 10
102.0034206559228
 20
-126.3288953677233
 10
101.9696587201673
 20
-126.2675726680859
 10
101.9293511029899
 20
-126.1852348859884
 10
101.9293511029899
 20
-126.0667236012958
 10
101.9293511029899
 20
-125.8128200640329
 10
102.1157307687419
 20
-125.5757974946477
 10
102.4288899483511
 20
-125.5757974946477
 10
102.7461832425426
 20
-125.5757974946477
 10
102.9807942450881
 20
-125.8000732107375
 10
102.9807942450881
 20
-126.1025525943424
 97
        0
 97
        0
 75
     2
 76
     1
 98
        0
  0
SPLINE
  5
138
330
132
100
AcDbEntity
  8
_U+30EC_U+30A4_U+30E4_U+30FC 1
370
     0
100
AcDbSpline
210
0.0
220
0.0
230
1.0
 70
    11
 71
     3
 72
    29
 73
    25
 74
     0
 42
0.0000000001
 43
0.0000000001
 12
1.0
 22
0.0
 32
0.0
 13
1.0
 23
0.0
 33
0.0
 40
0.0
 40
0.0
 40
0.0
 40
0.0
 40
1.0
 40
1.0
 40
1.0
 40
2.0
 40
2.0
 40
2.0
 40
3.0
 40
3.0
 40
3.0
 40
4.0
 40
4.0
 40
4.0
 40
5.0
 40
5.0
 40
5.0
 40
6.0
 40
6.0
 40
6.0
 40
7.0
 40
7.0
 40
7.0
 40
8.0
 40
8.0
 40
8.0
 40
8.0
 10
102.7523844144161
 20
-124.5088514228658
 30
0.0
 10
102.9618462199193
 20
-124.6170274211027
 30
0.0
 10
102.9807942450881
 20
-124.7903157240108
 30
0.0
 10
102.9807942450881
 20
-124.9067599514122
 30
0.0
 10
102.9807942450881
 20
-125.0676459105734
 30
0.0
 10
102.9342854560373
 20
-125.2092393350171
 30
0.0
 10
102.7523844144161
 20
-125.30432397041
 30
0.0
 10
102.5577365194995
 20
-125.4080213445161
 30
0.0
 10
102.3207139501143
 20
-125.4269693696849
 30
0.0
 10
102.1581054432105
 20
-125.4269693696849
 30
0.0
 10
102.014100451927
 20
-125.4269693696849
 30
0.0
 10
101.7622639719553
 20
-125.4100884018072
 30
0.0
 10
101.5634819624564
 20
-125.30432397041
 30
0.0
 10
101.3605658383751
 20
-125.1964924817217
 30
0.0
 10
101.3371391890754
 20
-125.0356065225605
 30
0.0
 10
101.3371391890754
 20
-124.9067599514122
 30
0.0
 10
101.3371391890754
 20
-124.7479410495422
 30
0.0
 10
101.3815809208352
 20
-124.6042805678073
 30
0.0
 10
101.5634819624564
 20
-124.5088514228658
 30
0.0
 10
101.7560628000818
 20
-124.4096326728907
 30
0.0
 10
101.9844726307539
 20
-124.386206023591
 30
0.0
 10
102.1581054432105
 20
-124.386206023591
 30
0.0
 10
102.3293266888274
 20
-124.386206023591
 30
0.0
 10
102.5598035767906
 20
-124.4075656155995
 30
0.0
 10
102.7523844144161
 20
-124.5088514228658
 30
0.0
  0
SPLINE
  5
139
330
132
100
AcDbEntity
  8
_U+30EC_U+30A4_U+30E4_U+30FC 1
370
     0
100
AcDbSpline
210
0.0
220
0.0
230
1.0
 70
    11
 71
     3
 72
    17
 73
    13
 74
     0
 42
0.0000000001
 43
0.0000000001
 12
1.0
 22
0.0
 32
0.0
 13
1.0
 23
0.0
 33
0.0
 40
0.0
 40
0.0
 40
0.0
 40
0.0
 40
1.0
 40
1.0
 40
1.0
 40
2.0
 40
2.0
 40
2.0
 40
3.0
 40
3.0
 40
3.0
 40
4.0
 40
4.0
 40
4.0
 40
4.0
 10
101.5297200267009
 20
-124.9067599514122
 30
0.0
 10
101.5297200267009
 20
-125.1561848645443
 30
0.0
 10
101.813251385137
 20
-125.2030381631437
 30
0.0
 10
102.1581054432105
 20
-125.2030381631437
 30
0.0
 10
102.4774657946931
 20
-125.2030381631437
 30
0.0
 10
102.7861463501715
 20
-125.1668646605486
 30
0.0
 10
102.7861463501715
 20
-124.9067599514122
 30
0.0
 10
102.7861463501715
 20
-124.6590575860227
 30
0.0
 10
102.5050265585751
 20
-124.6104817396807
 30
0.0
 10
102.1581054432105
 20
-124.6104817396807
 30
0.0
 10
101.8384005821793
 20
-124.6104817396807
 30
0.0
 10
101.5297200267009
 20
-124.648722299567
 30
0.0
 10
101.5297200267009
 20
-124.9067599514122
 30
0.0
  0
HATCH
  5
13A
330
132
100
AcDbEntity
  8
_U+30EC_U+30A4_U+30E4_U+30FC 1
 62
   179
420
  2234388
100
AcDbHatch
 10
0.0
 20
0.0
 30
0.0
210
0.0
220
0.0
230
1.0
  2
SOLID
 70
     1
 71
     0
 91
        2
 92
        1
 93
        1
 72
     4
 94
        3
 73
     0
 74
     1
 95
       29
 96
       25
 40
0.0
 40
0.0
 40
0.0
 40
0.0
 40
1.0
 40
1.0
 40
1.0
 40
2.0
 40
2.0
 40
2.0
 40
3.0
 40
3.0
 40
3.0
 40
4.0
 40
4.0
 40
4.0
 40
5.0
 40
5.0
 40
5.0
 40
6.0
 40
6.0
 40
6.0
 40
7.0
 40
7.0
 40
7.0
 40
8.0
 40
8.0
 40
8.0
 40
8.0
 10
102.7523844144161
 20
-124.5088514228658
 10
102.9618462199193
 20
-124.6170274211027
 10
102.9807942450881
 20
-124.7903157240108
 10
102.9807942450881
 20
-124.9067599514122
 10
102.9807942450881
 20
-125.0676459105734
 10
102.9342854560373
 20
-125.2092393350171
 10
102.7523844144161
 20
-125.30432397041
 10
102.5577365194995
 20
-125.4080213445161
 10
102.3207139501143
 20
-125.4269693696849
 10
102.1581054432105
 20
-125.4269693696849
 10
102.014100451927
 20
-125.4269693696849
 10
101.7622639719553
 20
-125.4100884018072
 10
101.5634819624564
 20
-125.30432397041
 10
101.3605658383751
 20
-125.1964924817217
 10
101.3371391890754
 20
-125.0356065225605
 10
101.3371391890754
 20
-124.9067599514122
 10
101.3371391890754
 20
-124.7479410495422
 10
101.3815809208352
 20
-124.6042805678073
 10
101.5634819624564
 20
-124.5088514228658
 10
101.7560628000818
 20
-124.4096326728907
 10
101.9844726307539
 20
-124.386206023591
 10
102.1581054432105
 20
-124.386206023591
 10
102.3293266888274
 20
-124.386206023591
 10
102.5598035767906
 20
-124.4075656155995
 10
102.7523844144161
 20
-124.5088514228658
 97
        0
 97
        0
 92
        1
 93
        1
 72
     4
 94
        3
 73
     0
 74
     1
 95
       17
 96
       13
 40
0.0
 40
0.0
 40
0.0
 40
0.0
 40
1.0
 40
1.0
 40
1.0
 40
2.0
 40
2.0
 40
2.0
 40
3.0
 40
3.0
 40
3.0
 40
4.0
 40
4.0
 40
4.0
 40
4.0
 10
101.5297200267009
 20
-124.9067599514122
 10
101.5297200267009
 20
-125.1561848645443
 10
101.813251385137
 20
-125.2030381631437
 10
102.1581054432105
 20
-125.2030381631437
 10
102.4774657946931
 20
-125.2030381631437
 10
102.7861463501715
 20
-125.1668646605486
 10
102.7861463501715
 20
-124.9067599514122
 10
102.7861463501715
 20
-124.6590575860227
 10
102.5050265585751
 20
-124.6104817396807
 10
102.1581054432105
 20
-124.6104817396807
 10
101.8384005821793
 20
-124.6104817396807
 10
101.5297200267009
 20
-124.648722299567
 10
101.5297200267009
 20
-124.9067599514122
 97
        0
 97
        0
 75
     2
 76
     1
 98
        0
  0
ENDBLK
  5
135
330
132
100
AcDbEntity
  8
0
100
AcDbBlockEnd
  0
ENDSEC
  0
SECTION
  2
ENTITIES
  0
POLYLINE
  5
41
330
1F
100
AcDbEntity
  8
_U+30EC_U+30A4_U+30E4_U+30FC 1
 62
   179
420
  2234388
370
     9
100
AcDb2dPolyline
 66
     1
 10
0.0
 20
0.0
 30
0.0
  0
VERTEX
  5
42
330
41
100
AcDbEntity
  8
_U+30EC_U+30A4_U+30E4_U+30FC 1
 62
   179
420
  2234388
370
     9
100
AcDbVertex
100
AcDb2dVertex
 10
95.8239694204886
 20
-96.49421192032084
 30
0.0
  0
VERTEX
  5
43
330
41
100
AcDbEntity
  8
_U+30EC_U+30A4_U+30E4_U+30FC 1
 62
   179
420
  2234388
370
     9
100
AcDbVertex
100
AcDb2dVertex
 10
101.0818726989644
 20
-96.49421192032084
 30
0.0
  0
SEQEND
  5
44
330
41
100
AcDbEntity
  8
_U+30EC_U+30A4_U+30E4_U+30FC 1
 62
   179
420
  2234388
370
     9
  0
POLYLINE
  5
45
330
1F
100
AcDbEntity
  8
_U+30EC_U+30A4_U+30E4_U+30FC 1
 62
   179
420
  2234388
370
     9
100
AcDb2dPolyline
 66
     1
 10
0.0
 20
0.0
 30
0.0
  0
VERTEX
  5
46
330
45
100
AcDbEntity
  8
_U+30EC_U+30A4_U+30E4_U+30FC 1
 62
   179
420
  2234388
370
     9
100
AcDbVertex
100
AcDb2dVertex
 10
95.8239694204886
 20
-96.49421192032084
 30
0.0
  0
VERTEX
  5
47
330
45
100
AcDbEntity
  8
_U+30EC_U+30A4_U+30E4_U+30FC 1
 62
   179
420
  2234388
370
     9
100
AcDbVertex
100
AcDb2dVertex
 10
93.62390372256634
 20
-96.49421192032084
 30
0.0
  0
SEQEND
  5
48
330
45
100
AcDbEntity
  8
_U+30EC_U+30A4_U+30E4_U+30FC 1
 62
   179
420
  2234388
370
     9
  0
POLYLINE
  5
49
330
1F
100
AcDbEntity
  8
_U+30EC_U+30A4_U+30E4_U+30FC 1
370
     0
100
AcDb2dPolyline
 66
     1
 10
0.0
 20
0.0
 30
0.0
  0
VERTEX
  5
4A
330
49
100
AcDbEntity
  8
_U+30EC_U+30A4_U+30E4_U+30FC 1
370
     0
100
AcDbVertex
100
AcDb2dVertex
 10
87.72419164473575
 20
-146.494746907821
 30
0.0
  0
VERTEX
  5
4B
330
49
100
AcDbEntity
  8
_U+30EC_U+30A4_U+30E4_U+30FC 1
370
     0
100
AcDbVertex
100
AcDb2dVertex
 10
85.72397475744364
 20
-146.494746907821
 30
0.0
  0
VERTEX
  5
4C
330
49
100
AcDbEntity
  8
_U+30EC_U+30A4_U+30E4_U+30FC 1
370
     0
100
AcDbVertex
100
AcDb2dVertex
 10
85.72397475744364
 20
-149.4940635737373
 30
0.0
  0
VERTEX
  5
4D
330
49
100
AcDbEntity
  8
_U+30EC_U+30A4_U+30E4_U+30FC 1
370
     0
100
AcDbVertex
100
AcDb2dVertex
 10
94.72358258340007
 20
-149.4940635737373
 30
0.0
  0
VERTEX
  5
4E
330
49
100
AcDbEntity
  8
_U+30EC_U+30A4_U+30E4_U+30FC 1
370
     0
100
AcDbVertex
100
AcDb2dVertex
 10
94.72358258340007
 20
-100.4939358082099
 30
0.0
  0
VERTEX
  5
4F
330
49
100
AcDbEntity
  8
_U+30EC_U+30A4_U+30E4_U+30FC 1
370
     0
100
AcDbVertex
100
AcDb2dVertex
 10
95.8239694204886
 20
-100.4939358082099
 30
0.0
  0
VERTEX
  5
50
330
49
100
AcDbEntity
  8
_U+30EC_U+30A4_U+30E4_U+30FC 1
370
     0
100
AcDbVertex
100
AcDb2dVertex
 10
95.8239694204886
 20
-150.4938357957099
 30
0.0
  0
VERTEX
  5
51
330
49
100
AcDbEntity
  8
_U+30EC_U+30A4_U+30E4_U+30FC 1
370
     0
100
AcDbVertex
100
AcDb2dVertex
 10
85.72397475744364
 20
-150.4938357957099
 30
0.0
  0
VERTEX
  5
52
330
49
100
AcDbEntity
  8
_U+30EC_U+30A4_U+30E4_U+30FC 1
370
     0
100
AcDbVertex
100
AcDb2dVertex
 10
85.72397475744364
 20
-159.4937966267929
 30
0.0
  0
VERTEX
  5
53
330
49
100
AcDbEntity
  8
_U+30EC_U+30A4_U+30E4_U+30FC 1
370
     0
100
AcDbVertex
100
AcDb2dVertex
 10
98.72404720356195
 20
-159.4937966267929
 30
0.0
  0
VERTEX
  5
54
330
49
100
AcDbEntity
  8
_U+30EC_U+30A4_U+30E4_U+30FC 1
370
     0
100
AcDbVertex
100
AcDb2dVertex
 10
98.72404720356195
 20
-157.4942521828485
 30
0.0
  0
VERTEX
  5
55
330
49
100
AcDbEntity
  8
_U+30EC_U+30A4_U+30E4_U+30FC 1
370
     0
100
AcDbVertex
100
AcDb2dVertex
 10
99.72378412250097
 20
-157.4942521828485
 30
0.0
  0
VERTEX
  5
56
330
49
100
AcDbEntity
  8
_U+30EC_U+30A4_U+30E4_U+30FC 1
370
     0
100
AcDbVertex
100
AcDb2dVertex
 10
99.72378412250097
 20
-160.4942391265428
 30
0.0
  0
VERTEX
  5
57
330
49
100
AcDbEntity
  8
_U+30EC_U+30A4_U+30E4_U+30FC 1
370
     0
100
AcDbVertex
100
AcDb2dVertex
 10
84.72420256072773
 20
-160.4942391265428
 30
0.0
  0
VERTEX
  5
58
330
49
100
AcDbEntity
  8
_U+30EC_U+30A4_U+30E4_U+30FC 1
370
     0
100
AcDbVertex
100
AcDb2dVertex
 10
84.72420256072773
 20
-145.4943044080711
 30
0.0
  0
VERTEX
  5
59
330
49
100
AcDbEntity
  8
_U+30EC_U+30A4_U+30E4_U+30FC 1
370
     0
100
AcDbVertex
100
AcDb2dVertex
 10
87.72419164473575
 20
-145.4943044080711
 30
0.0
  0
VERTEX
  5
5A
330
49
100
AcDbEntity
  8
_U+30EC_U+30A4_U+30E4_U+30FC 1
370
     0
100
AcDbVertex
100
AcDb2dVertex
 10
87.72419164473575
 20
-146.494746907821
 30
0.0
  0
SEQEND
  5
5C
330
49
100
AcDbEntity
  8
_U+30EC_U+30A4_U+30E4_U+30FC 1
370
     0
  0
HATCH
  5
5B
330
1F
100
AcDbEntity
  8
_U+30EC_U+30A4_U+30E4_U+30FC 1
 62
   253
420
 11711154
100
AcDbHatch
 10
0.0
 20
0.0
 30
0.0
210
0.0
220
0.0
230
1.0
  2
SOLID
 70
     1
 71
     0
 91
        1
 92
        1
 93
       16
 72
     1
 10
87.72419164473575
 20
-146.494746907821
 11
85.72397475744364
 21
-146.494746907821
 72
     1
 10
85.72397475744364
 20
-146.494746907821
 11
85.72397475744364
 21
-149.4940635737373
 72
     1
 10
85.72397475744364
 20
-149.4940635737373
 11
94.72358258340007
 21
-149.4940635737373
 72
     1
 10
94.72358258340007
 20
-149.4940635737373
 11
94.72358258340007
 21
-100.4939358082099
 72
     1
 10
94.72358258340007
 20
-100.4939358082099
 11
95.8239694204886
 21
-100.4939358082099
 72
     1
 10
95.8239694204886
 20
-100.4939358082099
 11
95.8239694204886
 21
-150.4938357957099
 72
     1
 10
95.8239694204886
 20
-150.4938357957099
 11
85.72397475744364
 21
-150.4938357957099
 72
     1
 10
85.72397475744364
 20
-150.4938357957099
 11
85.72397475744364
 21
-159.4937966267929
 72
     1
 10
85.72397475744364
 20
-159.4937966267929
 11
98.72404720356195
 21
-159.4937966267929
 72
     1
 10
98.72404720356195
 20
-159.4937966267929
 11
98.72404720356195
 21
-157.4942521828485
 72
     1
 10
98.72404720356195
 20
-157.4942521828485
 11
99.72378412250097
 21
-157.4942521828485
 72
     1
 10
99.72378412250097
 20
-157.4942521828485
 11
99.72378412250097
 21
-160.4942391265428
 72
     1
 10
99.72378412250097
 20
-160.4942391265428
 11
84.72420256072773
 21
-160.4942391265428
 72
     1
 10
84.72420256072773
 20
-160.4942391265428
 11
84.72420256072773
 21
-145.4943044080711
 72
     1
 10
84.72420256072773
 20
-145.4943044080711
 11
87.72419164473575
 21
-145.4943044080711
 72
     1
 10
87.72419164473575
 20
-145.4943044080711
 11
87.72419164473575
 21
-146.494746907821
 97
        0
 75
     2
 76
     1
 98
        0
  0
POLYLINE
  5
5D
330
1F
100
AcDbEntity
  8
_U+30EC_U+30A4_U+30E4_U+30FC 1
 62
   179
420
  2234388
370
    25
100
AcDb2dPolyline
 66
     1
 10
0.0
 20
0.0
 30
0.0
  0
VERTEX
  5
5E
330
5D
100
AcDbEntity
  8
_U+30EC_U+30A4_U+30E4_U+30FC 1
 62
   179
420
  2234388
370
    25
100
AcDbVertex
100
AcDb2dVertex
 10
94.72358258340007
 20
-100.4939358082099
 30
0.0
  0
VERTEX
  5
5F
330
5D
100
AcDbEntity
  8
_U+30EC_U+30A4_U+30E4_U+30FC 1
 62
   179
420
  2234388
370
    25
100
AcDbVertex
100
AcDb2dVertex
 10
94.72358258340007
 20
-149.4940635737373
 30
0.0
  0
SEQEND
  5
60
330
5D
100
AcDbEntity
  8
_U+30EC_U+30A4_U+30E4_U+30FC 1
 62
   179
420
  2234388
370
    25
  0
POLYLINE
  5
61
330
1F
100
AcDbEntity
  8
_U+30EC_U+30A4_U+30E4_U+30FC 1
 62
   179
420
  2234388
370
    25
100
AcDb2dPolyline
 66
     1
 10
0.0
 20
0.0
 30
0.0
  0
VERTEX
  5
62
330
61
100
AcDbEntity
  8
_U+30EC_U+30A4_U+30E4_U+30FC 1
 62
   179
420
  2234388
370
    25
100
AcDbVertex
100
AcDb2dVertex
 10
95.8239694204886
 20
-100.4939358082099
 30
0.0
  0
VERTEX
  5
63
330
61
100
AcDbEntity
  8
_U+30EC_U+30A4_U+30E4_U+30FC 1
 62
   179
420
  2234388
370
    25
100
AcDbVertex
100
AcDb2dVertex
 10
94.72358258340007
 20
-100.4939358082099
 30
0.0
  0
SEQEND
  5
64
330
61
100
AcDbEntity
  8
_U+30EC_U+30A4_U+30E4_U+30FC 1
 62
   179
420
  2234388
370
    25
  0
POLYLINE
  5
65
330
1F
100
AcDbEntity
  8
_U+30EC_U+30A4_U+30E4_U+30FC 1
 62
   179
420
  2234388
370
    25
100
AcDb2dPolyline
 66
     1
 10
0.0
 20
0.0
 30
0.0
  0
VERTEX
  5
66
330
65
100
AcDbEntity
  8
_U+30EC_U+30A4_U+30E4_U+30FC 1
 62
   179
420
  2234388
370
    25
100
AcDbVertex
100
AcDb2dVertex
 10
95.8239694204886
 20
-100.4939358082099
 30
0.0
  0
VERTEX
  5
67
330
65
100
AcDbEntity
  8
_U+30EC_U+30A4_U+30E4_U+30FC 1
 62
   179
420
  2234388
370
    25
100
AcDbVertex
100
AcDb2dVertex
 10
95.8239694204886
 20
-150.4938357957099
 30
0.0
  0
SEQEND
  5
68
330
65
100
AcDbEntity
  8
_U+30EC_U+30A4_U+30E4_U+30FC 1
 62
   179
420
  2234388
370
    25
  0
POLYLINE
  5
69
330
1F
100
AcDbEntity
  8
_U+30EC_U+30A4_U+30E4_U+30FC 1
 62
   179
420
  2234388
370
    25
100
AcDb2dPolyline
 66
     1
 10
0.0
 20
0.0
 30
0.0
  0
VERTEX
  5
6A
330
69
100
AcDbEntity
  8
_U+30EC_U+30A4_U+30E4_U+30FC 1
 62
   179
420
  2234388
370
    25
100
AcDbVertex
100
AcDb2dVertex
 10
95.8239694204886
 20
-150.4938357957099
 30
0.0
  0
VERTEX
  5
6B
330
69
100
AcDbEntity
  8
_U+30EC_U+30A4_U+30E4_U+30FC 1
 62
   179
420
  2234388
370
    25
100
AcDbVertex
100
AcDb2dVertex
 10
85.72397475744364
 20
-150.4938357957099
 30
0.0
  0
SEQEND
  5
6C
330
69
100
AcDbEntity
  8
_U+30EC_U+30A4_U+30E4_U+30FC 1
 62
   179
420
  2234388
370
    25
  0
POLYLINE
  5
6D
330
1F
100
AcDbEntity
  8
_U+30EC_U+30A4_U+30E4_U+30FC 1
 62
   179
420
  2234388
370
    25
100
AcDb2dPolyline
 66
     1
 10
0.0
 20
0.0
 30
0.0
  0
VERTEX
  5
6E
330
6D
100
AcDbEntity
  8
_U+30EC_U+30A4_U+30E4_U+30FC 1
 62
   179
420
  2234388
370
    25
100
AcDbVertex
100
AcDb2dVertex
 10
99.72378412250097
 20
-157.4942521828485
 30
0.0
  0
VERTEX
  5
6F
330
6D
100
AcDbEntity
  8
_U+30EC_U+30A4_U+30E4_U+30FC 1
 62
   179
420
  2234388
370
    25
100
AcDbVertex
100
AcDb2dVertex
 10
98.72404720356195
 20
-157.4942521828485
 30
0.0
  0
SEQEND
  5
70
330
6D
100
AcDbEntity
  8
_U+30EC_U+30A4_U+30E4_U+30FC 1
 62
   179
420
  2234388
370
    25
  0
POLYLINE
  5
71
330
1F
100
AcDbEntity
  8
_U+30EC_U+30A4_U+30E4_U+30FC 1
 62
   179
420
  2234388
370
    25
100
AcDb2dPolyline
 66
     1
 10
0.0
 20
0.0
 30
0.0
  0
VERTEX
  5
72
330
71
100
AcDbEntity
  8
_U+30EC_U+30A4_U+30E4_U+30FC 1
 62
   179
420
  2234388
370
    25
100
AcDbVertex
100
AcDb2dVertex
 10
99.72378412250097
 20
-160.4942391265428
 30
0.0
  0
VERTEX
  5
73
330
71
100
AcDbEntity
  8
_U+30EC_U+30A4_U+30E4_U+30FC 1
 62
   179
420
  2234388
370
    25
100
AcDbVertex
100
AcDb2dVertex
 10
84.72420256072773
 20
-160.4942391265428
 30
0.0
  0
SEQEND
  5
74
330
71
100
AcDbEntity
  8
_U+30EC_U+30A4_U+30E4_U+30FC 1
 62
   179
420
  2234388
370
    25
  0
POLYLINE
  5
75
330
1F
100
AcDbEntity
  8
_U+30EC_U+30A4_U+30E4_U+30FC 1
 62
   179
420
  2234388
370
    25
100
AcDb2dPolyline
 66
     1
 10
0.0
 20
0.0
 30
0.0
  0
VERTEX
  5
76
330
75
100
AcDbEntity
  8
_U+30EC_U+30A4_U+30E4_U+30FC 1
 62
   179
420
  2234388
370
    25
100
AcDbVertex
100
AcDb2dVertex
 10
87.72419164473575
 20
-145.4943044080711
 30
0.0
  0
VERTEX
  5
77
330
75
100
AcDbEntity
  8
_U+30EC_U+30A4_U+30E4_U+30FC 1
 62
   179
420
  2234388
370
    25
100
AcDbVertex
100
AcDb2dVertex
 10
87.72419164473575
 20
-146.494746907821
 30
0.0
  0
SEQEND
  5
78
330
75
100
AcDbEntity
  8
_U+30EC_U+30A4_U+30E4_U+30FC 1
 62
   179
420
  2234388
370
    25
  0
POLYLINE
  5
79
330
1F
100
AcDbEntity
  8
_U+30EC_U+30A4_U+30E4_U+30FC 1
 62
   179
420
  2234388
370
    25
100
AcDb2dPolyline
 66
     1
 10
0.0
 20
0.0
 30
0.0
  0
VERTEX
  5
7A
330
79
100
AcDbEntity
  8
_U+30EC_U+30A4_U+30E4_U+30FC 1
 62
   179
420
  2234388
370
    25
100
AcDbVertex
100
AcDb2dVertex
 10
84.72420256072773
 20
-145.4943044080711
 30
0.0
  0
VERTEX
  5
7B
330
79
100
AcDbEntity
  8
_U+30EC_U+30A4_U+30E4_U+30FC 1
 62
   179
420
  2234388
370
    25
100
AcDbVertex
100
AcDb2dVertex
 10
84.72420256072773
 20
-160.4942391265428
 30
0.0
  0
SEQEND
  5
7C
330
79
100
AcDbEntity
  8
_U+30EC_U+30A4_U+30E4_U+30FC 1
 62
   179
420
  2234388
370
    25
  0
POLYLINE
  5
7D
330
1F
100
AcDbEntity
  8
_U+30EC_U+30A4_U+30E4_U+30FC 1
 62
   179
420
  2234388
370
    25
100
AcDb2dPolyline
 66
     1
 10
0.0
 20
0.0
 30
0.0
  0
VERTEX
  5
7E
330
7D
100
AcDbEntity
  8
_U+30EC_U+30A4_U+30E4_U+30FC 1
 62
   179
420
  2234388
370
    25
100
AcDbVertex
100
AcDb2dVertex
 10
87.72419164473575
 20
-145.4943044080711
 30
0.0
  0
VERTEX
  5
7F
330
7D
100
AcDbEntity
  8
_U+30EC_U+30A4_U+30E4_U+30FC 1
 62
   179
420
  2234388
370
    25
100
AcDbVertex
100
AcDb2dVertex
 10
84.72420256072773
 20
-145.4943044080711
 30
0.0
  0
SEQEND
  5
80
330
7D
100
AcDbEntity
  8
_U+30EC_U+30A4_U+30E4_U+30FC 1
 62
   179
420
  2234388
370
    25
  0
POLYLINE
  5
81
330
1F
100
AcDbEntity
  8
_U+30EC_U+30A4_U+30E4_U+30FC 1
 62
   179
420
  2234388
370
    25
100
AcDb2dPolyline
 66
     1
 10
0.0
 20
0.0
 30
0.0
  0
VERTEX
  5
82
330
81
100
AcDbEntity
  8
_U+30EC_U+30A4_U+30E4_U+30FC 1
 62
   179
420
  2234388
370
    25
100
AcDbVertex
100
AcDb2dVertex
 10
99.72378412250097
 20
-157.4942521828485
 30
0.0
  0
VERTEX
  5
83
330
81
100
AcDbEntity
  8
_U+30EC_U+30A4_U+30E4_U+30FC 1
 62
   179
420
  2234388
370
    25
100
AcDbVertex
100
AcDb2dVertex
 10
99.72378412250097
 20
-160.4942391265428
 30
0.0
  0
SEQEND
  5
84
330
81
100
AcDbEntity
  8
_U+30EC_U+30A4_U+30E4_U+30FC 1
 62
   179
420
  2234388
370
    25
  0
POLYLINE
  5
85
330
1F
100
AcDbEntity
  8
_U+30EC_U+30A4_U+30E4_U+30FC 1
 62
   179
420
  2234388
370
    25
100
AcDb2dPolyline
 66
     1
 10
0.0
 20
0.0
 30
0.0
  0
VERTEX
  5
86
330
85
100
AcDbEntity
  8
_U+30EC_U+30A4_U+30E4_U+30FC 1
 62
   179
420
  2234388
370
    25
100
AcDbVertex
100
AcDb2dVertex
 10
85.72397475744364
 20
-146.494746907821
 30
0.0
  0
VERTEX
  5
87
330
85
100
AcDbEntity
  8
_U+30EC_U+30A4_U+30E4_U+30FC 1
 62
   179
420
  2234388
370
    25
100
AcDbVertex
100
AcDb2dVertex
 10
85.72397475744364
 20
-149.4940635737373
 30
0.0
  0
SEQEND
  5
88
330
85
100
AcDbEntity
  8
_U+30EC_U+30A4_U+30E4_U+30FC 1
 62
   179
420
  2234388
370
    25
  0
POLYLINE
  5
89
330
1F
100
AcDbEntity
  8
_U+30EC_U+30A4_U+30E4_U+30FC 1
 62
   179
420
  2234388
370
    25
100
AcDb2dPolyline
 66
     1
 10
0.0
 20
0.0
 30
0.0
  0
VERTEX
  5
8A
330
89
100
AcDbEntity
  8
_U+30EC_U+30A4_U+30E4_U+30FC 1
 62
   179
420
  2234388
370
    25
100
AcDbVertex
100
AcDb2dVertex
 10
94.72358258340007
 20
-149.4940635737373
 30
0.0
  0
VERTEX
  5
8B
330
89
100
AcDbEntity
  8
_U+30EC_U+30A4_U+30E4_U+30FC 1
 62
   179
420
  2234388
370
    25
100
AcDbVertex
100
AcDb2dVertex
 10
85.72397475744364
 20
-149.4940635737373
 30
0.0
  0
SEQEND
  5
8C
330
89
100
AcDbEntity
  8
_U+30EC_U+30A4_U+30E4_U+30FC 1
 62
   179
420
  2234388
370
    25
  0
POLYLINE
  5
8D
330
1F
100
AcDbEntity
  8
_U+30EC_U+30A4_U+30E4_U+30FC 1
 62
   179
420
  2234388
370
    25
100
AcDb2dPolyline
 66
     1
 10
0.0
 20
0.0
 30
0.0
  0
VERTEX
  5
8E
330
8D
100
AcDbEntity
  8
_U+30EC_U+30A4_U+30E4_U+30FC 1
 62
   179
420
  2234388
370
    25
100
AcDbVertex
100
AcDb2dVertex
 10
87.72419164473575
 20
-146.494746907821
 30
0.0
  0
VERTEX
  5
8F
330
8D
100
AcDbEntity
  8
_U+30EC_U+30A4_U+30E4_U+30FC 1
 62
   179
420
  2234388
370
    25
100
AcDbVertex
100
AcDb2dVertex
 10
85.72397475744364
 20
-146.494746907821
 30
0.0
  0
SEQEND
  5
90
330
8D
100
AcDbEntity
  8
_U+30EC_U+30A4_U+30E4_U+30FC 1
 62
   179
420
  2234388
370
    25
  0
POLYLINE
  5
91
330
1F
100
AcDbEntity
  8
_U+30EC_U+30A4_U+30E4_U+30FC 1
 62
   179
420
  2234388
370
    25
100
AcDb2dPolyline
 66
     1
 10
0.0
 20
0.0
 30
0.0
  0
VERTEX
  5
92
330
91
100
AcDbEntity
  8
_U+30EC_U+30A4_U+30E4_U+30FC 1
 62
   179
420
  2234388
370
    25
100
AcDbVertex
100
AcDb2dVertex
 10
98.72404720356195
 20
-157.4942521828485
 30
0.0
  0
VERTEX
  5
93
330
91
100
AcDbEntity
  8
_U+30EC_U+30A4_U+30E4_U+30FC 1
 62
   179
420
  2234388
370
    25
100
AcDbVertex
100
AcDb2dVertex
 10
98.72404720356195
 20
-159.4937966267929
 30
0.0
  0
SEQEND
  5
94
330
91
100
AcDbEntity
  8
_U+30EC_U+30A4_U+30E4_U+30FC 1
 62
   179
420
  2234388
370
    25
  0
POLYLINE
  5
95
330
1F
100
AcDbEntity
  8
_U+30EC_U+30A4_U+30E4_U+30FC 1
 62
   179
420
  2234388
370
    25
100
AcDb2dPolyline
 66
     1
 10
0.0
 20
0.0
 30
0.0
  0
VERTEX
  5
96
330
95
100
AcDbEntity
  8
_U+30EC_U+30A4_U+30E4_U+30FC 1
 62
   179
420
  2234388
370
    25
100
AcDbVertex
100
AcDb2dVertex
 10
98.72404720356195
 20
-159.4937966267929
 30
0.0
  0
VERTEX
  5
97
330
95
100
AcDbEntity
  8
_U+30EC_U+30A4_U+30E4_U+30FC 1
 62
   179
420
  2234388
370
    25
100
AcDbVertex
100
AcDb2dVertex
 10
85.72397475744364
 20
-159.4937966267929
 30
0.0
  0
SEQEND
  5
98
330
95
100
AcDbEntity
  8
_U+30EC_U+30A4_U+30E4_U+30FC 1
 62
   179
420
  2234388
370
    25
  0
POLYLINE
  5
99
330
1F
100
AcDbEntity
  8
_U+30EC_U+30A4_U+30E4_U+30FC 1
 62
   179
420
  2234388
370
    25
100
AcDb2dPolyline
 66
     1
 10
0.0
 20
0.0
 30
0.0
  0
VERTEX
  5
9A
330
99
100
AcDbEntity
  8
_U+30EC_U+30A4_U+30E4_U+30FC 1
 62
   179
420
  2234388
370
    25
100
AcDbVertex
100
AcDb2dVertex
 10
85.72397475744364
 20
-150.4938357957099
 30
0.0
  0
VERTEX
  5
9B
330
99
100
AcDbEntity
  8
_U+30EC_U+30A4_U+30E4_U+30FC 1
 62
   179
420
  2234388
370
    25
100
AcDbVertex
100
AcDb2dVertex
 10
85.72397475744364
 20
-159.4937966267929
 30
0.0
  0
SEQEND
  5
9C
330
99
100
AcDbEntity
  8
_U+30EC_U+30A4_U+30E4_U+30FC 1
 62
   179
420
  2234388
370
    25
  0
SPLINE
  5
9D
330
1F
100
AcDbEntity
  8
_U+30EC_U+30A4_U+30E4_U+30FC 1
 62
   179
420
  2234388
370
     9
100
AcDbSpline
210
0.0
220
0.0
230
1.0
 70
    11
 71
     3
 72
    17
 73
    13
 74
     0
 42
0.0000000001
 43
0.0000000001
 12
1.0
 22
0.0
 32
0.0
 13
1.0
 23
0.0
 33
0.0
 40
0.0
 40
0.0
 40
0.0
 40
0.0
 40
1.0
 40
1.0
 40
1.0
 40
2.0
 40
2.0
 40
2.0
 40
3.0
 40
3.0
 40
3.0
 40
4.0
 40
4.0
 40
4.0
 40
4.0
 10
94.62367591928225
 20
-96.49421192032084
 30
0.0
 10
94.62367591928225
 20
-96.43907275366809
 30
0.0
 10
94.668478695917
 20
-96.3943052536792
 30
0.0
 10
94.72358258340007
 20
-96.3943052536792
 30
0.0
 10
94.77872174866003
 20
-96.3943052536792
 30
0.0
 10
94.82349164296053
 20
-96.43907275366809
 30
0.0
 10
94.82349164296053
 20
-96.49421192032084
 30
0.0
 10
94.82349164296053
 20
-96.54931580919607
 30
0.0
 10
94.77872174866003
 20
-96.59411858696248
 30
0.0
 10
94.72358258340007
 20
-96.59411858696248
 30
0.0
 10
94.668478695917
 20
-96.59411858696248
 30
0.0
 10
94.62367591928225
 20
-96.54931580919607
 30
0.0
 10
94.62367591928225
 20
-96.49421192032084
 30
0.0
  0
SPLINE
  5
9E
330
1F
100
AcDbEntity
  8
_U+30EC_U+30A4_U+30E4_U+30FC 1
 62
   179
420
  2234388
370
     9
100
AcDbSpline
210
0.0
220
0.0
230
1.0
 70
    11
 71
     3
 72
    17
 73
    13
 74
     0
 42
0.0000000001
 43
0.0000000001
 12
1.0
 22
0.0
 32
0.0
 13
1.0
 23
0.0
 33
0.0
 40
0.0
 40
0.0
 40
0.0
 40
0.0
 40
1.0
 40
1.0
 40
1.0
 40
2.0
 40
2.0
 40
2.0
 40
3.0
 40
3.0
 40
3.0
 40
4.0
 40
4.0
 40
4.0
 40
4.0
 10
95.72406033565355
 20
-96.49421192032084
 30
0.0
 10
95.72406033565355
 20
-96.43907275366809
 30
0.0
 10
95.76882783451143
 20
-96.3943052536792
 30
0.0
 10
95.8239694204886
 20
-96.3943052536792
 30
0.0
 10
95.87907088725446
 20
-96.3943052536792
 30
0.0
 10
95.92387366388921
 20
-96.43907275366809
 30
0.0
 10
95.92387366388921
 20
-96.49421192032084
 30
0.0
 10
95.92387366388921
 20
-96.54931580919607
 30
0.0
 10
95.87907088725446
 20
-96.59411858696248
 30
0.0
 10
95.8239694204886
 20
-96.59411858696248
 30
0.0
 10
95.76882783451143
 20
-96.59411858696248
 30
0.0
 10
95.72406033565355
 20
-96.54931580919607
 30
0.0
 10
95.72406033565355
 20
-96.49421192032084
 30
0.0
  0
SPLINE
  5
9F
330
1F
100
AcDbEntity
  8
_U+30EC_U+30A4_U+30E4_U+30FC 1
 62
   179
420
  2234388
370
     9
100
AcDbSpline
210
0.0
220
0.0
230
1.0
 70
    11
 71
     3
 72
    17
 73
    13
 74
     0
 42
0.0000000001
 43
0.0000000001
 12
1.0
 22
0.0
 32
0.0
 13
1.0
 23
0.0
 33
0.0
 40
0.0
 40
0.0
 40
0.0
 40
0.0
 40
1.0
 40
1.0
 40
1.0
 40
2.0
 40
2.0
 40
2.0
 40
3.0
 40
3.0
 40
3.0
 40
4.0
 40
4.0
 40
4.0
 40
4.0
 10
103.6236365230074
 20
-100.4939358082099
 30
0.0
 10
103.6236365230074
 20
-100.4388319193346
 30
0.0
 10
103.6684392996422
 20
-100.3940291415682
 30
0.0
 10
103.7235431871253
 20
-100.3940291415682
 30
0.0
 10
103.7786823523852
 20
-100.3940291415682
 30
0.0
 10
103.8234498512431
 20
-100.4388319193346
 30
0.0
 10
103.8234498512431
 20
-100.4939358082099
 30
0.0
 10
103.8234498512431
 20
-100.5497452526403
 30
0.0
 10
103.7786823523852
 20
-100.594548030407
 30
0.0
 10
103.7235431871253
 20
-100.594548030407
 30
0.0
 10
103.6684392996422
 20
-100.594548030407
 30
0.0
 10
103.6236365230074
 20
-100.5497452526403
 30
0.0
 10
103.6236365230074
 20
-100.4939358082099
 30
0.0
  0
SPLINE
  5
A0
330
1F
100
AcDbEntity
  8
_U+30EC_U+30A4_U+30E4_U+30FC 1
 62
   179
420
  2234388
370
     9
100
AcDbSpline
210
0.0
220
0.0
230
1.0
 70
    11
 71
     3
 72
    17
 73
    13
 74
     0
 42
0.0000000001
 43
0.0000000001
 12
1.0
 22
0.0
 32
0.0
 13
1.0
 23
0.0
 33
0.0
 40
0.0
 40
0.0
 40
0.0
 40
0.0
 40
1.0
 40
1.0
 40
1.0
 40
2.0
 40
2.0
 40
2.0
 40
3.0
 40
3.0
 40
3.0
 40
4.0
 40
4.0
 40
4.0
 40
4.0
 10
80.62383331317737
 20
-145.4943044080711
 30
0.0
 10
80.62383331317737
 20
-145.4392005191956
 30
0.0
 10
80.66863609094409
 20
-145.3943977414295
 30
0.0
 10
80.72373794056587
 20
-145.3943977414295
 30
0.0
 10
80.77887710582583
 20
-145.3943977414295
 30
0.0
 10
80.82364460468371
 20
-145.4392005191956
 30
0.0
 10
80.82364460468371
 20
-145.4943044080711
 30
0.0
 10
80.82364460468371
 20
-145.5494435747235
 30
0.0
 10
80.77887710582583
 20
-145.5942110747127
 30
0.0
 10
80.72373794056587
 20
-145.5942110747127
 30
0.0
 10
80.66863609094409
 20
-145.5942110747127
 30
0.0
 10
80.62383331317737
 20
-145.5494435747235
 30
0.0
 10
80.62383331317737
 20
-145.4943044080711
 30
0.0
  0
SPLINE
  5
A1
330
1F
100
AcDbEntity
  8
_U+30EC_U+30A4_U+30E4_U+30FC 1
 62
   179
420
  2234388
370
     9
100
AcDbSpline
210
0.0
220
0.0
230
1.0
 70
    11
 71
     3
 72
    17
 73
    13
 74
     0
 42
0.0000000001
 43
0.0000000001
 12
1.0
 22
0.0
 32
0.0
 13
1.0
 23
0.0
 33
0.0
 40
0.0
 40
0.0
 40
0.0
 40
0.0
 40
1.0
 40
1.0
 40
1.0
 40
2.0
 40
2.0
 40
2.0
 40
3.0
 40
3.0
 40
3.0
 40
4.0
 40
4.0
 40
4.0
 40
4.0
 10
84.62359034107234
 20
-141.4945452424042
 30
0.0
 10
84.62359034107234
 20
-141.4394413535293
 30
0.0
 10
84.66839311770711
 20
-141.3946385757626
 30
0.0
 10
84.72420256072773
 20
-141.3946385757626
 30
0.0
 10
84.7793064482108
 20
-141.3946385757626
 30
0.0
 10
84.82410922484557
 20
-141.4394413535293
 30
0.0
 10
84.82410922484557
 20
-141.4945452424042
 30
0.0
 10
84.82410922484557
 20
-141.5496844090573
 30
0.0
 10
84.7793064482108
 20
-141.5944519090459
 30
0.0
 10
84.72420256072773
 20
-141.5944519090459
 30
0.0
 10
84.66839311770711
 20
-141.5944519090459
 30
0.0
 10
84.62359034107234
 20
-141.5496844090573
 30
0.0
 10
84.62359034107234
 20
-141.4945452424042
 30
0.0
  0
SPLINE
  5
A2
330
1F
100
AcDbEntity
  8
_U+30EC_U+30A4_U+30E4_U+30FC 1
 62
   179
420
  2234388
370
     9
100
AcDbSpline
210
0.0
220
0.0
230
1.0
 70
    11
 71
     3
 72
    17
 73
    13
 74
     0
 42
0.0000000001
 43
0.0000000001
 12
1.0
 22
0.0
 32
0.0
 13
1.0
 23
0.0
 33
0.0
 40
0.0
 40
0.0
 40
0.0
 40
0.0
 40
1.0
 40
1.0
 40
1.0
 40
2.0
 40
2.0
 40
2.0
 40
3.0
 40
3.0
 40
3.0
 40
4.0
 40
4.0
 40
4.0
 40
4.0
 10
87.62392998674953
 20
-141.4945452424042
 30
0.0
 10
87.62392998674953
 20
-141.4394413535293
 30
0.0
 10
87.6687327633843
 20
-141.3946385757626
 30
0.0
 10
87.72419164473575
 20
-141.3946385757626
 30
0.0
 10
87.77929331611921
 20
-141.3946385757626
 30
0.0
 10
87.82409609275398
 20
-141.4394413535293
 30
0.0
 10
87.82409609275398
 20
-141.4945452424042
 30
0.0
 10
87.82409609275398
 20
-141.5496844090573
 30
0.0
 10
87.77929331611921
 20
-141.5944519090459
 30
0.0
 10
87.72419164473575
 20
-141.5944519090459
 30
0.0
 10
87.6687327633843
 20
-141.5944519090459
 30
0.0
 10
87.62392998674953
 20
-141.5496844090573
 30
0.0
 10
87.62392998674953
 20
-141.4945452424042
 30
0.0
  0
SPLINE
  5
A3
330
1F
100
AcDbEntity
  8
_U+30EC_U+30A4_U+30E4_U+30FC 1
 62
   179
420
  2234388
370
     9
100
AcDbSpline
210
0.0
220
0.0
230
1.0
 70
    11
 71
     3
 72
    17
 73
    13
 74
     0
 42
0.0000000001
 43
0.0000000001
 12
1.0
 22
0.0
 32
0.0
 13
1.0
 23
0.0
 33
0.0
 40
0.0
 40
0.0
 40
0.0
 40
0.0
 40
1.0
 40
1.0
 40
1.0
 40
2.0
 40
2.0
 40
2.0
 40
3.0
 40
3.0
 40
3.0
 40
4.0
 40
4.0
 40
4.0
 40
4.0
 10
94.62367591928225
 20
-141.4945452424042
 30
0.0
 10
94.62367591928225
 20
-141.4394413535293
 30
0.0
 10
94.668478695917
 20
-141.3946385757626
 30
0.0
 10
94.72358258340007
 20
-141.3946385757626
 30
0.0
 10
94.77872174866003
 20
-141.3946385757626
 30
0.0
 10
94.82349164296053
 20
-141.4394413535293
 30
0.0
 10
94.82349164296053
 20
-141.4945452424042
 30
0.0
 10
94.82349164296053
 20
-141.5496844090573
 30
0.0
 10
94.77872174866003
 20
-141.5944519090459
 30
0.0
 10
94.72358258340007
 20
-141.5944519090459
 30
0.0
 10
94.668478695917
 20
-141.5944519090459
 30
0.0
 10
94.62367591928225
 20
-141.5496844090573
 30
0.0
 10
94.62367591928225
 20
-141.4945452424042
 30
0.0
  0
SPLINE
  5
A4
330
1F
100
AcDbEntity
  8
_U+30EC_U+30A4_U+30E4_U+30FC 1
 62
   179
420
  2234388
370
     9
100
AcDbSpline
210
0.0
220
0.0
230
1.0
 70
    11
 71
     3
 72
    17
 73
    13
 74
     0
 42
0.0000000001
 43
0.0000000001
 12
1.0
 22
0.0
 32
0.0
 13
1.0
 23
0.0
 33
0.0
 40
0.0
 40
0.0
 40
0.0
 40
0.0
 40
1.0
 40
1.0
 40
1.0
 40
2.0
 40
2.0
 40
2.0
 40
3.0
 40
3.0
 40
3.0
 40
4.0
 40
4.0
 40
4.0
 40
4.0
 10
103.6236365230074
 20
-150.4938357957099
 30
0.0
 10
103.6236365230074
 20
-150.4386966290568
 30
0.0
 10
103.6684392996422
 20
-150.3939291290683
 30
0.0
 10
103.7235431871253
 20
-150.3939291290683
 30
0.0
 10
103.7786823523852
 20
-150.3939291290683
 30
0.0
 10
103.8234498512431
 20
-150.4386966290568
 30
0.0
 10
103.8234498512431
 20
-150.4938357957099
 30
0.0
 10
103.8234498512431
 20
-150.5496452401403
 30
0.0
 10
103.7786823523852
 20
-150.5937424623515
 30
0.0
 10
103.7235431871253
 20
-150.5937424623515
 30
0.0
 10
103.6684392996422
 20
-150.5937424623515
 30
0.0
 10
103.6236365230074
 20
-150.5496452401403
 30
0.0
 10
103.6236365230074
 20
-150.4938357957099
 30
0.0
  0
SPLINE
  5
A5
330
1F
100
AcDbEntity
  8
_U+30EC_U+30A4_U+30E4_U+30FC 1
 62
   179
420
  2234388
370
     9
100
AcDbSpline
210
0.0
220
0.0
230
1.0
 70
    11
 71
     3
 72
    17
 73
    13
 74
     0
 42
0.0000000001
 43
0.0000000001
 12
1.0
 22
0.0
 32
0.0
 13
1.0
 23
0.0
 33
0.0
 40
0.0
 40
0.0
 40
0.0
 40
0.0
 40
1.0
 40
1.0
 40
1.0
 40
2.0
 40
2.0
 40
2.0
 40
3.0
 40
3.0
 40
3.0
 40
4.0
 40
4.0
 40
4.0
 40
4.0
 10
99.62387745838315
 20
-164.4939982922097
 30
0.0
 10
99.62387745838315
 20
-164.4388944033348
 30
0.0
 10
99.6686802350179
 20
-164.3940916255681
 30
0.0
 10
99.72378412250097
 20
-164.3940916255681
 30
0.0
 10
99.77892328776093
 20
-164.3940916255681
 30
0.0
 10
99.82369078661881
 20
-164.4388944033348
 30
0.0
 10
99.82369078661881
 20
-164.4939982922097
 30
0.0
 10
99.82369078661881
 20
-164.5491374588628
 30
0.0
 10
99.77892328776093
 20
-164.5939049588514
 30
0.0
 10
99.72378412250097
 20
-164.5939049588514
 30
0.0
 10
99.6686802350179
 20
-164.5939049588514
 30
0.0
 10
99.62387745838315
 20
-164.5491374588628
 30
0.0
 10
99.62387745838315
 20
-164.4939982922097
 30
0.0
  0
SPLINE
  5
A6
330
1F
100
AcDbEntity
  8
_U+30EC_U+30A4_U+30E4_U+30FC 1
 62
   179
420
  2234388
370
     9
100
AcDbSpline
210
0.0
220
0.0
230
1.0
 70
    11
 71
     3
 72
    17
 73
    13
 74
     0
 42
0.0000000001
 43
0.0000000001
 12
1.0
 22
0.0
 32
0.0
 13
1.0
 23
0.0
 33
0.0
 40
0.0
 40
0.0
 40
0.0
 40
0.0
 40
1.0
 40
1.0
 40
1.0
 40
2.0
 40
2.0
 40
2.0
 40
3.0
 40
3.0
 40
3.0
 40
4.0
 40
4.0
 40
4.0
 40
4.0
 10
103.6236365230074
 20
-160.4942391265428
 30
0.0
 10
103.6236365230074
 20
-160.4384296821124
 30
0.0
 10
103.6684392996422
 20
-160.3943324599012
 30
0.0
 10
103.7235431871253
 20
-160.3943324599012
 30
0.0
 10
103.7786823523852
 20
-160.3943324599012
 30
0.0
 10
103.8234498512431
 20
-160.4384296821124
 30
0.0
 10
103.8234498512431
 20
-160.4942391265428
 30
0.0
 10
103.8234498512431
 20
-160.5493782931959
 30
0.0
 10
103.7786823523852
 20
-160.5941457931851
 30
0.0
 10
103.7235431871253
 20
-160.5941457931851
 30
0.0
 10
103.6684392996422
 20
-160.5941457931851
 30
0.0
 10
103.6236365230074
 20
-160.5493782931959
 30
0.0
 10
103.6236365230074
 20
-160.4942391265428
 30
0.0
  0
SPLINE
  5
A7
330
1F
100
AcDbEntity
  8
_U+30EC_U+30A4_U+30E4_U+30FC 1
 62
   179
420
  2234388
370
     9
100
AcDbSpline
210
0.0
220
0.0
230
1.0
 70
    11
 71
     3
 72
    17
 73
    13
 74
     0
 42
0.0000000001
 43
0.0000000001
 12
1.0
 22
0.0
 32
0.0
 13
1.0
 23
0.0
 33
0.0
 40
0.0
 40
0.0
 40
0.0
 40
0.0
 40
1.0
 40
1.0
 40
1.0
 40
2.0
 40
2.0
 40
2.0
 40
3.0
 40
3.0
 40
3.0
 40
4.0
 40
4.0
 40
4.0
 40
4.0
 10
103.6236365230074
 20
-157.4942521828485
 30
0.0
 10
103.6236365230074
 20
-157.438442738418
 30
0.0
 10
103.6684392996422
 20
-157.3936752384295
 30
0.0
 10
103.7235431871253
 20
-157.3936752384295
 30
0.0
 10
103.7786823523852
 20
-157.3936752384295
 30
0.0
 10
103.8234498512431
 20
-157.438442738418
 30
0.0
 10
103.8234498512431
 20
-157.4942521828485
 30
0.0
 10
103.8234498512431
 20
-157.5493913495016
 30
0.0
 10
103.7786823523852
 20
-157.5941588494901
 30
0.0
 10
103.7235431871253
 20
-157.5941588494901
 30
0.0
 10
103.6684392996422
 20
-157.5941588494901
 30
0.0
 10
103.6236365230074
 20
-157.5493913495016
 30
0.0
 10
103.6236365230074
 20
-157.4942521828485
 30
0.0
  0
SPLINE
  5
A8
330
1F
100
AcDbEntity
  8
_U+30EC_U+30A4_U+30E4_U+30FC 1
 62
   179
420
  2234388
370
     9
100
AcDbSpline
210
0.0
220
0.0
230
1.0
 70
    11
 71
     3
 72
    17
 73
    13
 74
     0
 42
0.0000000001
 43
0.0000000001
 12
1.0
 22
0.0
 32
0.0
 13
1.0
 23
0.0
 33
0.0
 40
0.0
 40
0.0
 40
0.0
 40
0.0
 40
1.0
 40
1.0
 40
1.0
 40
2.0
 40
2.0
 40
2.0
 40
3.0
 40
3.0
 40
3.0
 40
4.0
 40
4.0
 40
4.0
 40
4.0
 10
80.62383331317737
 20
-160.4942391265428
 30
0.0
 10
80.62383331317737
 20
-160.4384296821124
 30
0.0
 10
80.66863609094409
 20
-160.3943324599012
 30
0.0
 10
80.72373794056587
 20
-160.3943324599012
 30
0.0
 10
80.77887710582583
 20
-160.3943324599012
 30
0.0
 10
80.82364460468371
 20
-160.4384296821124
 30
0.0
 10
80.82364460468371
 20
-160.4942391265428
 30
0.0
 10
80.82364460468371
 20
-160.5493782931959
 30
0.0
 10
80.77887710582583
 20
-160.5941457931851
 30
0.0
 10
80.72373794056587
 20
-160.5941457931851
 30
0.0
 10
80.66863609094409
 20
-160.5941457931851
 30
0.0
 10
80.62383331317737
 20
-160.5493782931959
 30
0.0
 10
80.62383331317737
 20
-160.4942391265428
 30
0.0
  0
SPLINE
  5
A9
330
1F
100
AcDbEntity
  8
_U+30EC_U+30A4_U+30E4_U+30FC 1
 62
   179
420
  2234388
370
     9
100
AcDbSpline
210
0.0
220
0.0
230
1.0
 70
    11
 71
     3
 72
    17
 73
    13
 74
     0
 42
0.0000000001
 43
0.0000000001
 12
1.0
 22
0.0
 32
0.0
 13
1.0
 23
0.0
 33
0.0
 40
0.0
 40
0.0
 40
0.0
 40
0.0
 40
1.0
 40
1.0
 40
1.0
 40
2.0
 40
2.0
 40
2.0
 40
3.0
 40
3.0
 40
3.0
 40
4.0
 40
4.0
 40
4.0
 40
4.0
 10
84.62359034107234
 20
-164.4939982922097
 30
0.0
 10
84.62359034107234
 20
-164.4388944033348
 30
0.0
 10
84.66839311770711
 20
-164.3940916255681
 30
0.0
 10
84.72420256072773
 20
-164.3940916255681
 30
0.0
 10
84.7793064482108
 20
-164.3940916255681
 30
0.0
 10
84.82410922484557
 20
-164.4388944033348
 30
0.0
 10
84.82410922484557
 20
-164.4939982922097
 30
0.0
 10
84.82410922484557
 20
-164.5491374588628
 30
0.0
 10
84.7793064482108
 20
-164.5939049588514
 30
0.0
 10
84.72420256072773
 20
-164.5939049588514
 30
0.0
 10
84.66839311770711
 20
-164.5939049588514
 30
0.0
 10
84.62359034107234
 20
-164.5491374588628
 30
0.0
 10
84.62359034107234
 20
-164.4939982922097
 30
0.0
  0
POLYLINE
  5
AA
330
1F
100
AcDbEntity
  8
_U+30EC_U+30A4_U+30E4_U+30FC 1
 62
   179
420
  2234388
370
     9
100
AcDb2dPolyline
 66
     1
 10
0.0
 20
0.0
 30
0.0
  0
VERTEX
  5
AB
330
AA
100
AcDbEntity
  8
_U+30EC_U+30A4_U+30E4_U+30FC 1
 62
   179
420
  2234388
370
     9
100
AcDbVertex
100
AcDb2dVertex
 10
95.8239694204886
 20
-96.49421192032084
 30
0.0
  0
VERTEX
  5
AC
330
AA
100
AcDbEntity
  8
_U+30EC_U+30A4_U+30E4_U+30FC 1
 62
   179
420
  2234388
370
     9
100
AcDbVertex
100
AcDb2dVertex
 10
94.72358258340007
 20
-96.49421192032084
 30
0.0
  0
SEQEND
  5
AD
330
AA
100
AcDbEntity
  8
_U+30EC_U+30A4_U+30E4_U+30FC 1
 62
   179
420
  2234388
370
     9
  0
POLYLINE
  5
AE
330
1F
100
AcDbEntity
  8
_U+30EC_U+30A4_U+30E4_U+30FC 1
 62
   179
420
  2234388
370
     9
100
AcDb2dPolyline
 66
     1
 10
0.0
 20
0.0
 30
0.0
  0
VERTEX
  5
AF
330
AE
100
AcDbEntity
  8
_U+30EC_U+30A4_U+30E4_U+30FC 1
 62
   179
420
  2234388
370
     9
100
AcDbVertex
100
AcDb2dVertex
 10
95.8239694204886
 20
-97.95421803106703
 30
0.0
  0
VERTEX
  5
B0
330
AE
100
AcDbEntity
  8
_U+30EC_U+30A4_U+30E4_U+30FC 1
 62
   179
420
  2234388
370
     9
100
AcDbVertex
100
AcDb2dVertex
 10
95.8239694204886
 20
-95.49443969834861
 30
0.0
  0
SEQEND
  5
B1
330
AE
100
AcDbEntity
  8
_U+30EC_U+30A4_U+30E4_U+30FC 1
 62
   179
420
  2234388
370
     9
  0
POLYLINE
  5
B2
330
1F
100
AcDbEntity
  8
_U+30EC_U+30A4_U+30E4_U+30FC 1
 62
   179
420
  2234388
370
     9
100
AcDb2dPolyline
 66
     1
 10
0.0
 20
0.0
 30
0.0
  0
VERTEX
  5
B3
330
B2
100
AcDbEntity
  8
_U+30EC_U+30A4_U+30E4_U+30FC 1
 62
   179
420
  2234388
370
     9
100
AcDbVertex
100
AcDb2dVertex
 10
94.72358258340007
 20
-97.95421803106703
 30
0.0
  0
VERTEX
  5
B4
330
B2
100
AcDbEntity
  8
_U+30EC_U+30A4_U+30E4_U+30FC 1
 62
   179
420
  2234388
370
     9
100
AcDbVertex
100
AcDb2dVertex
 10
94.72358258340007
 20
-95.49443969834861
 30
0.0
  0
SEQEND
  5
B5
330
B2
100
AcDbEntity
  8
_U+30EC_U+30A4_U+30E4_U+30FC 1
 62
   179
420
  2234388
370
     9
  0
POLYLINE
  5
B6
330
1F
100
AcDbEntity
  8
_U+30EC_U+30A4_U+30E4_U+30FC 1
 62
   179
420
  2234388
370
     9
100
AcDb2dPolyline
 66
     1
 10
0.0
 20
0.0
 30
0.0
  0
VERTEX
  5
B7
330
B6
100
AcDbEntity
  8
_U+30EC_U+30A4_U+30E4_U+30FC 1
 62
   179
420
  2234388
370
     9
100
AcDbVertex
100
AcDb2dVertex
 10
87.72419164473575
 20
-141.4945452424042
 30
0.0
  0
VERTEX
  5
B8
330
B6
100
AcDbEntity
  8
_U+30EC_U+30A4_U+30E4_U+30FC 1
 62
   179
420
  2234388
370
     9
100
AcDbVertex
100
AcDb2dVertex
 10
84.72420256072773
 20
-141.4945452424042
 30
0.0
  0
SEQEND
  5
B9
330
B6
100
AcDbEntity
  8
_U+30EC_U+30A4_U+30E4_U+30FC 1
 62
   179
420
  2234388
370
     9
  0
POLYLINE
  5
BA
330
1F
100
AcDbEntity
  8
_U+30EC_U+30A4_U+30E4_U+30FC 1
 62
   179
420
  2234388
370
     9
100
AcDb2dPolyline
 66
     1
 10
0.0
 20
0.0
 30
0.0
  0
VERTEX
  5
BB
330
BA
100
AcDbEntity
  8
_U+30EC_U+30A4_U+30E4_U+30FC 1
 62
   179
420
  2234388
370
     9
100
AcDbVertex
100
AcDb2dVertex
 10
87.72419164473575
 20
-142.9545866309279
 30
0.0
  0
VERTEX
  5
BC
330
BA
100
AcDbEntity
  8
_U+30EC_U+30A4_U+30E4_U+30FC 1
 62
   179
420
  2234388
370
     9
100
AcDbVertex
100
AcDb2dVertex
 10
87.72419164473575
 20
-140.4947730204317
 30
0.0
  0
SEQEND
  5
BD
330
BA
100
AcDbEntity
  8
_U+30EC_U+30A4_U+30E4_U+30FC 1
 62
   179
420
  2234388
370
     9
  0
POLYLINE
  5
BE
330
1F
100
AcDbEntity
  8
_U+30EC_U+30A4_U+30E4_U+30FC 1
 62
   179
420
  2234388
370
     9
100
AcDb2dPolyline
 66
     1
 10
0.0
 20
0.0
 30
0.0
  0
VERTEX
  5
BF
330
BE
100
AcDbEntity
  8
_U+30EC_U+30A4_U+30E4_U+30FC 1
 62
   179
420
  2234388
370
     9
100
AcDbVertex
100
AcDb2dVertex
 10
84.72420256072773
 20
-142.9545866309279
 30
0.0
  0
VERTEX
  5
C0
330
BE
100
AcDbEntity
  8
_U+30EC_U+30A4_U+30E4_U+30FC 1
 62
   179
420
  2234388
370
     9
100
AcDbVertex
100
AcDb2dVertex
 10
84.72420256072773
 20
-140.4947730204317
 30
0.0
  0
SEQEND
  5
C1
330
BE
100
AcDbEntity
  8
_U+30EC_U+30A4_U+30E4_U+30FC 1
 62
   179
420
  2234388
370
     9
  0
POLYLINE
  5
C2
330
1F
100
AcDbEntity
  8
_U+30EC_U+30A4_U+30E4_U+30FC 1
 62
   179
420
  2234388
370
     9
100
AcDb2dPolyline
 66
     1
 10
0.0
 20
0.0
 30
0.0
  0
VERTEX
  5
C3
330
C2
100
AcDbEntity
  8
_U+30EC_U+30A4_U+30E4_U+30FC 1
 62
   179
420
  2234388
370
     9
100
AcDbVertex
100
AcDb2dVertex
 10
87.72419164473575
 20
-141.4945452424042
 30
0.0
  0
VERTEX
  5
C4
330
C2
100
AcDbEntity
  8
_U+30EC_U+30A4_U+30E4_U+30FC 1
 62
   179
420
  2234388
370
     9
100
AcDbVertex
100
AcDb2dVertex
 10
94.72358258340007
 20
-141.4945452424042
 30
0.0
  0
SEQEND
  5
C5
330
C2
100
AcDbEntity
  8
_U+30EC_U+30A4_U+30E4_U+30FC 1
 62
   179
420
  2234388
370
     9
  0
POLYLINE
  5
C6
330
1F
100
AcDbEntity
  8
_U+30EC_U+30A4_U+30E4_U+30FC 1
 62
   179
420
  2234388
370
     9
100
AcDb2dPolyline
 66
     1
 10
0.0
 20
0.0
 30
0.0
  0
VERTEX
  5
C7
330
C6
100
AcDbEntity
  8
_U+30EC_U+30A4_U+30E4_U+30FC 1
 62
   179
420
  2234388
370
     9
100
AcDbVertex
100
AcDb2dVertex
 10
99.72378412250097
 20
-164.4939982922097
 30
0.0
  0
VERTEX
  5
C8
330
C6
100
AcDbEntity
  8
_U+30EC_U+30A4_U+30E4_U+30FC 1
 62
   179
420
  2234388
370
     9
100
AcDbVertex
100
AcDb2dVertex
 10
84.72420256072773
 20
-164.4939982922097
 30
0.0
  0
SEQEND
  5
C9
330
C6
100
AcDbEntity
  8
_U+30EC_U+30A4_U+30E4_U+30FC 1
 62
   179
420
  2234388
370
     9
  0
POLYLINE
  5
CA
330
1F
100
AcDbEntity
  8
_U+30EC_U+30A4_U+30E4_U+30FC 1
 62
   179
420
  2234388
370
     9
100
AcDb2dPolyline
 66
     1
 10
0.0
 20
0.0
 30
0.0
  0
VERTEX
  5
CB
330
CA
100
AcDbEntity
  8
_U+30EC_U+30A4_U+30E4_U+30FC 1
 62
   179
420
  2234388
370
     9
100
AcDbVertex
100
AcDb2dVertex
 10
99.72378412250097
 20
-163.0339921814635
 30
0.0
  0
VERTEX
  5
CC
330
CA
100
AcDbEntity
  8
_U+30EC_U+30A4_U+30E4_U+30FC 1
 62
   179
420
  2234388
370
     9
100
AcDbVertex
100
AcDb2dVertex
 10
99.72378412250097
 20
-165.4937705141822
 30
0.0
  0
SEQEND
  5
CD
330
CA
100
AcDbEntity
  8
_U+30EC_U+30A4_U+30E4_U+30FC 1
 62
   179
420
  2234388
370
     9
  0
POLYLINE
  5
CE
330
1F
100
AcDbEntity
  8
_U+30EC_U+30A4_U+30E4_U+30FC 1
 62
   179
420
  2234388
370
     9
100
AcDb2dPolyline
 66
     1
 10
0.0
 20
0.0
 30
0.0
  0
VERTEX
  5
CF
330
CE
100
AcDbEntity
  8
_U+30EC_U+30A4_U+30E4_U+30FC 1
 62
   179
420
  2234388
370
     9
100
AcDbVertex
100
AcDb2dVertex
 10
84.72420256072773
 20
-163.0339921814635
 30
0.0
  0
VERTEX
  5
D0
330
CE
100
AcDbEntity
  8
_U+30EC_U+30A4_U+30E4_U+30FC 1
 62
   179
420
  2234388
370
     9
100
AcDbVertex
100
AcDb2dVertex
 10
84.72420256072773
 20
-165.4937705141822
 30
0.0
  0
SEQEND
  5
D1
330
CE
100
AcDbEntity
  8
_U+30EC_U+30A4_U+30E4_U+30FC 1
 62
   179
420
  2234388
370
     9
  0
POLYLINE
  5
D2
330
1F
100
AcDbEntity
  8
_U+30EC_U+30A4_U+30E4_U+30FC 1
 62
   179
420
  2234388
370
     9
100
AcDb2dPolyline
 66
     1
 10
0.0
 20
0.0
 30
0.0
  0
VERTEX
  5
D3
330
D2
100
AcDbEntity
  8
_U+30EC_U+30A4_U+30E4_U+30FC 1
 62
   179
420
  2234388
370
     9
100
AcDbVertex
100
AcDb2dVertex
 10
80.72373794056587
 20
-160.4942391265428
 30
0.0
  0
VERTEX
  5
D4
330
D2
100
AcDbEntity
  8
_U+30EC_U+30A4_U+30E4_U+30FC 1
 62
   179
420
  2234388
370
     9
100
AcDbVertex
100
AcDb2dVertex
 10
80.72373794056587
 20
-145.4943044080711
 30
0.0
  0
SEQEND
  5
D5
330
D2
100
AcDbEntity
  8
_U+30EC_U+30A4_U+30E4_U+30FC 1
 62
   179
420
  2234388
370
     9
  0
POLYLINE
  5
D6
330
1F
100
AcDbEntity
  8
_U+30EC_U+30A4_U+30E4_U+30FC 1
 62
   179
420
  2234388
370
     9
100
AcDb2dPolyline
 66
     1
 10
0.0
 20
0.0
 30
0.0
  0
VERTEX
  5
D7
330
D6
100
AcDbEntity
  8
_U+30EC_U+30A4_U+30E4_U+30FC 1
 62
   179
420
  2234388
370
     9
100
AcDbVertex
100
AcDb2dVertex
 10
82.183779292206
 20
-160.4942391265428
 30
0.0
  0
VERTEX
  5
D8
330
D6
100
AcDbEntity
  8
_U+30EC_U+30A4_U+30E4_U+30FC 1
 62
   179
420
  2234388
370
     9
100
AcDbVertex
100
AcDb2dVertex
 10
79.72400102162685
 20
-160.4942391265428
 30
0.0
  0
SEQEND
  5
D9
330
D6
100
AcDbEntity
  8
_U+30EC_U+30A4_U+30E4_U+30FC 1
 62
   179
420
  2234388
370
     9
  0
POLYLINE
  5
DA
330
1F
100
AcDbEntity
  8
_U+30EC_U+30A4_U+30E4_U+30FC 1
 62
   179
420
  2234388
370
     9
100
AcDb2dPolyline
 66
     1
 10
0.0
 20
0.0
 30
0.0
  0
VERTEX
  5
DB
330
DA
100
AcDbEntity
  8
_U+30EC_U+30A4_U+30E4_U+30FC 1
 62
   179
420
  2234388
370
     9
100
AcDbVertex
100
AcDb2dVertex
 10
82.183779292206
 20
-145.4943044080711
 30
0.0
  0
VERTEX
  5
DC
330
DA
100
AcDbEntity
  8
_U+30EC_U+30A4_U+30E4_U+30FC 1
 62
   179
420
  2234388
370
     9
100
AcDbVertex
100
AcDb2dVertex
 10
79.72400102162685
 20
-145.4943044080711
 30
0.0
  0
SEQEND
  5
DD
330
DA
100
AcDbEntity
  8
_U+30EC_U+30A4_U+30E4_U+30FC 1
 62
   179
420
  2234388
370
     9
  0
POLYLINE
  5
DE
330
1F
100
AcDbEntity
  8
_U+30EC_U+30A4_U+30E4_U+30FC 1
 62
   179
420
  2234388
370
     9
100
AcDb2dPolyline
 66
     1
 10
0.0
 20
0.0
 30
0.0
  0
VERTEX
  5
DF
330
DE
100
AcDbEntity
  8
_U+30EC_U+30A4_U+30E4_U+30FC 1
 62
   179
420
  2234388
370
     9
100
AcDbVertex
100
AcDb2dVertex
 10
103.7235431871253
 20
-157.4942521828485
 30
0.0
  0
VERTEX
  5
E0
330
DE
100
AcDbEntity
  8
_U+30EC_U+30A4_U+30E4_U+30FC 1
 62
   179
420
  2234388
370
     9
100
AcDbVertex
100
AcDb2dVertex
 10
103.7235431871253
 20
-160.4942391265428
 30
0.0
  0
SEQEND
  5
E1
330
DE
100
AcDbEntity
  8
_U+30EC_U+30A4_U+30E4_U+30FC 1
 62
   179
420
  2234388
370
     9
  0
POLYLINE
  5
E2
330
1F
100
AcDbEntity
  8
_U+30EC_U+30A4_U+30E4_U+30FC 1
 62
   179
420
  2234388
370
     9
100
AcDb2dPolyline
 66
     1
 10
0.0
 20
0.0
 30
0.0
  0
VERTEX
  5
E3
330
E2
100
AcDbEntity
  8
_U+30EC_U+30A4_U+30E4_U+30FC 1
 62
   179
420
  2234388
370
     9
100
AcDbVertex
100
AcDb2dVertex
 10
102.263537113262
 20
-157.4942521828485
 30
0.0
  0
VERTEX
  5
E4
330
E2
100
AcDbEntity
  8
_U+30EC_U+30A4_U+30E4_U+30FC 1
 62
   179
420
  2234388
370
     9
100
AcDbVertex
100
AcDb2dVertex
 10
104.7240209393787
 20
-157.4942521828485
 30
0.0
  0
SEQEND
  5
E5
330
E2
100
AcDbEntity
  8
_U+30EC_U+30A4_U+30E4_U+30FC 1
 62
   179
420
  2234388
370
     9
  0
POLYLINE
  5
E6
330
1F
100
AcDbEntity
  8
_U+30EC_U+30A4_U+30E4_U+30FC 1
 62
   179
420
  2234388
370
     9
100
AcDb2dPolyline
 66
     1
 10
0.0
 20
0.0
 30
0.0
  0
VERTEX
  5
E7
330
E6
100
AcDbEntity
  8
_U+30EC_U+30A4_U+30E4_U+30FC 1
 62
   179
420
  2234388
370
     9
100
AcDbVertex
100
AcDb2dVertex
 10
102.263537113262
 20
-160.4942391265428
 30
0.0
  0
VERTEX
  5
E8
330
E6
100
AcDbEntity
  8
_U+30EC_U+30A4_U+30E4_U+30FC 1
 62
   179
420
  2234388
370
     9
100
AcDbVertex
100
AcDb2dVertex
 10
104.7240209393787
 20
-160.4942391265428
 30
0.0
  0
SEQEND
  5
E9
330
E6
100
AcDbEntity
  8
_U+30EC_U+30A4_U+30E4_U+30FC 1
 62
   179
420
  2234388
370
     9
  0
POLYLINE
  5
EA
330
1F
100
AcDbEntity
  8
_U+30EC_U+30A4_U+30E4_U+30FC 1
 62
   179
420
  2234388
370
     9
100
AcDb2dPolyline
 66
     1
 10
0.0
 20
0.0
 30
0.0
  0
VERTEX
  5
EB
330
EA
100
AcDbEntity
  8
_U+30EC_U+30A4_U+30E4_U+30FC 1
 62
   179
420
  2234388
370
     9
100
AcDbVertex
100
AcDb2dVertex
 10
103.7235431871253
 20
-157.4942521828485
 30
0.0
  0
VERTEX
  5
EC
330
EA
100
AcDbEntity
  8
_U+30EC_U+30A4_U+30E4_U+30FC 1
 62
   179
420
  2234388
370
     9
100
AcDbVertex
100
AcDb2dVertex
 10
103.7235431871253
 20
-150.4938357957099
 30
0.0
  0
SEQEND
  5
ED
330
EA
100
AcDbEntity
  8
_U+30EC_U+30A4_U+30E4_U+30FC 1
 62
   179
420
  2234388
370
     9
  0
POLYLINE
  5
EE
330
1F
100
AcDbEntity
  8
_U+30EC_U+30A4_U+30E4_U+30FC 1
 62
   179
420
  2234388
370
     9
100
AcDb2dPolyline
 66
     1
 10
0.0
 20
0.0
 30
0.0
  0
VERTEX
  5
EF
330
EE
100
AcDbEntity
  8
_U+30EC_U+30A4_U+30E4_U+30FC 1
 62
   179
420
  2234388
370
     9
100
AcDbVertex
100
AcDb2dVertex
 10
97.82418167096387
 20
-150.4938357957099
 30
0.0
  0
VERTEX
  5
F0
330
EE
100
AcDbEntity
  8
_U+30EC_U+30A4_U+30E4_U+30FC 1
 62
   179
420
  2234388
370
     9
100
AcDbVertex
100
AcDb2dVertex
 10
104.7240209393787
 20
-150.4938357957099
 30
0.0
  0
SEQEND
  5
F1
330
EE
100
AcDbEntity
  8
_U+30EC_U+30A4_U+30E4_U+30FC 1
 62
   179
420
  2234388
370
     9
  0
POLYLINE
  5
F2
330
1F
100
AcDbEntity
  8
_U+30EC_U+30A4_U+30E4_U+30FC 1
 62
   179
420
  2234388
370
     9
100
AcDb2dPolyline
 66
     1
 10
0.0
 20
0.0
 30
0.0
  0
VERTEX
  5
F3
330
F2
100
AcDbEntity
  8
_U+30EC_U+30A4_U+30E4_U+30FC 1
 62
   179
420
  2234388
370
     9
100
AcDbVertex
100
AcDb2dVertex
 10
103.7235431871253
 20
-150.4938357957099
 30
0.0
  0
VERTEX
  5
F4
330
F2
100
AcDbEntity
  8
_U+30EC_U+30A4_U+30E4_U+30FC 1
 62
   179
420
  2234388
370
     9
100
AcDbVertex
100
AcDb2dVertex
 10
103.7235431871253
 20
-100.4939358082099
 30
0.0
  0
SEQEND
  5
F5
330
F2
100
AcDbEntity
  8
_U+30EC_U+30A4_U+30E4_U+30FC 1
 62
   179
420
  2234388
370
     9
  0
POLYLINE
  5
F6
330
1F
100
AcDbEntity
  8
_U+30EC_U+30A4_U+30E4_U+30FC 1
 62
   179
420
  2234388
370
     9
100
AcDb2dPolyline
 66
     1
 10
0.0
 20
0.0
 30
0.0
  0
VERTEX
  5
F7
330
F6
100
AcDbEntity
  8
_U+30EC_U+30A4_U+30E4_U+30FC 1
 62
   179
420
  2234388
370
     9
100
AcDbVertex
100
AcDb2dVertex
 10
97.82347611542632
 20
-100.4939358082099
 30
0.0
  0
VERTEX
  5
F8
330
F6
100
AcDbEntity
  8
_U+30EC_U+30A4_U+30E4_U+30FC 1
 62
   179
420
  2234388
370
     9
100
AcDbVertex
100
AcDb2dVertex
 10
104.7240209393787
 20
-100.4939358082099
 30
0.0
  0
SEQEND
  5
F9
330
F6
100
AcDbEntity
  8
_U+30EC_U+30A4_U+30E4_U+30FC 1
 62
   179
420
  2234388
370
     9
  0
INSERT
  5
FB
330
1F
100
AcDbEntity
  8
_U+30EC_U+30A4_U+30E4_U+30FC 1
100
AcDbBlockReference
  2
block 2
 10
0.0
 20
0.0
 30
0.0
  0
INSERT
  5
10B
330
1F
100
AcDbEntity
  8
_U+30EC_U+30A4_U+30E4_U+30FC 1
100
AcDbBlockReference
  2
block 3
 10
0.0
 20
0.0
 30
0.0
  0
INSERT
  5
111
330
1F
100
AcDbEntity
  8
_U+30EC_U+30A4_U+30E4_U+30FC 1
100
AcDbBlockReference
  2
block 4
 10
0.0
 20
0.0
 30
0.0
  0
INSERT
  5
117
330
1F
100
AcDbEntity
  8
_U+30EC_U+30A4_U+30E4_U+30FC 1
100
AcDbBlockReference
  2
block 5
 10
0.0
 20
0.0
 30
0.0
  0
INSERT
  5
11F
330
1F
100
AcDbEntity
  8
_U+30EC_U+30A4_U+30E4_U+30FC 1
100
AcDbBlockReference
  2
block 6
 10
0.0
 20
0.0
 30
0.0
  0
INSERT
  5
127
330
1F
100
AcDbEntity
  8
_U+30EC_U+30A4_U+30E4_U+30FC 1
100
AcDbBlockReference
  2
block 7
 10
0.0
 20
0.0
 30
0.0
  0
INSERT
  5
12D
330
1F
100
AcDbEntity
  8
_U+30EC_U+30A4_U+30E4_U+30FC 1
100
AcDbBlockReference
  2
block 8
 10
0.0
 20
0.0
 30
0.0
  0
INSERT
  5
133
330
1F
100
AcDbEntity
  8
_U+30EC_U+30A4_U+30E4_U+30FC 1
100
AcDbBlockReference
  2
block 9
 10
0.0
 20
0.0
 30
0.0
  0
ENDSEC
  0
SECTION
  2
OBJECTS
  0
DICTIONARY
  5
C
330
0
100
AcDbDictionary
281
     1
  3
ACAD_GROUP
350
D
  3
ACAD_LAYOUT
350
1A
  3
ACAD_MATERIAL
350
3B
  3
ACAD_MLEADERSTYLE
350
13C
  3
ACAD_MLINESTYLE
350
17
  3
ACAD_PLOTSETTINGS
350
19
  3
ACAD_PLOTSTYLENAME
350
E
  3
ACAD_TABLESTYLE
350
13B
  3
ACAD_VISUALSTYLE
350
2A
  0
SUN
  5
3F
330
29
100
AcDbSun
 90
        1
290
     0
 63
     7
421
 16777215
 40
1.0
291
     1
 91
  2455826
 92
 54000000
292
     0
 70
     2
 71
   256
280
     1
  0
DICTIONARY
  5
D
102
{ACAD_REACTORS
330
C
102
}
330
C
100
AcDbDictionary
281
     1
  0
DICTIONARY
  5
1A
102
{ACAD_REACTORS
330
C
102
}
330
C
100
AcDbDictionary
281
     1
  3
Layout1
350
1E
  3
Layout2
350
26
  3
Model
350
22
  0
DICTIONARY
  5
3B
102
{ACAD_REACTORS
330
C
102
}
330
C
100
AcDbDictionary
281
     1
  3
ByBlock
350
3D
  3
ByLayer
350
3C
  3
Global
350
3E
  0
DICTIONARY
  5
13C
102
{ACAD_REACTORS
330
C
102
}
330
C
100
AcDbDictionary
281
     1
  0
DICTIONARY
  5
17
102
{ACAD_REACTORS
330
C
102
}
330
C
100
AcDbDictionary
281
     1
  3
Standard
350
18
  0
DICTIONARY
  5
19
102
{ACAD_REACTORS
330
C
102
}
330
C
100
AcDbDictionary
281
     1
  0
ACDBDICTIONARYWDFLT
  5
E
102
{ACAD_REACTORS
330
C
102
}
330
C
100
AcDbDictionary
281
     1
  3
Normal
350
F
100
AcDbDictionaryWithDefault
340
F
  0
DICTIONARY
  5
13B
102
{ACAD_REACTORS
330
C
102
}
330
C
100
AcDbDictionary
281
     1
  0
DICTIONARY
  5
2A
102
{ACAD_REACTORS
330
C
102
}
330
C
100
AcDbDictionary
281
     1
  3
2dWireframe
350
2F
  3
3D Hidden
350
31
  3
3dWireframe
350
30
  3
Basic
350
32
  3
Brighten
350
36
  3
ColorChange
350
3A
  3
Conceptual
350
34
  3
Dim
350
35
  3
Facepattern
350
39
  3
Flat
350
2B
  3
FlatWithEdges
350
2C
  3
Gouraud
350
2D
  3
GouraudWithEdges
350
2E
  3
Linepattern
350
38
  3
Realistic
350
33
  3
Thicken
350
37
  0
LAYOUT
  5
1E
102
{ACAD_REACTORS
330
1A
102
}
330
1A
100
AcDbPlotSettings
  1

  2
none_device
  4

  6

 40
0.0
 41
0.0
 42
0.0
 43
0.0
 44
0.0
 45
0.0
 46
0.0
 47
0.0
 48
0.0
 49
0.0
140
0.0
141
0.0
142
1.0
143
1.0
 70
   688
 72
     0
 73
     0
 74
     5
  7

 75
    16
 76
     0
 77
     2
 78
   300
147
1.0
148
0.0
149
0.0
100
AcDbLayout
  1
Layout1
 70
     1
 71
     1
 10
0.0
 20
0.0
 11
12.0
 21
9.0
 12
0.0
 22
0.0
 32
0.0
 14
1.000000000000000E+20
 24
1.000000000000000E+20
 34
1.000000000000000E+20
 15
-1.000000000000000E+20
 25
-1.000000000000000E+20
 35
-1.000000000000000E+20
146
0.0
 13
0.0
 23
0.0
 33
0.0
 16
1.0
 26
0.0
 36
0.0
 17
0.0
 27
1.0
 37
0.0
 76
     0
330
1B
  0
LAYOUT
  5
26
102
{ACAD_REACTORS
330
1A
102
}
330
1A
100
AcDbPlotSettings
  1

  2
none_device
  4

  6

 40
0.0
 41
0.0
 42
0.0
 43
0.0
 44
0.0
 45
0.0
 46
0.0
 47
0.0
 48
0.0
 49
0.0
140
0.0
141
0.0
142
1.0
143
1.0
 70
   688
 72
     0
 73
     0
 74
     5
  7

 75
    16
 76
     0
 77
     2
 78
   300
147
1.0
148
0.0
149
0.0
100
AcDbLayout
  1
Layout2
 70
     1
 71
     2
 10
0.0
 20
0.0
 11
0.0
 21
0.0
 12
0.0
 22
0.0
 32
0.0
 14
0.0
 24
0.0
 34
0.0
 15
0.0
 25
0.0
 35
0.0
146
0.0
 13
0.0
 23
0.0
 33
0.0
 16
1.0
 26
0.0
 36
0.0
 17
0.0
 27
1.0
 37
0.0
 76
     0
330
23
  0
LAYOUT
  5
22
102
{ACAD_REACTORS
330
1A
102
}
330
1A
100
AcDbPlotSettings
  1

  2
none_device
  4

  6

 40
0.0
 41
0.0
 42
0.0
 43
0.0
 44
0.0
 45
0.0
 46
0.0
 47
0.0
 48
0.0
 49
0.0
140
0.0
141
0.0
142
1.0
143
1.0
 70
  1712
 72
     0
 73
     0
 74
     0
  7

 75
     0
 76
     0
 77
     2
 78
   300
147
1.0
148
0.0
149
0.0
100
AcDbLayout
  1
Model
 70
     1
 71
     0
 10
0.0
 20
0.0
 11
12.0
 21
9.0
 12
0.0
 22
0.0
 32
0.0
 14
1.000000000000000E+20
 24
1.000000000000000E+20
 34
1.000000000000000E+20
 15
-1.000000000000000E+20
 25
-1.000000000000000E+20
 35
-1.000000000000000E+20
146
0.0
 13
0.0
 23
0.0
 33
0.0
 16
1.0
 26
0.0
 36
0.0
 17
0.0
 27
1.0
 37
0.0
 76
     0
330
1F
331
29
  0
MATERIAL
  5
3D
102
{ACAD_REACTORS
330
3B
102
}
330
3B
100
AcDbMaterial
  1
ByBlock
 72
     1
 94
      127
  0
MATERIAL
  5
3C
102
{ACAD_REACTORS
330
3B
102
}
330
3B
100
AcDbMaterial
  1
ByLayer
 72
     1
 94
      127
  0
MATERIAL
  5
3E
102
{ACAD_REACTORS
330
3B
102
}
330
3B
100
AcDbMaterial
  1
Global
 72
     1
 94
      127
  0
MLINESTYLE
  5
18
102
{ACAD_REACTORS
330
17
102
}
330
17
100
AcDbMlineStyle
  2
Standard
 70
     0
  3

 62
   256
 51
90.0
 52
90.0
 71
     2
 49
0.5
 62
   256
  6
BYLAYER
 49
-0.5
 62
   256
  6
BYLAYER
  0
ACDBPLACEHOLDER
  5
F
102
{ACAD_REACTORS
330
E
102
}
330
E
  0
VISUALSTYLE
  5
2F
102
{ACAD_REACTORS
330
2A
102
}
330
2A
100
AcDbVisualStyle
  2
2dWireframe
 70
     4
177
     2
291
     0
 71
     0
176
     1
 72
     2
176
     1
 73
     0
176
     1
 90
        0
176
     1
 40
-0.6
176
     1
 41
-30.0
176
     1
 62
     5
 63
     7
421
 16777215
176
     1
 74
     1
176
     1
 91
        4
176
     1
 64
     7
176
     1
 65
   257
176
     1
 75
     1
176
     1
175
     1
176
     1
 42
1.0
176
     1
 92
        0
176
     1
 66
   257
176
     1
 43
1.0
176
     1
 76
     1
176
     1
 77
     6
176
     1
 78
     2
176
     1
 67
     7
176
     1
 79
     5
176
     1
170
     0
176
     1
171
     0
176
     1
290
     0
176
     1
 93
        1
176
     1
 44
0.0
176
     1
173
     0
176
     1
  0
VISUALSTYLE
  5
31
102
{ACAD_REACTORS
330
2A
102
}
330
2A
100
AcDbVisualStyle
  2
3D Hidden
 70
     6
177
     2
291
     0
 71
     1
176
     1
 72
     2
176
     1
 73
     2
176
     1
 90
        0
176
     1
 40
-0.6
176
     1
 41
-30.0
176
     1
 62
     5
 63
     7
421
 16777215
176
     1
 74
     2
176
     1
 91
        2
176
     1
 64
     7
176
     1
 65
   257
176
     1
 75
     2
176
     1
175
     1
176
     1
 42
40.0
176
     1
 92
        0
176
     1
 66
   257
176
     1
 43
1.0
176
     1
 76
     1
176
     1
 77
     6
176
     1
 78
     2
176
     1
 67
     7
176
     1
 79
     3
176
     1
170
     0
176
     1
171
     0
176
     1
290
     0
176
     1
 93
        1
176
     1
 44
0.0
176
     1
173
     0
176
     1
  0
VISUALSTYLE
  5
30
102
{ACAD_REACTORS
330
2A
102
}
330
2A
100
AcDbVisualStyle
  2
3dWireframe
 70
     5
177
     2
291
     0
 71
     0
176
     1
 72
     2
176
     1
 73
     0
176
     1
 90
        0
176
     1
 40
-0.6
176
     1
 41
-30.0
176
     1
 62
     5
 63
     7
421
 16777215
176
     1
 74
     1
176
     1
 91
        4
176
     1
 64
     7
176
     1
 65
   257
176
     1
 75
     1
176
     1
175
     1
176
     1
 42
1.0
176
     1
 92
        0
176
     1
 66
   257
176
     1
 43
1.0
176
     1
 76
     1
176
     1
 77
     6
176
     1
 78
     2
176
     1
 67
     7
176
     1
 79
     5
176
     1
170
     0
176
     1
171
     0
176
     1
290
     0
176
     1
 93
        1
176
     1
 44
0.0
176
     1
173
     0
176
     1
  0
VISUALSTYLE
  5
32
102
{ACAD_REACTORS
330
2A
102
}
330
2A
100
AcDbVisualStyle
  2
Basic
 70
     7
177
     2
291
     1
 71
     1
176
     1
 72
     0
176
     1
 73
     1
176
     1
 90
        0
176
     1
 40
-0.6
176
     1
 41
-30.0
176
     1
 62
     5
 63
     7
421
 16777215
176
     1
 74
     0
176
     1
 91
        4
176
     1
 64
     7
176
     1
 65
   257
176
     1
 75
     1
176
     1
175
     1
176
     1
 42
1.0
176
     1
 92
        8
176
     1
 66
     7
176
     1
 43
1.0
176
     1
 76
     1
176
     1
 77
     6
176
     1
 78
     2
176
     1
 67
     7
176
     1
 79
     5
176
     1
170
     0
176
     1
171
     0
176
     1
290
     0
176
     1
 93
        1
176
     1
 44
0.0
176
     1
173
     0
176
     1
  0
VISUALSTYLE
  5
36
102
{ACAD_REACTORS
330
2A
102
}
330
2A
100
AcDbVisualStyle
  2
Brighten
 70
    12
177
     2
291
     1
 71
     2
176
     1
 72
     2
176
     1
 73
     0
176
     1
 90
        0
176
     1
 40
-0.6
176
     1
 41
-30.0
176
     1
 62
     5
 63
     7
421
 16777215
176
     1
 74
     1
176
     1
 91
        4
176
     1
 64
     7
176
     1
 65
   257
176
     1
 75
     1
176
     1
175
     1
176
     1
 42
1.0
176
     1
 92
        8
176
     1
 66
     7
176
     1
 43
1.0
176
     1
 76
     1
176
     1
 77
     6
176
     1
 78
     2
176
     1
 67
     7
176
     1
 79
     5
176
     1
170
     0
176
     1
171
     0
176
     1
290
     0
176
     1
 93
        1
176
     1
 44
50.0
176
     1
173
     0
176
     1
  0
VISUALSTYLE
  5
3A
102
{ACAD_REACTORS
330
2A
102
}
330
2A
100
AcDbVisualStyle
  2
ColorChange
 70
    16
177
     2
291
     1
 71
     2
176
     1
 72
     2
176
     1
 73
     3
176
     1
 90
        0
176
     1
 40
-0.6
176
     1
 41
-30.0
176
     1
 62
     5
 63
     8
421
  8421504
176
     1
 74
     1
176
     1
 91
        4
176
     1
 64
     7
176
     1
 65
   257
176
     1
 75
     1
176
     1
175
     1
176
     1
 42
1.0
176
     1
 92
        8
176
     1
 66
     8
424
  8421504
176
     1
 43
1.0
176
     1
 76
     1
176
     1
 77
     6
176
     1
 78
     2
176
     1
 67
     7
176
     1
 79
     5
176
     1
170
     0
176
     1
171
     0
176
     1
290
     0
176
     1
 93
        1
176
     1
 44
0.0
176
     1
173
     0
176
     1
  0
VISUALSTYLE
  5
34
102
{ACAD_REACTORS
330
2A
102
}
330
2A
100
AcDbVisualStyle
  2
Conceptual
 70
     9
177
     2
291
     0
 71
     3
176
     1
 72
     2
176
     1
 73
     0
176
     1
 90
        0
176
     1
 40
-0.6
176
     1
 41
-30.0
176
     1
 62
     5
 63
     7
421
 16777215
176
     1
 74
     2
176
     1
 91
        2
176
     1
 64
     7
176
     1
 65
   257
176
     1
 75
     1
176
     1
175
     1
176
     1
 42
40.0
176
     1
 92
        8
176
     1
 66
     7
176
     1
 43
1.0
176
     1
 76
     1
176
     1
 77
     6
176
     1
 78
     2
176
     1
 67
     7
176
     1
 79
     3
176
     1
170
     0
176
     1
171
     0
176
     1
290
     0
176
     1
 93
        1
176
     1
 44
0.0
176
     1
173
     0
176
     1
  0
VISUALSTYLE
  5
35
102
{ACAD_REACTORS
330
2A
102
}
330
2A
100
AcDbVisualStyle
  2
Dim
 70
    11
177
     2
291
     1
 71
     2
176
     1
 72
     2
176
     1
 73
     0
176
     1
 90
        0
176
     1
 40
-0.6
176
     1
 41
-30.0
176
     1
 62
     5
 63
     7
421
 16777215
176
     1
 74
     1
176
     1
 91
        4
176
     1
 64
     7
176
     1
 65
   257
176
     1
 75
     1
176
     1
175
     1
176
     1
 42
1.0
176
     1
 92
        8
176
     1
 66
     7
176
     1
 43
1.0
176
     1
 76
     1
176
     1
 77
     6
176
     1
 78
     2
176
     1
 67
     7
176
     1
 79
     5
176
     1
170
     0
176
     1
171
     0
176
     1
290
     0
176
     1
 93
        1
176
     1
 44
-50.0
176
     1
173
     0
176
     1
  0
VISUALSTYLE
  5
39
102
{ACAD_REACTORS
330
2A
102
}
330
2A
100
AcDbVisualStyle
  2
Facepattern
 70
    15
177
     2
291
     1
 71
     2
176
     1
 72
     2
176
     1
 73
     0
176
     1
 90
        0
176
     1
 40
-0.6
176
     1
 41
-30.0
176
     1
 62
     5
 63
     7
421
 16777215
176
     1
 74
     1
176
     1
 91
        4
176
     1
 64
     7
176
     1
 65
   257
176
     1
 75
     1
176
     1
175
     1
176
     1
 42
1.0
176
     1
 92
        8
176
     1
 66
     7
176
     1
 43
1.0
176
     1
 76
     1
176
     1
 77
     6
176
     1
 78
     2
176
     1
 67
     7
176
     1
 79
     5
176
     1
170
     0
176
     1
171
     0
176
     1
290
     0
176
     1
 93
        1
176
     1
 44
0.0
176
     1
173
     0
176
     1
  0
VISUALSTYLE
  5
2B
102
{ACAD_REACTORS
330
2A
102
}
330
2A
100
AcDbVisualStyle
  2
Flat
 70
     0
177
     2
291
     1
 71
     2
176
     1
 72
     1
176
     1
 73
     1
176
     1
 90
        2
176
     1
 40
-0.6
176
     1
 41
30.0
176
     1
 62
     5
 63
     7
421
 16777215
176
     1
 74
     0
176
     1
 91
        4
176
     1
 64
     7
176
     1
 65
   257
176
     1
 75
     1
176
     1
175
     1
176
     1
 42
1.0
176
     1
 92
        8
176
     1
 66
     7
176
     1
 43
1.0
176
     1
 76
     1
176
     1
 77
     6
176
     1
 78
     2
176
     1
 67
     7
176
     1
 79
     5
176
     1
170
     0
176
     1
171
     0
176
     1
290
     0
176
     1
 93
       13
176
     1
 44
0.0
176
     1
173
     0
176
     1
  0
VISUALSTYLE
  5
2C
102
{ACAD_REACTORS
330
2A
102
}
330
2A
100
AcDbVisualStyle
  2
FlatWithEdges
 70
     1
177
     2
291
     1
 71
     2
176
     1
 72
     1
176
     1
 73
     1
176
     1
 90
        2
176
     1
 40
-0.6
176
     1
 41
30.0
176
     1
 62
     5
 63
     7
421
 16777215
176
     1
 74
     1
176
     1
 91
        4
176
     1
 64
     7
176
     1
 65
   257
176
     1
 75
     1
176
     1
175
     1
176
     1
 42
1.0
176
     1
 92
        0
176
     1
 66
   257
176
     1
 43
1.0
176
     1
 76
     1
176
     1
 77
     6
176
     1
 78
     2
176
     1
 67
     7
176
     1
 79
     5
176
     1
170
     0
176
     1
171
     0
176
     1
290
     0
176
     1
 93
       13
176
     1
 44
0.0
176
     1
173
     0
176
     1
  0
VISUALSTYLE
  5
2D
102
{ACAD_REACTORS
330
2A
102
}
330
2A
100
AcDbVisualStyle
  2
Gouraud
 70
     2
177
     2
291
     1
 71
     2
176
     1
 72
     2
176
     1
 73
     1
176
     1
 90
        2
176
     1
 40
-0.6
176
     1
 41
30.0
176
     1
 62
     5
 63
     7
421
 16777215
176
     1
 74
     0
176
     1
 91
        4
176
     1
 64
     7
176
     1
 65
   257
176
     1
 75
     1
176
     1
175
     1
176
     1
 42
1.0
176
     1
 92
        0
176
     1
 66
     7
176
     1
 43
1.0
176
     1
 76
     1
176
     1
 77
     6
176
     1
 78
     2
176
     1
 67
     7
176
     1
 79
     5
176
     1
170
     0
176
     1
171
     0
176
     1
290
     0
176
     1
 93
       13
176
     1
 44
0.0
176
     1
173
     0
176
     1
  0
VISUALSTYLE
  5
2E
102
{ACAD_REACTORS
330
2A
102
}
330
2A
100
AcDbVisualStyle
  2
GouraudWithEdges
 70
     3
177
     2
291
     1
 71
     2
176
     1
 72
     2
176
     1
 73
     1
176
     1
 90
        2
176
     1
 40
-0.6
176
     1
 41
30.0
176
     1
 62
     5
 63
     7
421
 16777215
176
     1
 74
     1
176
     1
 91
        4
176
     1
 64
     7
176
     1
 65
   257
176
     1
 75
     1
176
     1
175
     1
176
     1
 42
1.0
176
     1
 92
        0
176
     1
 66
   257
176
     1
 43
1.0
176
     1
 76
     1
176
     1
 77
     6
176
     1
 78
     2
176
     1
 67
     7
176
     1
 79
     5
176
     1
170
     0
176
     1
171
     0
176
     1
290
     0
176
     1
 93
       13
176
     1
 44
0.0
176
     1
173
     0
176
     1
  0
VISUALSTYLE
  5
38
102
{ACAD_REACTORS
330
2A
102
}
330
2A
100
AcDbVisualStyle
  2
Linepattern
 70
    14
177
     2
291
     1
 71
     2
176
     1
 72
     2
176
     1
 73
     0
176
     1
 90
        0
176
     1
 40
-0.6
176
     1
 41
-30.0
176
     1
 62
     5
 63
     7
421
 16777215
176
     1
 74
     1
176
     1
 91
        4
176
     1
 64
     7
176
     1
 65
   257
176
     1
 75
     7
176
     1
175
     7
176
     1
 42
1.0
176
     1
 92
        8
176
     1
 66
     7
176
     1
 43
1.0
176
     1
 76
     1
176
     1
 77
     6
176
     1
 78
     2
176
     1
 67
     7
176
     1
 79
     5
176
     1
170
     0
176
     1
171
     0
176
     1
290
     0
176
     1
 93
        1
176
     1
 44
0.0
176
     1
173
     0
176
     1
  0
VISUALSTYLE
  5
33
102
{ACAD_REACTORS
330
2A
102
}
330
2A
100
AcDbVisualStyle
  2
Realistic
 70
     8
177
     2
291
     0
 71
     2
176
     1
 72
     2
176
     1
 73
     0
176
     1
 90
        0
176
     1
 40
-0.6
176
     1
 41
-30.0
176
     1
 62
     5
 63
     7
421
 16777215
176
     1
 74
     1
176
     1
 91
        0
176
     1
 64
     7
176
     1
 65
   257
176
     1
 75
     1
176
     1
175
     1
176
     1
 42
1.0
176
     1
 92
        8
176
     1
 66
     8
424
  7895160
176
     1
 43
1.0
176
     1
 76
     1
176
     1
 77
     6
176
     1
 78
     2
176
     1
 67
     7
176
     1
 79
     5
176
     1
170
     0
176
     1
171
     0
176
     1
290
     0
176
     1
 93
       13
176
     1
 44
0.0
176
     1
173
     0
176
     1
  0
VISUALSTYLE
  5
37
102
{ACAD_REACTORS
330
2A
102
}
330
2A
100
AcDbVisualStyle
  2
Thicken
 70
    13
177
     2
291
     1
 71
     2
176
     1
 72
     2
176
     1
 73
     0
176
     1
 90
        0
176
     1
 40
-0.6
176
     1
 41
-30.0
176
     1
 62
     5
 63
     7
421
 16777215
176
     1
 74
     1
176
     1
 91
        4
176
     1
 64
     7
176
     1
 65
   257
176
     1
 75
     1
176
     1
175
     1
176
     1
 42
1.0
176
     1
 92
       12
176
     1
 66
     7
176
     1
 43
1.0
176
     1
 76
     1
176
     1
 77
     6
176
     1
 78
     2
176
     1
 67
     7
176
     1
 79
     5
176
     1
170
     0
176
     1
171
     0
176
     1
290
     0
176
     1
 93
        1
176
     1
 44
0.0
176
     1
173
     0
176
     1
  0
ENDSEC
  0
EOF
