  0
SECTION
  2
HEADER
  9
$ACADVER
  1
AC1024
  9
$ACADMAINTVER
 70
     6
  9
$DWGCODEPAGE
  3
UNDEFINED
  9
$INSBASE
 10
0.0
 20
0.0
 30
0.0
  9
$EXTMIN
 10
1.000000000000000E+20
 20
1.000000000000000E+20
 30
1.000000000000000E+20
  9
$EXTMAX
 10
-1.000000000000000E+20
 20
-1.000000000000000E+20
 30
-1.000000000000000E+20
  9
$LIMMIN
 10
0.0
 20
0.0
  9
$LIMMAX
 10
12.0
 20
9.0
  9
$ORTHOMODE
 70
     0
  9
$REGENMODE
 70
     1
  9
$FILLMODE
 70
     1
  9
$QTEXTMODE
 70
     0
  9
$MIRRTEXT
 70
     1
  9
$LTSCALE
 40
1.0
  9
$ATTMODE
 70
     1
  9
$TEXTSIZE
 40
0.2
  9
$TRACEWID
 40
0.05
  9
$TEXTSTYLE
  7
Standard
  9
$CLAYER
  8
0
  9
$CELTYPE
  6
ByLayer
  9
$CECOLOR
 62
   256
  9
$CELTSCALE
 40
1.0
  9
$DISPSILH
 70
     0
  9
$DIMSCALE
 40
1.0
  9
$DIMASZ
 40
0.18
  9
$DIMEXO
 40
0.0625
  9
$DIMDLI
 40
0.38
  9
$DIMRND
 40
0.0
  9
$DIMDLE
 40
0.0
  9
$DIMEXE
 40
0.18
  9
$DIMTP
 40
0.0
  9
$DIMTM
 40
0.0
  9
$DIMTXT
 40
0.18
  9
$DIMCEN
 40
0.09
  9
$DIMTSZ
 40
0.0
  9
$DIMTOL
 70
     0
  9
$DIMLIM
 70
     0
  9
$DIMTIH
 70
     1
  9
$DIMTOH
 70
     1
  9
$DIMSE1
 70
     0
  9
$DIMSE2
 70
     0
  9
$DIMTAD
 70
     0
  9
$DIMZIN
 70
     0
  9
$DIMBLK
  1

  9
$DIMASO
 70
     1
  9
$DIMSHO
 70
     1
  9
$DIMPOST
  1

  9
$DIMAPOST
  1

  9
$DIMALT
 70
     0
  9
$DIMALTD
 70
     2
  9
$DIMALTF
 40
25.4
  9
$DIMLFAC
 40
1.0
  9
$DIMTOFL
 70
     0
  9
$DIMTVP
 40
0.0
  9
$DIMTIX
 70
     0
  9
$DIMSOXD
 70
     0
  9
$DIMSAH
 70
     0
  9
$DIMBLK1
  1

  9
$DIMBLK2
  1

  9
$DIMSTYLE
  2
Standard
  9
$DIMCLRD
 70
     0
  9
$DIMCLRE
 70
     0
  9
$DIMCLRT
 70
     0
  9
$DIMTFAC
 40
1.0
  9
$DIMGAP
 40
0.09
  9
$DIMJUST
 70
     0
  9
$DIMSD1
 70
     0
  9
$DIMSD2
 70
     0
  9
$DIMTOLJ
 70
     1
  9
$DIMTZIN
 70
     0
  9
$DIMALTZ
 70
     0
  9
$DIMALTTZ
 70
     0
  9
$DIMUPT
 70
     0
  9
$DIMDEC
 70
     4
  9
$DIMTDEC
 70
     4
  9
$DIMALTU
 70
     2
  9
$DIMALTTD
 70
     2
  9
$DIMTXSTY
  7
Standard
  9
$DIMAUNIT
 70
     0
  9
$DIMADEC
 70
     0
  9
$DIMALTRND
 40
0.0
  9
$DIMAZIN
 70
     0
  9
$DIMDSEP
 70
    46
  9
$DIMATFIT
 70
     3
  9
$DIMFRAC
 70
     0
  9
$DIMLDRBLK
  1

  9
$DIMLUNIT
 70
     2
  9
$DIMLWD
 70
    -2
  9
$DIMLWE
 70
    -2
  9
$DIMTMOVE
 70
     0
  9
$DIMFXL
 40
1.0
  9
$DIMFXLON
 70
     0
  9
$DIMJOGANG
 40
0.7853981633974483
  9
$DIMTFILL
 70
     0
  9
$DIMTFILLCLR
 70
     0
  9
$DIMARCSYM
 70
     0
  9
$DIMLTYPE
  6

  9
$DIMLTEX1
  6

  9
$DIMLTEX2
  6

  9
$DIMTXTDIRECTION
 70
     0
  9
$LUNITS
 70
     2
  9
$LUPREC
 70
     4
  9
$SKETCHINC
 40
0.1
  9
$FILLETRAD
 40
0.5
  9
$AUNITS
 70
     0
  9
$AUPREC
 70
     0
  9
$MENU
  1
.
  9
$ELEVATION
 40
0.0
  9
$PELEVATION
 40
0.0
  9
$THICKNESS
 40
0.0
  9
$LIMCHECK
 70
     0
  9
$CHAMFERA
 40
0.5
  9
$CHAMFERB
 40
0.5
  9
$CHAMFERC
 40
1.0
  9
$CHAMFERD
 40
0.0
  9
$SKPOLY
 70
     0
  9
$TDCREATE
 40
2457917.61366897
  9
$TDUCREATE
 40
2457917.238668981
  9
$TDUPDATE
 40
2457917.61366897
  9
$TDUUPDATE
 40
2457917.238668981
  9
$TDINDWG
 40
0.0000000116
  9
$TDUSRTIMER
 40
0.0000000116
  9
$USRTIMER
 70
     1
  9
$ANGBASE
 50
0.0
  9
$ANGDIR
 70
     0
  9
$PDMODE
 70
     0
  9
$PDSIZE
 40
0.0
  9
$PLINEWID
 40
0.0
  9
$SPLFRAME
 70
     0
  9
$SPLINETYPE
 70
     6
  9
$SPLINESEGS
 70
     8
  9
$HANDSEED
  5
14E
  9
$SURFTAB1
 70
     6
  9
$SURFTAB2
 70
     6
  9
$SURFTYPE
 70
     6
  9
$SURFU
 70
     6
  9
$SURFV
 70
     6
  9
$UCSBASE
  2

  9
$UCSNAME
  2

  9
$UCSORG
 10
0.0
 20
0.0
 30
0.0
  9
$UCSXDIR
 10
1.0
 20
0.0
 30
0.0
  9
$UCSYDIR
 10
0.0
 20
1.0
 30
0.0
  9
$UCSORTHOREF
  2

  9
$UCSORTHOVIEW
 70
     0
  9
$UCSORGTOP
 10
0.0
 20
0.0
 30
0.0
  9
$UCSORGBOTTOM
 10
0.0
 20
0.0
 30
0.0
  9
$UCSORGLEFT
 10
0.0
 20
0.0
 30
0.0
  9
$UCSORGRIGHT
 10
0.0
 20
0.0
 30
0.0
  9
$UCSORGFRONT
 10
0.0
 20
0.0
 30
0.0
  9
$UCSORGBACK
 10
0.0
 20
0.0
 30
0.0
  9
$PUCSBASE
  2

  9
$PUCSNAME
  2

  9
$PUCSORG
 10
0.0
 20
0.0
 30
0.0
  9
$PUCSXDIR
 10
1.0
 20
0.0
 30
0.0
  9
$PUCSYDIR
 10
0.0
 20
1.0
 30
0.0
  9
$PUCSORTHOREF
  2

  9
$PUCSORTHOVIEW
 70
     0
  9
$PUCSORGTOP
 10
0.0
 20
0.0
 30
0.0
  9
$PUCSORGBOTTOM
 10
0.0
 20
0.0
 30
0.0
  9
$PUCSORGLEFT
 10
0.0
 20
0.0
 30
0.0
  9
$PUCSORGRIGHT
 10
0.0
 20
0.0
 30
0.0
  9
$PUCSORGFRONT
 10
0.0
 20
0.0
 30
0.0
  9
$PUCSORGBACK
 10
0.0
 20
0.0
 30
0.0
  9
$USERI1
 70
     0
  9
$USERI2
 70
     0
  9
$USERI3
 70
     0
  9
$USERI4
 70
     0
  9
$USERI5
 70
     0
  9
$USERR1
 40
0.0
  9
$USERR2
 40
0.0
  9
$USERR3
 40
0.0
  9
$USERR4
 40
0.0
  9
$USERR5
 40
0.0
  9
$WORLDVIEW
 70
     1
  9
$SHADEDGE
 70
     3
  9
$SHADEDIF
 70
    70
  9
$TILEMODE
 70
     1
  9
$MAXACTVP
 70
    64
  9
$PINSBASE
 10
0.0
 20
0.0
 30
0.0
  9
$PLIMCHECK
 70
     0
  9
$PEXTMIN
 10
1.000000000000000E+20
 20
1.000000000000000E+20
 30
1.000000000000000E+20
  9
$PEXTMAX
 10
-1.000000000000000E+20
 20
-1.000000000000000E+20
 30
-1.000000000000000E+20
  9
$PLIMMIN
 10
0.0
 20
0.0
  9
$PLIMMAX
 10
12.0
 20
9.0
  9
$UNITMODE
 70
     0
  9
$VISRETAIN
 70
     1
  9
$PLINEGEN
 70
     0
  9
$PSLTSCALE
 70
     1
  9
$TREEDEPTH
 70
  3020
  9
$CMLSTYLE
  2
Standard
  9
$CMLJUST
 70
     0
  9
$CMLSCALE
 40
1.0
  9
$PROXYGRAPHICS
 70
     1
  9
$MEASUREMENT
 70
     0
  9
$CELWEIGHT
370
    -1
  9
$ENDCAPS
280
     0
  9
$JOINSTYLE
280
     0
  9
$LWDISPLAY
290
     1
  9
$INSUNITS
 70
     1
  9
$HYPERLINKBASE
  1

  9
$STYLESHEET
  1

  9
$XEDIT
290
     1
  9
$CEPSNTYPE
380
     0
  9
$PSTYLEMODE
290
     1
  9
$FINGERPRINTGUID
  2
{333BA025-7279-9967-D30E-A842C0897B4F}
  9
$VERSIONGUID
  2
{FAEB1C32-E019-11D5-929B-00C0DF256EC4}
  9
$EXTNAMES
290
     1
  9
$PSVPSCALE
 40
0.0
  9
$OLESTARTUP
290
     0
  9
$SORTENTS
280
   127
  9
$INDEXCTL
280
     0
  9
$HIDETEXT
280
     1
  9
$XCLIPFRAME
280
     2
  9
$HALOGAP
280
     0
  9
$OBSCOLOR
 70
   257
  9
$OBSLTYPE
280
     0
  9
$INTERSECTIONDISPLAY
280
     0
  9
$INTERSECTIONCOLOR
 70
   257
  9
$DIMASSOC
280
     2
  9
$PROJECTNAME
  1

  9
$CAMERADISPLAY
290
     0
  9
$LENSLENGTH
 40
50.0
  9
$CAMERAHEIGHT
 40
0.0
  9
$STEPSPERSEC
 40
2.0
  9
$STEPSIZE
 40
6.0
  9
$3DDWFPREC
 40
2.0
  9
$PSOLWIDTH
 40
0.25
  9
$PSOLHEIGHT
 40
4.0
  9
$LOFTANG1
 40
1.570796326794897
  9
$LOFTANG2
 40
1.570796326794897
  9
$LOFTMAG1
 40
0.0
  9
$LOFTMAG2
 40
0.0
  9
$LOFTPARAM
 70
     7
  9
$LOFTNORMALS
280
     1
  9
$LATITUDE
 40
37.795
  9
$LONGITUDE
 40
-122.394
  9
$NORTHDIRECTION
 40
0.0
  9
$TIMEZONE
 70
 -8000
  9
$LIGHTGLYPHDISPLAY
280
     1
  9
$TILEMODELIGHTSYNCH
280
     1
  9
$CMATERIAL
347
3C
  9
$SOLIDHIST
280
     1
  9
$SHOWHIST
280
     1
  9
$DWFFRAME
280
     2
  9
$DGNFRAME
280
     2
  9
$REALWORLDSCALE
290
     1
  9
$INTERFERECOLOR
 62
   256
  9
$CSHADOW
280
     0
  9
$SHADOWPLANELOCATION
 40
0.0
  0
ENDSEC
  0
SECTION
  2
CLASSES
  0
CLASS
  1
ACDBDICTIONARYWDFLT
  2
AcDbDictionaryWithDefault
  3
ObjectDBX Classes
 90
        0
 91
        4
280
     0
281
     0
  0
CLASS
  1
VISUALSTYLE
  2
AcDbVisualStyle
  3
ObjectDBX Classes
 90
     4095
 91
        4
280
     0
281
     0
  0
CLASS
  1
MATERIAL
  2
AcDbMaterial
  3
ObjectDBX Classes
 90
     1153
 91
        4
280
     0
281
     0
  0
CLASS
  1
SUN
  2
AcDbSun
  3
SCENEOE
 90
     1024
 91
        4
280
     0
281
     0
  0
ENDSEC
  0
SECTION
  2
TABLES
  0
TABLE
  2
VPORT
  5
8
330
0
100
AcDbSymbolTable
 70
     1
  0
VPORT
  5
29
330
8
100
AcDbSymbolTableRecord
100
AcDbViewportTableRecord
  2
*Active
 70
     0
 10
0.0
 20
0.0
 11
1.0
 21
1.0
 12
0.0
 22
0.0
 13
0.0
 23
0.0
 14
0.5
 24
0.5
 15
0.5
 25
0.5
 16
0.0
 26
0.0
 36
1.0
 17
91.00082462281999
 27
-128.4993055234307
 37
0.0
 40
256.9986110468615
 41
0.7081814508812795
 42
50.0
 43
0.0
 44
0.0
 50
0.0
 51
0.0
 71
     0
 72
   100
 73
     1
 74
     3
 75
     0
 76
     0
 77
     0
 78
     0
281
     0
 65
     1
110
0.0
120
0.0
130
0.0
111
1.0
121
0.0
131
0.0
112
0.0
122
1.0
132
0.0
 79
     0
146
0.0
 60
     3
 61
     5
292
     1
282
     1
141
0.0
142
0.0
 63
   250
361
3F
  0
ENDTAB
  0
TABLE
  2
LTYPE
  5
5
330
0
100
AcDbSymbolTable
 70
     1
  0
LTYPE
  5
14
330
5
100
AcDbSymbolTableRecord
100
AcDbLinetypeTableRecord
  2
ByBlock
 70
     0
  3

 72
    65
 73
     0
 40
0.0
  0
LTYPE
  5
15
330
5
100
AcDbSymbolTableRecord
100
AcDbLinetypeTableRecord
  2
ByLayer
 70
     0
  3

 72
    65
 73
     0
 40
0.0
  0
LTYPE
  5
16
330
5
100
AcDbSymbolTableRecord
100
AcDbLinetypeTableRecord
  2
Continuous
 70
     0
  3
Solid line
 72
    65
 73
     0
 40
0.0
  0
ENDTAB
  0
TABLE
  2
LAYER
  5
2
330
0
100
AcDbSymbolTable
 70
     2
  0
LAYER
  5
10
330
2
100
AcDbSymbolTableRecord
100
AcDbLayerTableRecord
  2
0
 70
     0
 62
     7
  6
Continuous
370
    -3
390
F
347
3E
  0
LAYER
  5
40
330
2
100
AcDbSymbolTableRecord
100
AcDbLayerTableRecord
  2
_U+30EC_U+30A4_U+30E4_U+30FC 1
 70
     0
 62
     7
  6
Continuous
370
    -3
390
F
347
3E
  0
ENDTAB
  0
TABLE
  2
STYLE
  5
3
330
0
100
AcDbSymbolTable
 70
     1
  0
STYLE
  5
11
330
3
100
AcDbSymbolTableRecord
100
AcDbTextStyleTableRecord
  2
Standard
 70
     0
 40
0.0
 41
1.0
 50
0.0
 71
     0
 42
0.2
  3
txt
  4

  0
ENDTAB
  0
TABLE
  2
VIEW
  5
6
330
0
100
AcDbSymbolTable
 70
     0
  0
ENDTAB
  0
TABLE
  2
UCS
  5
7
330
0
100
AcDbSymbolTable
 70
     0
  0
ENDTAB
  0
TABLE
  2
APPID
  5
9
330
0
100
AcDbSymbolTable
 70
     1
  0
APPID
  5
12
330
9
100
AcDbSymbolTableRecord
100
AcDbRegAppTableRecord
  2
ACAD
 70
     0
  0
ENDTAB
  0
TABLE
  2
DIMSTYLE
  5
A
330
0
100
AcDbSymbolTable
 70
     1
100
AcDbDimStyleTable
  0
DIMSTYLE
105
27
330
A
100
AcDbSymbolTableRecord
100
AcDbDimStyleTableRecord
  2
Standard
 70
     0
178
     0
340
11
  0
ENDTAB
  0
TABLE
  2
BLOCK_RECORD
  5
1
330
0
100
AcDbSymbolTable
 70
     8
  0
BLOCK_RECORD
  5
1F
330
1
100
AcDbSymbolTableRecord
100
AcDbBlockTableRecord
  2
*Model_Space
340
22
 70
     0
280
     1
281
     0
  0
BLOCK_RECORD
  5
1B
330
1
100
AcDbSymbolTableRecord
100
AcDbBlockTableRecord
  2
*Paper_Space
340
1E
 70
     0
280
     1
281
     0
  0
BLOCK_RECORD
  5
23
330
1
100
AcDbSymbolTableRecord
100
AcDbBlockTableRecord
  2
*Paper_Space0
340
26
 70
     0
280
     1
281
     0
  0
BLOCK_RECORD
  5
94
330
1
100
AcDbSymbolTableRecord
100
AcDbBlockTableRecord
  2
block 2
340
0
102
{BLKREFS
331
95
102
}
 70
     0
280
     1
281
     0
  0
BLOCK_RECORD
  5
A4
330
1
100
AcDbSymbolTableRecord
100
AcDbBlockTableRecord
  2
block 3
340
0
102
{BLKREFS
331
A5
102
}
 70
     0
280
     1
281
     0
  0
BLOCK_RECORD
  5
DB
330
1
100
AcDbSymbolTableRecord
100
AcDbBlockTableRecord
  2
block 4
340
0
102
{BLKREFS
331
DC
102
}
 70
     0
280
     1
281
     0
  0
BLOCK_RECORD
  5
F1
330
1
100
AcDbSymbolTableRecord
100
AcDbBlockTableRecord
  2
block 5
340
0
102
{BLKREFS
331
F2
102
}
 70
     0
280
     1
281
     0
  0
BLOCK_RECORD
  5
105
330
1
100
AcDbSymbolTableRecord
100
AcDbBlockTableRecord
  2
block 6
340
0
102
{BLKREFS
331
106
102
}
 70
     0
280
     1
281
     0
  0
BLOCK_RECORD
  5
126
330
1
100
AcDbSymbolTableRecord
100
AcDbBlockTableRecord
  2
block 7
340
0
102
{BLKREFS
331
127
102
}
 70
     0
280
     1
281
     0
  0
BLOCK_RECORD
  5
144
330
1
100
AcDbSymbolTableRecord
100
AcDbBlockTableRecord
  2
block 8
340
0
102
{BLKREFS
331
145
102
}
 70
     0
280
     1
281
     0
  0
ENDTAB
  0
ENDSEC
  0
SECTION
  2
BLOCKS
  0
BLOCK
  5
20
330
1F
100
AcDbEntity
  8
0
100
AcDbBlockBegin
  2
*Model_Space
 70
     0
 10
0.0
 20
0.0
 30
0.0
  3
*Model_Space
  1

  0
ENDBLK
  5
21
330
1F
100
AcDbEntity
  8
0
100
AcDbBlockEnd
  0
BLOCK
  5
1C
330
1B
100
AcDbEntity
 67
     1
  8
0
100
AcDbBlockBegin
  2
*Paper_Space
 70
     0
 10
0.0
 20
0.0
 30
0.0
  3
*Paper_Space
  1

  0
ENDBLK
  5
1D
330
1B
100
AcDbEntity
 67
     1
  8
0
100
AcDbBlockEnd
  0
BLOCK
  5
24
330
23
100
AcDbEntity
  8
0
100
AcDbBlockBegin
  2
*Paper_Space0
 70
     0
 10
0.0
 20
0.0
 30
0.0
  3
*Paper_Space0
  1

  0
ENDBLK
  5
25
330
23
100
AcDbEntity
  8
0
100
AcDbBlockEnd
  0
BLOCK
  5
96
330
94
100
AcDbEntity
  8
0
100
AcDbBlockBegin
  2
block 2
 70
     0
 10
0.0
 20
0.0
 30
0.0
  3
block 2
  1

  0
SPLINE
  5
98
330
94
100
AcDbEntity
  8
_U+30EC_U+30A4_U+30E4_U+30FC 1
370
     0
100
AcDbSpline
210
0.0
220
0.0
230
1.0
 70
    11
 71
     3
 72
    26
 73
    22
 74
     0
 42
0.0000000001
 43
0.0000000001
 12
1.0
 22
0.0
 32
0.0
 13
1.0
 23
0.0
 33
0.0
 40
0.0
 40
0.0
 40
0.0
 40
0.0
 40
1.0
 40
1.0
 40
1.0
 40
2.0
 40
2.0
 40
2.0
 40
3.0
 40
3.0
 40
3.0
 40
4.0
 40
4.0
 40
4.0
 40
5.0
 40
5.0
 40
5.0
 40
6.0
 40
6.0
 40
6.0
 40
7.0
 40
7.0
 40
7.0
 40
7.0
 10
119.8100856905336
 20
-123.3118529965158
 30
0.0
 10
119.8100856905336
 20
-123.3118529965158
 30
0.0
 10
118.705932587511
 20
-123.3118529965158
 30
0.0
 10
118.705932587511
 20
-123.3118529965158
 30
0.0
 10
118.705932587511
 20
-123.3118529965158
 30
0.0
 10
118.705932587511
 20
-123.6646307742054
 30
0.0
 10
118.705932587511
 20
-123.6646307742054
 30
0.0
 10
118.705932587511
 20
-123.6646307742054
 30
0.0
 10
118.5577934816453
 20
-123.6646307742054
 30
0.0
 10
118.5577934816453
 20
-123.6646307742054
 30
0.0
 10
118.5429795710587
 20
-123.3096136844504
 30
0.0
 10
118.3800265546064
 20
-123.2598320546885
 30
0.0
 10
118.2656493844961
 20
-123.2283094309985
 30
0.0
 10
118.2656493844961
 20
-123.2283094309985
 30
0.0
 10
118.2656493844961
 20
-123.0722466055167
 30
0.0
 10
118.2656493844961
 20
-123.0722466055167
 30
0.0
 10
118.2656493844961
 20
-123.0722466055167
 30
0.0
 10
119.8100856905336
 20
-123.0722466055167
 30
0.0
 10
119.8100856905336
 20
-123.0722466055167
 30
0.0
 10
119.8100856905336
 20
-123.0722466055167
 30
0.0
 10
119.8100856905336
 20
-123.3118529965158
 30
0.0
 10
119.8100856905336
 20
-123.3118529965158
 30
0.0
  0
HATCH
  5
99
330
94
100
AcDbEntity
  8
_U+30EC_U+30A4_U+30E4_U+30FC 1
 62
     7
420
 16777215
100
AcDbHatch
 10
0.0
 20
0.0
 30
0.0
210
0.0
220
0.0
230
1.0
  2
SOLID
 70
     1
 71
     0
 91
        1
 92
        1
 93
        1
 72
     4
 94
        3
 73
     0
 74
     1
 95
       26
 96
       22
 40
0.0
 40
0.0
 40
0.0
 40
0.0
 40
1.0
 40
1.0
 40
1.0
 40
2.0
 40
2.0
 40
2.0
 40
3.0
 40
3.0
 40
3.0
 40
4.0
 40
4.0
 40
4.0
 40
5.0
 40
5.0
 40
5.0
 40
6.0
 40
6.0
 40
6.0
 40
7.0
 40
7.0
 40
7.0
 40
7.0
 10
119.8100856905336
 20
-123.3118529965158
 10
119.8100856905336
 20
-123.3118529965158
 10
118.705932587511
 20
-123.3118529965158
 10
118.705932587511
 20
-123.3118529965158
 10
118.705932587511
 20
-123.3118529965158
 10
118.705932587511
 20
-123.6646307742054
 10
118.705932587511
 20
-123.6646307742054
 10
118.705932587511
 20
-123.6646307742054
 10
118.5577934816453
 20
-123.6646307742054
 10
118.5577934816453
 20
-123.6646307742054
 10
118.5429795710587
 20
-123.3096136844504
 10
118.3800265546064
 20
-123.2598320546885
 10
118.2656493844961
 20
-123.2283094309985
 10
118.2656493844961
 20
-123.2283094309985
 10
118.2656493844961
 20
-123.0722466055167
 10
118.2656493844961
 20
-123.0722466055167
 10
118.2656493844961
 20
-123.0722466055167
 10
119.8100856905336
 20
-123.0722466055167
 10
119.8100856905336
 20
-123.0722466055167
 10
119.8100856905336
 20
-123.0722466055167
 10
119.8100856905336
 20
-123.3118529965158
 10
119.8100856905336
 20
-123.3118529965158
 97
        0
 97
        0
 75
     2
 76
     1
 98
        0
  0
POLYLINE
  5
9A
330
94
100
AcDbEntity
  8
_U+30EC_U+30A4_U+30E4_U+30FC 1
370
     0
100
AcDb2dPolyline
 66
     1
 10
0.0
 20
0.0
 30
0.0
  0
VERTEX
  5
9B
330
9A
100
AcDbEntity
  8
_U+30EC_U+30A4_U+30E4_U+30FC 1
370
     0
100
AcDbVertex
100
AcDb2dVertex
 10
119.8100856905336
 20
-122.4722832267604
 30
0.0
  0
VERTEX
  5
9C
330
9A
100
AcDbEntity
  8
_U+30EC_U+30A4_U+30E4_U+30FC 1
370
     0
100
AcDbVertex
100
AcDb2dVertex
 10
119.5582492105618
 20
-122.4722832267604
 30
0.0
  0
VERTEX
  5
9D
330
9A
100
AcDbEntity
  8
_U+30EC_U+30A4_U+30E4_U+30FC 1
370
     0
100
AcDbVertex
100
AcDb2dVertex
 10
119.5582492105618
 20
-122.2032212693624
 30
0.0
  0
VERTEX
  5
9E
330
9A
100
AcDbEntity
  8
_U+30EC_U+30A4_U+30E4_U+30FC 1
370
     0
100
AcDbVertex
100
AcDb2dVertex
 10
119.8100856905336
 20
-122.2032212693624
 30
0.0
  0
VERTEX
  5
9F
330
9A
100
AcDbEntity
  8
_U+30EC_U+30A4_U+30E4_U+30FC 1
370
     0
100
AcDbVertex
100
AcDb2dVertex
 10
119.8100856905336
 20
-122.4722832267604
 30
0.0
  0
SEQEND
  5
A0
330
9A
100
AcDbEntity
  8
_U+30EC_U+30A4_U+30E4_U+30FC 1
370
     0
  0
HATCH
  5
A1
330
94
100
AcDbEntity
  8
_U+30EC_U+30A4_U+30E4_U+30FC 1
 62
     7
420
 16777215
100
AcDbHatch
 10
0.0
 20
0.0
 30
0.0
210
0.0
220
0.0
230
1.0
  2
SOLID
 70
     1
 71
     0
 91
        1
 92
        1
 93
        4
 72
     1
 10
119.8100856905336
 20
-122.4722832267604
 11
119.5582492105618
 21
-122.4722832267604
 72
     1
 10
119.5582492105618
 20
-122.4722832267604
 11
119.5582492105618
 21
-122.2032212693624
 72
     1
 10
119.5582492105618
 20
-122.2032212693624
 11
119.8100856905336
 21
-122.2032212693624
 72
     1
 10
119.8100856905336
 20
-122.2032212693624
 11
119.8100856905336
 21
-122.4722832267604
 97
        0
 75
     2
 76
     1
 98
        0
  0
SPLINE
  5
A2
330
94
100
AcDbEntity
  8
_U+30EC_U+30A4_U+30E4_U+30FC 1
370
     0
100
AcDbSpline
210
0.0
220
0.0
230
1.0
 70
    11
 71
     3
 72
    26
 73
    22
 74
     0
 42
0.0000000001
 43
0.0000000001
 12
1.0
 22
0.0
 32
0.0
 13
1.0
 23
0.0
 33
0.0
 40
0.0
 40
0.0
 40
0.0
 40
0.0
 40
1.0
 40
1.0
 40
1.0
 40
2.0
 40
2.0
 40
2.0
 40
3.0
 40
3.0
 40
3.0
 40
4.0
 40
4.0
 40
4.0
 40
5.0
 40
5.0
 40
5.0
 40
6.0
 40
6.0
 40
6.0
 40
7.0
 40
7.0
 40
7.0
 40
7.0
 10
119.8100856905336
 20
-121.4682101475843
 30
0.0
 10
119.8100856905336
 20
-121.4682101475843
 30
0.0
 10
118.705932587511
 20
-121.4682101475843
 30
0.0
 10
118.705932587511
 20
-121.4682101475843
 30
0.0
 10
118.705932587511
 20
-121.4682101475843
 30
0.0
 10
118.705932587511
 20
-121.8208156704997
 30
0.0
 10
118.705932587511
 20
-121.8208156704997
 30
0.0
 10
118.705932587511
 20
-121.8208156704997
 30
0.0
 10
118.5577934816453
 20
-121.8208156704997
 30
0.0
 10
118.5577934816453
 20
-121.8208156704997
 30
0.0
 10
118.5429795710587
 20
-121.4657985807447
 30
0.0
 10
118.3800265546064
 20
-121.4161892057571
 30
0.0
 10
118.2656493844961
 20
-121.3844943272928
 30
0.0
 10
118.2656493844961
 20
-121.3844943272928
 30
0.0
 10
118.2656493844961
 20
-121.228431501811
 30
0.0
 10
118.2656493844961
 20
-121.228431501811
 30
0.0
 10
118.2656493844961
 20
-121.228431501811
 30
0.0
 10
119.8100856905336
 20
-121.228431501811
 30
0.0
 10
119.8100856905336
 20
-121.228431501811
 30
0.0
 10
119.8100856905336
 20
-121.228431501811
 30
0.0
 10
119.8100856905336
 20
-121.4682101475843
 30
0.0
 10
119.8100856905336
 20
-121.4682101475843
 30
0.0
  0
HATCH
  5
A3
330
94
100
AcDbEntity
  8
_U+30EC_U+30A4_U+30E4_U+30FC 1
 62
     7
420
 16777215
100
AcDbHatch
 10
0.0
 20
0.0
 30
0.0
210
0.0
220
0.0
230
1.0
  2
SOLID
 70
     1
 71
     0
 91
        1
 92
        1
 93
        1
 72
     4
 94
        3
 73
     0
 74
     1
 95
       26
 96
       22
 40
0.0
 40
0.0
 40
0.0
 40
0.0
 40
1.0
 40
1.0
 40
1.0
 40
2.0
 40
2.0
 40
2.0
 40
3.0
 40
3.0
 40
3.0
 40
4.0
 40
4.0
 40
4.0
 40
5.0
 40
5.0
 40
5.0
 40
6.0
 40
6.0
 40
6.0
 40
7.0
 40
7.0
 40
7.0
 40
7.0
 10
119.8100856905336
 20
-121.4682101475843
 10
119.8100856905336
 20
-121.4682101475843
 10
118.705932587511
 20
-121.4682101475843
 10
118.705932587511
 20
-121.4682101475843
 10
118.705932587511
 20
-121.4682101475843
 10
118.705932587511
 20
-121.8208156704997
 10
118.705932587511
 20
-121.8208156704997
 10
118.705932587511
 20
-121.8208156704997
 10
118.5577934816453
 20
-121.8208156704997
 10
118.5577934816453
 20
-121.8208156704997
 10
118.5429795710587
 20
-121.4657985807447
 10
118.3800265546064
 20
-121.4161892057571
 10
118.2656493844961
 20
-121.3844943272928
 10
118.2656493844961
 20
-121.3844943272928
 10
118.2656493844961
 20
-121.228431501811
 10
118.2656493844961
 20
-121.228431501811
 10
118.2656493844961
 20
-121.228431501811
 10
119.8100856905336
 20
-121.228431501811
 10
119.8100856905336
 20
-121.228431501811
 10
119.8100856905336
 20
-121.228431501811
 10
119.8100856905336
 20
-121.4682101475843
 10
119.8100856905336
 20
-121.4682101475843
 97
        0
 97
        0
 75
     2
 76
     1
 98
        0
  0
ENDBLK
  5
97
330
94
100
AcDbEntity
  8
0
100
AcDbBlockEnd
  0
BLOCK
  5
A6
330
A4
100
AcDbEntity
  8
0
100
AcDbBlockBegin
  2
block 3
 70
     0
 10
0.0
 20
0.0
 30
0.0
  3
block 3
  1

  0
POLYLINE
  5
A8
330
A4
100
AcDbEntity
  8
_U+30EC_U+30A4_U+30E4_U+30FC 1
370
     0
100
AcDb2dPolyline
 66
     1
 10
0.0
 20
0.0
 30
0.0
  0
VERTEX
  5
A9
330
A8
100
AcDbEntity
  8
_U+30EC_U+30A4_U+30E4_U+30FC 1
370
     0
100
AcDbVertex
100
AcDb2dVertex
 10
119.4631645751689
 20
-142.7203151769936
 30
0.0
  0
VERTEX
  5
AA
330
A8
100
AcDbEntity
  8
_U+30EC_U+30A4_U+30E4_U+30FC 1
370
     0
100
AcDbVertex
100
AcDb2dVertex
 10
119.8100856905336
 20
-142.7203151769936
 30
0.0
  0
VERTEX
  5
AB
330
A8
100
AcDbEntity
  8
_U+30EC_U+30A4_U+30E4_U+30FC 1
370
     0
100
AcDbVertex
100
AcDb2dVertex
 10
119.8100856905336
 20
-142.9532036317964
 30
0.0
  0
VERTEX
  5
AC
330
A8
100
AcDbEntity
  8
_U+30EC_U+30A4_U+30E4_U+30FC 1
370
     0
100
AcDbVertex
100
AcDb2dVertex
 10
119.4631645751689
 20
-142.9532036317964
 30
0.0
  0
VERTEX
  5
AD
330
A8
100
AcDbEntity
  8
_U+30EC_U+30A4_U+30E4_U+30FC 1
370
     0
100
AcDbVertex
100
AcDb2dVertex
 10
119.4631645751689
 20
-143.6542805630448
 30
0.0
  0
VERTEX
  5
AE
330
A8
100
AcDbEntity
  8
_U+30EC_U+30A4_U+30E4_U+30FC 1
370
     0
100
AcDbVertex
100
AcDb2dVertex
 10
119.2388888590792
 20
-143.6542805630448
 30
0.0
  0
VERTEX
  5
AF
330
A8
100
AcDbEntity
  8
_U+30EC_U+30A4_U+30E4_U+30FC 1
370
     0
100
AcDbVertex
100
AcDb2dVertex
 10
118.2656493844961
 20
-142.9283989443026
 30
0.0
  0
VERTEX
  5
B0
330
A8
100
AcDbEntity
  8
_U+30EC_U+30A4_U+30E4_U+30FC 1
370
     0
100
AcDbVertex
100
AcDb2dVertex
 10
118.2656493844961
 20
-142.7203151769936
 30
0.0
  0
VERTEX
  5
B1
330
A8
100
AcDbEntity
  8
_U+30EC_U+30A4_U+30E4_U+30FC 1
370
     0
100
AcDbVertex
100
AcDb2dVertex
 10
119.26438256567
 20
-142.7203151769936
 30
0.0
  0
VERTEX
  5
B2
330
A8
100
AcDbEntity
  8
_U+30EC_U+30A4_U+30E4_U+30FC 1
370
     0
100
AcDbVertex
100
AcDb2dVertex
 10
119.26438256567
 20
-142.498795537292
 30
0.0
  0
VERTEX
  5
B3
330
A8
100
AcDbEntity
  8
_U+30EC_U+30A4_U+30E4_U+30FC 1
370
     0
100
AcDbVertex
100
AcDb2dVertex
 10
119.4631645751689
 20
-142.498795537292
 30
0.0
  0
VERTEX
  5
B4
330
A8
100
AcDbEntity
  8
_U+30EC_U+30A4_U+30E4_U+30FC 1
370
     0
100
AcDbVertex
100
AcDb2dVertex
 10
119.4631645751689
 20
-142.7203151769936
 30
0.0
  0
SEQEND
  5
B5
330
A8
100
AcDbEntity
  8
_U+30EC_U+30A4_U+30E4_U+30FC 1
370
     0
  0
POLYLINE
  5
B6
330
A4
100
AcDbEntity
  8
_U+30EC_U+30A4_U+30E4_U+30FC 1
370
     0
100
AcDb2dPolyline
 66
     1
 10
0.0
 20
0.0
 30
0.0
  0
VERTEX
  5
B7
330
B6
100
AcDbEntity
  8
_U+30EC_U+30A4_U+30E4_U+30FC 1
370
     0
100
AcDbVertex
100
AcDb2dVertex
 10
118.6084363852785
 20
-142.9532036317964
 30
0.0
  0
VERTEX
  5
B8
330
B6
100
AcDbEntity
  8
_U+30EC_U+30A4_U+30E4_U+30FC 1
370
     0
100
AcDbVertex
100
AcDb2dVertex
 10
119.26438256567
 20
-143.4417181716049
 30
0.0
  0
VERTEX
  5
B9
330
B6
100
AcDbEntity
  8
_U+30EC_U+30A4_U+30E4_U+30FC 1
370
     0
100
AcDbVertex
100
AcDb2dVertex
 10
119.26438256567
 20
-142.9532036317964
 30
0.0
  0
VERTEX
  5
BA
330
B6
100
AcDbEntity
  8
_U+30EC_U+30A4_U+30E4_U+30FC 1
370
     0
100
AcDbVertex
100
AcDb2dVertex
 10
118.6084363852785
 20
-142.9532036317964
 30
0.0
  0
SEQEND
  5
BB
330
B6
100
AcDbEntity
  8
_U+30EC_U+30A4_U+30E4_U+30FC 1
370
     0
  0
HATCH
  5
BC
330
A4
100
AcDbEntity
  8
_U+30EC_U+30A4_U+30E4_U+30FC 1
 62
     7
420
 16777215
100
AcDbHatch
 10
0.0
 20
0.0
 30
0.0
210
0.0
220
0.0
230
1.0
  2
SOLID
 70
     1
 71
     0
 91
        2
 92
        1
 93
       11
 72
     1
 10
119.4631645751689
 20
-142.7203151769936
 11
119.8100856905336
 21
-142.7203151769936
 72
     1
 10
119.8100856905336
 20
-142.7203151769936
 11
119.8100856905336
 21
-142.9532036317964
 72
     1
 10
119.8100856905336
 20
-142.9532036317964
 11
119.4631645751689
 21
-142.9532036317964
 72
     1
 10
119.4631645751689
 20
-142.9532036317964
 11
119.4631645751689
 21
-143.6542805630448
 72
     1
 10
119.4631645751689
 20
-143.6542805630448
 11
119.2388888590792
 21
-143.6542805630448
 72
     1
 10
119.2388888590792
 20
-143.6542805630448
 11
118.2656493844961
 21
-142.9283989443026
 72
     1
 10
118.2656493844961
 20
-142.9283989443026
 11
118.2656493844961
 21
-142.7203151769936
 72
     1
 10
118.2656493844961
 20
-142.7203151769936
 11
119.26438256567
 21
-142.7203151769936
 72
     1
 10
119.26438256567
 20
-142.7203151769936
 11
119.26438256567
 21
-142.498795537292
 72
     1
 10
119.26438256567
 20
-142.498795537292
 11
119.4631645751689
 21
-142.498795537292
 72
     1
 10
119.4631645751689
 20
-142.498795537292
 11
119.4631645751689
 21
-142.7203151769936
 97
        0
 92
        1
 93
        3
 72
     1
 10
118.6084363852785
 20
-142.9532036317964
 11
119.26438256567
 21
-143.4417181716049
 72
     1
 10
119.26438256567
 20
-143.4417181716049
 11
119.26438256567
 21
-142.9532036317964
 72
     1
 10
119.26438256567
 20
-142.9532036317964
 11
118.6084363852785
 21
-142.9532036317964
 97
        0
 75
     2
 76
     1
 98
        0
  0
ENDBLK
  5
A7
330
A4
100
AcDbEntity
  8
0
100
AcDbBlockEnd
  0
BLOCK
  5
DD
330
DB
100
AcDbEntity
  8
0
100
AcDbBlockBegin
  2
block 4
 70
     0
 10
0.0
 20
0.0
 30
0.0
  3
block 4
  1

  0
SPLINE
  5
DF
330
DB
100
AcDbEntity
  8
_U+30EC_U+30A4_U+30E4_U+30FC 1
370
     0
100
AcDbSpline
210
0.0
220
0.0
230
1.0
 70
    11
 71
     3
 72
    53
 73
    49
 74
     0
 42
0.0000000001
 43
0.0000000001
 12
1.0
 22
0.0
 32
0.0
 13
1.0
 23
0.0
 33
0.0
 40
0.0
 40
0.0
 40
0.0
 40
0.0
 40
1.0
 40
1.0
 40
1.0
 40
2.0
 40
2.0
 40
2.0
 40
3.0
 40
3.0
 40
3.0
 40
4.0
 40
4.0
 40
4.0
 40
5.0
 40
5.0
 40
5.0
 40
6.0
 40
6.0
 40
6.0
 40
7.0
 40
7.0
 40
7.0
 40
8.0
 40
8.0
 40
8.0
 40
9.0
 40
9.0
 40
9.0
 40
10.0
 40
10.0
 40
10.0
 40
11.0
 40
11.0
 40
11.0
 40
12.0
 40
12.0
 40
12.0
 40
13.0
 40
13.0
 40
13.0
 40
14.0
 40
14.0
 40
14.0
 40
15.0
 40
15.0
 40
15.0
 40
16.0
 40
16.0
 40
16.0
 40
16.0
 10
90.16193845402202
 20
-108.8522704805994
 30
0.0
 10
90.07822263373045
 20
-108.8522704805994
 30
0.0
 10
89.9700466354936
 20
-108.8352172579474
 30
0.0
 10
89.8611816181597
 20
-108.7718275010188
 30
0.0
 10
89.67583548105327
 20
-108.6617567002651
 30
0.0
 10
89.65344236039914
 20
-108.5306708170514
 30
0.0
 10
89.63311629703617
 20
-108.422839328363
 30
0.0
 10
89.63311629703617
 20
-108.422839328363
 30
0.0
 10
89.87048337596988
 20
-108.422839328363
 30
0.0
 10
89.87048337596988
 20
-108.422839328363
 30
0.0
 10
89.92904999921913
 20
-108.621621337862
 30
0.0
 10
90.06478676133797
 20
-108.6512491590351
 30
0.0
 10
90.16435002086169
 20
-108.6512491590351
 30
0.0
 10
90.313522655373
 20
-108.6512491590351
 30
0.0
 10
90.47647567182533
 20
-108.5518581542857
 30
0.0
 10
90.47647567182533
 20
-108.319141954257
 30
0.0
 10
90.47647567182533
 20
-108.063171359703
 30
0.0
 10
90.28423934374838
 20
-107.9934081761266
 30
0.0
 10
90.15539277260004
 20
-107.9934081761266
 30
0.0
 10
90.12128632729608
 20
-107.9934081761266
 30
0.0
 10
89.9700466354936
 20
-107.9934081761266
 30
0.0
 10
89.87496200010071
 20
-108.1224270020493
 30
0.0
 10
89.87496200010071
 20
-108.1224270020493
 30
0.0
 10
89.68720429615459
 20
-108.1033067221061
 30
0.0
 10
89.68720429615459
 20
-108.1033067221061
 30
0.0
 10
89.68720429615459
 20
-108.1033067221061
 30
0.0
 10
89.81605086730293
 20
-107.2571912709288
 30
0.0
 10
89.81605086730293
 20
-107.2571912709288
 30
0.0
 10
89.81605086730293
 20
-107.2571912709288
 30
0.0
 10
90.64804142699077
 20
-107.2571912709288
 30
0.0
 10
90.64804142699077
 20
-107.2571912709288
 30
0.0
 10
90.64804142699077
 20
-107.2571912709288
 30
0.0
 10
90.64804142699077
 20
-107.4518391658454
 30
0.0
 10
90.64804142699077
 20
-107.4518391658454
 30
0.0
 10
90.64804142699077
 20
-107.4518391658454
 30
0.0
 10
89.99037269885658
 20
-107.4518391658454
 30
0.0
 10
89.99037269885658
 20
-107.4518391658454
 30
0.0
 10
89.99037269885658
 20
-107.4518391658454
 30
0.0
 10
89.92009275095748
 20
-107.8748968914341
 30
0.0
 10
89.92009275095748
 20
-107.8748968914341
 30
0.0
 10
89.98554956517722
 20
-107.8409627009043
 30
0.0
 10
90.07374400959962
 20
-107.8008273385012
 30
0.0
 10
90.20052352345682
 20
-107.8008273385012
 30
0.0
 10
90.47165253814597
 20
-107.8008273385012
 30
0.0
 10
90.72486705631184
 20
-107.9870347494789
 30
0.0
 10
90.72486705631184
 20
-108.3000216743139
 30
0.0
 10
90.72486705631184
 20
-108.6174872232797
 30
0.0
 10
90.48543292008698
 20
-108.8522704805994
 30
0.0
 10
90.16193845402202
 20
-108.8522704805994
 30
0.0
  0
HATCH
  5
E0
330
DB
100
AcDbEntity
  8
_U+30EC_U+30A4_U+30E4_U+30FC 1
 62
     7
420
 16777215
100
AcDbHatch
 10
0.0
 20
0.0
 30
0.0
210
0.0
220
0.0
230
1.0
  2
SOLID
 70
     1
 71
     0
 91
        1
 92
        1
 93
        1
 72
     4
 94
        3
 73
     0
 74
     1
 95
       53
 96
       49
 40
0.0
 40
0.0
 40
0.0
 40
0.0
 40
1.0
 40
1.0
 40
1.0
 40
2.0
 40
2.0
 40
2.0
 40
3.0
 40
3.0
 40
3.0
 40
4.0
 40
4.0
 40
4.0
 40
5.0
 40
5.0
 40
5.0
 40
6.0
 40
6.0
 40
6.0
 40
7.0
 40
7.0
 40
7.0
 40
8.0
 40
8.0
 40
8.0
 40
9.0
 40
9.0
 40
9.0
 40
10.0
 40
10.0
 40
10.0
 40
11.0
 40
11.0
 40
11.0
 40
12.0
 40
12.0
 40
12.0
 40
13.0
 40
13.0
 40
13.0
 40
14.0
 40
14.0
 40
14.0
 40
15.0
 40
15.0
 40
15.0
 40
16.0
 40
16.0
 40
16.0
 40
16.0
 10
90.16193845402202
 20
-108.8522704805994
 10
90.07822263373045
 20
-108.8522704805994
 10
89.9700466354936
 20
-108.8352172579474
 10
89.8611816181597
 20
-108.7718275010188
 10
89.67583548105327
 20
-108.6617567002651
 10
89.65344236039914
 20
-108.5306708170514
 10
89.63311629703617
 20
-108.422839328363
 10
89.63311629703617
 20
-108.422839328363
 10
89.87048337596988
 20
-108.422839328363
 10
89.87048337596988
 20
-108.422839328363
 10
89.92904999921913
 20
-108.621621337862
 10
90.06478676133797
 20
-108.6512491590351
 10
90.16435002086169
 20
-108.6512491590351
 10
90.313522655373
 20
-108.6512491590351
 10
90.47647567182533
 20
-108.5518581542857
 10
90.47647567182533
 20
-108.319141954257
 10
90.47647567182533
 20
-108.063171359703
 10
90.28423934374838
 20
-107.9934081761266
 10
90.15539277260004
 20
-107.9934081761266
 10
90.12128632729608
 20
-107.9934081761266
 10
89.9700466354936
 20
-107.9934081761266
 10
89.87496200010071
 20
-108.1224270020493
 10
89.87496200010071
 20
-108.1224270020493
 10
89.68720429615459
 20
-108.1033067221061
 10
89.68720429615459
 20
-108.1033067221061
 10
89.68720429615459
 20
-108.1033067221061
 10
89.81605086730293
 20
-107.2571912709288
 10
89.81605086730293
 20
-107.2571912709288
 10
89.81605086730293
 20
-107.2571912709288
 10
90.64804142699077
 20
-107.2571912709288
 10
90.64804142699077
 20
-107.2571912709288
 10
90.64804142699077
 20
-107.2571912709288
 10
90.64804142699077
 20
-107.4518391658454
 10
90.64804142699077
 20
-107.4518391658454
 10
90.64804142699077
 20
-107.4518391658454
 10
89.99037269885658
 20
-107.4518391658454
 10
89.99037269885658
 20
-107.4518391658454
 10
89.99037269885658
 20
-107.4518391658454
 10
89.92009275095748
 20
-107.8748968914341
 10
89.92009275095748
 20
-107.8748968914341
 10
89.98554956517722
 20
-107.8409627009043
 10
90.07374400959962
 20
-107.8008273385012
 10
90.20052352345682
 20
-107.8008273385012
 10
90.47165253814597
 20
-107.8008273385012
 10
90.72486705631184
 20
-107.9870347494789
 10
90.72486705631184
 20
-108.3000216743139
 10
90.72486705631184
 20
-108.6174872232797
 10
90.48543292008698
 20
-108.8522704805994
 10
90.16193845402202
 20
-108.8522704805994
 97
        0
 97
        0
 75
     2
 76
     1
 98
        0
  0
SPLINE
  5
E1
330
DB
100
AcDbEntity
  8
_U+30EC_U+30A4_U+30E4_U+30FC 1
370
     0
100
AcDbSpline
210
0.0
220
0.0
230
1.0
 70
    11
 71
     3
 72
    29
 73
    25
 74
     0
 42
0.0000000001
 43
0.0000000001
 12
1.0
 22
0.0
 32
0.0
 13
1.0
 23
0.0
 33
0.0
 40
0.0
 40
0.0
 40
0.0
 40
0.0
 40
1.0
 40
1.0
 40
1.0
 40
2.0
 40
2.0
 40
2.0
 40
3.0
 40
3.0
 40
3.0
 40
4.0
 40
4.0
 40
4.0
 40
5.0
 40
5.0
 40
5.0
 40
6.0
 40
6.0
 40
6.0
 40
7.0
 40
7.0
 40
7.0
 40
8.0
 40
8.0
 40
8.0
 40
8.0
 10
91.86519366192954
 20
-108.6236883951531
 30
0.0
 10
91.74978296317367
 20
-108.8331502006563
 30
0.0
 10
91.56443682606722
 20
-108.8522704805994
 30
0.0
 10
91.4400688790497
 20
-108.8522704805994
 30
0.0
 10
91.26850312388427
 20
-108.8522704805994
 30
0.0
 10
91.11691892253327
 20
-108.8057616915486
 30
0.0
 10
91.01528860571841
 20
-108.6236883951531
 30
0.0
 10
90.90435653109336
 20
-108.4290405002365
 30
0.0
 10
90.88403046773038
 20
-108.1921901856256
 30
0.0
 10
90.88403046773038
 20
-108.0292371691733
 30
0.0
 10
90.88403046773038
 20
-107.8854044326641
 30
0.0
 10
90.90228947380221
 20
-107.6337402074666
 30
0.0
 10
91.01528860571841
 20
-107.4347859431934
 30
0.0
 10
91.13035479492575
 20
-107.2316975643379
 30
0.0
 10
91.30226505963972
 20
-107.2084431698125
 30
0.0
 10
91.4400688790497
 20
-107.2084431698125
 30
0.0
 10
91.60991208647252
 20
-107.2084431698125
 30
0.0
 10
91.76356334511468
 20
-107.2528849015722
 30
0.0
 10
91.86519366192954
 20
-107.4347859431934
 30
0.0
 10
91.97164711242375
 20
-107.6273667808189
 30
0.0
 10
91.99645179991755
 20
-107.8557766114909
 30
0.0
 10
91.99645179991755
 20
-108.0292371691733
 30
0.0
 10
91.99645179991755
 20
-108.2006306695644
 30
0.0
 10
91.97371416971491
 20
-108.4312798123019
 30
0.0
 10
91.86519366192954
 20
-108.6236883951531
 30
0.0
  0
SPLINE
  5
E2
330
DB
100
AcDbEntity
  8
_U+30EC_U+30A4_U+30E4_U+30FC 1
370
     0
100
AcDbSpline
210
0.0
220
0.0
230
1.0
 70
    11
 71
     3
 72
    17
 73
    13
 74
     0
 42
0.0000000001
 43
0.0000000001
 12
1.0
 22
0.0
 32
0.0
 13
1.0
 23
0.0
 33
0.0
 40
0.0
 40
0.0
 40
0.0
 40
0.0
 40
1.0
 40
1.0
 40
1.0
 40
2.0
 40
2.0
 40
2.0
 40
3.0
 40
3.0
 40
3.0
 40
4.0
 40
4.0
 40
4.0
 40
4.0
 10
91.4400688790497
 20
-107.4010240074379
 30
0.0
 10
91.17341848849138
 20
-107.4010240074379
 30
0.0
 10
91.12380911350377
 20
-107.684555365874
 30
0.0
 10
91.12380911350377
 20
-108.0292371691733
 30
0.0
 10
91.12380911350377
 20
-108.3487697754302
 30
0.0
 10
91.16204967339004
 20
-108.6576225856828
 30
0.0
 10
91.4400688790497
 20
-108.6576225856828
 30
0.0
 10
91.7046522123169
 20
-108.6576225856828
 30
0.0
 10
91.75667315414417
 20
-108.3761582845379
 30
0.0
 10
91.75667315414417
 20
-108.0292371691733
 30
0.0
 10
91.75667315414417
 20
-107.7098768176906
 30
0.0
 10
91.71602102741822
 20
-107.4010240074379
 30
0.0
 10
91.4400688790497
 20
-107.4010240074379
 30
0.0
  0
HATCH
  5
E3
330
DB
100
AcDbEntity
  8
_U+30EC_U+30A4_U+30E4_U+30FC 1
 62
     7
420
 16777215
100
AcDbHatch
 10
0.0
 20
0.0
 30
0.0
210
0.0
220
0.0
230
1.0
  2
SOLID
 70
     1
 71
     0
 91
        2
 92
        1
 93
        1
 72
     4
 94
        3
 73
     0
 74
     1
 95
       29
 96
       25
 40
0.0
 40
0.0
 40
0.0
 40
0.0
 40
1.0
 40
1.0
 40
1.0
 40
2.0
 40
2.0
 40
2.0
 40
3.0
 40
3.0
 40
3.0
 40
4.0
 40
4.0
 40
4.0
 40
5.0
 40
5.0
 40
5.0
 40
6.0
 40
6.0
 40
6.0
 40
7.0
 40
7.0
 40
7.0
 40
8.0
 40
8.0
 40
8.0
 40
8.0
 10
91.86519366192954
 20
-108.6236883951531
 10
91.74978296317367
 20
-108.8331502006563
 10
91.56443682606722
 20
-108.8522704805994
 10
91.4400688790497
 20
-108.8522704805994
 10
91.26850312388427
 20
-108.8522704805994
 10
91.11691892253327
 20
-108.8057616915486
 10
91.01528860571841
 20
-108.6236883951531
 10
90.90435653109336
 20
-108.4290405002365
 10
90.88403046773038
 20
-108.1921901856256
 10
90.88403046773038
 20
-108.0292371691733
 10
90.88403046773038
 20
-107.8854044326641
 10
90.90228947380221
 20
-107.6337402074666
 10
91.01528860571841
 20
-107.4347859431934
 10
91.13035479492575
 20
-107.2316975643379
 10
91.30226505963972
 20
-107.2084431698125
 10
91.4400688790497
 20
-107.2084431698125
 10
91.60991208647252
 20
-107.2084431698125
 10
91.76356334511468
 20
-107.2528849015722
 10
91.86519366192954
 20
-107.4347859431934
 10
91.97164711242375
 20
-107.6273667808189
 10
91.99645179991755
 20
-107.8557766114909
 10
91.99645179991755
 20
-108.0292371691733
 10
91.99645179991755
 20
-108.2006306695644
 10
91.97371416971491
 20
-108.4312798123019
 10
91.86519366192954
 20
-108.6236883951531
 97
        0
 97
        0
 92
        1
 93
        1
 72
     4
 94
        3
 73
     0
 74
     1
 95
       17
 96
       13
 40
0.0
 40
0.0
 40
0.0
 40
0.0
 40
1.0
 40
1.0
 40
1.0
 40
2.0
 40
2.0
 40
2.0
 40
3.0
 40
3.0
 40
3.0
 40
4.0
 40
4.0
 40
4.0
 40
4.0
 10
91.4400688790497
 20
-107.4010240074379
 10
91.17341848849138
 20
-107.4010240074379
 10
91.12380911350377
 20
-107.684555365874
 10
91.12380911350377
 20
-108.0292371691733
 10
91.12380911350377
 20
-108.3487697754302
 10
91.16204967339004
 20
-108.6576225856828
 10
91.4400688790497
 20
-108.6576225856828
 10
91.7046522123169
 20
-108.6576225856828
 10
91.75667315414417
 20
-108.3761582845379
 10
91.75667315414417
 20
-108.0292371691733
 10
91.75667315414417
 20
-107.7098768176906
 10
91.71602102741822
 20
-107.4010240074379
 10
91.4400688790497
 20
-107.4010240074379
 97
        0
 97
        0
 75
     2
 76
     1
 98
        0
  0
ENDBLK
  5
DE
330
DB
100
AcDbEntity
  8
0
100
AcDbBlockEnd
  0
BLOCK
  5
F3
330
F1
100
AcDbEntity
  8
0
100
AcDbBlockBegin
  2
block 5
 70
     0
 10
0.0
 20
0.0
 30
0.0
  3
block 5
  1

  0
SPLINE
  5
F5
330
F1
100
AcDbEntity
  8
_U+30EC_U+30A4_U+30E4_U+30FC 1
370
     0
100
AcDbSpline
210
0.0
220
0.0
230
1.0
 70
    11
 71
     3
 72
    26
 73
    22
 74
     0
 42
0.0000000001
 43
0.0000000001
 12
1.0
 22
0.0
 32
0.0
 13
1.0
 23
0.0
 33
0.0
 40
0.0
 40
0.0
 40
0.0
 40
0.0
 40
1.0
 40
1.0
 40
1.0
 40
2.0
 40
2.0
 40
2.0
 40
3.0
 40
3.0
 40
3.0
 40
4.0
 40
4.0
 40
4.0
 40
5.0
 40
5.0
 40
5.0
 40
6.0
 40
6.0
 40
6.0
 40
7.0
 40
7.0
 40
7.0
 40
7.0
 10
73.37019854936578
 20
-148.3651041295754
 30
0.0
 10
73.37019854936578
 20
-148.3651041295754
 30
0.0
 10
73.37019854936578
 20
-147.2612955361014
 30
0.0
 10
73.37019854936578
 20
-147.2612955361014
 30
0.0
 10
73.37019854936578
 20
-147.2612955361014
 30
0.0
 10
73.01776528122473
 20
-147.2612955361014
 30
0.0
 10
73.01776528122473
 20
-147.2612955361014
 30
0.0
 10
73.01776528122473
 20
-147.2612955361014
 30
0.0
 10
73.01776528122473
 20
-147.1131564302356
 30
0.0
 10
73.01776528122473
 20
-147.1131564302356
 30
0.0
 10
73.37261011620546
 20
-147.0979980101005
 30
0.0
 10
73.42221949119306
 20
-146.9353895031967
 30
0.0
 10
73.45391436965735
 20
-146.8210123330864
 30
0.0
 10
73.45391436965735
 20
-146.8210123330864
 30
0.0
 10
73.60997719513918
 20
-146.8210123330864
 30
0.0
 10
73.60997719513918
 20
-146.8210123330864
 30
0.0
 10
73.60997719513918
 20
-146.8210123330864
 30
0.0
 10
73.60997719513918
 20
-148.3651041295754
 30
0.0
 10
73.60997719513918
 20
-148.3651041295754
 30
0.0
 10
73.60997719513918
 20
-148.3651041295754
 30
0.0
 10
73.37019854936578
 20
-148.3651041295754
 30
0.0
 10
73.37019854936578
 20
-148.3651041295754
 30
0.0
  0
HATCH
  5
F6
330
F1
100
AcDbEntity
  8
_U+30EC_U+30A4_U+30E4_U+30FC 1
 62
     7
420
 16777215
100
AcDbHatch
 10
0.0
 20
0.0
 30
0.0
210
0.0
220
0.0
230
1.0
  2
SOLID
 70
     1
 71
     0
 91
        1
 92
        1
 93
        1
 72
     4
 94
        3
 73
     0
 74
     1
 95
       26
 96
       22
 40
0.0
 40
0.0
 40
0.0
 40
0.0
 40
1.0
 40
1.0
 40
1.0
 40
2.0
 40
2.0
 40
2.0
 40
3.0
 40
3.0
 40
3.0
 40
4.0
 40
4.0
 40
4.0
 40
5.0
 40
5.0
 40
5.0
 40
6.0
 40
6.0
 40
6.0
 40
7.0
 40
7.0
 40
7.0
 40
7.0
 10
73.37019854936578
 20
-148.3651041295754
 10
73.37019854936578
 20
-148.3651041295754
 10
73.37019854936578
 20
-147.2612955361014
 10
73.37019854936578
 20
-147.2612955361014
 10
73.37019854936578
 20
-147.2612955361014
 10
73.01776528122473
 20
-147.2612955361014
 10
73.01776528122473
 20
-147.2612955361014
 10
73.01776528122473
 20
-147.2612955361014
 10
73.01776528122473
 20
-147.1131564302356
 10
73.01776528122473
 20
-147.1131564302356
 10
73.37261011620546
 20
-147.0979980101005
 10
73.42221949119306
 20
-146.9353895031967
 10
73.45391436965735
 20
-146.8210123330864
 10
73.45391436965735
 20
-146.8210123330864
 10
73.60997719513918
 20
-146.8210123330864
 10
73.60997719513918
 20
-146.8210123330864
 10
73.60997719513918
 20
-146.8210123330864
 10
73.60997719513918
 20
-148.3651041295754
 10
73.60997719513918
 20
-148.3651041295754
 10
73.60997719513918
 20
-148.3651041295754
 10
73.37019854936578
 20
-148.3651041295754
 10
73.37019854936578
 20
-148.3651041295754
 97
        0
 97
        0
 75
     2
 76
     1
 98
        0
  0
SPLINE
  5
F7
330
F1
100
AcDbEntity
  8
_U+30EC_U+30A4_U+30E4_U+30FC 1
370
     0
100
AcDbSpline
210
0.0
220
0.0
230
1.0
 70
    11
 71
     3
 72
    53
 73
    49
 74
     0
 42
0.0000000001
 43
0.0000000001
 12
1.0
 22
0.0
 32
0.0
 13
1.0
 23
0.0
 33
0.0
 40
0.0
 40
0.0
 40
0.0
 40
0.0
 40
1.0
 40
1.0
 40
1.0
 40
2.0
 40
2.0
 40
2.0
 40
3.0
 40
3.0
 40
3.0
 40
4.0
 40
4.0
 40
4.0
 40
5.0
 40
5.0
 40
5.0
 40
6.0
 40
6.0
 40
6.0
 40
7.0
 40
7.0
 40
7.0
 40
8.0
 40
8.0
 40
8.0
 40
9.0
 40
9.0
 40
9.0
 40
10.0
 40
10.0
 40
10.0
 40
11.0
 40
11.0
 40
11.0
 40
12.0
 40
12.0
 40
12.0
 40
13.0
 40
13.0
 40
13.0
 40
14.0
 40
14.0
 40
14.0
 40
15.0
 40
15.0
 40
15.0
 40
16.0
 40
16.0
 40
16.0
 40
16.0
 10
74.6596977894948
 20
-148.4160915427571
 30
0.0
 10
74.57598196920323
 20
-148.4160915427571
 30
0.0
 10
74.46780597096638
 20
-148.3988660653309
 30
0.0
 10
74.35894095363248
 20
-148.3354763084022
 30
0.0
 10
74.17359481652605
 20
-148.2259222719713
 30
0.0
 10
74.15120169587192
 20
-148.0943196244347
 30
0.0
 10
74.13087563250895
 20
-147.986832645295
 30
0.0
 10
74.13087563250895
 20
-147.986832645295
 30
0.0
 10
74.36824271144266
 20
-147.986832645295
 30
0.0
 10
74.36824271144266
 20
-147.986832645295
 30
0.0
 10
74.42680933469191
 20
-148.1852701452454
 30
0.0
 10
74.56254609681075
 20
-148.2148979664185
 30
0.0
 10
74.66210935633448
 20
-148.2148979664185
 30
0.0
 10
74.8112819908458
 20
-148.2148979664185
 30
0.0
 10
74.9742350072981
 20
-148.1156792164433
 30
0.0
 10
74.9742350072981
 20
-147.8827907616404
 30
0.0
 10
74.9742350072981
 20
-147.6271646766349
 30
0.0
 10
74.78199867922118
 20
-147.5568847287358
 30
0.0
 10
74.65315210807283
 20
-147.5568847287358
 30
0.0
 10
74.61904566276885
 20
-147.5568847287358
 30
0.0
 10
74.46780597096638
 20
-147.5568847287358
 30
0.0
 10
74.37272133557349
 20
-147.6864203189812
 30
0.0
 10
74.37272133557349
 20
-147.6864203189812
 30
0.0
 10
74.18496363162737
 20
-147.6671277842638
 30
0.0
 10
74.18496363162737
 20
-147.6671277842638
 30
0.0
 10
74.18496363162737
 20
-147.6671277842638
 30
0.0
 10
74.31381020277571
 20
-146.8210123330864
 30
0.0
 10
74.31381020277571
 20
-146.8210123330864
 30
0.0
 10
74.31381020277571
 20
-146.8210123330864
 30
0.0
 10
75.14580076246355
 20
-146.8210123330864
 30
0.0
 10
75.14580076246355
 20
-146.8210123330864
 30
0.0
 10
75.14580076246355
 20
-146.8210123330864
 30
0.0
 10
75.14580076246355
 20
-147.0153157184545
 30
0.0
 10
75.14580076246355
 20
-147.0153157184545
 30
0.0
 10
75.14580076246355
 20
-147.0153157184545
 30
0.0
 10
74.48813203432935
 20
-147.0153157184545
 30
0.0
 10
74.48813203432935
 20
-147.0153157184545
 30
0.0
 10
74.48813203432935
 20
-147.0153157184545
 30
0.0
 10
74.41785208643026
 20
-147.4383734440432
 30
0.0
 10
74.41785208643026
 20
-147.4383734440432
 30
0.0
 10
74.48330890065002
 20
-147.4046115082877
 30
0.0
 10
74.5715033450724
 20
-147.3646484006588
 30
0.0
 10
74.6982828589296
 20
-147.3646484006588
 30
0.0
 10
74.96941187361877
 20
-147.3646484006588
 30
0.0
 10
75.22262639178463
 20
-147.5506835568623
 30
0.0
 10
75.22262639178463
 20
-147.8641872460201
 30
0.0
 10
75.22262639178463
 20
-148.1811360306631
 30
0.0
 10
74.98319225555976
 20
-148.4160915427571
 30
0.0
 10
74.6596977894948
 20
-148.4160915427571
 30
0.0
  0
HATCH
  5
F8
330
F1
100
AcDbEntity
  8
_U+30EC_U+30A4_U+30E4_U+30FC 1
 62
     7
420
 16777215
100
AcDbHatch
 10
0.0
 20
0.0
 30
0.0
210
0.0
220
0.0
230
1.0
  2
SOLID
 70
     1
 71
     0
 91
        1
 92
        1
 93
        1
 72
     4
 94
        3
 73
     0
 74
     1
 95
       53
 96
       49
 40
0.0
 40
0.0
 40
0.0
 40
0.0
 40
1.0
 40
1.0
 40
1.0
 40
2.0
 40
2.0
 40
2.0
 40
3.0
 40
3.0
 40
3.0
 40
4.0
 40
4.0
 40
4.0
 40
5.0
 40
5.0
 40
5.0
 40
6.0
 40
6.0
 40
6.0
 40
7.0
 40
7.0
 40
7.0
 40
8.0
 40
8.0
 40
8.0
 40
9.0
 40
9.0
 40
9.0
 40
10.0
 40
10.0
 40
10.0
 40
11.0
 40
11.0
 40
11.0
 40
12.0
 40
12.0
 40
12.0
 40
13.0
 40
13.0
 40
13.0
 40
14.0
 40
14.0
 40
14.0
 40
15.0
 40
15.0
 40
15.0
 40
16.0
 40
16.0
 40
16.0
 40
16.0
 10
74.6596977894948
 20
-148.4160915427571
 10
74.57598196920323
 20
-148.4160915427571
 10
74.46780597096638
 20
-148.3988660653309
 10
74.35894095363248
 20
-148.3354763084022
 10
74.17359481652605
 20
-148.2259222719713
 10
74.15120169587192
 20
-148.0943196244347
 10
74.13087563250895
 20
-147.986832645295
 10
74.13087563250895
 20
-147.986832645295
 10
74.36824271144266
 20
-147.986832645295
 10
74.36824271144266
 20
-147.986832645295
 10
74.42680933469191
 20
-148.1852701452454
 10
74.56254609681075
 20
-148.2148979664185
 10
74.66210935633448
 20
-148.2148979664185
 10
74.8112819908458
 20
-148.2148979664185
 10
74.9742350072981
 20
-148.1156792164433
 10
74.9742350072981
 20
-147.8827907616404
 10
74.9742350072981
 20
-147.6271646766349
 10
74.78199867922118
 20
-147.5568847287358
 10
74.65315210807283
 20
-147.5568847287358
 10
74.61904566276885
 20
-147.5568847287358
 10
74.46780597096638
 20
-147.5568847287358
 10
74.37272133557349
 20
-147.6864203189812
 10
74.37272133557349
 20
-147.6864203189812
 10
74.18496363162737
 20
-147.6671277842638
 10
74.18496363162737
 20
-147.6671277842638
 10
74.18496363162737
 20
-147.6671277842638
 10
74.31381020277571
 20
-146.8210123330864
 10
74.31381020277571
 20
-146.8210123330864
 10
74.31381020277571
 20
-146.8210123330864
 10
75.14580076246355
 20
-146.8210123330864
 10
75.14580076246355
 20
-146.8210123330864
 10
75.14580076246355
 20
-146.8210123330864
 10
75.14580076246355
 20
-147.0153157184545
 10
75.14580076246355
 20
-147.0153157184545
 10
75.14580076246355
 20
-147.0153157184545
 10
74.48813203432935
 20
-147.0153157184545
 10
74.48813203432935
 20
-147.0153157184545
 10
74.48813203432935
 20
-147.0153157184545
 10
74.41785208643026
 20
-147.4383734440432
 10
74.41785208643026
 20
-147.4383734440432
 10
74.48330890065002
 20
-147.4046115082877
 10
74.5715033450724
 20
-147.3646484006588
 10
74.6982828589296
 20
-147.3646484006588
 10
74.96941187361877
 20
-147.3646484006588
 10
75.22262639178463
 20
-147.5506835568623
 10
75.22262639178463
 20
-147.8641872460201
 10
75.22262639178463
 20
-148.1811360306631
 10
74.98319225555976
 20
-148.4160915427571
 10
74.6596977894948
 20
-148.4160915427571
 97
        0
 97
        0
 75
     2
 76
     1
 98
        0
  0
ENDBLK
  5
F4
330
F1
100
AcDbEntity
  8
0
100
AcDbBlockEnd
  0
BLOCK
  5
107
330
105
100
AcDbEntity
  8
0
100
AcDbBlockBegin
  2
block 6
 70
     0
 10
0.0
 20
0.0
 30
0.0
  3
block 6
  1

  0
POLYLINE
  5
109
330
105
100
AcDbEntity
  8
_U+30EC_U+30A4_U+30E4_U+30FC 1
370
     0
100
AcDb2dPolyline
 66
     1
 10
0.0
 20
0.0
 30
0.0
  0
VERTEX
  5
10A
330
109
100
AcDbEntity
  8
_U+30EC_U+30A4_U+30E4_U+30FC 1
370
     0
100
AcDbVertex
100
AcDb2dVertex
 10
69.40920001519979
 20
-112.141647649916
 30
0.0
  0
VERTEX
  5
10B
330
109
100
AcDbEntity
  8
_U+30EC_U+30A4_U+30E4_U+30FC 1
370
     0
100
AcDbVertex
100
AcDb2dVertex
 10
69.40920001519979
 20
-112.4885687652806
 30
0.0
  0
VERTEX
  5
10C
330
109
100
AcDbEntity
  8
_U+30EC_U+30A4_U+30E4_U+30FC 1
370
     0
100
AcDbVertex
100
AcDb2dVertex
 10
69.17648381517115
 20
-112.4885687652806
 30
0.0
  0
VERTEX
  5
10D
330
109
100
AcDbEntity
  8
_U+30EC_U+30A4_U+30E4_U+30FC 1
370
     0
100
AcDbVertex
100
AcDb2dVertex
 10
69.17648381517115
 20
-112.141647649916
 30
0.0
  0
VERTEX
  5
10E
330
109
100
AcDbEntity
  8
_U+30EC_U+30A4_U+30E4_U+30FC 1
370
     0
100
AcDbVertex
100
AcDb2dVertex
 10
68.47557913869709
 20
-112.141647649916
 30
0.0
  0
VERTEX
  5
10F
330
109
100
AcDbEntity
  8
_U+30EC_U+30A4_U+30E4_U+30FC 1
370
     0
100
AcDbVertex
100
AcDb2dVertex
 10
68.47557913869709
 20
-111.9173719338262
 30
0.0
  0
VERTEX
  5
110
330
109
100
AcDbEntity
  8
_U+30EC_U+30A4_U+30E4_U+30FC 1
370
     0
100
AcDbVertex
100
AcDb2dVertex
 10
69.20128850266497
 20
-110.9443047140174
 30
0.0
  0
VERTEX
  5
111
330
109
100
AcDbEntity
  8
_U+30EC_U+30A4_U+30E4_U+30FC 1
370
     0
100
AcDbVertex
100
AcDb2dVertex
 10
69.40920001519979
 20
-110.9443047140174
 30
0.0
  0
VERTEX
  5
112
330
109
100
AcDbEntity
  8
_U+30EC_U+30A4_U+30E4_U+30FC 1
370
     0
100
AcDbVertex
100
AcDb2dVertex
 10
69.40920001519979
 20
-111.9426933856428
 30
0.0
  0
VERTEX
  5
113
330
109
100
AcDbEntity
  8
_U+30EC_U+30A4_U+30E4_U+30FC 1
370
     0
100
AcDbVertex
100
AcDb2dVertex
 10
69.63089190967561
 20
-111.9426933856428
 30
0.0
  0
VERTEX
  5
114
330
109
100
AcDbEntity
  8
_U+30EC_U+30A4_U+30E4_U+30FC 1
370
     0
100
AcDbVertex
100
AcDb2dVertex
 10
69.63089190967561
 20
-112.141647649916
 30
0.0
  0
VERTEX
  5
115
330
109
100
AcDbEntity
  8
_U+30EC_U+30A4_U+30E4_U+30FC 1
370
     0
100
AcDbVertex
100
AcDb2dVertex
 10
69.40920001519979
 20
-112.141647649916
 30
0.0
  0
SEQEND
  5
116
330
109
100
AcDbEntity
  8
_U+30EC_U+30A4_U+30E4_U+30FC 1
370
     0
  0
POLYLINE
  5
117
330
105
100
AcDbEntity
  8
_U+30EC_U+30A4_U+30E4_U+30FC 1
370
     0
100
AcDb2dPolyline
 66
     1
 10
0.0
 20
0.0
 30
0.0
  0
VERTEX
  5
118
330
117
100
AcDbEntity
  8
_U+30EC_U+30A4_U+30E4_U+30FC 1
370
     0
100
AcDbVertex
100
AcDb2dVertex
 10
69.17648381517115
 20
-111.2869194600255
 30
0.0
  0
VERTEX
  5
119
330
117
100
AcDbEntity
  8
_U+30EC_U+30A4_U+30E4_U+30FC 1
370
     0
100
AcDbVertex
100
AcDb2dVertex
 10
68.68796927536273
 20
-111.9426933856428
 30
0.0
  0
VERTEX
  5
11A
330
117
100
AcDbEntity
  8
_U+30EC_U+30A4_U+30E4_U+30FC 1
370
     0
100
AcDbVertex
100
AcDb2dVertex
 10
69.17648381517115
 20
-111.9426933856428
 30
0.0
  0
VERTEX
  5
11B
330
117
100
AcDbEntity
  8
_U+30EC_U+30A4_U+30E4_U+30FC 1
370
     0
100
AcDbVertex
100
AcDb2dVertex
 10
69.17648381517115
 20
-111.2869194600255
 30
0.0
  0
SEQEND
  5
11C
330
117
100
AcDbEntity
  8
_U+30EC_U+30A4_U+30E4_U+30FC 1
370
     0
  0
HATCH
  5
11D
330
105
100
AcDbEntity
  8
_U+30EC_U+30A4_U+30E4_U+30FC 1
 62
     7
420
 16777215
100
AcDbHatch
 10
0.0
 20
0.0
 30
0.0
210
0.0
220
0.0
230
1.0
  2
SOLID
 70
     1
 71
     0
 91
        2
 92
        1
 93
       11
 72
     1
 10
69.40920001519979
 20
-112.141647649916
 11
69.40920001519979
 21
-112.4885687652806
 72
     1
 10
69.40920001519979
 20
-112.4885687652806
 11
69.17648381517115
 21
-112.4885687652806
 72
     1
 10
69.17648381517115
 20
-112.4885687652806
 11
69.17648381517115
 21
-112.141647649916
 72
     1
 10
69.17648381517115
 20
-112.141647649916
 11
68.47557913869709
 21
-112.141647649916
 72
     1
 10
68.47557913869709
 20
-112.141647649916
 11
68.47557913869709
 21
-111.9173719338262
 72
     1
 10
68.47557913869709
 20
-111.9173719338262
 11
69.20128850266497
 21
-110.9443047140174
 72
     1
 10
69.20128850266497
 20
-110.9443047140174
 11
69.40920001519979
 21
-110.9443047140174
 72
     1
 10
69.40920001519979
 20
-110.9443047140174
 11
69.40920001519979
 21
-111.9426933856428
 72
     1
 10
69.40920001519979
 20
-111.9426933856428
 11
69.63089190967561
 21
-111.9426933856428
 72
     1
 10
69.63089190967561
 20
-111.9426933856428
 11
69.63089190967561
 21
-112.141647649916
 72
     1
 10
69.63089190967561
 20
-112.141647649916
 11
69.40920001519979
 21
-112.141647649916
 97
        0
 92
        1
 93
        3
 72
     1
 10
69.17648381517115
 20
-111.2869194600255
 11
68.68796927536273
 21
-111.9426933856428
 72
     1
 10
68.68796927536273
 20
-111.9426933856428
 11
69.17648381517115
 21
-111.9426933856428
 72
     1
 10
69.17648381517115
 20
-111.9426933856428
 11
69.17648381517115
 21
-111.2869194600255
 97
        0
 75
     2
 76
     1
 98
        0
  0
ENDBLK
  5
108
330
105
100
AcDbEntity
  8
0
100
AcDbBlockEnd
  0
BLOCK
  5
128
330
126
100
AcDbEntity
  8
0
100
AcDbBlockBegin
  2
block 7
 70
     0
 10
0.0
 20
0.0
 30
0.0
  3
block 7
  1

  0
SPLINE
  5
12A
330
126
100
AcDbEntity
  8
_U+30EC_U+30A4_U+30E4_U+30FC 1
370
     0
100
AcDbSpline
210
0.0
220
0.0
230
1.0
 70
    11
 71
     3
 72
    26
 73
    22
 74
     0
 42
0.0000000001
 43
0.0000000001
 12
1.0
 22
0.0
 32
0.0
 13
1.0
 23
0.0
 33
0.0
 40
0.0
 40
0.0
 40
0.0
 40
0.0
 40
1.0
 40
1.0
 40
1.0
 40
2.0
 40
2.0
 40
2.0
 40
3.0
 40
3.0
 40
3.0
 40
4.0
 40
4.0
 40
4.0
 40
5.0
 40
5.0
 40
5.0
 40
6.0
 40
6.0
 40
6.0
 40
7.0
 40
7.0
 40
7.0
 40
7.0
 10
119.809052161888
 20
-134.7297607085051
 30
0.0
 10
119.809052161888
 20
-134.7297607085051
 30
0.0
 10
118.7048990588655
 20
-134.7297607085051
 30
0.0
 10
118.7048990588655
 20
-134.7297607085051
 30
0.0
 10
118.7048990588655
 20
-134.7297607085051
 30
0.0
 10
118.7048990588655
 20
-135.0825384861946
 30
0.0
 10
118.7048990588655
 20
-135.0825384861946
 30
0.0
 10
118.7048990588655
 20
-135.0825384861946
 30
0.0
 10
118.5567599529997
 20
-135.0825384861946
 30
0.0
 10
118.5567599529997
 20
-135.0825384861946
 30
0.0
 10
118.5419460424131
 20
-134.7273491416654
 30
0.0
 10
118.3789930259608
 20
-134.6777397666778
 30
0.0
 10
118.2646158558505
 20
-134.6460448882135
 30
0.0
 10
118.2646158558505
 20
-134.6460448882135
 30
0.0
 10
118.2646158558505
 20
-134.4903265722802
 30
0.0
 10
118.2646158558505
 20
-134.4903265722802
 30
0.0
 10
118.2646158558505
 20
-134.4903265722802
 30
0.0
 10
119.809052161888
 20
-134.4903265722802
 30
0.0
 10
119.809052161888
 20
-134.4903265722802
 30
0.0
 10
119.809052161888
 20
-134.4903265722802
 30
0.0
 10
119.809052161888
 20
-134.7297607085051
 30
0.0
 10
119.809052161888
 20
-134.7297607085051
 30
0.0
  0
HATCH
  5
12B
330
126
100
AcDbEntity
  8
_U+30EC_U+30A4_U+30E4_U+30FC 1
 62
     7
420
 16777215
100
AcDbHatch
 10
0.0
 20
0.0
 30
0.0
210
0.0
220
0.0
230
1.0
  2
SOLID
 70
     1
 71
     0
 91
        1
 92
        1
 93
        1
 72
     4
 94
        3
 73
     0
 74
     1
 95
       26
 96
       22
 40
0.0
 40
0.0
 40
0.0
 40
0.0
 40
1.0
 40
1.0
 40
1.0
 40
2.0
 40
2.0
 40
2.0
 40
3.0
 40
3.0
 40
3.0
 40
4.0
 40
4.0
 40
4.0
 40
5.0
 40
5.0
 40
5.0
 40
6.0
 40
6.0
 40
6.0
 40
7.0
 40
7.0
 40
7.0
 40
7.0
 10
119.809052161888
 20
-134.7297607085051
 10
119.809052161888
 20
-134.7297607085051
 10
118.7048990588655
 20
-134.7297607085051
 10
118.7048990588655
 20
-134.7297607085051
 10
118.7048990588655
 20
-134.7297607085051
 10
118.7048990588655
 20
-135.0825384861946
 10
118.7048990588655
 20
-135.0825384861946
 10
118.7048990588655
 20
-135.0825384861946
 10
118.5567599529997
 20
-135.0825384861946
 10
118.5567599529997
 20
-135.0825384861946
 10
118.5419460424131
 20
-134.7273491416654
 10
118.3789930259608
 20
-134.6777397666778
 10
118.2646158558505
 20
-134.6460448882135
 10
118.2646158558505
 20
-134.6460448882135
 10
118.2646158558505
 20
-134.4903265722802
 10
118.2646158558505
 20
-134.4903265722802
 10
118.2646158558505
 20
-134.4903265722802
 10
119.809052161888
 20
-134.4903265722802
 10
119.809052161888
 20
-134.4903265722802
 10
119.809052161888
 20
-134.4903265722802
 10
119.809052161888
 20
-134.7297607085051
 10
119.809052161888
 20
-134.7297607085051
 97
        0
 97
        0
 75
     2
 76
     1
 98
        0
  0
SPLINE
  5
12C
330
126
100
AcDbEntity
  8
_U+30EC_U+30A4_U+30E4_U+30FC 1
370
     0
100
AcDbSpline
210
0.0
220
0.0
230
1.0
 70
    11
 71
     3
 72
    53
 73
    49
 74
     0
 42
0.0000000001
 43
0.0000000001
 12
1.0
 22
0.0
 32
0.0
 13
1.0
 23
0.0
 33
0.0
 40
0.0
 40
0.0
 40
0.0
 40
0.0
 40
1.0
 40
1.0
 40
1.0
 40
2.0
 40
2.0
 40
2.0
 40
3.0
 40
3.0
 40
3.0
 40
4.0
 40
4.0
 40
4.0
 40
5.0
 40
5.0
 40
5.0
 40
6.0
 40
6.0
 40
6.0
 40
7.0
 40
7.0
 40
7.0
 40
8.0
 40
8.0
 40
8.0
 40
9.0
 40
9.0
 40
9.0
 40
10.0
 40
10.0
 40
10.0
 40
11.0
 40
11.0
 40
11.0
 40
12.0
 40
12.0
 40
12.0
 40
13.0
 40
13.0
 40
13.0
 40
14.0
 40
14.0
 40
14.0
 40
15.0
 40
15.0
 40
15.0
 40
16.0
 40
16.0
 40
16.0
 40
16.0
 10
119.8596950655212
 20
-133.4402614683761
 30
0.0
 10
119.8596950655212
 20
-133.5239772886676
 30
0.0
 10
119.843158607192
 20
-133.632497796453
 30
0.0
 10
119.7794243407149
 20
-133.7410183042384
 30
0.0
 10
119.6695257947354
 20
-133.9263644413448
 30
0.0
 10
119.5382676567474
 20
-133.9491020715475
 30
0.0
 10
119.4304361680591
 20
-133.9694281349104
 30
0.0
 10
119.4304361680591
 20
-133.9694281349104
 30
0.0
 10
119.4304361680591
 20
-133.7320610559767
 30
0.0
 10
119.4304361680591
 20
-133.7320610559767
 30
0.0
 10
119.629218177558
 20
-133.673149923179
 30
0.0
 10
119.6588459987311
 20
-133.5374131610601
 30
0.0
 10
119.6588459987311
 20
-133.4381944110849
 30
0.0
 10
119.6588459987311
 20
-133.2886772670251
 30
0.0
 10
119.5592827392074
 20
-133.1260687601213
 30
0.0
 10
119.326738793953
 20
-133.1260687601213
 30
0.0
 10
119.070768199399
 20
-133.1260687601213
 30
0.0
 10
119.0011772705969
 20
-133.3183050881982
 30
0.0
 10
119.0011772705969
 20
-133.4471516593466
 30
0.0
 10
119.0011772705969
 20
-133.480913595102
 30
0.0
 10
119.0011772705969
 20
-133.632497796453
 30
0.0
 10
119.1300238417453
 20
-133.7275824318459
 30
0.0
 10
119.1300238417453
 20
-133.7275824318459
 30
0.0
 10
119.1107313070279
 20
-133.9149956262435
 30
0.0
 10
119.1107313070279
 20
-133.9149956262435
 30
0.0
 10
119.1107313070279
 20
-133.9149956262435
 30
0.0
 10
118.2646158558505
 20
-133.7861490550951
 30
0.0
 10
118.2646158558505
 20
-133.7861490550951
 30
0.0
 10
118.2646158558505
 20
-133.7861490550951
 30
0.0
 10
118.2646158558505
 20
-132.9541584954073
 30
0.0
 10
118.2646158558505
 20
-132.9541584954073
 30
0.0
 10
118.2646158558505
 20
-132.9541584954073
 30
0.0
 10
118.4596082603157
 20
-132.9541584954073
 30
0.0
 10
118.4596082603157
 20
-132.9541584954073
 30
0.0
 10
118.4596082603157
 20
-132.9541584954073
 30
0.0
 10
118.4596082603157
 20
-133.61217173309
 30
0.0
 10
118.4596082603157
 20
-133.61217173309
 30
0.0
 10
118.4596082603157
 20
-133.61217173309
 30
0.0
 10
118.8826659859043
 20
-133.6821071714406
 30
0.0
 10
118.8826659859043
 20
-133.6821071714406
 30
0.0
 10
118.8485595406004
 20
-133.6166503572208
 30
0.0
 10
118.8082519234229
 20
-133.5284559127984
 30
0.0
 10
118.8082519234229
 20
-133.4016763989412
 30
0.0
 10
118.8082519234229
 20
-133.1305473842521
 30
0.0
 10
118.994631589175
 20
-132.8773328660862
 30
0.0
 10
119.3077907687842
 20
-132.8773328660862
 30
0.0
 10
119.6250840629757
 20
-132.8773328660862
 30
0.0
 10
119.8596950655212
 20
-133.1171115118596
 30
0.0
 10
119.8596950655212
 20
-133.4402614683761
 30
0.0
  0
HATCH
  5
12D
330
126
100
AcDbEntity
  8
_U+30EC_U+30A4_U+30E4_U+30FC 1
 62
     7
420
 16777215
100
AcDbHatch
 10
0.0
 20
0.0
 30
0.0
210
0.0
220
0.0
230
1.0
  2
SOLID
 70
     1
 71
     0
 91
        1
 92
        1
 93
        1
 72
     4
 94
        3
 73
     0
 74
     1
 95
       53
 96
       49
 40
0.0
 40
0.0
 40
0.0
 40
0.0
 40
1.0
 40
1.0
 40
1.0
 40
2.0
 40
2.0
 40
2.0
 40
3.0
 40
3.0
 40
3.0
 40
4.0
 40
4.0
 40
4.0
 40
5.0
 40
5.0
 40
5.0
 40
6.0
 40
6.0
 40
6.0
 40
7.0
 40
7.0
 40
7.0
 40
8.0
 40
8.0
 40
8.0
 40
9.0
 40
9.0
 40
9.0
 40
10.0
 40
10.0
 40
10.0
 40
11.0
 40
11.0
 40
11.0
 40
12.0
 40
12.0
 40
12.0
 40
13.0
 40
13.0
 40
13.0
 40
14.0
 40
14.0
 40
14.0
 40
15.0
 40
15.0
 40
15.0
 40
16.0
 40
16.0
 40
16.0
 40
16.0
 10
119.8596950655212
 20
-133.4402614683761
 10
119.8596950655212
 20
-133.5239772886676
 10
119.843158607192
 20
-133.632497796453
 10
119.7794243407149
 20
-133.7410183042384
 10
119.6695257947354
 20
-133.9263644413448
 10
119.5382676567474
 20
-133.9491020715475
 10
119.4304361680591
 20
-133.9694281349104
 10
119.4304361680591
 20
-133.9694281349104
 10
119.4304361680591
 20
-133.7320610559767
 10
119.4304361680591
 20
-133.7320610559767
 10
119.629218177558
 20
-133.673149923179
 10
119.6588459987311
 20
-133.5374131610601
 10
119.6588459987311
 20
-133.4381944110849
 10
119.6588459987311
 20
-133.2886772670251
 10
119.5592827392074
 20
-133.1260687601213
 10
119.326738793953
 20
-133.1260687601213
 10
119.070768199399
 20
-133.1260687601213
 10
119.0011772705969
 20
-133.3183050881982
 10
119.0011772705969
 20
-133.4471516593466
 10
119.0011772705969
 20
-133.480913595102
 10
119.0011772705969
 20
-133.632497796453
 10
119.1300238417453
 20
-133.7275824318459
 10
119.1300238417453
 20
-133.7275824318459
 10
119.1107313070279
 20
-133.9149956262435
 10
119.1107313070279
 20
-133.9149956262435
 10
119.1107313070279
 20
-133.9149956262435
 10
118.2646158558505
 20
-133.7861490550951
 10
118.2646158558505
 20
-133.7861490550951
 10
118.2646158558505
 20
-133.7861490550951
 10
118.2646158558505
 20
-132.9541584954073
 10
118.2646158558505
 20
-132.9541584954073
 10
118.2646158558505
 20
-132.9541584954073
 10
118.4596082603157
 20
-132.9541584954073
 10
118.4596082603157
 20
-132.9541584954073
 10
118.4596082603157
 20
-132.9541584954073
 10
118.4596082603157
 20
-133.61217173309
 10
118.4596082603157
 20
-133.61217173309
 10
118.4596082603157
 20
-133.61217173309
 10
118.8826659859043
 20
-133.6821071714406
 10
118.8826659859043
 20
-133.6821071714406
 10
118.8485595406004
 20
-133.6166503572208
 10
118.8082519234229
 20
-133.5284559127984
 10
118.8082519234229
 20
-133.4016763989412
 10
118.8082519234229
 20
-133.1305473842521
 10
118.994631589175
 20
-132.8773328660862
 10
119.3077907687842
 20
-132.8773328660862
 10
119.6250840629757
 20
-132.8773328660862
 10
119.8596950655212
 20
-133.1171115118596
 10
119.8596950655212
 20
-133.4402614683761
 97
        0
 97
        0
 75
     2
 76
     1
 98
        0
  0
POLYLINE
  5
12E
330
126
100
AcDbEntity
  8
_U+30EC_U+30A4_U+30E4_U+30FC 1
370
     0
100
AcDb2dPolyline
 66
     1
 10
0.0
 20
0.0
 30
0.0
  0
VERTEX
  5
12F
330
12E
100
AcDbEntity
  8
_U+30EC_U+30A4_U+30E4_U+30FC 1
370
     0
100
AcDbVertex
100
AcDb2dVertex
 10
119.809052161888
 20
-132.632386577085
 30
0.0
  0
VERTEX
  5
130
330
12E
100
AcDbEntity
  8
_U+30EC_U+30A4_U+30E4_U+30FC 1
370
     0
100
AcDbVertex
100
AcDb2dVertex
 10
119.5572156819163
 20
-132.632386577085
 30
0.0
  0
VERTEX
  5
131
330
12E
100
AcDbEntity
  8
_U+30EC_U+30A4_U+30E4_U+30FC 1
370
     0
100
AcDbVertex
100
AcDb2dVertex
 10
119.5572156819163
 20
-132.3633246196869
 30
0.0
  0
VERTEX
  5
132
330
12E
100
AcDbEntity
  8
_U+30EC_U+30A4_U+30E4_U+30FC 1
370
     0
100
AcDbVertex
100
AcDb2dVertex
 10
119.809052161888
 20
-132.3633246196869
 30
0.0
  0
VERTEX
  5
133
330
12E
100
AcDbEntity
  8
_U+30EC_U+30A4_U+30E4_U+30FC 1
370
     0
100
AcDbVertex
100
AcDb2dVertex
 10
119.809052161888
 20
-132.632386577085
 30
0.0
  0
SEQEND
  5
134
330
12E
100
AcDbEntity
  8
_U+30EC_U+30A4_U+30E4_U+30FC 1
370
     0
  0
HATCH
  5
135
330
126
100
AcDbEntity
  8
_U+30EC_U+30A4_U+30E4_U+30FC 1
 62
     7
420
 16777215
100
AcDbHatch
 10
0.0
 20
0.0
 30
0.0
210
0.0
220
0.0
230
1.0
  2
SOLID
 70
     1
 71
     0
 91
        1
 92
        1
 93
        4
 72
     1
 10
119.809052161888
 20
-132.632386577085
 11
119.5572156819163
 21
-132.632386577085
 72
     1
 10
119.5572156819163
 20
-132.632386577085
 11
119.5572156819163
 21
-132.3633246196869
 72
     1
 10
119.5572156819163
 20
-132.3633246196869
 11
119.809052161888
 21
-132.3633246196869
 72
     1
 10
119.809052161888
 20
-132.3633246196869
 11
119.809052161888
 21
-132.632386577085
 97
        0
 75
     2
 76
     1
 98
        0
  0
SPLINE
  5
136
330
126
100
AcDbEntity
  8
_U+30EC_U+30A4_U+30E4_U+30FC 1
370
     0
100
AcDbSpline
210
0.0
220
0.0
230
1.0
 70
    11
 71
     3
 72
    53
 73
    49
 74
     0
 42
0.0000000001
 43
0.0000000001
 12
1.0
 22
0.0
 32
0.0
 13
1.0
 23
0.0
 33
0.0
 40
0.0
 40
0.0
 40
0.0
 40
0.0
 40
1.0
 40
1.0
 40
1.0
 40
2.0
 40
2.0
 40
2.0
 40
3.0
 40
3.0
 40
3.0
 40
4.0
 40
4.0
 40
4.0
 40
5.0
 40
5.0
 40
5.0
 40
6.0
 40
6.0
 40
6.0
 40
7.0
 40
7.0
 40
7.0
 40
8.0
 40
8.0
 40
8.0
 40
9.0
 40
9.0
 40
9.0
 40
10.0
 40
10.0
 40
10.0
 40
11.0
 40
11.0
 40
11.0
 40
12.0
 40
12.0
 40
12.0
 40
13.0
 40
13.0
 40
13.0
 40
14.0
 40
14.0
 40
14.0
 40
15.0
 40
15.0
 40
15.0
 40
16.0
 40
16.0
 40
16.0
 40
16.0
 10
119.8596950655212
 20
-131.5967908742189
 30
0.0
 10
119.8596950655212
 20
-131.6805066945104
 30
0.0
 10
119.843158607192
 20
-131.7886826927473
 30
0.0
 10
119.7794243407149
 20
-131.8975477100812
 30
0.0
 10
119.6695257947354
 20
-132.0828938471876
 30
0.0
 10
119.5382676567474
 20
-132.1052869678417
 30
0.0
 10
119.4304361680591
 20
-132.1256130312047
 30
0.0
 10
119.4304361680591
 20
-132.1256130312047
 30
0.0
 10
119.4304361680591
 20
-131.888245952271
 30
0.0
 10
119.4304361680591
 20
-131.888245952271
 30
0.0
 10
119.629218177558
 20
-131.8296793290218
 30
0.0
 10
119.6588459987311
 20
-131.6939425669029
 30
0.0
 10
119.6588459987311
 20
-131.5943793073792
 30
0.0
 10
119.6588459987311
 20
-131.4452066728679
 30
0.0
 10
119.5592827392074
 20
-131.2822536564155
 30
0.0
 10
119.326738793953
 20
-131.2822536564155
 30
0.0
 10
119.070768199399
 20
-131.2822536564155
 30
0.0
 10
119.0011772705969
 20
-131.4744899844925
 30
0.0
 10
119.0011772705969
 20
-131.6033365556409
 30
0.0
 10
119.0011772705969
 20
-131.6374430009448
 30
0.0
 10
119.0011772705969
 20
-131.7886826927473
 30
0.0
 10
119.1300238417453
 20
-131.8837673281402
 30
0.0
 10
119.1300238417453
 20
-131.8837673281402
 30
0.0
 10
119.1107313070279
 20
-132.0715250320863
 30
0.0
 10
119.1107313070279
 20
-132.0715250320863
 30
0.0
 10
119.1107313070279
 20
-132.0715250320863
 30
0.0
 10
118.2646158558505
 20
-131.9426784609379
 30
0.0
 10
118.2646158558505
 20
-131.9426784609379
 30
0.0
 10
118.2646158558505
 20
-131.9426784609379
 30
0.0
 10
118.2646158558505
 20
-131.1106879012501
 30
0.0
 10
118.2646158558505
 20
-131.1106879012501
 30
0.0
 10
118.2646158558505
 20
-131.1106879012501
 30
0.0
 10
118.4596082603157
 20
-131.1106879012501
 30
0.0
 10
118.4596082603157
 20
-131.1106879012501
 30
0.0
 10
118.4596082603157
 20
-131.1106879012501
 30
0.0
 10
118.4596082603157
 20
-131.7683566293843
 30
0.0
 10
118.4596082603157
 20
-131.7683566293843
 30
0.0
 10
118.4596082603157
 20
-131.7683566293843
 30
0.0
 10
118.8826659859043
 20
-131.8386365772834
 30
0.0
 10
118.8826659859043
 20
-131.8386365772834
 30
0.0
 10
118.8485595406004
 20
-131.7731797630637
 30
0.0
 10
118.8082519234229
 20
-131.6849853186413
 30
0.0
 10
118.8082519234229
 20
-131.5582058047841
 30
0.0
 10
118.8082519234229
 20
-131.2870767900949
 30
0.0
 10
118.994631589175
 20
-131.0338622719291
 30
0.0
 10
119.3077907687842
 20
-131.0338622719291
 30
0.0
 10
119.6250840629757
 20
-131.0338622719291
 30
0.0
 10
119.8596950655212
 20
-131.2732964081539
 30
0.0
 10
119.8596950655212
 20
-131.5967908742189
 30
0.0
  0
HATCH
  5
137
330
126
100
AcDbEntity
  8
_U+30EC_U+30A4_U+30E4_U+30FC 1
 62
     7
420
 16777215
100
AcDbHatch
 10
0.0
 20
0.0
 30
0.0
210
0.0
220
0.0
230
1.0
  2
SOLID
 70
     1
 71
     0
 91
        1
 92
        1
 93
        1
 72
     4
 94
        3
 73
     0
 74
     1
 95
       53
 96
       49
 40
0.0
 40
0.0
 40
0.0
 40
0.0
 40
1.0
 40
1.0
 40
1.0
 40
2.0
 40
2.0
 40
2.0
 40
3.0
 40
3.0
 40
3.0
 40
4.0
 40
4.0
 40
4.0
 40
5.0
 40
5.0
 40
5.0
 40
6.0
 40
6.0
 40
6.0
 40
7.0
 40
7.0
 40
7.0
 40
8.0
 40
8.0
 40
8.0
 40
9.0
 40
9.0
 40
9.0
 40
10.0
 40
10.0
 40
10.0
 40
11.0
 40
11.0
 40
11.0
 40
12.0
 40
12.0
 40
12.0
 40
13.0
 40
13.0
 40
13.0
 40
14.0
 40
14.0
 40
14.0
 40
15.0
 40
15.0
 40
15.0
 40
16.0
 40
16.0
 40
16.0
 40
16.0
 10
119.8596950655212
 20
-131.5967908742189
 10
119.8596950655212
 20
-131.6805066945104
 10
119.843158607192
 20
-131.7886826927473
 10
119.7794243407149
 20
-131.8975477100812
 10
119.6695257947354
 20
-132.0828938471876
 10
119.5382676567474
 20
-132.1052869678417
 10
119.4304361680591
 20
-132.1256130312047
 10
119.4304361680591
 20
-132.1256130312047
 10
119.4304361680591
 20
-131.888245952271
 10
119.4304361680591
 20
-131.888245952271
 10
119.629218177558
 20
-131.8296793290218
 10
119.6588459987311
 20
-131.6939425669029
 10
119.6588459987311
 20
-131.5943793073792
 10
119.6588459987311
 20
-131.4452066728679
 10
119.5592827392074
 20
-131.2822536564155
 10
119.326738793953
 20
-131.2822536564155
 10
119.070768199399
 20
-131.2822536564155
 10
119.0011772705969
 20
-131.4744899844925
 10
119.0011772705969
 20
-131.6033365556409
 10
119.0011772705969
 20
-131.6374430009448
 10
119.0011772705969
 20
-131.7886826927473
 10
119.1300238417453
 20
-131.8837673281402
 10
119.1300238417453
 20
-131.8837673281402
 10
119.1107313070279
 20
-132.0715250320863
 10
119.1107313070279
 20
-132.0715250320863
 10
119.1107313070279
 20
-132.0715250320863
 10
118.2646158558505
 20
-131.9426784609379
 10
118.2646158558505
 20
-131.9426784609379
 10
118.2646158558505
 20
-131.9426784609379
 10
118.2646158558505
 20
-131.1106879012501
 10
118.2646158558505
 20
-131.1106879012501
 10
118.2646158558505
 20
-131.1106879012501
 10
118.4596082603157
 20
-131.1106879012501
 10
118.4596082603157
 20
-131.1106879012501
 10
118.4596082603157
 20
-131.1106879012501
 10
118.4596082603157
 20
-131.7683566293843
 10
118.4596082603157
 20
-131.7683566293843
 10
118.4596082603157
 20
-131.7683566293843
 10
118.8826659859043
 20
-131.8386365772834
 10
118.8826659859043
 20
-131.8386365772834
 10
118.8485595406004
 20
-131.7731797630637
 10
118.8082519234229
 20
-131.6849853186413
 10
118.8082519234229
 20
-131.5582058047841
 10
118.8082519234229
 20
-131.2870767900949
 10
118.994631589175
 20
-131.0338622719291
 10
119.3077907687842
 20
-131.0338622719291
 10
119.6250840629757
 20
-131.0338622719291
 10
119.8596950655212
 20
-131.2732964081539
 10
119.8596950655212
 20
-131.5967908742189
 97
        0
 97
        0
 75
     2
 76
     1
 98
        0
  0
ENDBLK
  5
129
330
126
100
AcDbEntity
  8
0
100
AcDbBlockEnd
  0
BLOCK
  5
146
330
144
100
AcDbEntity
  8
0
100
AcDbBlockBegin
  2
block 8
 70
     0
 10
0.0
 20
0.0
 30
0.0
  3
block 8
  1

  0
SPLINE
  5
148
330
144
100
AcDbEntity
  8
_U+30EC_U+30A4_U+30E4_U+30FC 1
370
     0
100
AcDbSpline
210
0.0
220
0.0
230
1.0
 70
    11
 71
     3
 72
    44
 73
    40
 74
     0
 42
0.0000000001
 43
0.0000000001
 12
1.0
 22
0.0
 32
0.0
 13
1.0
 23
0.0
 33
0.0
 40
0.0
 40
0.0
 40
0.0
 40
0.0
 40
1.0
 40
1.0
 40
1.0
 40
2.0
 40
2.0
 40
2.0
 40
3.0
 40
3.0
 40
3.0
 40
4.0
 40
4.0
 40
4.0
 40
5.0
 40
5.0
 40
5.0
 40
6.0
 40
6.0
 40
6.0
 40
7.0
 40
7.0
 40
7.0
 40
8.0
 40
8.0
 40
8.0
 40
9.0
 40
9.0
 40
9.0
 40
10.0
 40
10.0
 40
10.0
 40
11.0
 40
11.0
 40
11.0
 40
12.0
 40
12.0
 40
12.0
 40
13.0
 40
13.0
 40
13.0
 40
13.0
 10
61.84979924669033
 20
-131.7549207569918
 30
0.0
 10
62.00861814856035
 20
-131.9878092117947
 30
0.0
 10
62.08268770149322
 20
-132.0873724713184
 30
0.0
 10
62.22634818322814
 20
-132.1393934131457
 30
0.0
 10
62.22634818322814
 20
-132.1393934131457
 30
0.0
 10
62.22634818322814
 20
-131.3070583439093
 30
0.0
 10
62.22634818322814
 20
-131.3070583439093
 30
0.0
 10
62.22634818322814
 20
-131.3070583439093
 30
0.0
 10
62.43167587414903
 20
-131.3070583439093
 30
0.0
 10
62.43167587414903
 20
-131.3070583439093
 30
0.0
 10
62.43167587414903
 20
-131.3070583439093
 30
0.0
 10
62.43167587414903
 20
-132.4060438037041
 30
0.0
 10
62.43167587414903
 20
-132.4060438037041
 30
0.0
 10
62.0740749627801
 20
-132.3719373584001
 30
0.0
 10
61.99587129526493
 20
-132.3020019200495
 30
0.0
 10
61.69752602624229
 20
-131.8906575191107
 30
0.0
 10
61.49874401674337
 20
-131.6171169375818
 30
0.0
 10
61.43087563568395
 20
-131.5468369896827
 30
0.0
 10
61.29341632582248
 20
-131.5468369896827
 30
0.0
 10
61.17490504112989
 20
-131.5468369896827
 30
0.0
 10
61.0439914126904
 20
-131.6236626190038
 30
0.0
 10
61.0439914126904
 20
-131.8341579531526
 30
0.0
 10
61.0439914126904
 20
-132.1121771588122
 30
0.0
 10
61.27446830065361
 20
-132.1211344070739
 30
0.0
 10
61.39091252805505
 20
-132.1256130312047
 30
0.0
 10
61.39091252805505
 20
-132.1256130312047
 30
0.0
 10
61.39091252805505
 20
-132.3653916769781
 30
0.0
 10
61.39091252805505
 20
-132.3653916769781
 30
0.0
 10
61.26378850464933
 20
-132.3564344287165
 30
0.0
 10
61.15182290137871
 20
-132.3450656136151
 30
0.0
 10
61.03331161668612
 20
-132.2589382264839
 30
0.0
 10
60.87242565752495
 20
-132.1414604704369
 30
0.0
 10
60.83866372176951
 20
-131.9426784609379
 30
0.0
 10
60.83866372176951
 20
-131.8183105139204
 30
0.0
 10
60.83866372176951
 20
-131.5220323021889
 30
0.0
 10
61.02263182068184
 20
-131.3005126624874
 30
0.0
 10
61.29548338311363
 20
-131.3005126624874
 30
0.0
 10
61.52423772333422
 20
-131.3005126624874
 30
0.0
 10
61.62345647330942
 20
-131.4248806095049
 30
0.0
 10
61.84979924669033
 20
-131.7549207569918
 30
0.0
  0
HATCH
  5
149
330
144
100
AcDbEntity
  8
_U+30EC_U+30A4_U+30E4_U+30FC 1
 62
     7
420
 16777215
100
AcDbHatch
 10
0.0
 20
0.0
 30
0.0
210
0.0
220
0.0
230
1.0
  2
SOLID
 70
     1
 71
     0
 91
        1
 92
        1
 93
        1
 72
     4
 94
        3
 73
     0
 74
     1
 95
       44
 96
       40
 40
0.0
 40
0.0
 40
0.0
 40
0.0
 40
1.0
 40
1.0
 40
1.0
 40
2.0
 40
2.0
 40
2.0
 40
3.0
 40
3.0
 40
3.0
 40
4.0
 40
4.0
 40
4.0
 40
5.0
 40
5.0
 40
5.0
 40
6.0
 40
6.0
 40
6.0
 40
7.0
 40
7.0
 40
7.0
 40
8.0
 40
8.0
 40
8.0
 40
9.0
 40
9.0
 40
9.0
 40
10.0
 40
10.0
 40
10.0
 40
11.0
 40
11.0
 40
11.0
 40
12.0
 40
12.0
 40
12.0
 40
13.0
 40
13.0
 40
13.0
 40
13.0
 10
61.84979924669033
 20
-131.7549207569918
 10
62.00861814856035
 20
-131.9878092117947
 10
62.08268770149322
 20
-132.0873724713184
 10
62.22634818322814
 20
-132.1393934131457
 10
62.22634818322814
 20
-132.1393934131457
 10
62.22634818322814
 20
-131.3070583439093
 10
62.22634818322814
 20
-131.3070583439093
 10
62.22634818322814
 20
-131.3070583439093
 10
62.43167587414903
 20
-131.3070583439093
 10
62.43167587414903
 20
-131.3070583439093
 10
62.43167587414903
 20
-131.3070583439093
 10
62.43167587414903
 20
-132.4060438037041
 10
62.43167587414903
 20
-132.4060438037041
 10
62.0740749627801
 20
-132.3719373584001
 10
61.99587129526493
 20
-132.3020019200495
 10
61.69752602624229
 20
-131.8906575191107
 10
61.49874401674337
 20
-131.6171169375818
 10
61.43087563568395
 20
-131.5468369896827
 10
61.29341632582248
 20
-131.5468369896827
 10
61.17490504112989
 20
-131.5468369896827
 10
61.0439914126904
 20
-131.6236626190038
 10
61.0439914126904
 20
-131.8341579531526
 10
61.0439914126904
 20
-132.1121771588122
 10
61.27446830065361
 20
-132.1211344070739
 10
61.39091252805505
 20
-132.1256130312047
 10
61.39091252805505
 20
-132.1256130312047
 10
61.39091252805505
 20
-132.3653916769781
 10
61.39091252805505
 20
-132.3653916769781
 10
61.26378850464933
 20
-132.3564344287165
 10
61.15182290137871
 20
-132.3450656136151
 10
61.03331161668612
 20
-132.2589382264839
 10
60.87242565752495
 20
-132.1414604704369
 10
60.83866372176951
 20
-131.9426784609379
 10
60.83866372176951
 20
-131.8183105139204
 10
60.83866372176951
 20
-131.5220323021889
 10
61.02263182068184
 20
-131.3005126624874
 10
61.29548338311363
 20
-131.3005126624874
 10
61.52423772333422
 20
-131.3005126624874
 10
61.62345647330942
 20
-131.4248806095049
 10
61.84979924669033
 20
-131.7549207569918
 97
        0
 97
        0
 75
     2
 76
     1
 98
        0
  0
SPLINE
  5
14A
330
144
100
AcDbEntity
  8
_U+30EC_U+30A4_U+30E4_U+30FC 1
370
     0
100
AcDbSpline
210
0.0
220
0.0
230
1.0
 70
    11
 71
     3
 72
    26
 73
    22
 74
     0
 42
0.0000000001
 43
0.0000000001
 12
1.0
 22
0.0
 32
0.0
 13
1.0
 23
0.0
 33
0.0
 40
0.0
 40
0.0
 40
0.0
 40
0.0
 40
1.0
 40
1.0
 40
1.0
 40
2.0
 40
2.0
 40
2.0
 40
3.0
 40
3.0
 40
3.0
 40
4.0
 40
4.0
 40
4.0
 40
5.0
 40
5.0
 40
5.0
 40
6.0
 40
6.0
 40
6.0
 40
7.0
 40
7.0
 40
7.0
 40
7.0
 10
62.43167587414903
 20
-130.6914197806952
 30
0.0
 10
62.43167587414903
 20
-130.6914197806952
 30
0.0
 10
62.43167587414903
 20
-130.9446342988611
 30
0.0
 10
62.43167587414903
 20
-130.9446342988611
 30
0.0
 10
62.12265080912212
 20
-130.9177625540761
 30
0.0
 10
61.60450844814054
 20
-130.7117458440582
 30
0.0
 10
61.09876843090586
 20
-130.2776638129167
 30
0.0
 10
61.09876843090586
 20
-130.2776638129167
 30
0.0
 10
61.09876843090586
 20
-131.1730441295331
 30
0.0
 10
61.09876843090586
 20
-131.1730441295331
 30
0.0
 10
61.09876843090586
 20
-131.1730441295331
 30
0.0
 10
60.88723956811153
 20
-131.1730441295331
 30
0.0
 10
60.88723956811153
 20
-131.1730441295331
 30
0.0
 10
60.88723956811153
 20
-131.1730441295331
 30
0.0
 10
60.88723956811153
 20
-130.0244492947508
 30
0.0
 10
60.88723956811153
 20
-130.0244492947508
 30
0.0
 10
60.88723956811153
 20
-130.0244492947508
 30
0.0
 10
61.09876843090586
 20
-130.0244492947508
 30
0.0
 10
61.09876843090586
 20
-130.0244492947508
 30
0.0
 10
61.3888454707639
 20
-130.3703368814699
 30
0.0
 10
61.98105738467835
 20
-130.6552462781001
 30
0.0
 10
62.43167587414903
 20
-130.6914197806952
 30
0.0
  0
HATCH
  5
14B
330
144
100
AcDbEntity
  8
_U+30EC_U+30A4_U+30E4_U+30FC 1
 62
     7
420
 16777215
100
AcDbHatch
 10
0.0
 20
0.0
 30
0.0
210
0.0
220
0.0
230
1.0
  2
SOLID
 70
     1
 71
     0
 91
        1
 92
        1
 93
        1
 72
     4
 94
        3
 73
     0
 74
     1
 95
       26
 96
       22
 40
0.0
 40
0.0
 40
0.0
 40
0.0
 40
1.0
 40
1.0
 40
1.0
 40
2.0
 40
2.0
 40
2.0
 40
3.0
 40
3.0
 40
3.0
 40
4.0
 40
4.0
 40
4.0
 40
5.0
 40
5.0
 40
5.0
 40
6.0
 40
6.0
 40
6.0
 40
7.0
 40
7.0
 40
7.0
 40
7.0
 10
62.43167587414903
 20
-130.6914197806952
 10
62.43167587414903
 20
-130.6914197806952
 10
62.43167587414903
 20
-130.9446342988611
 10
62.43167587414903
 20
-130.9446342988611
 10
62.12265080912212
 20
-130.9177625540761
 10
61.60450844814054
 20
-130.7117458440582
 10
61.09876843090586
 20
-130.2776638129167
 10
61.09876843090586
 20
-130.2776638129167
 10
61.09876843090586
 20
-131.1730441295331
 10
61.09876843090586
 20
-131.1730441295331
 10
61.09876843090586
 20
-131.1730441295331
 10
60.88723956811153
 20
-131.1730441295331
 10
60.88723956811153
 20
-131.1730441295331
 10
60.88723956811153
 20
-131.1730441295331
 10
60.88723956811153
 20
-130.0244492947508
 10
60.88723956811153
 20
-130.0244492947508
 10
60.88723956811153
 20
-130.0244492947508
 10
61.09876843090586
 20
-130.0244492947508
 10
61.09876843090586
 20
-130.0244492947508
 10
61.3888454707639
 20
-130.3703368814699
 10
61.98105738467835
 20
-130.6552462781001
 10
62.43167587414903
 20
-130.6914197806952
 97
        0
 97
        0
 75
     2
 76
     1
 98
        0
  0
ENDBLK
  5
147
330
144
100
AcDbEntity
  8
0
100
AcDbBlockEnd
  0
ENDSEC
  0
SECTION
  2
ENTITIES
  0
POLYLINE
  5
41
330
1F
100
AcDbEntity
  8
_U+30EC_U+30A4_U+30E4_U+30FC 1
370
     0
100
AcDb2dPolyline
 66
     1
 10
0.0
 20
0.0
 30
0.0
  0
VERTEX
  5
42
330
41
100
AcDbEntity
  8
_U+30EC_U+30A4_U+30E4_U+30FC 1
370
     0
100
AcDbVertex
100
AcDb2dVertex
 10
66.9178857927825
 20
-117.9373152482933
 30
0.0
  0
VERTEX
  5
43
330
41
100
AcDbEntity
  8
_U+30EC_U+30A4_U+30E4_U+30FC 1
370
     0
100
AcDbVertex
100
AcDb2dVertex
 10
70.97585318925513
 20
-117.9373152482933
 30
0.0
  0
VERTEX
  5
44
330
41
100
AcDbEntity
  8
_U+30EC_U+30A4_U+30E4_U+30FC 1
370
     0
100
AcDbVertex
100
AcDb2dVertex
 10
70.97585318925513
 20
-118.8778560813916
 30
0.0
  0
VERTEX
  5
45
330
41
100
AcDbEntity
  8
_U+30EC_U+30A4_U+30E4_U+30FC 1
370
     0
100
AcDbVertex
100
AcDb2dVertex
 10
67.97621909911551
 20
-118.8778560813916
 30
0.0
  0
VERTEX
  5
46
330
41
100
AcDbEntity
  8
_U+30EC_U+30A4_U+30E4_U+30FC 1
370
     0
100
AcDbVertex
100
AcDb2dVertex
 10
67.97621909911551
 20
-124.4086002466757
 30
0.0
  0
VERTEX
  5
47
330
41
100
AcDbEntity
  8
_U+30EC_U+30A4_U+30E4_U+30FC 1
370
     0
100
AcDbVertex
100
AcDb2dVertex
 10
116.8717499707824
 20
-124.4967946910981
 30
0.0
  0
VERTEX
  5
48
330
41
100
AcDbEntity
  8
_U+30EC_U+30A4_U+30E4_U+30FC 1
370
     0
100
AcDbVertex
100
AcDb2dVertex
 10
116.8717499707824
 20
-125.5888888574917
 30
0.0
  0
VERTEX
  5
49
330
41
100
AcDbEntity
  8
_U+30EC_U+30A4_U+30E4_U+30FC 1
370
     0
100
AcDbVertex
100
AcDb2dVertex
 10
67.97621909911551
 20
-125.6109374685973
 30
0.0
  0
VERTEX
  5
4A
330
41
100
AcDbEntity
  8
_U+30EC_U+30A4_U+30E4_U+30FC 1
370
     0
100
AcDbVertex
100
AcDb2dVertex
 10
67.97621909911551
 20
-143.9161177417986
 30
0.0
  0
VERTEX
  5
4B
330
41
100
AcDbEntity
  8
_U+30EC_U+30A4_U+30E4_U+30FC 1
370
     0
100
AcDbVertex
100
AcDb2dVertex
 10
80.96800126766753
 20
-143.9161177417986
 30
0.0
  0
VERTEX
  5
4C
330
41
100
AcDbEntity
  8
_U+30EC_U+30A4_U+30E4_U+30FC 1
370
     0
100
AcDbVertex
100
AcDb2dVertex
 10
80.96800126766753
 20
-141.0342760758524
 30
0.0
  0
VERTEX
  5
4D
330
41
100
AcDbEntity
  8
_U+30EC_U+30A4_U+30E4_U+30FC 1
370
     0
100
AcDbVertex
100
AcDb2dVertex
 10
81.87890874442834
 20
-141.0342760758524
 30
0.0
  0
VERTEX
  5
4E
330
41
100
AcDbEntity
  8
_U+30EC_U+30A4_U+30E4_U+30FC 1
370
     0
100
AcDbVertex
100
AcDb2dVertex
 10
81.87890874442834
 20
-144.9744510748673
 30
0.0
  0
VERTEX
  5
4F
330
41
100
AcDbEntity
  8
_U+30EC_U+30A4_U+30E4_U+30FC 1
370
     0
100
AcDbVertex
100
AcDb2dVertex
 10
66.9178857927825
 20
-144.9744510748673
 30
0.0
  0
VERTEX
  5
50
330
41
100
AcDbEntity
  8
_U+30EC_U+30A4_U+30E4_U+30FC 1
370
     0
100
AcDbVertex
100
AcDb2dVertex
 10
66.9178857927825
 20
-117.9373152482933
 30
0.0
  0
SEQEND
  5
52
330
41
100
AcDbEntity
  8
_U+30EC_U+30A4_U+30E4_U+30FC 1
370
     0
  0
HATCH
  5
51
330
1F
100
AcDbEntity
  8
_U+30EC_U+30A4_U+30E4_U+30FC 1
 62
   253
420
 11711154
100
AcDbHatch
 10
0.0
 20
0.0
 30
0.0
210
0.0
220
0.0
230
1.0
  2
SOLID
 70
     1
 71
     0
 91
        1
 92
        1
 93
       14
 72
     1
 10
66.9178857927825
 20
-117.9373152482933
 11
70.97585318925513
 21
-117.9373152482933
 72
     1
 10
70.97585318925513
 20
-117.9373152482933
 11
70.97585318925513
 21
-118.8778560813916
 72
     1
 10
70.97585318925513
 20
-118.8778560813916
 11
67.97621909911551
 21
-118.8778560813916
 72
     1
 10
67.97621909911551
 20
-118.8778560813916
 11
67.97621909911551
 21
-124.4086002466757
 72
     1
 10
67.97621909911551
 20
-124.4086002466757
 11
116.8717499707824
 21
-124.4967946910981
 72
     1
 10
116.8717499707824
 20
-124.4967946910981
 11
116.8717499707824
 21
-125.5888888574917
 72
     1
 10
116.8717499707824
 20
-125.5888888574917
 11
67.97621909911551
 21
-125.6109374685973
 72
     1
 10
67.97621909911551
 20
-125.6109374685973
 11
67.97621909911551
 21
-143.9161177417986
 72
     1
 10
67.97621909911551
 20
-143.9161177417986
 11
80.96800126766753
 21
-143.9161177417986
 72
     1
 10
80.96800126766753
 20
-143.9161177417986
 11
80.96800126766753
 21
-141.0342760758524
 72
     1
 10
80.96800126766753
 20
-141.0342760758524
 11
81.87890874442834
 21
-141.0342760758524
 72
     1
 10
81.87890874442834
 20
-141.0342760758524
 11
81.87890874442834
 21
-144.9744510748673
 72
     1
 10
81.87890874442834
 20
-144.9744510748673
 11
66.9178857927825
 21
-144.9744510748673
 72
     1
 10
66.9178857927825
 20
-144.9744510748673
 11
66.9178857927825
 21
-117.9373152482933
 97
        0
 75
     2
 76
     1
 98
        0
  0
POLYLINE
  5
53
330
1F
100
AcDbEntity
  8
_U+30EC_U+30A4_U+30E4_U+30FC 1
 62
     7
420
 16777215
370
    25
100
AcDb2dPolyline
 66
     1
 10
0.0
 20
0.0
 30
0.0
  0
VERTEX
  5
54
330
53
100
AcDbEntity
  8
_U+30EC_U+30A4_U+30E4_U+30FC 1
 62
     7
420
 16777215
370
    25
100
AcDbVertex
100
AcDb2dVertex
 10
81.9615666461764
 20
-144.9613630193152
 30
0.0
  0
VERTEX
  5
55
330
53
100
AcDbEntity
  8
_U+30EC_U+30A4_U+30E4_U+30FC 1
 62
     7
420
 16777215
370
    25
100
AcDbVertex
100
AcDb2dVertex
 10
66.96163023611093
 20
-144.9613630193152
 30
0.0
  0
SEQEND
  5
56
330
53
100
AcDbEntity
  8
_U+30EC_U+30A4_U+30E4_U+30FC 1
 62
     7
420
 16777215
370
    25
  0
POLYLINE
  5
57
330
1F
100
AcDbEntity
  8
_U+30EC_U+30A4_U+30E4_U+30FC 1
 62
     7
420
 16777215
370
    25
100
AcDb2dPolyline
 66
     1
 10
0.0
 20
0.0
 30
0.0
  0
VERTEX
  5
58
330
57
100
AcDbEntity
  8
_U+30EC_U+30A4_U+30E4_U+30FC 1
 62
     7
420
 16777215
370
    25
100
AcDbVertex
100
AcDb2dVertex
 10
116.961317293846
 20
-124.4606349688849
 30
0.0
  0
VERTEX
  5
59
330
57
100
AcDbEntity
  8
_U+30EC_U+30A4_U+30E4_U+30FC 1
 62
     7
420
 16777215
370
    25
100
AcDbVertex
100
AcDb2dVertex
 10
116.961317293846
 20
-125.5606313574987
 30
0.0
  0
SEQEND
  5
5A
330
57
100
AcDbEntity
  8
_U+30EC_U+30A4_U+30E4_U+30FC 1
 62
     7
420
 16777215
370
    25
  0
POLYLINE
  5
5B
330
1F
100
AcDbEntity
  8
_U+30EC_U+30A4_U+30E4_U+30FC 1
 62
     7
420
 16777215
370
    25
100
AcDb2dPolyline
 66
     1
 10
0.0
 20
0.0
 30
0.0
  0
VERTEX
  5
5C
330
5B
100
AcDbEntity
  8
_U+30EC_U+30A4_U+30E4_U+30FC 1
 62
     7
420
 16777215
370
    25
100
AcDbVertex
100
AcDb2dVertex
 10
81.9615666461764
 20
-140.9612510758706
 30
0.0
  0
VERTEX
  5
5D
330
5B
100
AcDbEntity
  8
_U+30EC_U+30A4_U+30E4_U+30FC 1
 62
     7
420
 16777215
370
    25
100
AcDbVertex
100
AcDb2dVertex
 10
80.96112210117636
 20
-140.9612510758706
 30
0.0
  0
SEQEND
  5
5E
330
5B
100
AcDbEntity
  8
_U+30EC_U+30A4_U+30E4_U+30FC 1
 62
     7
420
 16777215
370
    25
  0
POLYLINE
  5
5F
330
1F
100
AcDbEntity
  8
_U+30EC_U+30A4_U+30E4_U+30FC 1
 62
     7
420
 16777215
370
    25
100
AcDb2dPolyline
 66
     1
 10
0.0
 20
0.0
 30
0.0
  0
VERTEX
  5
60
330
5F
100
AcDbEntity
  8
_U+30EC_U+30A4_U+30E4_U+30FC 1
 62
     7
420
 16777215
370
    25
100
AcDbVertex
100
AcDb2dVertex
 10
116.961317293846
 20
-124.4606349688849
 30
0.0
  0
VERTEX
  5
61
330
5F
100
AcDbEntity
  8
_U+30EC_U+30A4_U+30E4_U+30FC 1
 62
     7
420
 16777215
370
    25
100
AcDbVertex
100
AcDb2dVertex
 10
67.96140243282684
 20
-124.4606349688849
 30
0.0
  0
SEQEND
  5
62
330
5F
100
AcDbEntity
  8
_U+30EC_U+30A4_U+30E4_U+30FC 1
 62
     7
420
 16777215
370
    25
  0
POLYLINE
  5
63
330
1F
100
AcDbEntity
  8
_U+30EC_U+30A4_U+30E4_U+30FC 1
 62
     7
420
 16777215
370
    25
100
AcDb2dPolyline
 66
     1
 10
0.0
 20
0.0
 30
0.0
  0
VERTEX
  5
64
330
63
100
AcDbEntity
  8
_U+30EC_U+30A4_U+30E4_U+30FC 1
 62
     7
420
 16777215
370
    25
100
AcDbVertex
100
AcDb2dVertex
 10
116.961317293846
 20
-125.5606313574987
 30
0.0
  0
VERTEX
  5
65
330
63
100
AcDbEntity
  8
_U+30EC_U+30A4_U+30E4_U+30FC 1
 62
     7
420
 16777215
370
    25
100
AcDbVertex
100
AcDb2dVertex
 10
67.96140243282684
 20
-125.5606313574987
 30
0.0
  0
SEQEND
  5
66
330
63
100
AcDbEntity
  8
_U+30EC_U+30A4_U+30E4_U+30FC 1
 62
     7
420
 16777215
370
    25
  0
POLYLINE
  5
67
330
1F
100
AcDbEntity
  8
_U+30EC_U+30A4_U+30E4_U+30FC 1
 62
     7
420
 16777215
370
    25
100
AcDb2dPolyline
 66
     1
 10
0.0
 20
0.0
 30
0.0
  0
VERTEX
  5
68
330
67
100
AcDbEntity
  8
_U+30EC_U+30A4_U+30E4_U+30FC 1
 62
     7
420
 16777215
370
    25
100
AcDbVertex
100
AcDb2dVertex
 10
80.96112210117636
 20
-143.9608852417878
 30
0.0
  0
VERTEX
  5
69
330
67
100
AcDbEntity
  8
_U+30EC_U+30A4_U+30E4_U+30FC 1
 62
     7
420
 16777215
370
    25
100
AcDbVertex
100
AcDb2dVertex
 10
67.96140243282684
 20
-143.9608852417878
 30
0.0
  0
SEQEND
  5
6A
330
67
100
AcDbEntity
  8
_U+30EC_U+30A4_U+30E4_U+30FC 1
 62
     7
420
 16777215
370
    25
  0
POLYLINE
  5
6B
330
1F
100
AcDbEntity
  8
_U+30EC_U+30A4_U+30E4_U+30FC 1
 62
     7
420
 16777215
370
    25
100
AcDb2dPolyline
 66
     1
 10
0.0
 20
0.0
 30
0.0
  0
VERTEX
  5
6C
330
6B
100
AcDbEntity
  8
_U+30EC_U+30A4_U+30E4_U+30FC 1
 62
     7
420
 16777215
370
    25
100
AcDbVertex
100
AcDb2dVertex
 10
81.9615666461764
 20
-140.9612510758706
 30
0.0
  0
VERTEX
  5
6D
330
6B
100
AcDbEntity
  8
_U+30EC_U+30A4_U+30E4_U+30FC 1
 62
     7
420
 16777215
370
    25
100
AcDbVertex
100
AcDb2dVertex
 10
81.9615666461764
 20
-144.9613630193152
 30
0.0
  0
SEQEND
  5
6E
330
6B
100
AcDbEntity
  8
_U+30EC_U+30A4_U+30E4_U+30FC 1
 62
     7
420
 16777215
370
    25
  0
POLYLINE
  5
6F
330
1F
100
AcDbEntity
  8
_U+30EC_U+30A4_U+30E4_U+30FC 1
 62
     7
420
 16777215
370
    25
100
AcDb2dPolyline
 66
     1
 10
0.0
 20
0.0
 30
0.0
  0
VERTEX
  5
70
330
6F
100
AcDbEntity
  8
_U+30EC_U+30A4_U+30E4_U+30FC 1
 62
     7
420
 16777215
370
    25
100
AcDbVertex
100
AcDb2dVertex
 10
80.96112210117636
 20
-140.9612510758706
 30
0.0
  0
VERTEX
  5
71
330
6F
100
AcDbEntity
  8
_U+30EC_U+30A4_U+30E4_U+30FC 1
 62
     7
420
 16777215
370
    25
100
AcDbVertex
100
AcDb2dVertex
 10
80.96112210117636
 20
-143.9608852417878
 30
0.0
  0
SEQEND
  5
72
330
6F
100
AcDbEntity
  8
_U+30EC_U+30A4_U+30E4_U+30FC 1
 62
     7
420
 16777215
370
    25
  0
POLYLINE
  5
73
330
1F
100
AcDbEntity
  8
_U+30EC_U+30A4_U+30E4_U+30FC 1
 62
     7
420
 16777215
370
    25
100
AcDb2dPolyline
 66
     1
 10
0.0
 20
0.0
 30
0.0
  0
VERTEX
  5
74
330
73
100
AcDbEntity
  8
_U+30EC_U+30A4_U+30E4_U+30FC 1
 62
     7
420
 16777215
370
    25
100
AcDbVertex
100
AcDb2dVertex
 10
67.96140243282684
 20
-125.5606313574987
 30
0.0
  0
VERTEX
  5
75
330
73
100
AcDbEntity
  8
_U+30EC_U+30A4_U+30E4_U+30FC 1
 62
     7
420
 16777215
370
    25
100
AcDbVertex
100
AcDb2dVertex
 10
67.96140243282684
 20
-143.9608852417878
 30
0.0
  0
SEQEND
  5
76
330
73
100
AcDbEntity
  8
_U+30EC_U+30A4_U+30E4_U+30FC 1
 62
     7
420
 16777215
370
    25
  0
SPLINE
  5
77
330
1F
100
AcDbEntity
  8
_U+30EC_U+30A4_U+30E4_U+30FC 1
 62
     7
420
 16777215
370
     9
100
AcDbSpline
210
0.0
220
0.0
230
1.0
 70
    11
 71
     3
 72
    17
 73
    13
 74
     0
 42
0.0000000001
 43
0.0000000001
 12
1.0
 22
0.0
 32
0.0
 13
1.0
 23
0.0
 33
0.0
 40
0.0
 40
0.0
 40
0.0
 40
0.0
 40
1.0
 40
1.0
 40
1.0
 40
2.0
 40
2.0
 40
2.0
 40
3.0
 40
3.0
 40
3.0
 40
4.0
 40
4.0
 40
4.0
 40
4.0
 10
120.4071094281587
 20
-125.5613369130542
 30
0.0
 10
120.4622485934187
 20
-125.5613369130542
 30
0.0
 10
120.5070160922766
 20
-125.5165341352875
 30
0.0
 10
120.5070160922766
 20
-125.4614302464126
 30
0.0
 10
120.5070160922766
 20
-125.4062910797595
 30
0.0
 10
120.4622485934187
 20
-125.3615235797706
 30
0.0
 10
120.4071094281587
 20
-125.3615235797706
 30
0.0
 10
120.3520055406756
 20
-125.3615235797706
 30
0.0
 10
120.3072027640409
 20
-125.4062910797595
 30
0.0
 10
120.3072027640409
 20
-125.4614302464126
 30
0.0
 10
120.3072027640409
 20
-125.5165341352875
 30
0.0
 10
120.3520055406756
 20
-125.5613369130542
 30
0.0
 10
120.4071094281587
 20
-125.5613369130542
 30
0.0
  0
SPLINE
  5
78
330
1F
100
AcDbEntity
  8
_U+30EC_U+30A4_U+30E4_U+30FC 1
 62
     7
420
 16777215
370
     9
100
AcDbSpline
210
0.0
220
0.0
230
1.0
 70
    11
 71
     3
 72
    17
 73
    13
 74
     0
 42
0.0000000001
 43
0.0000000001
 12
1.0
 22
0.0
 32
0.0
 13
1.0
 23
0.0
 33
0.0
 40
0.0
 40
0.0
 40
0.0
 40
0.0
 40
1.0
 40
1.0
 40
1.0
 40
2.0
 40
2.0
 40
2.0
 40
3.0
 40
3.0
 40
3.0
 40
4.0
 40
4.0
 40
4.0
 40
4.0
 10
120.4071094281587
 20
-124.3613985800206
 30
0.0
 10
120.4622485934187
 20
-124.3613985800206
 30
0.0
 10
120.5070160922766
 20
-124.3166310800321
 30
0.0
 10
120.5070160922766
 20
-124.261491913379
 30
0.0
 10
120.5070160922766
 20
-124.2060352467263
 30
0.0
 10
120.4622485934187
 20
-124.1612324689596
 30
0.0
 10
120.4071094281587
 20
-124.1612324689596
 30
0.0
 10
120.3520055406756
 20
-124.1612324689596
 30
0.0
 10
120.3072027640409
 20
-124.2060352467263
 30
0.0
 10
120.3072027640409
 20
-124.261491913379
 30
0.0
 10
120.3072027640409
 20
-124.3166310800321
 30
0.0
 10
120.3520055406756
 20
-124.3613985800206
 30
0.0
 10
120.4071094281587
 20
-124.3613985800206
 30
0.0
  0
SPLINE
  5
79
330
1F
100
AcDbEntity
  8
_U+30EC_U+30A4_U+30E4_U+30FC 1
 62
     7
420
 16777215
370
     9
100
AcDbSpline
210
0.0
220
0.0
230
1.0
 70
    11
 71
     3
 72
    17
 73
    13
 74
     0
 42
0.0000000001
 43
0.0000000001
 12
1.0
 22
0.0
 32
0.0
 13
1.0
 23
0.0
 33
0.0
 40
0.0
 40
0.0
 40
0.0
 40
0.0
 40
1.0
 40
1.0
 40
1.0
 40
2.0
 40
2.0
 40
2.0
 40
3.0
 40
3.0
 40
3.0
 40
4.0
 40
4.0
 40
4.0
 40
4.0
 10
120.4071094281587
 20
-141.0604521869573
 30
0.0
 10
120.4622485934187
 20
-141.0604521869573
 30
0.0
 10
120.5070160922766
 20
-141.0156846869681
 30
0.0
 10
120.5070160922766
 20
-140.9605455203157
 30
0.0
 10
120.5070160922766
 20
-140.9054416314401
 30
0.0
 10
120.4622485934187
 20
-140.860638853674
 30
0.0
 10
120.4071094281587
 20
-140.860638853674
 30
0.0
 10
120.3520055406756
 20
-140.860638853674
 30
0.0
 10
120.3072027640409
 20
-140.9054416314401
 30
0.0
 10
120.3072027640409
 20
-140.9605455203157
 30
0.0
 10
120.3072027640409
 20
-141.0156846869681
 30
0.0
 10
120.3520055406756
 20
-141.0604521869573
 30
0.0
 10
120.4071094281587
 20
-141.0604521869573
 30
0.0
  0
SPLINE
  5
7A
330
1F
100
AcDbEntity
  8
_U+30EC_U+30A4_U+30E4_U+30FC 1
 62
     7
420
 16777215
370
     9
100
AcDbSpline
210
0.0
220
0.0
230
1.0
 70
    11
 71
     3
 72
    17
 73
    13
 74
     0
 42
0.0000000001
 43
0.0000000001
 12
1.0
 22
0.0
 32
0.0
 13
1.0
 23
0.0
 33
0.0
 40
0.0
 40
0.0
 40
0.0
 40
0.0
 40
1.0
 40
1.0
 40
1.0
 40
2.0
 40
2.0
 40
2.0
 40
3.0
 40
3.0
 40
3.0
 40
4.0
 40
4.0
 40
4.0
 40
4.0
 10
120.4071094281587
 20
-144.9613630193152
 30
0.0
 10
120.4622485934187
 20
-144.9613630193152
 30
0.0
 10
120.5070160922766
 20
-144.9165602415485
 30
0.0
 10
120.5070160922766
 20
-144.860750797118
 30
0.0
 10
120.5070160922766
 20
-144.8056469082431
 30
0.0
 10
120.4622485934187
 20
-144.7608441304764
 30
0.0
 10
120.4071094281587
 20
-144.7608441304764
 30
0.0
 10
120.3520055406756
 20
-144.7608441304764
 30
0.0
 10
120.3072027640409
 20
-144.8056469082431
 30
0.0
 10
120.3072027640409
 20
-144.860750797118
 30
0.0
 10
120.3072027640409
 20
-144.9165602415485
 30
0.0
 10
120.3520055406756
 20
-144.9613630193152
 30
0.0
 10
120.4071094281587
 20
-144.9613630193152
 30
0.0
  0
SPLINE
  5
7B
330
1F
100
AcDbEntity
  8
_U+30EC_U+30A4_U+30E4_U+30FC 1
 62
     7
420
 16777215
370
     9
100
AcDbSpline
210
0.0
220
0.0
230
1.0
 70
    11
 71
     3
 72
    17
 73
    13
 74
     0
 42
0.0000000001
 43
0.0000000001
 12
1.0
 22
0.0
 32
0.0
 13
1.0
 23
0.0
 33
0.0
 40
0.0
 40
0.0
 40
0.0
 40
0.0
 40
1.0
 40
1.0
 40
1.0
 40
2.0
 40
2.0
 40
2.0
 40
3.0
 40
3.0
 40
3.0
 40
4.0
 40
4.0
 40
4.0
 40
4.0
 10
66.96163023611093
 20
-149.0610288516237
 30
0.0
 10
67.01676940137088
 20
-149.0610288516237
 30
0.0
 10
67.06153690022877
 20
-149.016226073857
 30
0.0
 10
67.06153690022877
 20
-148.9611221849821
 30
0.0
 10
67.06153690022877
 20
-148.905983018329
 30
0.0
 10
67.01676940137088
 20
-148.8612155183405
 30
0.0
 10
66.96163023611093
 20
-148.8612155183405
 30
0.0
 10
66.90652634862786
 20
-148.8612155183405
 30
0.0
 10
66.8617235719931
 20
-148.905983018329
 30
0.0
 10
66.8617235719931
 20
-148.9611221849821
 30
0.0
 10
66.8617235719931
 20
-149.016226073857
 30
0.0
 10
66.90652634862786
 20
-149.0610288516237
 30
0.0
 10
66.96163023611093
 20
-149.0610288516237
 30
0.0
  0
SPLINE
  5
7C
330
1F
100
AcDbEntity
  8
_U+30EC_U+30A4_U+30E4_U+30FC 1
 62
     7
420
 16777215
370
     9
100
AcDbSpline
210
0.0
220
0.0
230
1.0
 70
    11
 71
     3
 72
    17
 73
    13
 74
     0
 42
0.0000000001
 43
0.0000000001
 12
1.0
 22
0.0
 32
0.0
 13
1.0
 23
0.0
 33
0.0
 40
0.0
 40
0.0
 40
0.0
 40
0.0
 40
1.0
 40
1.0
 40
1.0
 40
2.0
 40
2.0
 40
2.0
 40
3.0
 40
3.0
 40
3.0
 40
4.0
 40
4.0
 40
4.0
 40
4.0
 10
63.61436893261779
 20
-145.0612696859569
 30
0.0
 10
63.67017837563842
 20
-145.0612696859569
 30
0.0
 10
63.71498115227319
 20
-145.0164669081901
 30
0.0
 10
63.71498115227319
 20
-144.9613630193152
 30
0.0
 10
63.71498115227319
 20
-144.9062238526621
 30
0.0
 10
63.67017837563842
 20
-144.8614563526736
 30
0.0
 10
63.61436893261779
 20
-144.8614563526736
 30
0.0
 10
63.55926665077673
 20
-144.8614563526736
 30
0.0
 10
63.51446387301034
 20
-144.9062238526621
 30
0.0
 10
63.51446387301034
 20
-144.9613630193152
 30
0.0
 10
63.51446387301034
 20
-145.0164669081901
 30
0.0
 10
63.55926665077673
 20
-145.0612696859569
 30
0.0
 10
63.61436893261779
 20
-145.0612696859569
 30
0.0
  0
SPLINE
  5
7D
330
1F
100
AcDbEntity
  8
_U+30EC_U+30A4_U+30E4_U+30FC 1
 62
     7
420
 16777215
370
     9
100
AcDbSpline
210
0.0
220
0.0
230
1.0
 70
    11
 71
     3
 72
    17
 73
    13
 74
     0
 42
0.0000000001
 43
0.0000000001
 12
1.0
 22
0.0
 32
0.0
 13
1.0
 23
0.0
 33
0.0
 40
0.0
 40
0.0
 40
0.0
 40
0.0
 40
1.0
 40
1.0
 40
1.0
 40
2.0
 40
2.0
 40
2.0
 40
3.0
 40
3.0
 40
3.0
 40
4.0
 40
4.0
 40
4.0
 40
4.0
 10
63.61436893261779
 20
-118.2611652482125
 30
0.0
 10
63.67017837563842
 20
-118.2611652482125
 30
0.0
 10
63.71498115227319
 20
-118.2163977482237
 30
0.0
 10
63.71498115227319
 20
-118.1612585815709
 30
0.0
 10
63.71498115227319
 20
-118.1061546926957
 30
0.0
 10
63.67017837563842
 20
-118.0613519149289
 30
0.0
 10
63.61436893261779
 20
-118.0613519149289
 30
0.0
 10
63.55926665077673
 20
-118.0613519149289
 30
0.0
 10
63.51446387301034
 20
-118.1061546926957
 30
0.0
 10
63.51446387301034
 20
-118.1612585815709
 30
0.0
 10
63.51446387301034
 20
-118.2163977482237
 30
0.0
 10
63.55926665077673
 20
-118.2611652482125
 30
0.0
 10
63.61436893261779
 20
-118.2611652482125
 30
0.0
  0
SPLINE
  5
7E
330
1F
100
AcDbEntity
  8
_U+30EC_U+30A4_U+30E4_U+30FC 1
 62
     7
420
 16777215
370
     9
100
AcDbSpline
210
0.0
220
0.0
230
1.0
 70
    11
 71
     3
 72
    17
 73
    13
 74
     0
 42
0.0000000001
 43
0.0000000001
 12
1.0
 22
0.0
 32
0.0
 13
1.0
 23
0.0
 33
0.0
 40
0.0
 40
0.0
 40
0.0
 40
0.0
 40
1.0
 40
1.0
 40
1.0
 40
2.0
 40
2.0
 40
2.0
 40
3.0
 40
3.0
 40
3.0
 40
4.0
 40
4.0
 40
4.0
 40
4.0
 10
71.06129596485309
 20
-114.5373841380322
 30
0.0
 10
71.11639985233616
 20
-114.5373841380322
 30
0.0
 10
71.16120262897091
 20
-114.4925813602658
 30
0.0
 10
71.16120262897091
 20
-114.4367719158353
 30
0.0
 10
71.16120262897091
 20
-114.3816327491823
 30
0.0
 10
71.11639985233616
 20
-114.3368652491937
 30
0.0
 10
71.06129596485309
 20
-114.3368652491937
 30
0.0
 10
71.00548652183245
 20
-114.3368652491937
 30
0.0
 10
70.96138930073525
 20
-114.3816327491823
 30
0.0
 10
70.96138930073525
 20
-114.4367719158353
 30
0.0
 10
70.96138930073525
 20
-114.4925813602658
 30
0.0
 10
71.00548652183245
 20
-114.5373841380322
 30
0.0
 10
71.06129596485309
 20
-114.5373841380322
 30
0.0
  0
SPLINE
  5
7F
330
1F
100
AcDbEntity
  8
_U+30EC_U+30A4_U+30E4_U+30FC 1
 62
     7
420
 16777215
370
     9
100
AcDbSpline
210
0.0
220
0.0
230
1.0
 70
    11
 71
     3
 72
    17
 73
    13
 74
     0
 42
0.0000000001
 43
0.0000000001
 12
1.0
 22
0.0
 32
0.0
 13
1.0
 23
0.0
 33
0.0
 40
0.0
 40
0.0
 40
0.0
 40
0.0
 40
1.0
 40
1.0
 40
1.0
 40
2.0
 40
2.0
 40
2.0
 40
3.0
 40
3.0
 40
3.0
 40
4.0
 40
4.0
 40
4.0
 40
4.0
 10
66.96163023611093
 20
-114.5373841380322
 30
0.0
 10
67.01676940137088
 20
-114.5373841380322
 30
0.0
 10
67.06153690022877
 20
-114.4925813602658
 30
0.0
 10
67.06153690022877
 20
-114.4367719158353
 30
0.0
 10
67.06153690022877
 20
-114.3816327491823
 30
0.0
 10
67.01676940137088
 20
-114.3368652491937
 30
0.0
 10
66.96163023611093
 20
-114.3368652491937
 30
0.0
 10
66.90652634862786
 20
-114.3368652491937
 30
0.0
 10
66.8617235719931
 20
-114.3816327491823
 30
0.0
 10
66.8617235719931
 20
-114.4367719158353
 30
0.0
 10
66.8617235719931
 20
-114.4925813602658
 30
0.0
 10
66.90652634862786
 20
-114.5373841380322
 30
0.0
 10
66.96163023611093
 20
-114.5373841380322
 30
0.0
  0
POLYLINE
  5
80
330
1F
100
AcDbEntity
  8
_U+30EC_U+30A4_U+30E4_U+30FC 1
 62
     7
420
 16777215
370
     9
100
AcDb2dPolyline
 66
     1
 10
0.0
 20
0.0
 30
0.0
  0
VERTEX
  5
81
330
80
100
AcDbEntity
  8
_U+30EC_U+30A4_U+30E4_U+30FC 1
 62
     7
420
 16777215
370
     9
100
AcDbVertex
100
AcDb2dVertex
 10
120.4071094281587
 20
-144.860750797118
 30
0.0
  0
VERTEX
  5
82
330
80
100
AcDbEntity
  8
_U+30EC_U+30A4_U+30E4_U+30FC 1
 62
     7
420
 16777215
370
     9
100
AcDbVertex
100
AcDb2dVertex
 10
120.4071094281587
 20
-140.860638853674
 30
0.0
  0
SEQEND
  5
83
330
80
100
AcDbEntity
  8
_U+30EC_U+30A4_U+30E4_U+30FC 1
 62
     7
420
 16777215
370
     9
  0
POLYLINE
  5
84
330
1F
100
AcDbEntity
  8
_U+30EC_U+30A4_U+30E4_U+30FC 1
 62
     7
420
 16777215
370
     9
100
AcDb2dPolyline
 66
     1
 10
0.0
 20
0.0
 30
0.0
  0
VERTEX
  5
85
330
84
100
AcDbEntity
  8
_U+30EC_U+30A4_U+30E4_U+30FC 1
 62
     7
420
 16777215
370
     9
100
AcDbVertex
100
AcDb2dVertex
 10
83.43850398241753
 20
-144.8614563526736
 30
0.0
  0
VERTEX
  5
86
330
84
100
AcDbEntity
  8
_U+30EC_U+30A4_U+30E4_U+30FC 1
 62
     7
420
 16777215
370
     9
100
AcDbVertex
100
AcDb2dVertex
 10
121.4082574581729
 20
-144.8614563526736
 30
0.0
  0
SEQEND
  5
87
330
84
100
AcDbEntity
  8
_U+30EC_U+30A4_U+30E4_U+30FC 1
 62
     7
420
 16777215
370
     9
  0
POLYLINE
  5
88
330
1F
100
AcDbEntity
  8
_U+30EC_U+30A4_U+30E4_U+30FC 1
 62
     7
420
 16777215
370
     9
100
AcDb2dPolyline
 66
     1
 10
0.0
 20
0.0
 30
0.0
  0
VERTEX
  5
89
330
88
100
AcDbEntity
  8
_U+30EC_U+30A4_U+30E4_U+30FC 1
 62
     7
420
 16777215
370
     9
100
AcDbVertex
100
AcDb2dVertex
 10
83.43850398241753
 20
-140.9612510758706
 30
0.0
  0
VERTEX
  5
8A
330
88
100
AcDbEntity
  8
_U+30EC_U+30A4_U+30E4_U+30FC 1
 62
     7
420
 16777215
370
     9
100
AcDbVertex
100
AcDb2dVertex
 10
121.4082574581729
 20
-140.9612510758706
 30
0.0
  0
SEQEND
  5
8B
330
88
100
AcDbEntity
  8
_U+30EC_U+30A4_U+30E4_U+30FC 1
 62
     7
420
 16777215
370
     9
  0
POLYLINE
  5
8C
330
1F
100
AcDbEntity
  8
_U+30EC_U+30A4_U+30E4_U+30FC 1
 62
     7
420
 16777215
370
     9
100
AcDb2dPolyline
 66
     1
 10
0.0
 20
0.0
 30
0.0
  0
VERTEX
  5
8D
330
8C
100
AcDbEntity
  8
_U+30EC_U+30A4_U+30E4_U+30FC 1
 62
     7
420
 16777215
370
     9
100
AcDbVertex
100
AcDb2dVertex
 10
120.4071094281587
 20
-122.5926766360185
 30
0.0
  0
VERTEX
  5
8E
330
8C
100
AcDbEntity
  8
_U+30EC_U+30A4_U+30E4_U+30FC 1
 62
     7
420
 16777215
370
     9
100
AcDbVertex
100
AcDb2dVertex
 10
120.4071094281587
 20
-125.4614302464126
 30
0.0
  0
SEQEND
  5
8F
330
8C
100
AcDbEntity
  8
_U+30EC_U+30A4_U+30E4_U+30FC 1
 62
     7
420
 16777215
370
     9
  0
POLYLINE
  5
90
330
1F
100
AcDbEntity
  8
_U+30EC_U+30A4_U+30E4_U+30FC 1
 62
     7
420
 16777215
370
     9
100
AcDb2dPolyline
 66
     1
 10
0.0
 20
0.0
 30
0.0
  0
VERTEX
  5
91
330
90
100
AcDbEntity
  8
_U+30EC_U+30A4_U+30E4_U+30FC 1
 62
     7
420
 16777215
370
     9
100
AcDbVertex
100
AcDb2dVertex
 10
119.4614533411733
 20
-124.261491913379
 30
0.0
  0
VERTEX
  5
92
330
90
100
AcDbEntity
  8
_U+30EC_U+30A4_U+30E4_U+30FC 1
 62
     7
420
 16777215
370
     9
100
AcDbVertex
100
AcDb2dVertex
 10
121.4068816248746
 20
-124.261491913379
 30
0.0
  0
SEQEND
  5
93
330
90
100
AcDbEntity
  8
_U+30EC_U+30A4_U+30E4_U+30FC 1
 62
     7
420
 16777215
370
     9
  0
INSERT
  5
95
330
1F
100
AcDbEntity
  8
_U+30EC_U+30A4_U+30E4_U+30FC 1
100
AcDbBlockReference
  2
block 2
 10
0.0
 20
0.0
 30
0.0
  0
INSERT
  5
A5
330
1F
100
AcDbEntity
  8
_U+30EC_U+30A4_U+30E4_U+30FC 1
100
AcDbBlockReference
  2
block 3
 10
0.0
 20
0.0
 30
0.0
  0
POLYLINE
  5
BD
330
1F
100
AcDbEntity
  8
_U+30EC_U+30A4_U+30E4_U+30FC 1
 62
     7
420
 16777215
370
     9
100
AcDb2dPolyline
 66
     1
 10
0.0
 20
0.0
 30
0.0
  0
VERTEX
  5
BE
330
BD
100
AcDbEntity
  8
_U+30EC_U+30A4_U+30E4_U+30FC 1
 62
     7
420
 16777215
370
     9
100
AcDbVertex
100
AcDb2dVertex
 10
117.0612239579638
 20
-121.9966938583897
 30
0.0
  0
VERTEX
  5
BF
330
BD
100
AcDbEntity
  8
_U+30EC_U+30A4_U+30E4_U+30FC 1
 62
     7
420
 16777215
370
     9
100
AcDbVertex
100
AcDb2dVertex
 10
117.0612239579638
 20
-108.3206988618087
 30
0.0
  0
SEQEND
  5
C0
330
BD
100
AcDbEntity
  8
_U+30EC_U+30A4_U+30E4_U+30FC 1
 62
     7
420
 16777215
370
     9
  0
POLYLINE
  5
C1
330
1F
100
AcDbEntity
  8
_U+30EC_U+30A4_U+30E4_U+30FC 1
 62
     7
420
 16777215
370
    25
100
AcDb2dPolyline
 66
     1
 10
0.0
 20
0.0
 30
0.0
  0
VERTEX
  5
C2
330
C1
100
AcDbEntity
  8
_U+30EC_U+30A4_U+30E4_U+30FC 1
 62
     7
420
 16777215
370
    25
100
AcDbVertex
100
AcDb2dVertex
 10
70.96138930073525
 20
-117.9304360816286
 30
0.0
  0
VERTEX
  5
C3
330
C1
100
AcDbEntity
  8
_U+30EC_U+30A4_U+30E4_U+30FC 1
 62
     7
420
 16777215
370
    25
100
AcDbVertex
100
AcDb2dVertex
 10
66.96163023611093
 20
-117.9304360816286
 30
0.0
  0
SEQEND
  5
C4
330
C1
100
AcDbEntity
  8
_U+30EC_U+30A4_U+30E4_U+30FC 1
 62
     7
420
 16777215
370
    25
  0
POLYLINE
  5
C5
330
1F
100
AcDbEntity
  8
_U+30EC_U+30A4_U+30E4_U+30FC 1
 62
     7
420
 16777215
370
    25
100
AcDb2dPolyline
 66
     1
 10
0.0
 20
0.0
 30
0.0
  0
VERTEX
  5
C6
330
C5
100
AcDbEntity
  8
_U+30EC_U+30A4_U+30E4_U+30FC 1
 62
     7
420
 16777215
370
    25
100
AcDbVertex
100
AcDb2dVertex
 10
66.96163023611093
 20
-117.96077497051
 30
0.0
  0
VERTEX
  5
C7
330
C5
100
AcDbEntity
  8
_U+30EC_U+30A4_U+30E4_U+30FC 1
 62
     7
420
 16777215
370
    25
100
AcDbVertex
100
AcDb2dVertex
 10
66.96163023611093
 20
-144.9613630193152
 30
0.0
  0
SEQEND
  5
C8
330
C5
100
AcDbEntity
  8
_U+30EC_U+30A4_U+30E4_U+30FC 1
 62
     7
420
 16777215
370
    25
  0
POLYLINE
  5
C9
330
1F
100
AcDbEntity
  8
_U+30EC_U+30A4_U+30E4_U+30FC 1
 62
     7
420
 16777215
370
    25
100
AcDb2dPolyline
 66
     1
 10
0.0
 20
0.0
 30
0.0
  0
VERTEX
  5
CA
330
C9
100
AcDbEntity
  8
_U+30EC_U+30A4_U+30E4_U+30FC 1
 62
     7
420
 16777215
370
    25
100
AcDbVertex
100
AcDb2dVertex
 10
67.96140243282684
 20
-118.9426260813756
 30
0.0
  0
VERTEX
  5
CB
330
C9
100
AcDbEntity
  8
_U+30EC_U+30A4_U+30E4_U+30FC 1
 62
     7
420
 16777215
370
    25
100
AcDbVertex
100
AcDb2dVertex
 10
67.96140243282684
 20
-124.3424544133589
 30
0.0
  0
SEQEND
  5
CC
330
C9
100
AcDbEntity
  8
_U+30EC_U+30A4_U+30E4_U+30FC 1
 62
     7
420
 16777215
370
    25
  0
POLYLINE
  5
CD
330
1F
100
AcDbEntity
  8
_U+30EC_U+30A4_U+30E4_U+30FC 1
 62
     7
420
 16777215
370
    25
100
AcDb2dPolyline
 66
     1
 10
0.0
 20
0.0
 30
0.0
  0
VERTEX
  5
CE
330
CD
100
AcDbEntity
  8
_U+30EC_U+30A4_U+30E4_U+30FC 1
 62
     7
420
 16777215
370
    25
100
AcDbVertex
100
AcDb2dVertex
 10
70.96138930073525
 20
-118.9302083036008
 30
0.0
  0
VERTEX
  5
CF
330
CD
100
AcDbEntity
  8
_U+30EC_U+30A4_U+30E4_U+30FC 1
 62
     7
420
 16777215
370
    25
100
AcDbVertex
100
AcDb2dVertex
 10
67.96140243282684
 20
-118.9302083036008
 30
0.0
  0
SEQEND
  5
D0
330
CD
100
AcDbEntity
  8
_U+30EC_U+30A4_U+30E4_U+30FC 1
 62
     7
420
 16777215
370
    25
  0
POLYLINE
  5
D1
330
1F
100
AcDbEntity
  8
_U+30EC_U+30A4_U+30E4_U+30FC 1
 62
     7
420
 16777215
370
    25
100
AcDb2dPolyline
 66
     1
 10
0.0
 20
0.0
 30
0.0
  0
VERTEX
  5
D2
330
D1
100
AcDbEntity
  8
_U+30EC_U+30A4_U+30E4_U+30FC 1
 62
     7
420
 16777215
370
    25
100
AcDbVertex
100
AcDb2dVertex
 10
70.96138930073525
 20
-117.9304360816286
 30
0.0
  0
VERTEX
  5
D3
330
D1
100
AcDbEntity
  8
_U+30EC_U+30A4_U+30E4_U+30FC 1
 62
     7
420
 16777215
370
    25
100
AcDbVertex
100
AcDb2dVertex
 10
70.96138930073525
 20
-118.9302083036008
 30
0.0
  0
SEQEND
  5
D4
330
D1
100
AcDbEntity
  8
_U+30EC_U+30A4_U+30E4_U+30FC 1
 62
     7
420
 16777215
370
    25
  0
SPLINE
  5
D5
330
1F
100
AcDbEntity
  8
_U+30EC_U+30A4_U+30E4_U+30FC 1
 62
     7
420
 16777215
370
     9
100
AcDbSpline
210
0.0
220
0.0
230
1.0
 70
    11
 71
     3
 72
    17
 73
    13
 74
     0
 42
0.0000000001
 43
0.0000000001
 12
1.0
 22
0.0
 32
0.0
 13
1.0
 23
0.0
 33
0.0
 40
0.0
 40
0.0
 40
0.0
 40
0.0
 40
1.0
 40
1.0
 40
1.0
 40
2.0
 40
2.0
 40
2.0
 40
3.0
 40
3.0
 40
3.0
 40
4.0
 40
4.0
 40
4.0
 40
4.0
 10
66.96163023611093
 20
-109.4975302504034
 30
0.0
 10
67.01676940137088
 20
-109.4975302504034
 30
0.0
 10
67.06153690022877
 20
-109.4527627504145
 30
0.0
 10
67.06153690022877
 20
-109.3976235837618
 30
0.0
 10
67.06153690022877
 20
-109.3425196948865
 30
0.0
 10
67.01676940137088
 20
-109.2977169171201
 30
0.0
 10
66.96163023611093
 20
-109.2977169171201
 30
0.0
 10
66.90652634862786
 20
-109.2977169171201
 30
0.0
 10
66.8617235719931
 20
-109.3425196948865
 30
0.0
 10
66.8617235719931
 20
-109.3976235837618
 30
0.0
 10
66.8617235719931
 20
-109.4527627504145
 30
0.0
 10
66.90652634862786
 20
-109.4975302504034
 30
0.0
 10
66.96163023611093
 20
-109.4975302504034
 30
0.0
  0
SPLINE
  5
D6
330
1F
100
AcDbEntity
  8
_U+30EC_U+30A4_U+30E4_U+30FC 1
 62
     7
420
 16777215
370
     9
100
AcDbSpline
210
0.0
220
0.0
230
1.0
 70
    11
 71
     3
 72
    17
 73
    13
 74
     0
 42
0.0000000001
 43
0.0000000001
 12
1.0
 22
0.0
 32
0.0
 13
1.0
 23
0.0
 33
0.0
 40
0.0
 40
0.0
 40
0.0
 40
0.0
 40
1.0
 40
1.0
 40
1.0
 40
2.0
 40
2.0
 40
2.0
 40
3.0
 40
3.0
 40
3.0
 40
4.0
 40
4.0
 40
4.0
 40
4.0
 10
117.0612239579638
 20
-109.4975302504034
 30
0.0
 10
117.1163631232238
 20
-109.4975302504034
 30
0.0
 10
117.1611658998585
 20
-109.4527627504145
 30
0.0
 10
117.1611658998585
 20
-109.3976235837618
 30
0.0
 10
117.1611658998585
 20
-109.3425196948865
 30
0.0
 10
117.1163631232238
 20
-109.2977169171201
 30
0.0
 10
117.0612239579638
 20
-109.2977169171201
 30
0.0
 10
117.0054145149432
 20
-109.2977169171201
 30
0.0
 10
116.961317293846
 20
-109.3425196948865
 30
0.0
 10
116.961317293846
 20
-109.3976235837618
 30
0.0
 10
116.961317293846
 20
-109.4527627504145
 30
0.0
 10
117.0054145149432
 20
-109.4975302504034
 30
0.0
 10
117.0612239579638
 20
-109.4975302504034
 30
0.0
  0
POLYLINE
  5
D7
330
1F
100
AcDbEntity
  8
_U+30EC_U+30A4_U+30E4_U+30FC 1
 62
     7
420
 16777215
370
     9
100
AcDb2dPolyline
 66
     1
 10
0.0
 20
0.0
 30
0.0
  0
VERTEX
  5
D8
330
D7
100
AcDbEntity
  8
_U+30EC_U+30A4_U+30E4_U+30FC 1
 62
     7
420
 16777215
370
     9
100
AcDbVertex
100
AcDb2dVertex
 10
116.961317293846
 20
-109.3976235837618
 30
0.0
  0
VERTEX
  5
D9
330
D7
100
AcDbEntity
  8
_U+30EC_U+30A4_U+30E4_U+30FC 1
 62
     7
420
 16777215
370
     9
100
AcDbVertex
100
AcDb2dVertex
 10
66.96163023611093
 20
-109.3976235837618
 30
0.0
  0
SEQEND
  5
DA
330
D7
100
AcDbEntity
  8
_U+30EC_U+30A4_U+30E4_U+30FC 1
 62
     7
420
 16777215
370
     9
  0
INSERT
  5
DC
330
1F
100
AcDbEntity
  8
_U+30EC_U+30A4_U+30E4_U+30FC 1
100
AcDbBlockReference
  2
block 4
 10
0.0
 20
0.0
 30
0.0
  0
POLYLINE
  5
E4
330
1F
100
AcDbEntity
  8
_U+30EC_U+30A4_U+30E4_U+30FC 1
 62
     7
420
 16777215
370
     9
100
AcDb2dPolyline
 66
     1
 10
0.0
 20
0.0
 30
0.0
  0
VERTEX
  5
E5
330
E4
100
AcDbEntity
  8
_U+30EC_U+30A4_U+30E4_U+30FC 1
 62
     7
420
 16777215
370
     9
100
AcDbVertex
100
AcDb2dVertex
 10
66.96163023611093
 20
-148.9611221849821
 30
0.0
  0
VERTEX
  5
E6
330
E4
100
AcDbEntity
  8
_U+30EC_U+30A4_U+30E4_U+30FC 1
 62
     7
420
 16777215
370
     9
100
AcDbVertex
100
AcDb2dVertex
 10
81.9615666461764
 20
-148.9611221849821
 30
0.0
  0
SEQEND
  5
E7
330
E4
100
AcDbEntity
  8
_U+30EC_U+30A4_U+30E4_U+30FC 1
 62
     7
420
 16777215
370
     9
  0
POLYLINE
  5
E8
330
1F
100
AcDbEntity
  8
_U+30EC_U+30A4_U+30E4_U+30FC 1
 62
     7
420
 16777215
370
     9
100
AcDb2dPolyline
 66
     1
 10
0.0
 20
0.0
 30
0.0
  0
VERTEX
  5
E9
330
E8
100
AcDbEntity
  8
_U+30EC_U+30A4_U+30E4_U+30FC 1
 62
     7
420
 16777215
370
     9
100
AcDbVertex
100
AcDb2dVertex
 10
66.96163023611093
 20
-147.5010807964584
 30
0.0
  0
VERTEX
  5
EA
330
E8
100
AcDbEntity
  8
_U+30EC_U+30A4_U+30E4_U+30FC 1
 62
     7
420
 16777215
370
     9
100
AcDbVertex
100
AcDb2dVertex
 10
66.96163023611093
 20
-149.961564684732
 30
0.0
  0
SEQEND
  5
EB
330
E8
100
AcDbEntity
  8
_U+30EC_U+30A4_U+30E4_U+30FC 1
 62
     7
420
 16777215
370
     9
  0
SPLINE
  5
EC
330
1F
100
AcDbEntity
  8
_U+30EC_U+30A4_U+30E4_U+30FC 1
 62
     7
420
 16777215
370
     9
100
AcDbSpline
210
0.0
220
0.0
230
1.0
 70
    11
 71
     3
 72
    17
 73
    13
 74
     0
 42
0.0000000001
 43
0.0000000001
 12
1.0
 22
0.0
 32
0.0
 13
1.0
 23
0.0
 33
0.0
 40
0.0
 40
0.0
 40
0.0
 40
0.0
 40
1.0
 40
1.0
 40
1.0
 40
2.0
 40
2.0
 40
2.0
 40
3.0
 40
3.0
 40
3.0
 40
4.0
 40
4.0
 40
4.0
 40
4.0
 10
82.06115373977889
 20
-149.0610288516237
 30
0.0
 10
82.11625762726196
 20
-149.0610288516237
 30
0.0
 10
82.16106040389673
 20
-149.016226073857
 30
0.0
 10
82.16106040389673
 20
-148.9611221849821
 30
0.0
 10
82.16106040389673
 20
-148.905983018329
 30
0.0
 10
82.11625762726196
 20
-148.8612155183405
 30
0.0
 10
82.06115373977889
 20
-148.8612155183405
 30
0.0
 10
82.0063694239428
 20
-148.8612155183405
 30
0.0
 10
81.9615666461764
 20
-148.905983018329
 30
0.0
 10
81.9615666461764
 20
-148.9611221849821
 30
0.0
 10
81.9615666461764
 20
-149.016226073857
 30
0.0
 10
82.0063694239428
 20
-149.0610288516237
 30
0.0
 10
82.06115373977889
 20
-149.0610288516237
 30
0.0
  0
POLYLINE
  5
ED
330
1F
100
AcDbEntity
  8
_U+30EC_U+30A4_U+30E4_U+30FC 1
 62
     7
420
 16777215
370
     9
100
AcDb2dPolyline
 66
     1
 10
0.0
 20
0.0
 30
0.0
  0
VERTEX
  5
EE
330
ED
100
AcDbEntity
  8
_U+30EC_U+30A4_U+30E4_U+30FC 1
 62
     7
420
 16777215
370
     9
100
AcDbVertex
100
AcDb2dVertex
 10
82.06115373977889
 20
-147.5010807964584
 30
0.0
  0
VERTEX
  5
EF
330
ED
100
AcDbEntity
  8
_U+30EC_U+30A4_U+30E4_U+30FC 1
 62
     7
420
 16777215
370
     9
100
AcDbVertex
100
AcDb2dVertex
 10
82.06115373977889
 20
-149.961564684732
 30
0.0
  0
SEQEND
  5
F0
330
ED
100
AcDbEntity
  8
_U+30EC_U+30A4_U+30E4_U+30FC 1
 62
     7
420
 16777215
370
     9
  0
INSERT
  5
F2
330
1F
100
AcDbEntity
  8
_U+30EC_U+30A4_U+30E4_U+30FC 1
100
AcDbBlockReference
  2
block 5
 10
0.0
 20
0.0
 30
0.0
  0
POLYLINE
  5
F9
330
1F
100
AcDbEntity
  8
_U+30EC_U+30A4_U+30E4_U+30FC 1
 62
     7
420
 16777215
370
     9
100
AcDb2dPolyline
 66
     1
 10
0.0
 20
0.0
 30
0.0
  0
VERTEX
  5
FA
330
F9
100
AcDbEntity
  8
_U+30EC_U+30A4_U+30E4_U+30FC 1
 62
     7
420
 16777215
370
     9
100
AcDbVertex
100
AcDb2dVertex
 10
70.96138930073525
 20
-114.4367719158353
 30
0.0
  0
VERTEX
  5
FB
330
F9
100
AcDbEntity
  8
_U+30EC_U+30A4_U+30E4_U+30FC 1
 62
     7
420
 16777215
370
     9
100
AcDbVertex
100
AcDb2dVertex
 10
66.96163023611093
 20
-114.4367719158353
 30
0.0
  0
SEQEND
  5
FC
330
F9
100
AcDbEntity
  8
_U+30EC_U+30A4_U+30E4_U+30FC 1
 62
     7
420
 16777215
370
     9
  0
POLYLINE
  5
FD
330
1F
100
AcDbEntity
  8
_U+30EC_U+30A4_U+30E4_U+30FC 1
 62
     7
420
 16777215
370
     9
100
AcDb2dPolyline
 66
     1
 10
0.0
 20
0.0
 30
0.0
  0
VERTEX
  5
FE
330
FD
100
AcDbEntity
  8
_U+30EC_U+30A4_U+30E4_U+30FC 1
 62
     7
420
 16777215
370
     9
100
AcDbVertex
100
AcDb2dVertex
 10
71.06129596485309
 20
-112.9774360828668
 30
0.0
  0
VERTEX
  5
FF
330
FD
100
AcDbEntity
  8
_U+30EC_U+30A4_U+30E4_U+30FC 1
 62
     7
420
 16777215
370
     9
100
AcDbVertex
100
AcDb2dVertex
 10
71.06129596485309
 20
-115.4372144155852
 30
0.0
  0
SEQEND
  5
100
330
FD
100
AcDbEntity
  8
_U+30EC_U+30A4_U+30E4_U+30FC 1
 62
     7
420
 16777215
370
     9
  0
POLYLINE
  5
101
330
1F
100
AcDbEntity
  8
_U+30EC_U+30A4_U+30E4_U+30FC 1
 62
     7
420
 16777215
370
     9
100
AcDb2dPolyline
 66
     1
 10
0.0
 20
0.0
 30
0.0
  0
VERTEX
  5
102
330
101
100
AcDbEntity
  8
_U+30EC_U+30A4_U+30E4_U+30FC 1
 62
     7
420
 16777215
370
     9
100
AcDbVertex
100
AcDb2dVertex
 10
66.96198301387972
 20
-108.3420419173591
 30
0.0
  0
VERTEX
  5
103
330
101
100
AcDbEntity
  8
_U+30EC_U+30A4_U+30E4_U+30FC 1
 62
     7
420
 16777215
370
     9
100
AcDbVertex
100
AcDb2dVertex
 10
66.96198301387972
 20
-115.4365441378076
 30
0.0
  0
SEQEND
  5
104
330
101
100
AcDbEntity
  8
_U+30EC_U+30A4_U+30E4_U+30FC 1
 62
     7
420
 16777215
370
     9
  0
INSERT
  5
106
330
1F
100
AcDbEntity
  8
_U+30EC_U+30A4_U+30E4_U+30FC 1
100
AcDbBlockReference
  2
block 6
 10
0.0
 20
0.0
 30
0.0
  0
POLYLINE
  5
11E
330
1F
100
AcDbEntity
  8
_U+30EC_U+30A4_U+30E4_U+30FC 1
 62
     7
420
 16777215
370
     9
100
AcDb2dPolyline
 66
     1
 10
0.0
 20
0.0
 30
0.0
  0
VERTEX
  5
11F
330
11E
100
AcDbEntity
  8
_U+30EC_U+30A4_U+30E4_U+30FC 1
 62
     7
420
 16777215
370
     9
100
AcDbVertex
100
AcDb2dVertex
 10
120.4071094281587
 20
-125.5613369130542
 30
0.0
  0
VERTEX
  5
120
330
11E
100
AcDbEntity
  8
_U+30EC_U+30A4_U+30E4_U+30FC 1
 62
     7
420
 16777215
370
     9
100
AcDbVertex
100
AcDb2dVertex
 10
120.4071094281587
 20
-140.9612510758706
 30
0.0
  0
SEQEND
  5
121
330
11E
100
AcDbEntity
  8
_U+30EC_U+30A4_U+30E4_U+30FC 1
 62
     7
420
 16777215
370
     9
  0
POLYLINE
  5
122
330
1F
100
AcDbEntity
  8
_U+30EC_U+30A4_U+30E4_U+30FC 1
 62
     7
420
 16777215
370
     9
100
AcDb2dPolyline
 66
     1
 10
0.0
 20
0.0
 30
0.0
  0
VERTEX
  5
123
330
122
100
AcDbEntity
  8
_U+30EC_U+30A4_U+30E4_U+30FC 1
 62
     7
420
 16777215
370
     9
100
AcDbVertex
100
AcDb2dVertex
 10
119.4614533411733
 20
-125.4614302464126
 30
0.0
  0
VERTEX
  5
124
330
122
100
AcDbEntity
  8
_U+30EC_U+30A4_U+30E4_U+30FC 1
 62
     7
420
 16777215
370
     9
100
AcDbVertex
100
AcDb2dVertex
 10
121.4068816248746
 20
-125.4614302464126
 30
0.0
  0
SEQEND
  5
125
330
122
100
AcDbEntity
  8
_U+30EC_U+30A4_U+30E4_U+30FC 1
 62
     7
420
 16777215
370
     9
  0
INSERT
  5
127
330
1F
100
AcDbEntity
  8
_U+30EC_U+30A4_U+30E4_U+30FC 1
100
AcDbBlockReference
  2
block 7
 10
0.0
 20
0.0
 30
0.0
  0
POLYLINE
  5
138
330
1F
100
AcDbEntity
  8
_U+30EC_U+30A4_U+30E4_U+30FC 1
 62
     7
420
 16777215
370
     9
100
AcDb2dPolyline
 66
     1
 10
0.0
 20
0.0
 30
0.0
  0
VERTEX
  5
139
330
138
100
AcDbEntity
  8
_U+30EC_U+30A4_U+30E4_U+30FC 1
 62
     7
420
 16777215
370
     9
100
AcDbVertex
100
AcDb2dVertex
 10
63.61436893261779
 20
-118.0613519149289
 30
0.0
  0
VERTEX
  5
13A
330
138
100
AcDbEntity
  8
_U+30EC_U+30A4_U+30E4_U+30FC 1
 62
     7
420
 16777215
370
     9
100
AcDbVertex
100
AcDb2dVertex
 10
63.61436893261779
 20
-144.9613630193152
 30
0.0
  0
SEQEND
  5
13B
330
138
100
AcDbEntity
  8
_U+30EC_U+30A4_U+30E4_U+30FC 1
 62
     7
420
 16777215
370
     9
  0
POLYLINE
  5
13C
330
1F
100
AcDbEntity
  8
_U+30EC_U+30A4_U+30E4_U+30FC 1
 62
     7
420
 16777215
370
     9
100
AcDb2dPolyline
 66
     1
 10
0.0
 20
0.0
 30
0.0
  0
VERTEX
  5
13D
330
13C
100
AcDbEntity
  8
_U+30EC_U+30A4_U+30E4_U+30FC 1
 62
     7
420
 16777215
370
     9
100
AcDbVertex
100
AcDb2dVertex
 10
65.07441028425792
 20
-118.1612585815709
 30
0.0
  0
VERTEX
  5
13E
330
13C
100
AcDbEntity
  8
_U+30EC_U+30A4_U+30E4_U+30FC 1
 62
     7
420
 16777215
370
     9
100
AcDbVertex
100
AcDb2dVertex
 10
62.61459673590188
 20
-118.1612585815709
 30
0.0
  0
SEQEND
  5
13F
330
13C
100
AcDbEntity
  8
_U+30EC_U+30A4_U+30E4_U+30FC 1
 62
     7
420
 16777215
370
     9
  0
POLYLINE
  5
140
330
1F
100
AcDbEntity
  8
_U+30EC_U+30A4_U+30E4_U+30FC 1
 62
     7
420
 16777215
370
     9
100
AcDb2dPolyline
 66
     1
 10
0.0
 20
0.0
 30
0.0
  0
VERTEX
  5
141
330
140
100
AcDbEntity
  8
_U+30EC_U+30A4_U+30E4_U+30FC 1
 62
     7
420
 16777215
370
     9
100
AcDbVertex
100
AcDb2dVertex
 10
65.07441028425792
 20
-144.9613630193152
 30
0.0
  0
VERTEX
  5
142
330
140
100
AcDbEntity
  8
_U+30EC_U+30A4_U+30E4_U+30FC 1
 62
     7
420
 16777215
370
     9
100
AcDbVertex
100
AcDb2dVertex
 10
62.61459673590188
 20
-144.9613630193152
 30
0.0
  0
SEQEND
  5
143
330
140
100
AcDbEntity
  8
_U+30EC_U+30A4_U+30E4_U+30FC 1
 62
     7
420
 16777215
370
     9
  0
INSERT
  5
145
330
1F
100
AcDbEntity
  8
_U+30EC_U+30A4_U+30E4_U+30FC 1
100
AcDbBlockReference
  2
block 8
 10
0.0
 20
0.0
 30
0.0
  0
ENDSEC
  0
SECTION
  2
OBJECTS
  0
DICTIONARY
  5
C
330
0
100
AcDbDictionary
281
     1
  3
ACAD_GROUP
350
D
  3
ACAD_LAYOUT
350
1A
  3
ACAD_MATERIAL
350
3B
  3
ACAD_MLEADERSTYLE
350
14D
  3
ACAD_MLINESTYLE
350
17
  3
ACAD_PLOTSETTINGS
350
19
  3
ACAD_PLOTSTYLENAME
350
E
  3
ACAD_TABLESTYLE
350
14C
  3
ACAD_VISUALSTYLE
350
2A
  0
SUN
  5
3F
330
29
100
AcDbSun
 90
        1
290
     0
 63
     7
421
 16777215
 40
1.0
291
     1
 91
  2455826
 92
 54000000
292
     0
 70
     2
 71
   256
280
     1
  0
DICTIONARY
  5
D
102
{ACAD_REACTORS
330
C
102
}
330
C
100
AcDbDictionary
281
     1
  0
DICTIONARY
  5
1A
102
{ACAD_REACTORS
330
C
102
}
330
C
100
AcDbDictionary
281
     1
  3
Layout1
350
1E
  3
Layout2
350
26
  3
Model
350
22
  0
DICTIONARY
  5
3B
102
{ACAD_REACTORS
330
C
102
}
330
C
100
AcDbDictionary
281
     1
  3
ByBlock
350
3D
  3
ByLayer
350
3C
  3
Global
350
3E
  0
DICTIONARY
  5
14D
102
{ACAD_REACTORS
330
C
102
}
330
C
100
AcDbDictionary
281
     1
  0
DICTIONARY
  5
17
102
{ACAD_REACTORS
330
C
102
}
330
C
100
AcDbDictionary
281
     1
  3
Standard
350
18
  0
DICTIONARY
  5
19
102
{ACAD_REACTORS
330
C
102
}
330
C
100
AcDbDictionary
281
     1
  0
ACDBDICTIONARYWDFLT
  5
E
102
{ACAD_REACTORS
330
C
102
}
330
C
100
AcDbDictionary
281
     1
  3
Normal
350
F
100
AcDbDictionaryWithDefault
340
F
  0
DICTIONARY
  5
14C
102
{ACAD_REACTORS
330
C
102
}
330
C
100
AcDbDictionary
281
     1
  0
DICTIONARY
  5
2A
102
{ACAD_REACTORS
330
C
102
}
330
C
100
AcDbDictionary
281
     1
  3
2dWireframe
350
2F
  3
3D Hidden
350
31
  3
3dWireframe
350
30
  3
Basic
350
32
  3
Brighten
350
36
  3
ColorChange
350
3A
  3
Conceptual
350
34
  3
Dim
350
35
  3
Facepattern
350
39
  3
Flat
350
2B
  3
FlatWithEdges
350
2C
  3
Gouraud
350
2D
  3
GouraudWithEdges
350
2E
  3
Linepattern
350
38
  3
Realistic
350
33
  3
Thicken
350
37
  0
LAYOUT
  5
1E
102
{ACAD_REACTORS
330
1A
102
}
330
1A
100
AcDbPlotSettings
  1

  2
none_device
  4

  6

 40
0.0
 41
0.0
 42
0.0
 43
0.0
 44
0.0
 45
0.0
 46
0.0
 47
0.0
 48
0.0
 49
0.0
140
0.0
141
0.0
142
1.0
143
1.0
 70
   688
 72
     0
 73
     0
 74
     5
  7

 75
    16
 76
     0
 77
     2
 78
   300
147
1.0
148
0.0
149
0.0
100
AcDbLayout
  1
Layout1
 70
     1
 71
     1
 10
0.0
 20
0.0
 11
12.0
 21
9.0
 12
0.0
 22
0.0
 32
0.0
 14
1.000000000000000E+20
 24
1.000000000000000E+20
 34
1.000000000000000E+20
 15
-1.000000000000000E+20
 25
-1.000000000000000E+20
 35
-1.000000000000000E+20
146
0.0
 13
0.0
 23
0.0
 33
0.0
 16
1.0
 26
0.0
 36
0.0
 17
0.0
 27
1.0
 37
0.0
 76
     0
330
1B
  0
LAYOUT
  5
26
102
{ACAD_REACTORS
330
1A
102
}
330
1A
100
AcDbPlotSettings
  1

  2
none_device
  4

  6

 40
0.0
 41
0.0
 42
0.0
 43
0.0
 44
0.0
 45
0.0
 46
0.0
 47
0.0
 48
0.0
 49
0.0
140
0.0
141
0.0
142
1.0
143
1.0
 70
   688
 72
     0
 73
     0
 74
     5
  7

 75
    16
 76
     0
 77
     2
 78
   300
147
1.0
148
0.0
149
0.0
100
AcDbLayout
  1
Layout2
 70
     1
 71
     2
 10
0.0
 20
0.0
 11
0.0
 21
0.0
 12
0.0
 22
0.0
 32
0.0
 14
0.0
 24
0.0
 34
0.0
 15
0.0
 25
0.0
 35
0.0
146
0.0
 13
0.0
 23
0.0
 33
0.0
 16
1.0
 26
0.0
 36
0.0
 17
0.0
 27
1.0
 37
0.0
 76
     0
330
23
  0
LAYOUT
  5
22
102
{ACAD_REACTORS
330
1A
102
}
330
1A
100
AcDbPlotSettings
  1

  2
none_device
  4

  6

 40
0.0
 41
0.0
 42
0.0
 43
0.0
 44
0.0
 45
0.0
 46
0.0
 47
0.0
 48
0.0
 49
0.0
140
0.0
141
0.0
142
1.0
143
1.0
 70
  1712
 72
     0
 73
     0
 74
     0
  7

 75
     0
 76
     0
 77
     2
 78
   300
147
1.0
148
0.0
149
0.0
100
AcDbLayout
  1
Model
 70
     1
 71
     0
 10
0.0
 20
0.0
 11
12.0
 21
9.0
 12
0.0
 22
0.0
 32
0.0
 14
1.000000000000000E+20
 24
1.000000000000000E+20
 34
1.000000000000000E+20
 15
-1.000000000000000E+20
 25
-1.000000000000000E+20
 35
-1.000000000000000E+20
146
0.0
 13
0.0
 23
0.0
 33
0.0
 16
1.0
 26
0.0
 36
0.0
 17
0.0
 27
1.0
 37
0.0
 76
     0
330
1F
331
29
  0
MATERIAL
  5
3D
102
{ACAD_REACTORS
330
3B
102
}
330
3B
100
AcDbMaterial
  1
ByBlock
 72
     1
 94
      127
  0
MATERIAL
  5
3C
102
{ACAD_REACTORS
330
3B
102
}
330
3B
100
AcDbMaterial
  1
ByLayer
 72
     1
 94
      127
  0
MATERIAL
  5
3E
102
{ACAD_REACTORS
330
3B
102
}
330
3B
100
AcDbMaterial
  1
Global
 72
     1
 94
      127
  0
MLINESTYLE
  5
18
102
{ACAD_REACTORS
330
17
102
}
330
17
100
AcDbMlineStyle
  2
Standard
 70
     0
  3

 62
   256
 51
90.0
 52
90.0
 71
     2
 49
0.5
 62
   256
  6
BYLAYER
 49
-0.5
 62
   256
  6
BYLAYER
  0
ACDBPLACEHOLDER
  5
F
102
{ACAD_REACTORS
330
E
102
}
330
E
  0
VISUALSTYLE
  5
2F
102
{ACAD_REACTORS
330
2A
102
}
330
2A
100
AcDbVisualStyle
  2
2dWireframe
 70
     4
177
     2
291
     0
 71
     0
176
     1
 72
     2
176
     1
 73
     0
176
     1
 90
        0
176
     1
 40
-0.6
176
     1
 41
-30.0
176
     1
 62
     5
 63
     7
421
 16777215
176
     1
 74
     1
176
     1
 91
        4
176
     1
 64
     7
176
     1
 65
   257
176
     1
 75
     1
176
     1
175
     1
176
     1
 42
1.0
176
     1
 92
        0
176
     1
 66
   257
176
     1
 43
1.0
176
     1
 76
     1
176
     1
 77
     6
176
     1
 78
     2
176
     1
 67
     7
176
     1
 79
     5
176
     1
170
     0
176
     1
171
     0
176
     1
290
     0
176
     1
 93
        1
176
     1
 44
0.0
176
     1
173
     0
176
     1
  0
VISUALSTYLE
  5
31
102
{ACAD_REACTORS
330
2A
102
}
330
2A
100
AcDbVisualStyle
  2
3D Hidden
 70
     6
177
     2
291
     0
 71
     1
176
     1
 72
     2
176
     1
 73
     2
176
     1
 90
        0
176
     1
 40
-0.6
176
     1
 41
-30.0
176
     1
 62
     5
 63
     7
421
 16777215
176
     1
 74
     2
176
     1
 91
        2
176
     1
 64
     7
176
     1
 65
   257
176
     1
 75
     2
176
     1
175
     1
176
     1
 42
40.0
176
     1
 92
        0
176
     1
 66
   257
176
     1
 43
1.0
176
     1
 76
     1
176
     1
 77
     6
176
     1
 78
     2
176
     1
 67
     7
176
     1
 79
     3
176
     1
170
     0
176
     1
171
     0
176
     1
290
     0
176
     1
 93
        1
176
     1
 44
0.0
176
     1
173
     0
176
     1
  0
VISUALSTYLE
  5
30
102
{ACAD_REACTORS
330
2A
102
}
330
2A
100
AcDbVisualStyle
  2
3dWireframe
 70
     5
177
     2
291
     0
 71
     0
176
     1
 72
     2
176
     1
 73
     0
176
     1
 90
        0
176
     1
 40
-0.6
176
     1
 41
-30.0
176
     1
 62
     5
 63
     7
421
 16777215
176
     1
 74
     1
176
     1
 91
        4
176
     1
 64
     7
176
     1
 65
   257
176
     1
 75
     1
176
     1
175
     1
176
     1
 42
1.0
176
     1
 92
        0
176
     1
 66
   257
176
     1
 43
1.0
176
     1
 76
     1
176
     1
 77
     6
176
     1
 78
     2
176
     1
 67
     7
176
     1
 79
     5
176
     1
170
     0
176
     1
171
     0
176
     1
290
     0
176
     1
 93
        1
176
     1
 44
0.0
176
     1
173
     0
176
     1
  0
VISUALSTYLE
  5
32
102
{ACAD_REACTORS
330
2A
102
}
330
2A
100
AcDbVisualStyle
  2
Basic
 70
     7
177
     2
291
     1
 71
     1
176
     1
 72
     0
176
     1
 73
     1
176
     1
 90
        0
176
     1
 40
-0.6
176
     1
 41
-30.0
176
     1
 62
     5
 63
     7
421
 16777215
176
     1
 74
     0
176
     1
 91
        4
176
     1
 64
     7
176
     1
 65
   257
176
     1
 75
     1
176
     1
175
     1
176
     1
 42
1.0
176
     1
 92
        8
176
     1
 66
     7
176
     1
 43
1.0
176
     1
 76
     1
176
     1
 77
     6
176
     1
 78
     2
176
     1
 67
     7
176
     1
 79
     5
176
     1
170
     0
176
     1
171
     0
176
     1
290
     0
176
     1
 93
        1
176
     1
 44
0.0
176
     1
173
     0
176
     1
  0
VISUALSTYLE
  5
36
102
{ACAD_REACTORS
330
2A
102
}
330
2A
100
AcDbVisualStyle
  2
Brighten
 70
    12
177
     2
291
     1
 71
     2
176
     1
 72
     2
176
     1
 73
     0
176
     1
 90
        0
176
     1
 40
-0.6
176
     1
 41
-30.0
176
     1
 62
     5
 63
     7
421
 16777215
176
     1
 74
     1
176
     1
 91
        4
176
     1
 64
     7
176
     1
 65
   257
176
     1
 75
     1
176
     1
175
     1
176
     1
 42
1.0
176
     1
 92
        8
176
     1
 66
     7
176
     1
 43
1.0
176
     1
 76
     1
176
     1
 77
     6
176
     1
 78
     2
176
     1
 67
     7
176
     1
 79
     5
176
     1
170
     0
176
     1
171
     0
176
     1
290
     0
176
     1
 93
        1
176
     1
 44
50.0
176
     1
173
     0
176
     1
  0
VISUALSTYLE
  5
3A
102
{ACAD_REACTORS
330
2A
102
}
330
2A
100
AcDbVisualStyle
  2
ColorChange
 70
    16
177
     2
291
     1
 71
     2
176
     1
 72
     2
176
     1
 73
     3
176
     1
 90
        0
176
     1
 40
-0.6
176
     1
 41
-30.0
176
     1
 62
     5
 63
     8
421
  8421504
176
     1
 74
     1
176
     1
 91
        4
176
     1
 64
     7
176
     1
 65
   257
176
     1
 75
     1
176
     1
175
     1
176
     1
 42
1.0
176
     1
 92
        8
176
     1
 66
     8
424
  8421504
176
     1
 43
1.0
176
     1
 76
     1
176
     1
 77
     6
176
     1
 78
     2
176
     1
 67
     7
176
     1
 79
     5
176
     1
170
     0
176
     1
171
     0
176
     1
290
     0
176
     1
 93
        1
176
     1
 44
0.0
176
     1
173
     0
176
     1
  0
VISUALSTYLE
  5
34
102
{ACAD_REACTORS
330
2A
102
}
330
2A
100
AcDbVisualStyle
  2
Conceptual
 70
     9
177
     2
291
     0
 71
     3
176
     1
 72
     2
176
     1
 73
     0
176
     1
 90
        0
176
     1
 40
-0.6
176
     1
 41
-30.0
176
     1
 62
     5
 63
     7
421
 16777215
176
     1
 74
     2
176
     1
 91
        2
176
     1
 64
     7
176
     1
 65
   257
176
     1
 75
     1
176
     1
175
     1
176
     1
 42
40.0
176
     1
 92
        8
176
     1
 66
     7
176
     1
 43
1.0
176
     1
 76
     1
176
     1
 77
     6
176
     1
 78
     2
176
     1
 67
     7
176
     1
 79
     3
176
     1
170
     0
176
     1
171
     0
176
     1
290
     0
176
     1
 93
        1
176
     1
 44
0.0
176
     1
173
     0
176
     1
  0
VISUALSTYLE
  5
35
102
{ACAD_REACTORS
330
2A
102
}
330
2A
100
AcDbVisualStyle
  2
Dim
 70
    11
177
     2
291
     1
 71
     2
176
     1
 72
     2
176
     1
 73
     0
176
     1
 90
        0
176
     1
 40
-0.6
176
     1
 41
-30.0
176
     1
 62
     5
 63
     7
421
 16777215
176
     1
 74
     1
176
     1
 91
        4
176
     1
 64
     7
176
     1
 65
   257
176
     1
 75
     1
176
     1
175
     1
176
     1
 42
1.0
176
     1
 92
        8
176
     1
 66
     7
176
     1
 43
1.0
176
     1
 76
     1
176
     1
 77
     6
176
     1
 78
     2
176
     1
 67
     7
176
     1
 79
     5
176
     1
170
     0
176
     1
171
     0
176
     1
290
     0
176
     1
 93
        1
176
     1
 44
-50.0
176
     1
173
     0
176
     1
  0
VISUALSTYLE
  5
39
102
{ACAD_REACTORS
330
2A
102
}
330
2A
100
AcDbVisualStyle
  2
Facepattern
 70
    15
177
     2
291
     1
 71
     2
176
     1
 72
     2
176
     1
 73
     0
176
     1
 90
        0
176
     1
 40
-0.6
176
     1
 41
-30.0
176
     1
 62
     5
 63
     7
421
 16777215
176
     1
 74
     1
176
     1
 91
        4
176
     1
 64
     7
176
     1
 65
   257
176
     1
 75
     1
176
     1
175
     1
176
     1
 42
1.0
176
     1
 92
        8
176
     1
 66
     7
176
     1
 43
1.0
176
     1
 76
     1
176
     1
 77
     6
176
     1
 78
     2
176
     1
 67
     7
176
     1
 79
     5
176
     1
170
     0
176
     1
171
     0
176
     1
290
     0
176
     1
 93
        1
176
     1
 44
0.0
176
     1
173
     0
176
     1
  0
VISUALSTYLE
  5
2B
102
{ACAD_REACTORS
330
2A
102
}
330
2A
100
AcDbVisualStyle
  2
Flat
 70
     0
177
     2
291
     1
 71
     2
176
     1
 72
     1
176
     1
 73
     1
176
     1
 90
        2
176
     1
 40
-0.6
176
     1
 41
30.0
176
     1
 62
     5
 63
     7
421
 16777215
176
     1
 74
     0
176
     1
 91
        4
176
     1
 64
     7
176
     1
 65
   257
176
     1
 75
     1
176
     1
175
     1
176
     1
 42
1.0
176
     1
 92
        8
176
     1
 66
     7
176
     1
 43
1.0
176
     1
 76
     1
176
     1
 77
     6
176
     1
 78
     2
176
     1
 67
     7
176
     1
 79
     5
176
     1
170
     0
176
     1
171
     0
176
     1
290
     0
176
     1
 93
       13
176
     1
 44
0.0
176
     1
173
     0
176
     1
  0
VISUALSTYLE
  5
2C
102
{ACAD_REACTORS
330
2A
102
}
330
2A
100
AcDbVisualStyle
  2
FlatWithEdges
 70
     1
177
     2
291
     1
 71
     2
176
     1
 72
     1
176
     1
 73
     1
176
     1
 90
        2
176
     1
 40
-0.6
176
     1
 41
30.0
176
     1
 62
     5
 63
     7
421
 16777215
176
     1
 74
     1
176
     1
 91
        4
176
     1
 64
     7
176
     1
 65
   257
176
     1
 75
     1
176
     1
175
     1
176
     1
 42
1.0
176
     1
 92
        0
176
     1
 66
   257
176
     1
 43
1.0
176
     1
 76
     1
176
     1
 77
     6
176
     1
 78
     2
176
     1
 67
     7
176
     1
 79
     5
176
     1
170
     0
176
     1
171
     0
176
     1
290
     0
176
     1
 93
       13
176
     1
 44
0.0
176
     1
173
     0
176
     1
  0
VISUALSTYLE
  5
2D
102
{ACAD_REACTORS
330
2A
102
}
330
2A
100
AcDbVisualStyle
  2
Gouraud
 70
     2
177
     2
291
     1
 71
     2
176
     1
 72
     2
176
     1
 73
     1
176
     1
 90
        2
176
     1
 40
-0.6
176
     1
 41
30.0
176
     1
 62
     5
 63
     7
421
 16777215
176
     1
 74
     0
176
     1
 91
        4
176
     1
 64
     7
176
     1
 65
   257
176
     1
 75
     1
176
     1
175
     1
176
     1
 42
1.0
176
     1
 92
        0
176
     1
 66
     7
176
     1
 43
1.0
176
     1
 76
     1
176
     1
 77
     6
176
     1
 78
     2
176
     1
 67
     7
176
     1
 79
     5
176
     1
170
     0
176
     1
171
     0
176
     1
290
     0
176
     1
 93
       13
176
     1
 44
0.0
176
     1
173
     0
176
     1
  0
VISUALSTYLE
  5
2E
102
{ACAD_REACTORS
330
2A
102
}
330
2A
100
AcDbVisualStyle
  2
GouraudWithEdges
 70
     3
177
     2
291
     1
 71
     2
176
     1
 72
     2
176
     1
 73
     1
176
     1
 90
        2
176
     1
 40
-0.6
176
     1
 41
30.0
176
     1
 62
     5
 63
     7
421
 16777215
176
     1
 74
     1
176
     1
 91
        4
176
     1
 64
     7
176
     1
 65
   257
176
     1
 75
     1
176
     1
175
     1
176
     1
 42
1.0
176
     1
 92
        0
176
     1
 66
   257
176
     1
 43
1.0
176
     1
 76
     1
176
     1
 77
     6
176
     1
 78
     2
176
     1
 67
     7
176
     1
 79
     5
176
     1
170
     0
176
     1
171
     0
176
     1
290
     0
176
     1
 93
       13
176
     1
 44
0.0
176
     1
173
     0
176
     1
  0
VISUALSTYLE
  5
38
102
{ACAD_REACTORS
330
2A
102
}
330
2A
100
AcDbVisualStyle
  2
Linepattern
 70
    14
177
     2
291
     1
 71
     2
176
     1
 72
     2
176
     1
 73
     0
176
     1
 90
        0
176
     1
 40
-0.6
176
     1
 41
-30.0
176
     1
 62
     5
 63
     7
421
 16777215
176
     1
 74
     1
176
     1
 91
        4
176
     1
 64
     7
176
     1
 65
   257
176
     1
 75
     7
176
     1
175
     7
176
     1
 42
1.0
176
     1
 92
        8
176
     1
 66
     7
176
     1
 43
1.0
176
     1
 76
     1
176
     1
 77
     6
176
     1
 78
     2
176
     1
 67
     7
176
     1
 79
     5
176
     1
170
     0
176
     1
171
     0
176
     1
290
     0
176
     1
 93
        1
176
     1
 44
0.0
176
     1
173
     0
176
     1
  0
VISUALSTYLE
  5
33
102
{ACAD_REACTORS
330
2A
102
}
330
2A
100
AcDbVisualStyle
  2
Realistic
 70
     8
177
     2
291
     0
 71
     2
176
     1
 72
     2
176
     1
 73
     0
176
     1
 90
        0
176
     1
 40
-0.6
176
     1
 41
-30.0
176
     1
 62
     5
 63
     7
421
 16777215
176
     1
 74
     1
176
     1
 91
        0
176
     1
 64
     7
176
     1
 65
   257
176
     1
 75
     1
176
     1
175
     1
176
     1
 42
1.0
176
     1
 92
        8
176
     1
 66
     8
424
  7895160
176
     1
 43
1.0
176
     1
 76
     1
176
     1
 77
     6
176
     1
 78
     2
176
     1
 67
     7
176
     1
 79
     5
176
     1
170
     0
176
     1
171
     0
176
     1
290
     0
176
     1
 93
       13
176
     1
 44
0.0
176
     1
173
     0
176
     1
  0
VISUALSTYLE
  5
37
102
{ACAD_REACTORS
330
2A
102
}
330
2A
100
AcDbVisualStyle
  2
Thicken
 70
    13
177
     2
291
     1
 71
     2
176
     1
 72
     2
176
     1
 73
     0
176
     1
 90
        0
176
     1
 40
-0.6
176
     1
 41
-30.0
176
     1
 62
     5
 63
     7
421
 16777215
176
     1
 74
     1
176
     1
 91
        4
176
     1
 64
     7
176
     1
 65
   257
176
     1
 75
     1
176
     1
175
     1
176
     1
 42
1.0
176
     1
 92
       12
176
     1
 66
     7
176
     1
 43
1.0
176
     1
 76
     1
176
     1
 77
     6
176
     1
 78
     2
176
     1
 67
     7
176
     1
 79
     5
176
     1
170
     0
176
     1
171
     0
176
     1
290
     0
176
     1
 93
        1
176
     1
 44
0.0
176
     1
173
     0
176
     1
  0
ENDSEC
  0
EOF
