  0
SECTION
  2
HEADER
  9
$ACADVER
  1
AC1024
  9
$ACADMAINTVER
 70
     6
  9
$DWGCODEPAGE
  3
UNDEFINED
  9
$INSBASE
 10
0.0
 20
0.0
 30
0.0
  9
$EXTMIN
 10
1.000000000000000E+20
 20
1.000000000000000E+20
 30
1.000000000000000E+20
  9
$EXTMAX
 10
-1.000000000000000E+20
 20
-1.000000000000000E+20
 30
-1.000000000000000E+20
  9
$LIMMIN
 10
0.0
 20
0.0
  9
$LIMMAX
 10
12.0
 20
9.0
  9
$ORTHOMODE
 70
     0
  9
$REGENMODE
 70
     1
  9
$FILLMODE
 70
     1
  9
$QTEXTMODE
 70
     0
  9
$MIRRTEXT
 70
     1
  9
$LTSCALE
 40
1.0
  9
$ATTMODE
 70
     1
  9
$TEXTSIZE
 40
0.2
  9
$TRACEWID
 40
0.05
  9
$TEXTSTYLE
  7
Standard
  9
$CLAYER
  8
0
  9
$CELTYPE
  6
ByLayer
  9
$CECOLOR
 62
   256
  9
$CELTSCALE
 40
1.0
  9
$DISPSILH
 70
     0
  9
$DIMSCALE
 40
1.0
  9
$DIMASZ
 40
0.18
  9
$DIMEXO
 40
0.0625
  9
$DIMDLI
 40
0.38
  9
$DIMRND
 40
0.0
  9
$DIMDLE
 40
0.0
  9
$DIMEXE
 40
0.18
  9
$DIMTP
 40
0.0
  9
$DIMTM
 40
0.0
  9
$DIMTXT
 40
0.18
  9
$DIMCEN
 40
0.09
  9
$DIMTSZ
 40
0.0
  9
$DIMTOL
 70
     0
  9
$DIMLIM
 70
     0
  9
$DIMTIH
 70
     1
  9
$DIMTOH
 70
     1
  9
$DIMSE1
 70
     0
  9
$DIMSE2
 70
     0
  9
$DIMTAD
 70
     0
  9
$DIMZIN
 70
     0
  9
$DIMBLK
  1

  9
$DIMASO
 70
     1
  9
$DIMSHO
 70
     1
  9
$DIMPOST
  1

  9
$DIMAPOST
  1

  9
$DIMALT
 70
     0
  9
$DIMALTD
 70
     2
  9
$DIMALTF
 40
25.4
  9
$DIMLFAC
 40
1.0
  9
$DIMTOFL
 70
     0
  9
$DIMTVP
 40
0.0
  9
$DIMTIX
 70
     0
  9
$DIMSOXD
 70
     0
  9
$DIMSAH
 70
     0
  9
$DIMBLK1
  1

  9
$DIMBLK2
  1

  9
$DIMSTYLE
  2
Standard
  9
$DIMCLRD
 70
     0
  9
$DIMCLRE
 70
     0
  9
$DIMCLRT
 70
     0
  9
$DIMTFAC
 40
1.0
  9
$DIMGAP
 40
0.09
  9
$DIMJUST
 70
     0
  9
$DIMSD1
 70
     0
  9
$DIMSD2
 70
     0
  9
$DIMTOLJ
 70
     1
  9
$DIMTZIN
 70
     0
  9
$DIMALTZ
 70
     0
  9
$DIMALTTZ
 70
     0
  9
$DIMUPT
 70
     0
  9
$DIMDEC
 70
     4
  9
$DIMTDEC
 70
     4
  9
$DIMALTU
 70
     2
  9
$DIMALTTD
 70
     2
  9
$DIMTXSTY
  7
Standard
  9
$DIMAUNIT
 70
     0
  9
$DIMADEC
 70
     0
  9
$DIMALTRND
 40
0.0
  9
$DIMAZIN
 70
     0
  9
$DIMDSEP
 70
    46
  9
$DIMATFIT
 70
     3
  9
$DIMFRAC
 70
     0
  9
$DIMLDRBLK
  1

  9
$DIMLUNIT
 70
     2
  9
$DIMLWD
 70
    -2
  9
$DIMLWE
 70
    -2
  9
$DIMTMOVE
 70
     0
  9
$DIMFXL
 40
1.0
  9
$DIMFXLON
 70
     0
  9
$DIMJOGANG
 40
0.7853981633974483
  9
$DIMTFILL
 70
     0
  9
$DIMTFILLCLR
 70
     0
  9
$DIMARCSYM
 70
     0
  9
$DIMLTYPE
  6

  9
$DIMLTEX1
  6

  9
$DIMLTEX2
  6

  9
$DIMTXTDIRECTION
 70
     0
  9
$LUNITS
 70
     2
  9
$LUPREC
 70
     4
  9
$SKETCHINC
 40
0.1
  9
$FILLETRAD
 40
0.5
  9
$AUNITS
 70
     0
  9
$AUPREC
 70
     0
  9
$MENU
  1
.
  9
$ELEVATION
 40
0.0
  9
$PELEVATION
 40
0.0
  9
$THICKNESS
 40
0.0
  9
$LIMCHECK
 70
     0
  9
$CHAMFERA
 40
0.5
  9
$CHAMFERB
 40
0.5
  9
$CHAMFERC
 40
1.0
  9
$CHAMFERD
 40
0.0
  9
$SKPOLY
 70
     0
  9
$TDCREATE
 40
2457917.613657407
  9
$TDUCREATE
 40
2457917.238657407
  9
$TDUPDATE
 40
2457917.613657407
  9
$TDUUPDATE
 40
2457917.238657407
  9
$TDINDWG
 40
0.0000000116
  9
$TDUSRTIMER
 40
0.0000000116
  9
$USRTIMER
 70
     1
  9
$ANGBASE
 50
0.0
  9
$ANGDIR
 70
     0
  9
$PDMODE
 70
     0
  9
$PDSIZE
 40
0.0
  9
$PLINEWID
 40
0.0
  9
$SPLFRAME
 70
     0
  9
$SPLINETYPE
 70
     6
  9
$SPLINESEGS
 70
     8
  9
$HANDSEED
  5
12D
  9
$SURFTAB1
 70
     6
  9
$SURFTAB2
 70
     6
  9
$SURFTYPE
 70
     6
  9
$SURFU
 70
     6
  9
$SURFV
 70
     6
  9
$UCSBASE
  2

  9
$UCSNAME
  2

  9
$UCSORG
 10
0.0
 20
0.0
 30
0.0
  9
$UCSXDIR
 10
1.0
 20
0.0
 30
0.0
  9
$UCSYDIR
 10
0.0
 20
1.0
 30
0.0
  9
$UCSORTHOREF
  2

  9
$UCSORTHOVIEW
 70
     0
  9
$UCSORGTOP
 10
0.0
 20
0.0
 30
0.0
  9
$UCSORGBOTTOM
 10
0.0
 20
0.0
 30
0.0
  9
$UCSORGLEFT
 10
0.0
 20
0.0
 30
0.0
  9
$UCSORGRIGHT
 10
0.0
 20
0.0
 30
0.0
  9
$UCSORGFRONT
 10
0.0
 20
0.0
 30
0.0
  9
$UCSORGBACK
 10
0.0
 20
0.0
 30
0.0
  9
$PUCSBASE
  2

  9
$PUCSNAME
  2

  9
$PUCSORG
 10
0.0
 20
0.0
 30
0.0
  9
$PUCSXDIR
 10
1.0
 20
0.0
 30
0.0
  9
$PUCSYDIR
 10
0.0
 20
1.0
 30
0.0
  9
$PUCSORTHOREF
  2

  9
$PUCSORTHOVIEW
 70
     0
  9
$PUCSORGTOP
 10
0.0
 20
0.0
 30
0.0
  9
$PUCSORGBOTTOM
 10
0.0
 20
0.0
 30
0.0
  9
$PUCSORGLEFT
 10
0.0
 20
0.0
 30
0.0
  9
$PUCSORGRIGHT
 10
0.0
 20
0.0
 30
0.0
  9
$PUCSORGFRONT
 10
0.0
 20
0.0
 30
0.0
  9
$PUCSORGBACK
 10
0.0
 20
0.0
 30
0.0
  9
$USERI1
 70
     0
  9
$USERI2
 70
     0
  9
$USERI3
 70
     0
  9
$USERI4
 70
     0
  9
$USERI5
 70
     0
  9
$USERR1
 40
0.0
  9
$USERR2
 40
0.0
  9
$USERR3
 40
0.0
  9
$USERR4
 40
0.0
  9
$USERR5
 40
0.0
  9
$WORLDVIEW
 70
     1
  9
$SHADEDGE
 70
     3
  9
$SHADEDIF
 70
    70
  9
$TILEMODE
 70
     1
  9
$MAXACTVP
 70
    64
  9
$PINSBASE
 10
0.0
 20
0.0
 30
0.0
  9
$PLIMCHECK
 70
     0
  9
$PEXTMIN
 10
1.000000000000000E+20
 20
1.000000000000000E+20
 30
1.000000000000000E+20
  9
$PEXTMAX
 10
-1.000000000000000E+20
 20
-1.000000000000000E+20
 30
-1.000000000000000E+20
  9
$PLIMMIN
 10
0.0
 20
0.0
  9
$PLIMMAX
 10
12.0
 20
9.0
  9
$UNITMODE
 70
     0
  9
$VISRETAIN
 70
     1
  9
$PLINEGEN
 70
     0
  9
$PSLTSCALE
 70
     1
  9
$TREEDEPTH
 70
  3020
  9
$CMLSTYLE
  2
Standard
  9
$CMLJUST
 70
     0
  9
$CMLSCALE
 40
1.0
  9
$PROXYGRAPHICS
 70
     1
  9
$MEASUREMENT
 70
     0
  9
$CELWEIGHT
370
    -1
  9
$ENDCAPS
280
     0
  9
$JOINSTYLE
280
     0
  9
$LWDISPLAY
290
     1
  9
$INSUNITS
 70
     1
  9
$HYPERLINKBASE
  1

  9
$STYLESHEET
  1

  9
$XEDIT
290
     1
  9
$CEPSNTYPE
380
     0
  9
$PSTYLEMODE
290
     1
  9
$FINGERPRINTGUID
  2
{F6DDF545-7959-A2F4-7CDC-62FBFDD6989A}
  9
$VERSIONGUID
  2
{FAEB1C32-E019-11D5-929B-00C0DF256EC4}
  9
$EXTNAMES
290
     1
  9
$PSVPSCALE
 40
0.0
  9
$OLESTARTUP
290
     0
  9
$SORTENTS
280
   127
  9
$INDEXCTL
280
     0
  9
$HIDETEXT
280
     1
  9
$XCLIPFRAME
280
     2
  9
$HALOGAP
280
     0
  9
$OBSCOLOR
 70
   257
  9
$OBSLTYPE
280
     0
  9
$INTERSECTIONDISPLAY
280
     0
  9
$INTERSECTIONCOLOR
 70
   257
  9
$DIMASSOC
280
     2
  9
$PROJECTNAME
  1

  9
$CAMERADISPLAY
290
     0
  9
$LENSLENGTH
 40
50.0
  9
$CAMERAHEIGHT
 40
0.0
  9
$STEPSPERSEC
 40
2.0
  9
$STEPSIZE
 40
6.0
  9
$3DDWFPREC
 40
2.0
  9
$PSOLWIDTH
 40
0.25
  9
$PSOLHEIGHT
 40
4.0
  9
$LOFTANG1
 40
1.570796326794897
  9
$LOFTANG2
 40
1.570796326794897
  9
$LOFTMAG1
 40
0.0
  9
$LOFTMAG2
 40
0.0
  9
$LOFTPARAM
 70
     7
  9
$LOFTNORMALS
280
     1
  9
$LATITUDE
 40
37.795
  9
$LONGITUDE
 40
-122.394
  9
$NORTHDIRECTION
 40
0.0
  9
$TIMEZONE
 70
 -8000
  9
$LIGHTGLYPHDISPLAY
280
     1
  9
$TILEMODELIGHTSYNCH
280
     1
  9
$CMATERIAL
347
3C
  9
$SOLIDHIST
280
     1
  9
$SHOWHIST
280
     1
  9
$DWFFRAME
280
     2
  9
$DGNFRAME
280
     2
  9
$REALWORLDSCALE
290
     1
  9
$INTERFERECOLOR
 62
   256
  9
$CSHADOW
280
     0
  9
$SHADOWPLANELOCATION
 40
0.0
  0
ENDSEC
  0
SECTION
  2
CLASSES
  0
CLASS
  1
ACDBDICTIONARYWDFLT
  2
AcDbDictionaryWithDefault
  3
ObjectDBX Classes
 90
        0
 91
        4
280
     0
281
     0
  0
CLASS
  1
VISUALSTYLE
  2
AcDbVisualStyle
  3
ObjectDBX Classes
 90
     4095
 91
        4
280
     0
281
     0
  0
CLASS
  1
MATERIAL
  2
AcDbMaterial
  3
ObjectDBX Classes
 90
     1153
 91
        4
280
     0
281
     0
  0
CLASS
  1
SUN
  2
AcDbSun
  3
SCENEOE
 90
     1024
 91
        4
280
     0
281
     0
  0
ENDSEC
  0
SECTION
  2
TABLES
  0
TABLE
  2
VPORT
  5
8
330
0
100
AcDbSymbolTable
 70
     1
  0
VPORT
  5
29
330
8
100
AcDbSymbolTableRecord
100
AcDbViewportTableRecord
  2
*Active
 70
     0
 10
0.0
 20
0.0
 11
1.0
 21
1.0
 12
0.0
 22
0.0
 13
0.0
 23
0.0
 14
0.5
 24
0.5
 15
0.5
 25
0.5
 16
0.0
 26
0.0
 36
1.0
 17
91.00082462281999
 27
-128.4993055234307
 37
0.0
 40
256.9986110468615
 41
0.7081814508812795
 42
50.0
 43
0.0
 44
0.0
 50
0.0
 51
0.0
 71
     0
 72
   100
 73
     1
 74
     3
 75
     0
 76
     0
 77
     0
 78
     0
281
     0
 65
     1
110
0.0
120
0.0
130
0.0
111
1.0
121
0.0
131
0.0
112
0.0
122
1.0
132
0.0
 79
     0
146
0.0
 60
     3
 61
     5
292
     1
282
     1
141
0.0
142
0.0
 63
   250
361
3F
  0
ENDTAB
  0
TABLE
  2
LTYPE
  5
5
330
0
100
AcDbSymbolTable
 70
     1
  0
LTYPE
  5
14
330
5
100
AcDbSymbolTableRecord
100
AcDbLinetypeTableRecord
  2
ByBlock
 70
     0
  3

 72
    65
 73
     0
 40
0.0
  0
LTYPE
  5
15
330
5
100
AcDbSymbolTableRecord
100
AcDbLinetypeTableRecord
  2
ByLayer
 70
     0
  3

 72
    65
 73
     0
 40
0.0
  0
LTYPE
  5
16
330
5
100
AcDbSymbolTableRecord
100
AcDbLinetypeTableRecord
  2
Continuous
 70
     0
  3
Solid line
 72
    65
 73
     0
 40
0.0
  0
ENDTAB
  0
TABLE
  2
LAYER
  5
2
330
0
100
AcDbSymbolTable
 70
     2
  0
LAYER
  5
10
330
2
100
AcDbSymbolTableRecord
100
AcDbLayerTableRecord
  2
0
 70
     0
 62
     7
  6
Continuous
370
    -3
390
F
347
3E
  0
LAYER
  5
40
330
2
100
AcDbSymbolTableRecord
100
AcDbLayerTableRecord
  2
_U+30EC_U+30A4_U+30E4_U+30FC 1
 70
     0
 62
     7
  6
Continuous
370
    -3
390
F
347
3E
  0
ENDTAB
  0
TABLE
  2
STYLE
  5
3
330
0
100
AcDbSymbolTable
 70
     1
  0
STYLE
  5
11
330
3
100
AcDbSymbolTableRecord
100
AcDbTextStyleTableRecord
  2
Standard
 70
     0
 40
0.0
 41
1.0
 50
0.0
 71
     0
 42
0.2
  3
txt
  4

  0
ENDTAB
  0
TABLE
  2
VIEW
  5
6
330
0
100
AcDbSymbolTable
 70
     0
  0
ENDTAB
  0
TABLE
  2
UCS
  5
7
330
0
100
AcDbSymbolTable
 70
     0
  0
ENDTAB
  0
TABLE
  2
APPID
  5
9
330
0
100
AcDbSymbolTable
 70
     1
  0
APPID
  5
12
330
9
100
AcDbSymbolTableRecord
100
AcDbRegAppTableRecord
  2
ACAD
 70
     0
  0
ENDTAB
  0
TABLE
  2
DIMSTYLE
  5
A
330
0
100
AcDbSymbolTable
 70
     1
100
AcDbDimStyleTable
  0
DIMSTYLE
105
27
330
A
100
AcDbSymbolTableRecord
100
AcDbDimStyleTableRecord
  2
Standard
 70
     0
178
     0
340
11
  0
ENDTAB
  0
TABLE
  2
BLOCK_RECORD
  5
1
330
0
100
AcDbSymbolTable
 70
     8
  0
BLOCK_RECORD
  5
1F
330
1
100
AcDbSymbolTableRecord
100
AcDbBlockTableRecord
  2
*Model_Space
340
22
 70
     0
280
     1
281
     0
  0
BLOCK_RECORD
  5
1B
330
1
100
AcDbSymbolTableRecord
100
AcDbBlockTableRecord
  2
*Paper_Space
340
1E
 70
     0
280
     1
281
     0
  0
BLOCK_RECORD
  5
23
330
1
100
AcDbSymbolTableRecord
100
AcDbBlockTableRecord
  2
*Paper_Space0
340
26
 70
     0
280
     1
281
     0
  0
BLOCK_RECORD
  5
D9
330
1
100
AcDbSymbolTableRecord
100
AcDbBlockTableRecord
  2
block 2
340
0
102
{BLKREFS
331
DA
102
}
 70
     0
280
     1
281
     0
  0
BLOCK_RECORD
  5
E9
330
1
100
AcDbSymbolTableRecord
100
AcDbBlockTableRecord
  2
block 3
340
0
102
{BLKREFS
331
EA
102
}
 70
     0
280
     1
281
     0
  0
BLOCK_RECORD
  5
EF
330
1
100
AcDbSymbolTableRecord
100
AcDbBlockTableRecord
  2
block 4
340
0
102
{BLKREFS
331
F0
102
}
 70
     0
280
     1
281
     0
  0
BLOCK_RECORD
  5
F7
330
1
100
AcDbSymbolTableRecord
100
AcDbBlockTableRecord
  2
block 5
340
0
102
{BLKREFS
331
F8
102
}
 70
     0
280
     1
281
     0
  0
BLOCK_RECORD
  5
FF
330
1
100
AcDbSymbolTableRecord
100
AcDbBlockTableRecord
  2
block 6
340
0
102
{BLKREFS
331
100
102
}
 70
     0
280
     1
281
     0
  0
BLOCK_RECORD
  5
11A
330
1
100
AcDbSymbolTableRecord
100
AcDbBlockTableRecord
  2
block 7
340
0
102
{BLKREFS
331
11B
102
}
 70
     0
280
     1
281
     0
  0
BLOCK_RECORD
  5
123
330
1
100
AcDbSymbolTableRecord
100
AcDbBlockTableRecord
  2
block 8
340
0
102
{BLKREFS
331
124
102
}
 70
     0
280
     1
281
     0
  0
ENDTAB
  0
ENDSEC
  0
SECTION
  2
BLOCKS
  0
BLOCK
  5
20
330
1F
100
AcDbEntity
  8
0
100
AcDbBlockBegin
  2
*Model_Space
 70
     0
 10
0.0
 20
0.0
 30
0.0
  3
*Model_Space
  1

  0
ENDBLK
  5
21
330
1F
100
AcDbEntity
  8
0
100
AcDbBlockEnd
  0
BLOCK
  5
1C
330
1B
100
AcDbEntity
 67
     1
  8
0
100
AcDbBlockBegin
  2
*Paper_Space
 70
     0
 10
0.0
 20
0.0
 30
0.0
  3
*Paper_Space
  1

  0
ENDBLK
  5
1D
330
1B
100
AcDbEntity
 67
     1
  8
0
100
AcDbBlockEnd
  0
BLOCK
  5
24
330
23
100
AcDbEntity
  8
0
100
AcDbBlockBegin
  2
*Paper_Space0
 70
     0
 10
0.0
 20
0.0
 30
0.0
  3
*Paper_Space0
  1

  0
ENDBLK
  5
25
330
23
100
AcDbEntity
  8
0
100
AcDbBlockEnd
  0
BLOCK
  5
DB
330
D9
100
AcDbEntity
  8
0
100
AcDbBlockBegin
  2
block 2
 70
     0
 10
0.0
 20
0.0
 30
0.0
  3
block 2
  1

  0
SPLINE
  5
DD
330
D9
100
AcDbEntity
  8
_U+30EC_U+30A4_U+30E4_U+30FC 1
370
     0
100
AcDbSpline
210
0.0
220
0.0
230
1.0
 70
    11
 71
     3
 72
    26
 73
    22
 74
     0
 42
0.0000000001
 43
0.0000000001
 12
1.0
 22
0.0
 32
0.0
 13
1.0
 23
0.0
 33
0.0
 40
0.0
 40
0.0
 40
0.0
 40
0.0
 40
1.0
 40
1.0
 40
1.0
 40
2.0
 40
2.0
 40
2.0
 40
3.0
 40
3.0
 40
3.0
 40
4.0
 40
4.0
 40
4.0
 40
5.0
 40
5.0
 40
5.0
 40
6.0
 40
6.0
 40
6.0
 40
7.0
 40
7.0
 40
7.0
 40
7.0
 10
98.57658417674475
 20
-84.62136363986897
 30
0.0
 10
98.57658417674475
 20
-84.62136363986897
 30
0.0
 10
98.57658417674475
 20
-83.51703828207214
 30
0.0
 10
98.57658417674475
 20
-83.51703828207214
 30
0.0
 10
98.57658417674475
 20
-83.51703828207214
 30
0.0
 10
98.28512909869261
 20
-83.51703828207214
 30
0.0
 10
98.28512909869261
 20
-83.51703828207214
 30
0.0
 10
98.28512909869261
 20
-83.51703828207214
 30
0.0
 10
98.28512909869261
 20
-83.36907143098065
 30
0.0
 10
98.28512909869261
 20
-83.36907143098065
 30
0.0
 10
98.57830672448738
 20
-83.35425752039407
 30
0.0
 10
98.61964787031037
 20
-83.19130450394177
 30
0.0
 10
98.64548608644975
 20
-83.07709958860573
 30
0.0
 10
98.64548608644975
 20
-83.07709958860573
 30
0.0
 10
98.7746771671466
 20
-83.07709958860573
 30
0.0
 10
98.7746771671466
 20
-83.07709958860573
 30
0.0
 10
98.7746771671466
 20
-83.07709958860573
 30
0.0
 10
98.7746771671466
 20
-84.62136363986897
 30
0.0
 10
98.7746771671466
 20
-84.62136363986897
 30
0.0
 10
98.7746771671466
 20
-84.62136363986897
 30
0.0
 10
98.57658417674475
 20
-84.62136363986897
 30
0.0
 10
98.57658417674475
 20
-84.62136363986897
 30
0.0
  0
HATCH
  5
DE
330
D9
100
AcDbEntity
  8
_U+30EC_U+30A4_U+30E4_U+30FC 1
 62
   179
420
  2234388
100
AcDbHatch
 10
0.0
 20
0.0
 30
0.0
210
0.0
220
0.0
230
1.0
  2
SOLID
 70
     1
 71
     0
 91
        1
 92
        1
 93
        1
 72
     4
 94
        3
 73
     0
 74
     1
 95
       26
 96
       22
 40
0.0
 40
0.0
 40
0.0
 40
0.0
 40
1.0
 40
1.0
 40
1.0
 40
2.0
 40
2.0
 40
2.0
 40
3.0
 40
3.0
 40
3.0
 40
4.0
 40
4.0
 40
4.0
 40
5.0
 40
5.0
 40
5.0
 40
6.0
 40
6.0
 40
6.0
 40
7.0
 40
7.0
 40
7.0
 40
7.0
 10
98.57658417674475
 20
-84.62136363986897
 10
98.57658417674475
 20
-84.62136363986897
 10
98.57658417674475
 20
-83.51703828207214
 10
98.57658417674475
 20
-83.51703828207214
 10
98.57658417674475
 20
-83.51703828207214
 10
98.28512909869261
 20
-83.51703828207214
 10
98.28512909869261
 20
-83.51703828207214
 10
98.28512909869261
 20
-83.51703828207214
 10
98.28512909869261
 20
-83.36907143098065
 10
98.28512909869261
 20
-83.36907143098065
 10
98.57830672448738
 20
-83.35425752039407
 10
98.61964787031037
 20
-83.19130450394177
 10
98.64548608644975
 20
-83.07709958860573
 10
98.64548608644975
 20
-83.07709958860573
 10
98.7746771671466
 20
-83.07709958860573
 10
98.7746771671466
 20
-83.07709958860573
 10
98.7746771671466
 20
-83.07709958860573
 10
98.7746771671466
 20
-84.62136363986897
 10
98.7746771671466
 20
-84.62136363986897
 10
98.7746771671466
 20
-84.62136363986897
 10
98.57658417674475
 20
-84.62136363986897
 10
98.57658417674475
 20
-84.62136363986897
 97
        0
 97
        0
 75
     2
 76
     1
 98
        0
  0
POLYLINE
  5
DF
330
D9
100
AcDbEntity
  8
_U+30EC_U+30A4_U+30E4_U+30FC 1
370
     0
100
AcDb2dPolyline
 66
     1
 10
0.0
 20
0.0
 30
0.0
  0
VERTEX
  5
E0
330
DF
100
AcDbEntity
  8
_U+30EC_U+30A4_U+30E4_U+30FC 1
370
     0
100
AcDbVertex
100
AcDb2dVertex
 10
99.27077091702259
 20
-84.62136363986897
 30
0.0
  0
VERTEX
  5
E1
330
DF
100
AcDbEntity
  8
_U+30EC_U+30A4_U+30E4_U+30FC 1
370
     0
100
AcDbVertex
100
AcDb2dVertex
 10
99.27077091702259
 20
-84.36969941467147
 30
0.0
  0
VERTEX
  5
E2
330
DF
100
AcDbEntity
  8
_U+30EC_U+30A4_U+30E4_U+30FC 1
370
     0
100
AcDbVertex
100
AcDb2dVertex
 10
99.49297957582121
 20
-84.36969941467147
 30
0.0
  0
VERTEX
  5
E3
330
DF
100
AcDbEntity
  8
_U+30EC_U+30A4_U+30E4_U+30FC 1
370
     0
100
AcDbVertex
100
AcDb2dVertex
 10
99.49297957582121
 20
-84.62136363986897
 30
0.0
  0
VERTEX
  5
E4
330
DF
100
AcDbEntity
  8
_U+30EC_U+30A4_U+30E4_U+30FC 1
370
     0
100
AcDbVertex
100
AcDb2dVertex
 10
99.27077091702259
 20
-84.62136363986897
 30
0.0
  0
SEQEND
  5
E5
330
DF
100
AcDbEntity
  8
_U+30EC_U+30A4_U+30E4_U+30FC 1
370
     0
  0
HATCH
  5
E6
330
D9
100
AcDbEntity
  8
_U+30EC_U+30A4_U+30E4_U+30FC 1
 62
   179
420
  2234388
100
AcDbHatch
 10
0.0
 20
0.0
 30
0.0
210
0.0
220
0.0
230
1.0
  2
SOLID
 70
     1
 71
     0
 91
        1
 92
        1
 93
        4
 72
     1
 10
99.27077091702259
 20
-84.62136363986897
 11
99.27077091702259
 21
-84.36969941467147
 72
     1
 10
99.27077091702259
 20
-84.36969941467147
 11
99.49297957582121
 21
-84.36969941467147
 72
     1
 10
99.49297957582121
 20
-84.36969941467147
 11
99.49297957582121
 21
-84.62136363986897
 72
     1
 10
99.49297957582121
 20
-84.62136363986897
 11
99.27077091702259
 21
-84.62136363986897
 97
        0
 75
     2
 76
     1
 98
        0
  0
SPLINE
  5
E7
330
D9
100
AcDbEntity
  8
_U+30EC_U+30A4_U+30E4_U+30FC 1
370
     0
100
AcDbSpline
210
0.0
220
0.0
230
1.0
 70
    11
 71
     3
 72
    44
 73
    40
 74
     0
 42
0.0000000001
 43
0.0000000001
 12
1.0
 22
0.0
 32
0.0
 13
1.0
 23
0.0
 33
0.0
 40
0.0
 40
0.0
 40
0.0
 40
0.0
 40
1.0
 40
1.0
 40
1.0
 40
2.0
 40
2.0
 40
2.0
 40
3.0
 40
3.0
 40
3.0
 40
4.0
 40
4.0
 40
4.0
 40
5.0
 40
5.0
 40
5.0
 40
6.0
 40
6.0
 40
6.0
 40
7.0
 40
7.0
 40
7.0
 40
8.0
 40
8.0
 40
8.0
 40
9.0
 40
9.0
 40
9.0
 40
10.0
 40
10.0
 40
10.0
 40
11.0
 40
11.0
 40
11.0
 40
12.0
 40
12.0
 40
12.0
 40
13.0
 40
13.0
 40
13.0
 40
13.0
 10
100.2257513855338
 20
-84.03965926718453
 30
0.0
 10
100.0335150574569
 20
-84.19830591428028
 30
0.0
 10
99.95117727535943
 20
-84.27237546721317
 30
0.0
 10
99.90811358179381
 20
-84.41620820372233
 30
0.0
 10
99.90811358179381
 20
-84.41620820372233
 30
0.0
 10
100.5957546406497
 20
-84.41620820372233
 30
0.0
 10
100.5957546406497
 20
-84.41620820372233
 30
0.0
 10
100.5957546406497
 20
-84.41620820372233
 30
0.0
 10
100.5957546406497
 20
-84.62136363986897
 30
0.0
 10
100.5957546406497
 20
-84.62136363986897
 30
0.0
 10
100.5957546406497
 20
-84.62136363986897
 30
0.0
 10
99.68797198028635
 20
-84.62136363986897
 30
0.0
 10
99.68797198028635
 20
-84.62136363986897
 30
0.0
 10
99.71587725371687
 20
-84.26376272850004
 30
0.0
 10
99.77375485786906
 20
-84.18555906098486
 30
0.0
 10
100.1137857822632
 20
-83.88721379196222
 30
0.0
 10
100.3397840460956
 20
-83.68843178246331
 30
0.0
 10
100.3976616502478
 20
-83.62073565617816
 30
0.0
 10
100.3976616502478
 20
-83.48327634631669
 30
0.0
 10
100.3976616502478
 20
-83.36476506162408
 30
0.0
 10
100.3342718933192
 20
-83.23367917841033
 30
0.0
 10
100.1602945713141
 20
-83.23367917841033
 30
0.0
 10
99.93050670244793
 20
-83.23367917841033
 30
0.0
 10
99.92327200192891
 20
-83.46415606637355
 30
0.0
 10
99.91948239689513
 20
-83.58060029377499
 30
0.0
 10
99.91948239689513
 20
-83.58060029377499
 30
0.0
 10
99.72138940649327
 20
-83.58060029377499
 30
0.0
 10
99.72138940649327
 20
-83.58060029377499
 30
0.0
 10
99.72896861656082
 20
-83.45364852514354
 30
0.0
 10
99.738270374371
 20
-83.34151066709866
 30
0.0
 10
99.80923934136715
 20
-83.22299938240606
 30
0.0
 10
99.90639103405118
 20
-83.06228567801915
 30
0.0
 10
100.0707220886976
 20
-83.02835148748945
 30
0.0
 10
100.173385934158
 20
-83.02835148748945
 30
0.0
 10
100.4183322231593
 20
-83.02835148748945
 30
0.0
 10
100.6012667934261
 20
-83.21249184117605
 30
0.0
 10
100.6012667934261
 20
-83.48534340360783
 30
0.0
 10
100.6012667934261
 20
-83.71375323427989
 30
0.0
 10
100.4986029479656
 20
-83.81331649380363
 30
0.0
 10
100.2257513855338
 20
-84.03965926718453
 30
0.0
  0
HATCH
  5
E8
330
D9
100
AcDbEntity
  8
_U+30EC_U+30A4_U+30E4_U+30FC 1
 62
   179
420
  2234388
100
AcDbHatch
 10
0.0
 20
0.0
 30
0.0
210
0.0
220
0.0
230
1.0
  2
SOLID
 70
     1
 71
     0
 91
        1
 92
        1
 93
        1
 72
     4
 94
        3
 73
     0
 74
     1
 95
       44
 96
       40
 40
0.0
 40
0.0
 40
0.0
 40
0.0
 40
1.0
 40
1.0
 40
1.0
 40
2.0
 40
2.0
 40
2.0
 40
3.0
 40
3.0
 40
3.0
 40
4.0
 40
4.0
 40
4.0
 40
5.0
 40
5.0
 40
5.0
 40
6.0
 40
6.0
 40
6.0
 40
7.0
 40
7.0
 40
7.0
 40
8.0
 40
8.0
 40
8.0
 40
9.0
 40
9.0
 40
9.0
 40
10.0
 40
10.0
 40
10.0
 40
11.0
 40
11.0
 40
11.0
 40
12.0
 40
12.0
 40
12.0
 40
13.0
 40
13.0
 40
13.0
 40
13.0
 10
100.2257513855338
 20
-84.03965926718453
 10
100.0335150574569
 20
-84.19830591428028
 10
99.95117727535943
 20
-84.27237546721317
 10
99.90811358179381
 20
-84.41620820372233
 10
99.90811358179381
 20
-84.41620820372233
 10
100.5957546406497
 20
-84.41620820372233
 10
100.5957546406497
 20
-84.41620820372233
 10
100.5957546406497
 20
-84.41620820372233
 10
100.5957546406497
 20
-84.62136363986897
 10
100.5957546406497
 20
-84.62136363986897
 10
100.5957546406497
 20
-84.62136363986897
 10
99.68797198028635
 20
-84.62136363986897
 10
99.68797198028635
 20
-84.62136363986897
 10
99.71587725371687
 20
-84.26376272850004
 10
99.77375485786906
 20
-84.18555906098486
 10
100.1137857822632
 20
-83.88721379196222
 10
100.3397840460956
 20
-83.68843178246331
 10
100.3976616502478
 20
-83.62073565617816
 10
100.3976616502478
 20
-83.48327634631669
 10
100.3976616502478
 20
-83.36476506162408
 10
100.3342718933192
 20
-83.23367917841033
 10
100.1602945713141
 20
-83.23367917841033
 10
99.93050670244793
 20
-83.23367917841033
 10
99.92327200192891
 20
-83.46415606637355
 10
99.91948239689513
 20
-83.58060029377499
 10
99.91948239689513
 20
-83.58060029377499
 10
99.72138940649327
 20
-83.58060029377499
 10
99.72138940649327
 20
-83.58060029377499
 10
99.72896861656082
 20
-83.45364852514354
 10
99.738270374371
 20
-83.34151066709866
 10
99.80923934136715
 20
-83.22299938240606
 10
99.90639103405118
 20
-83.06228567801915
 10
100.0707220886976
 20
-83.02835148748945
 10
100.173385934158
 20
-83.02835148748945
 10
100.4183322231593
 20
-83.02835148748945
 10
100.6012667934261
 20
-83.21249184117605
 10
100.6012667934261
 20
-83.48534340360783
 10
100.6012667934261
 20
-83.71375323427989
 10
100.4986029479656
 20
-83.81331649380363
 10
100.2257513855338
 20
-84.03965926718453
 97
        0
 97
        0
 75
     2
 76
     1
 98
        0
  0
ENDBLK
  5
DC
330
D9
100
AcDbEntity
  8
0
100
AcDbBlockEnd
  0
BLOCK
  5
EB
330
E9
100
AcDbEntity
  8
0
100
AcDbBlockBegin
  2
block 3
 70
     0
 10
0.0
 20
0.0
 30
0.0
  3
block 3
  1

  0
SPLINE
  5
ED
330
E9
100
AcDbEntity
  8
_U+30EC_U+30A4_U+30E4_U+30FC 1
370
     0
100
AcDbSpline
210
0.0
220
0.0
230
1.0
 70
    11
 71
     3
 72
    53
 73
    49
 74
     0
 42
0.0000000001
 43
0.0000000001
 12
1.0
 22
0.0
 32
0.0
 13
1.0
 23
0.0
 33
0.0
 40
0.0
 40
0.0
 40
0.0
 40
0.0
 40
1.0
 40
1.0
 40
1.0
 40
2.0
 40
2.0
 40
2.0
 40
3.0
 40
3.0
 40
3.0
 40
4.0
 40
4.0
 40
4.0
 40
5.0
 40
5.0
 40
5.0
 40
6.0
 40
6.0
 40
6.0
 40
7.0
 40
7.0
 40
7.0
 40
8.0
 40
8.0
 40
8.0
 40
9.0
 40
9.0
 40
9.0
 40
10.0
 40
10.0
 40
10.0
 40
11.0
 40
11.0
 40
11.0
 40
12.0
 40
12.0
 40
12.0
 40
13.0
 40
13.0
 40
13.0
 40
14.0
 40
14.0
 40
14.0
 40
15.0
 40
15.0
 40
15.0
 40
16.0
 40
16.0
 40
16.0
 40
16.0
 10
103.2019693752412
 20
-167.7534125014644
 30
0.0
 10
103.2019693752412
 20
-167.8223144111694
 30
0.0
 10
103.1850884073635
 20
-167.9118868937859
 30
0.0
 10
103.1216986504349
 20
-168.0018038859509
 30
0.0
 10
103.0118001044554
 20
-168.154766125496
 30
0.0
 10
102.8805419664674
 20
-168.1733696411164
 30
0.0
 10
102.772710477779
 20
-168.1902506089941
 30
0.0
 10
102.772710477779
 20
-168.1902506089941
 30
0.0
 10
102.772710477779
 20
-167.9942246758834
 30
0.0
 10
102.772710477779
 20
-167.9942246758834
 30
0.0
 10
102.971492487278
 20
-167.9456488295414
 30
0.0
 10
103.0011203084511
 20
-167.8336832262708
 30
0.0
 10
103.0011203084511
 20
-167.7513454441733
 30
0.0
 10
103.0011203084511
 20
-167.6280110258013
 30
0.0
 10
102.9015570489274
 20
-167.4936523018766
 30
0.0
 10
102.669013103673
 20
-167.4936523018766
 30
0.0
 10
102.413042509119
 20
-167.4936523018766
 30
0.0
 10
102.3431070707684
 20
-167.6524712037466
 30
0.0
 10
102.3431070707684
 20
-167.7589246542408
 30
0.0
 10
102.3431070707684
 20
-167.7868299276714
 30
0.0
 10
102.3431070707684
 20
-167.9118868937859
 30
0.0
 10
102.4722981514653
 20
-167.9904350708496
 30
0.0
 10
102.4722981514653
 20
-167.9904350708496
 30
0.0
 10
102.4533501262964
 20
-168.1454643676859
 30
0.0
 10
102.4533501262964
 20
-168.1454643676859
 30
0.0
 10
102.4533501262964
 20
-168.1454643676859
 30
0.0
 10
101.6068901655705
 20
-168.0390109171916
 30
0.0
 10
101.6068901655705
 20
-168.0390109171916
 30
0.0
 10
101.6068901655705
 20
-168.0390109171916
 30
0.0
 10
101.6068901655705
 20
-167.3517143678843
 30
0.0
 10
101.6068901655705
 20
-167.3517143678843
 30
0.0
 10
101.6068901655705
 20
-167.3517143678843
 30
0.0
 10
101.8015380604871
 20
-167.3517143678843
 30
0.0
 10
101.8015380604871
 20
-167.3517143678843
 30
0.0
 10
101.8015380604871
 20
-167.3517143678843
 30
0.0
 10
101.8015380604871
 20
-167.8953504354567
 30
0.0
 10
101.8015380604871
 20
-167.8953504354567
 30
0.0
 10
101.8015380604871
 20
-167.8953504354567
 30
0.0
 10
102.2245957860758
 20
-167.9532280396089
 30
0.0
 10
102.2245957860758
 20
-167.9532280396089
 30
0.0
 10
102.1908338503203
 20
-167.898795530942
 30
0.0
 10
102.1505262331429
 20
-167.8261040162032
 30
0.0
 10
102.1505262331429
 20
-167.7213731134516
 30
0.0
 10
102.1505262331429
 20
-167.4974419069104
 30
0.0
 10
102.3369058988949
 20
-167.2879801014072
 30
0.0
 10
102.6500650785042
 20
-167.2879801014072
 30
0.0
 10
102.9673583726957
 20
-167.2879801014072
 30
0.0
 10
103.2019693752412
 20
-167.486073091809
 30
0.0
 10
103.2019693752412
 20
-167.7534125014644
 30
0.0
  0
HATCH
  5
EE
330
E9
100
AcDbEntity
  8
_U+30EC_U+30A4_U+30E4_U+30FC 1
 62
   179
420
  2234388
100
AcDbHatch
 10
0.0
 20
0.0
 30
0.0
210
0.0
220
0.0
230
1.0
  2
SOLID
 70
     1
 71
     0
 91
        1
 92
        1
 93
        1
 72
     4
 94
        3
 73
     0
 74
     1
 95
       53
 96
       49
 40
0.0
 40
0.0
 40
0.0
 40
0.0
 40
1.0
 40
1.0
 40
1.0
 40
2.0
 40
2.0
 40
2.0
 40
3.0
 40
3.0
 40
3.0
 40
4.0
 40
4.0
 40
4.0
 40
5.0
 40
5.0
 40
5.0
 40
6.0
 40
6.0
 40
6.0
 40
7.0
 40
7.0
 40
7.0
 40
8.0
 40
8.0
 40
8.0
 40
9.0
 40
9.0
 40
9.0
 40
10.0
 40
10.0
 40
10.0
 40
11.0
 40
11.0
 40
11.0
 40
12.0
 40
12.0
 40
12.0
 40
13.0
 40
13.0
 40
13.0
 40
14.0
 40
14.0
 40
14.0
 40
15.0
 40
15.0
 40
15.0
 40
16.0
 40
16.0
 40
16.0
 40
16.0
 10
103.2019693752412
 20
-167.7534125014644
 10
103.2019693752412
 20
-167.8223144111694
 10
103.1850884073635
 20
-167.9118868937859
 10
103.1216986504349
 20
-168.0018038859509
 10
103.0118001044554
 20
-168.154766125496
 10
102.8805419664674
 20
-168.1733696411164
 10
102.772710477779
 20
-168.1902506089941
 10
102.772710477779
 20
-168.1902506089941
 10
102.772710477779
 20
-167.9942246758834
 10
102.772710477779
 20
-167.9942246758834
 10
102.971492487278
 20
-167.9456488295414
 10
103.0011203084511
 20
-167.8336832262708
 10
103.0011203084511
 20
-167.7513454441733
 10
103.0011203084511
 20
-167.6280110258013
 10
102.9015570489274
 20
-167.4936523018766
 10
102.669013103673
 20
-167.4936523018766
 10
102.413042509119
 20
-167.4936523018766
 10
102.3431070707684
 20
-167.6524712037466
 10
102.3431070707684
 20
-167.7589246542408
 10
102.3431070707684
 20
-167.7868299276714
 10
102.3431070707684
 20
-167.9118868937859
 10
102.4722981514653
 20
-167.9904350708496
 10
102.4722981514653
 20
-167.9904350708496
 10
102.4533501262964
 20
-168.1454643676859
 10
102.4533501262964
 20
-168.1454643676859
 10
102.4533501262964
 20
-168.1454643676859
 10
101.6068901655705
 20
-168.0390109171916
 10
101.6068901655705
 20
-168.0390109171916
 10
101.6068901655705
 20
-168.0390109171916
 10
101.6068901655705
 20
-167.3517143678843
 10
101.6068901655705
 20
-167.3517143678843
 10
101.6068901655705
 20
-167.3517143678843
 10
101.8015380604871
 20
-167.3517143678843
 10
101.8015380604871
 20
-167.3517143678843
 10
101.8015380604871
 20
-167.3517143678843
 10
101.8015380604871
 20
-167.8953504354567
 10
101.8015380604871
 20
-167.8953504354567
 10
101.8015380604871
 20
-167.8953504354567
 10
102.2245957860758
 20
-167.9532280396089
 10
102.2245957860758
 20
-167.9532280396089
 10
102.1908338503203
 20
-167.898795530942
 10
102.1505262331429
 20
-167.8261040162032
 10
102.1505262331429
 20
-167.7213731134516
 10
102.1505262331429
 20
-167.4974419069104
 10
102.3369058988949
 20
-167.2879801014072
 10
102.6500650785042
 20
-167.2879801014072
 10
102.9673583726957
 20
-167.2879801014072
 10
103.2019693752412
 20
-167.486073091809
 10
103.2019693752412
 20
-167.7534125014644
 97
        0
 97
        0
 75
     2
 76
     1
 98
        0
  0
ENDBLK
  5
EC
330
E9
100
AcDbEntity
  8
0
100
AcDbBlockEnd
  0
BLOCK
  5
F1
330
EF
100
AcDbEntity
  8
0
100
AcDbBlockBegin
  2
block 4
 70
     0
 10
0.0
 20
0.0
 30
0.0
  3
block 4
  1

  0
SPLINE
  5
F3
330
EF
100
AcDbEntity
  8
_U+30EC_U+30A4_U+30E4_U+30FC 1
370
     0
100
AcDbSpline
210
0.0
220
0.0
230
1.0
 70
    11
 71
     3
 72
    44
 73
    40
 74
     0
 42
0.0000000001
 43
0.0000000001
 12
1.0
 22
0.0
 32
0.0
 13
1.0
 23
0.0
 33
0.0
 40
0.0
 40
0.0
 40
0.0
 40
0.0
 40
1.0
 40
1.0
 40
1.0
 40
2.0
 40
2.0
 40
2.0
 40
3.0
 40
3.0
 40
3.0
 40
4.0
 40
4.0
 40
4.0
 40
5.0
 40
5.0
 40
5.0
 40
6.0
 40
6.0
 40
6.0
 40
7.0
 40
7.0
 40
7.0
 40
8.0
 40
8.0
 40
8.0
 40
9.0
 40
9.0
 40
9.0
 40
10.0
 40
10.0
 40
10.0
 40
11.0
 40
11.0
 40
11.0
 40
12.0
 40
12.0
 40
12.0
 40
13.0
 40
13.0
 40
13.0
 40
13.0
 10
79.70848522312843
 20
-158.1739799951787
 30
0.0
 10
79.86730412499845
 20
-158.3665608328042
 30
0.0
 10
79.94137367793132
 20
-158.4485541053531
 30
0.0
 10
80.08503415966625
 20
-158.4916177989188
 30
0.0
 10
80.08503415966625
 20
-158.4916177989188
 30
0.0
 10
80.08503415966625
 20
-157.8043212496114
 30
0.0
 10
80.08503415966625
 20
-157.8043212496114
 30
0.0
 10
80.08503415966625
 20
-157.8043212496114
 30
0.0
 10
80.29036185058713
 20
-157.8043212496114
 30
0.0
 10
80.29036185058713
 20
-157.8043212496114
 30
0.0
 10
80.29036185058713
 20
-157.8043212496114
 30
0.0
 10
80.29036185058713
 20
-158.7121039099748
 30
0.0
 10
80.29036185058713
 20
-158.7121039099748
 30
0.0
 10
79.9327609392182
 20
-158.6838541269957
 30
0.0
 10
79.85455727170303
 20
-158.6259765228435
 30
0.0
 10
79.5562120026804
 20
-158.2859455984494
 30
0.0
 10
79.35742999318148
 20
-158.059947334617
 30
0.0
 10
79.28956161212206
 20
-158.0020697304648
 30
0.0
 10
79.15210230226059
 20
-158.0020697304648
 30
0.0
 10
79.033591017568
 20
-158.0020697304648
 30
0.0
 10
78.9026773891285
 20
-158.0658039969419
 30
0.0
 10
78.9026773891285
 20
-158.2394368093985
 30
0.0
 10
78.9026773891285
 20
-158.4692246782647
 30
0.0
 10
79.13315427709172
 20
-158.4764593787837
 30
0.0
 10
79.24959850449316
 20
-158.4802489838174
 30
0.0
 10
79.24959850449316
 20
-158.4802489838174
 30
0.0
 10
79.24959850449316
 20
-158.6783419742193
 30
0.0
 10
79.24959850449316
 20
-158.6783419742193
 30
0.0
 10
79.12247448108744
 20
-158.6707627641518
 30
0.0
 10
79.01050887781682
 20
-158.6614610063416
 30
0.0
 10
78.89199759312423
 20
-158.5904920393454
 30
0.0
 10
78.73111163396305
 20
-158.4933403466614
 30
0.0
 10
78.69734969820762
 20
-158.329009292015
 30
0.0
 10
78.69734969820762
 20
-158.2263454465545
 30
0.0
 10
78.69734969820762
 20
-157.9817436671018
 30
0.0
 10
78.88131779711995
 20
-157.7984645872865
 30
0.0
 10
79.15416935955174
 20
-157.7984645872865
 30
0.0
 10
79.38292369977233
 20
-157.7984645872865
 30
0.0
 10
79.48214244974753
 20
-157.9014729422955
 30
0.0
 10
79.70848522312843
 20
-158.1739799951787
 30
0.0
  0
HATCH
  5
F4
330
EF
100
AcDbEntity
  8
_U+30EC_U+30A4_U+30E4_U+30FC 1
 62
   179
420
  2234388
100
AcDbHatch
 10
0.0
 20
0.0
 30
0.0
210
0.0
220
0.0
230
1.0
  2
SOLID
 70
     1
 71
     0
 91
        1
 92
        1
 93
        1
 72
     4
 94
        3
 73
     0
 74
     1
 95
       44
 96
       40
 40
0.0
 40
0.0
 40
0.0
 40
0.0
 40
1.0
 40
1.0
 40
1.0
 40
2.0
 40
2.0
 40
2.0
 40
3.0
 40
3.0
 40
3.0
 40
4.0
 40
4.0
 40
4.0
 40
5.0
 40
5.0
 40
5.0
 40
6.0
 40
6.0
 40
6.0
 40
7.0
 40
7.0
 40
7.0
 40
8.0
 40
8.0
 40
8.0
 40
9.0
 40
9.0
 40
9.0
 40
10.0
 40
10.0
 40
10.0
 40
11.0
 40
11.0
 40
11.0
 40
12.0
 40
12.0
 40
12.0
 40
13.0
 40
13.0
 40
13.0
 40
13.0
 10
79.70848522312843
 20
-158.1739799951787
 10
79.86730412499845
 20
-158.3665608328042
 10
79.94137367793132
 20
-158.4485541053531
 10
80.08503415966625
 20
-158.4916177989188
 10
80.08503415966625
 20
-158.4916177989188
 10
80.08503415966625
 20
-157.8043212496114
 10
80.08503415966625
 20
-157.8043212496114
 10
80.08503415966625
 20
-157.8043212496114
 10
80.29036185058713
 20
-157.8043212496114
 10
80.29036185058713
 20
-157.8043212496114
 10
80.29036185058713
 20
-157.8043212496114
 10
80.29036185058713
 20
-158.7121039099748
 10
80.29036185058713
 20
-158.7121039099748
 10
79.9327609392182
 20
-158.6838541269957
 10
79.85455727170303
 20
-158.6259765228435
 10
79.5562120026804
 20
-158.2859455984494
 10
79.35742999318148
 20
-158.059947334617
 10
79.28956161212206
 20
-158.0020697304648
 10
79.15210230226059
 20
-158.0020697304648
 10
79.033591017568
 20
-158.0020697304648
 10
78.9026773891285
 20
-158.0658039969419
 10
78.9026773891285
 20
-158.2394368093985
 10
78.9026773891285
 20
-158.4692246782647
 10
79.13315427709172
 20
-158.4764593787837
 10
79.24959850449316
 20
-158.4802489838174
 10
79.24959850449316
 20
-158.4802489838174
 10
79.24959850449316
 20
-158.6783419742193
 10
79.24959850449316
 20
-158.6783419742193
 10
79.12247448108744
 20
-158.6707627641518
 10
79.01050887781682
 20
-158.6614610063416
 10
78.89199759312423
 20
-158.5904920393454
 10
78.73111163396305
 20
-158.4933403466614
 10
78.69734969820762
 20
-158.329009292015
 10
78.69734969820762
 20
-158.2263454465545
 10
78.69734969820762
 20
-157.9817436671018
 10
78.88131779711995
 20
-157.7984645872865
 10
79.15416935955174
 20
-157.7984645872865
 10
79.38292369977233
 20
-157.7984645872865
 10
79.48214244974753
 20
-157.9014729422955
 10
79.70848522312843
 20
-158.1739799951787
 97
        0
 97
        0
 75
     2
 76
     1
 98
        0
  0
SPLINE
  5
F5
330
EF
100
AcDbEntity
  8
_U+30EC_U+30A4_U+30E4_U+30FC 1
370
     0
100
AcDbSpline
210
0.0
220
0.0
230
1.0
 70
    11
 71
     3
 72
    53
 73
    49
 74
     0
 42
0.0000000001
 43
0.0000000001
 12
1.0
 22
0.0
 32
0.0
 13
1.0
 23
0.0
 33
0.0
 40
0.0
 40
0.0
 40
0.0
 40
0.0
 40
1.0
 40
1.0
 40
1.0
 40
2.0
 40
2.0
 40
2.0
 40
3.0
 40
3.0
 40
3.0
 40
4.0
 40
4.0
 40
4.0
 40
5.0
 40
5.0
 40
5.0
 40
6.0
 40
6.0
 40
6.0
 40
7.0
 40
7.0
 40
7.0
 40
8.0
 40
8.0
 40
8.0
 40
9.0
 40
9.0
 40
9.0
 40
10.0
 40
10.0
 40
10.0
 40
11.0
 40
11.0
 40
11.0
 40
12.0
 40
12.0
 40
12.0
 40
13.0
 40
13.0
 40
13.0
 40
14.0
 40
14.0
 40
14.0
 40
15.0
 40
15.0
 40
15.0
 40
16.0
 40
16.0
 40
16.0
 40
16.0
 10
80.34100475422031
 20
-157.2334689277055
 30
0.0
 10
80.34100475422031
 20
-157.3023708374105
 30
0.0
 10
80.32412378634258
 20
-157.391943320027
 30
0.0
 10
80.26073402941398
 20
-157.4818603121921
 30
0.0
 10
80.15083548343452
 20
-157.6348225517371
 30
0.0
 10
80.01957734544649
 20
-157.6534260673575
 30
0.0
 10
79.91174585675817
 20
-157.6703070352352
 30
0.0
 10
79.91174585675817
 20
-157.6703070352352
 30
0.0
 10
79.91174585675817
 20
-157.4742811021245
 30
0.0
 10
79.91174585675817
 20
-157.4742811021245
 30
0.0
 10
80.1105278662571
 20
-157.4257052557825
 30
0.0
 10
80.14015568743024
 20
-157.3137396525119
 30
0.0
 10
80.14015568743024
 20
-157.2314018704144
 30
0.0
 10
80.14015568743024
 20
-157.1080674520424
 30
0.0
 10
80.04059242790652
 20
-156.9737087281177
 30
0.0
 10
79.80804848265215
 20
-156.9737087281177
 30
0.0
 10
79.5520778880981
 20
-156.9737087281177
 30
0.0
 10
79.48214244974753
 20
-157.1325276299877
 30
0.0
 10
79.48214244974753
 20
-157.2389810804819
 30
0.0
 10
79.48214244974753
 20
-157.2668863539124
 30
0.0
 10
79.48214244974753
 20
-157.391943320027
 30
0.0
 10
79.6113335304444
 20
-157.4704914970907
 30
0.0
 10
79.6113335304444
 20
-157.4704914970907
 30
0.0
 10
79.59238550527552
 20
-157.625520793927
 30
0.0
 10
79.59238550527552
 20
-157.625520793927
 30
0.0
 10
79.59238550527552
 20
-157.625520793927
 30
0.0
 10
78.74592554454964
 20
-157.5190673434327
 30
0.0
 10
78.74592554454964
 20
-157.5190673434327
 30
0.0
 10
78.74592554454964
 20
-157.5190673434327
 30
0.0
 10
78.74592554454964
 20
-156.8317707941254
 30
0.0
 10
78.74592554454964
 20
-156.8317707941254
 30
0.0
 10
78.74592554454964
 20
-156.8317707941254
 30
0.0
 10
78.94057343946625
 20
-156.8317707941254
 30
0.0
 10
78.94057343946625
 20
-156.8317707941254
 30
0.0
 10
78.94057343946625
 20
-156.8317707941254
 30
0.0
 10
78.94057343946625
 20
-157.3754068616978
 30
0.0
 10
78.94057343946625
 20
-157.3754068616978
 30
0.0
 10
78.94057343946625
 20
-157.3754068616978
 30
0.0
 10
79.36363116505493
 20
-157.43328446585
 30
0.0
 10
79.36363116505493
 20
-157.43328446585
 30
0.0
 10
79.32986922929948
 20
-157.3788519571831
 30
0.0
 10
79.28956161212206
 20
-157.3061604424443
 30
0.0
 10
79.28956161212206
 20
-157.2014295396927
 30
0.0
 10
79.28956161212206
 20
-156.9774983331515
 30
0.0
 10
79.47594127787407
 20
-156.7680365276483
 30
0.0
 10
79.78910045748329
 20
-156.7680365276483
 30
0.0
 10
80.10639375167479
 20
-156.7680365276483
 30
0.0
 10
80.34100475422031
 20
-156.9661295180501
 30
0.0
 10
80.34100475422031
 20
-157.2334689277055
 30
0.0
  0
HATCH
  5
F6
330
EF
100
AcDbEntity
  8
_U+30EC_U+30A4_U+30E4_U+30FC 1
 62
   179
420
  2234388
100
AcDbHatch
 10
0.0
 20
0.0
 30
0.0
210
0.0
220
0.0
230
1.0
  2
SOLID
 70
     1
 71
     0
 91
        1
 92
        1
 93
        1
 72
     4
 94
        3
 73
     0
 74
     1
 95
       53
 96
       49
 40
0.0
 40
0.0
 40
0.0
 40
0.0
 40
1.0
 40
1.0
 40
1.0
 40
2.0
 40
2.0
 40
2.0
 40
3.0
 40
3.0
 40
3.0
 40
4.0
 40
4.0
 40
4.0
 40
5.0
 40
5.0
 40
5.0
 40
6.0
 40
6.0
 40
6.0
 40
7.0
 40
7.0
 40
7.0
 40
8.0
 40
8.0
 40
8.0
 40
9.0
 40
9.0
 40
9.0
 40
10.0
 40
10.0
 40
10.0
 40
11.0
 40
11.0
 40
11.0
 40
12.0
 40
12.0
 40
12.0
 40
13.0
 40
13.0
 40
13.0
 40
14.0
 40
14.0
 40
14.0
 40
15.0
 40
15.0
 40
15.0
 40
16.0
 40
16.0
 40
16.0
 40
16.0
 10
80.34100475422031
 20
-157.2334689277055
 10
80.34100475422031
 20
-157.3023708374105
 10
80.32412378634258
 20
-157.391943320027
 10
80.26073402941398
 20
-157.4818603121921
 10
80.15083548343452
 20
-157.6348225517371
 10
80.01957734544649
 20
-157.6534260673575
 10
79.91174585675817
 20
-157.6703070352352
 10
79.91174585675817
 20
-157.6703070352352
 10
79.91174585675817
 20
-157.4742811021245
 10
79.91174585675817
 20
-157.4742811021245
 10
80.1105278662571
 20
-157.4257052557825
 10
80.14015568743024
 20
-157.3137396525119
 10
80.14015568743024
 20
-157.2314018704144
 10
80.14015568743024
 20
-157.1080674520424
 10
80.04059242790652
 20
-156.9737087281177
 10
79.80804848265215
 20
-156.9737087281177
 10
79.5520778880981
 20
-156.9737087281177
 10
79.48214244974753
 20
-157.1325276299877
 10
79.48214244974753
 20
-157.2389810804819
 10
79.48214244974753
 20
-157.2668863539124
 10
79.48214244974753
 20
-157.391943320027
 10
79.6113335304444
 20
-157.4704914970907
 10
79.6113335304444
 20
-157.4704914970907
 10
79.59238550527552
 20
-157.625520793927
 10
79.59238550527552
 20
-157.625520793927
 10
79.59238550527552
 20
-157.625520793927
 10
78.74592554454964
 20
-157.5190673434327
 10
78.74592554454964
 20
-157.5190673434327
 10
78.74592554454964
 20
-157.5190673434327
 10
78.74592554454964
 20
-156.8317707941254
 10
78.74592554454964
 20
-156.8317707941254
 10
78.74592554454964
 20
-156.8317707941254
 10
78.94057343946625
 20
-156.8317707941254
 10
78.94057343946625
 20
-156.8317707941254
 10
78.94057343946625
 20
-156.8317707941254
 10
78.94057343946625
 20
-157.3754068616978
 10
78.94057343946625
 20
-157.3754068616978
 10
78.94057343946625
 20
-157.3754068616978
 10
79.36363116505493
 20
-157.43328446585
 10
79.36363116505493
 20
-157.43328446585
 10
79.32986922929948
 20
-157.3788519571831
 10
79.28956161212206
 20
-157.3061604424443
 10
79.28956161212206
 20
-157.2014295396927
 10
79.28956161212206
 20
-156.9774983331515
 10
79.47594127787407
 20
-156.7680365276483
 10
79.78910045748329
 20
-156.7680365276483
 10
80.10639375167479
 20
-156.7680365276483
 10
80.34100475422031
 20
-156.9661295180501
 10
80.34100475422031
 20
-157.2334689277055
 97
        0
 97
        0
 75
     2
 76
     1
 98
        0
  0
ENDBLK
  5
F2
330
EF
100
AcDbEntity
  8
0
100
AcDbBlockEnd
  0
BLOCK
  5
F9
330
F7
100
AcDbEntity
  8
0
100
AcDbBlockBegin
  2
block 5
 70
     0
 10
0.0
 20
0.0
 30
0.0
  3
block 5
  1

  0
SPLINE
  5
FB
330
F7
100
AcDbEntity
  8
_U+30EC_U+30A4_U+30E4_U+30FC 1
370
     0
100
AcDbSpline
210
0.0
220
0.0
230
1.0
 70
    11
 71
     3
 72
    26
 73
    22
 74
     0
 42
0.0000000001
 43
0.0000000001
 12
1.0
 22
0.0
 32
0.0
 13
1.0
 23
0.0
 33
0.0
 40
0.0
 40
0.0
 40
0.0
 40
0.0
 40
1.0
 40
1.0
 40
1.0
 40
2.0
 40
2.0
 40
2.0
 40
3.0
 40
3.0
 40
3.0
 40
4.0
 40
4.0
 40
4.0
 40
5.0
 40
5.0
 40
5.0
 40
6.0
 40
6.0
 40
6.0
 40
7.0
 40
7.0
 40
7.0
 40
7.0
 10
91.88173012025874
 20
-173.5911268012203
 30
0.0
 10
91.88173012025874
 20
-173.5911268012203
 30
0.0
 10
91.88173012025874
 20
-172.4869736981977
 30
0.0
 10
91.88173012025874
 20
-172.4869736981977
 30
0.0
 10
91.88173012025874
 20
-172.4869736981977
 30
0.0
 10
91.5902750422066
 20
-172.4869736981977
 30
0.0
 10
91.5902750422066
 20
-172.4869736981977
 30
0.0
 10
91.5902750422066
 20
-172.4869736981977
 30
0.0
 10
91.5902750422066
 20
-172.338834592332
 30
0.0
 10
91.5902750422066
 20
-172.338834592332
 30
0.0
 10
91.88345266800137
 20
-172.3240206817454
 30
0.0
 10
91.92444930427584
 20
-172.1610676652931
 30
0.0
 10
91.95063202996373
 20
-172.0466904951828
 30
0.0
 10
91.95063202996373
 20
-172.0466904951828
 30
0.0
 10
92.07947860111207
 20
-172.0466904951828
 30
0.0
 10
92.07947860111207
 20
-172.0466904951828
 30
0.0
 10
92.07947860111207
 20
-172.0466904951828
 30
0.0
 10
92.07947860111207
 20
-173.5911268012203
 30
0.0
 10
92.07947860111207
 20
-173.5911268012203
 30
0.0
 10
92.07947860111207
 20
-173.5911268012203
 30
0.0
 10
91.88173012025874
 20
-173.5911268012203
 30
0.0
 10
91.88173012025874
 20
-173.5911268012203
 30
0.0
  0
HATCH
  5
FC
330
F7
100
AcDbEntity
  8
_U+30EC_U+30A4_U+30E4_U+30FC 1
 62
   179
420
  2234388
100
AcDbHatch
 10
0.0
 20
0.0
 30
0.0
210
0.0
220
0.0
230
1.0
  2
SOLID
 70
     1
 71
     0
 91
        1
 92
        1
 93
        1
 72
     4
 94
        3
 73
     0
 74
     1
 95
       26
 96
       22
 40
0.0
 40
0.0
 40
0.0
 40
0.0
 40
1.0
 40
1.0
 40
1.0
 40
2.0
 40
2.0
 40
2.0
 40
3.0
 40
3.0
 40
3.0
 40
4.0
 40
4.0
 40
4.0
 40
5.0
 40
5.0
 40
5.0
 40
6.0
 40
6.0
 40
6.0
 40
7.0
 40
7.0
 40
7.0
 40
7.0
 10
91.88173012025874
 20
-173.5911268012203
 10
91.88173012025874
 20
-173.5911268012203
 10
91.88173012025874
 20
-172.4869736981977
 10
91.88173012025874
 20
-172.4869736981977
 10
91.88173012025874
 20
-172.4869736981977
 10
91.5902750422066
 20
-172.4869736981977
 10
91.5902750422066
 20
-172.4869736981977
 10
91.5902750422066
 20
-172.4869736981977
 10
91.5902750422066
 20
-172.338834592332
 10
91.5902750422066
 20
-172.338834592332
 10
91.88345266800137
 20
-172.3240206817454
 10
91.92444930427584
 20
-172.1610676652931
 10
91.95063202996373
 20
-172.0466904951828
 10
91.95063202996373
 20
-172.0466904951828
 10
92.07947860111207
 20
-172.0466904951828
 10
92.07947860111207
 20
-172.0466904951828
 10
92.07947860111207
 20
-172.0466904951828
 10
92.07947860111207
 20
-173.5911268012203
 10
92.07947860111207
 20
-173.5911268012203
 10
92.07947860111207
 20
-173.5911268012203
 10
91.88173012025874
 20
-173.5911268012203
 10
91.88173012025874
 20
-173.5911268012203
 97
        0
 97
        0
 75
     2
 76
     1
 98
        0
  0
SPLINE
  5
FD
330
F7
100
AcDbEntity
  8
_U+30EC_U+30A4_U+30E4_U+30FC 1
370
     0
100
AcDbSpline
210
0.0
220
0.0
230
1.0
 70
    11
 71
     3
 72
    53
 73
    49
 74
     0
 42
0.0000000001
 43
0.0000000001
 12
1.0
 22
0.0
 32
0.0
 13
1.0
 23
0.0
 33
0.0
 40
0.0
 40
0.0
 40
0.0
 40
0.0
 40
1.0
 40
1.0
 40
1.0
 40
2.0
 40
2.0
 40
2.0
 40
3.0
 40
3.0
 40
3.0
 40
4.0
 40
4.0
 40
4.0
 40
5.0
 40
5.0
 40
5.0
 40
6.0
 40
6.0
 40
6.0
 40
7.0
 40
7.0
 40
7.0
 40
8.0
 40
8.0
 40
8.0
 40
9.0
 40
9.0
 40
9.0
 40
10.0
 40
10.0
 40
10.0
 40
11.0
 40
11.0
 40
11.0
 40
12.0
 40
12.0
 40
12.0
 40
13.0
 40
13.0
 40
13.0
 40
14.0
 40
14.0
 40
14.0
 40
15.0
 40
15.0
 40
15.0
 40
16.0
 40
16.0
 40
16.0
 40
16.0
 10
92.94729815384652
 20
-173.6417697048535
 30
0.0
 10
92.87839624414151
 20
-173.6417697048535
 30
0.0
 10
92.78882376152502
 20
-173.6248887369757
 30
0.0
 10
92.69890676936
 20
-173.5614989800471
 30
0.0
 10
92.5459445298149
 20
-173.4516004340677
 30
0.0
 10
92.52734101419456
 20
-173.3203422960796
 30
0.0
 10
92.51046004631684
 20
-173.2125108073913
 30
0.0
 10
92.51046004631684
 20
-173.2125108073913
 30
0.0
 10
92.70648597942755
 20
-173.2125108073913
 30
0.0
 10
92.70648597942755
 20
-173.2125108073913
 30
0.0
 10
92.75506182576957
 20
-173.4112928168902
 30
0.0
 10
92.86702742904019
 20
-173.4409206380634
 30
0.0
 10
92.94936521113766
 20
-173.4409206380634
 30
0.0
 10
93.0726996295096
 20
-173.4409206380634
 30
0.0
 10
93.20705835343435
 20
-173.3413573785397
 30
0.0
 10
93.20705835343435
 20
-173.1088134332853
 30
0.0
 10
93.20705835343435
 20
-172.8528428387312
 30
0.0
 10
93.04823945156433
 20
-172.7829074003807
 30
0.0
 10
92.94178600107011
 20
-172.7829074003807
 30
0.0
 10
92.9138807276396
 20
-172.7829074003807
 30
0.0
 10
92.78882376152502
 20
-172.7829074003807
 30
0.0
 10
92.71027558446133
 20
-172.9120984810775
 30
0.0
 10
92.71027558446133
 20
-172.9120984810775
 30
0.0
 10
92.55524628762508
 20
-172.8931504559087
 30
0.0
 10
92.55524628762508
 20
-172.8931504559087
 30
0.0
 10
92.55524628762508
 20
-172.8931504559087
 30
0.0
 10
92.6616997381193
 20
-172.0466904951828
 30
0.0
 10
92.6616997381193
 20
-172.0466904951828
 30
0.0
 10
92.6616997381193
 20
-172.0466904951828
 30
0.0
 10
93.34899628742664
 20
-172.0466904951828
 30
0.0
 10
93.34899628742664
 20
-172.0466904951828
 30
0.0
 10
93.34899628742664
 20
-172.0466904951828
 30
0.0
 10
93.34899628742664
 20
-172.2413383900994
 30
0.0
 10
93.34899628742664
 20
-172.2413383900994
 30
0.0
 10
93.34899628742664
 20
-172.2413383900994
 30
0.0
 10
92.80536021985422
 20
-172.2413383900994
 30
0.0
 10
92.80536021985422
 20
-172.2413383900994
 30
0.0
 10
92.80536021985422
 20
-172.2413383900994
 30
0.0
 10
92.74748261570203
 20
-172.6643961156881
 30
0.0
 10
92.74748261570203
 20
-172.6643961156881
 30
0.0
 10
92.80191512436897
 20
-172.6306341799326
 30
0.0
 10
92.87460663910774
 20
-172.5903265627552
 30
0.0
 10
92.97933754185934
 20
-172.5903265627552
 30
0.0
 10
93.20326874840057
 20
-172.5903265627552
 30
0.0
 10
93.41273055390377
 20
-172.7767062285072
 30
0.0
 10
93.41273055390377
 20
-173.0898654081164
 30
0.0
 10
93.41273055390377
 20
-173.407158702308
 30
0.0
 10
93.2146375635019
 20
-173.6417697048535
 30
0.0
 10
92.94729815384652
 20
-173.6417697048535
 30
0.0
  0
HATCH
  5
FE
330
F7
100
AcDbEntity
  8
_U+30EC_U+30A4_U+30E4_U+30FC 1
 62
   179
420
  2234388
100
AcDbHatch
 10
0.0
 20
0.0
 30
0.0
210
0.0
220
0.0
230
1.0
  2
SOLID
 70
     1
 71
     0
 91
        1
 92
        1
 93
        1
 72
     4
 94
        3
 73
     0
 74
     1
 95
       53
 96
       49
 40
0.0
 40
0.0
 40
0.0
 40
0.0
 40
1.0
 40
1.0
 40
1.0
 40
2.0
 40
2.0
 40
2.0
 40
3.0
 40
3.0
 40
3.0
 40
4.0
 40
4.0
 40
4.0
 40
5.0
 40
5.0
 40
5.0
 40
6.0
 40
6.0
 40
6.0
 40
7.0
 40
7.0
 40
7.0
 40
8.0
 40
8.0
 40
8.0
 40
9.0
 40
9.0
 40
9.0
 40
10.0
 40
10.0
 40
10.0
 40
11.0
 40
11.0
 40
11.0
 40
12.0
 40
12.0
 40
12.0
 40
13.0
 40
13.0
 40
13.0
 40
14.0
 40
14.0
 40
14.0
 40
15.0
 40
15.0
 40
15.0
 40
16.0
 40
16.0
 40
16.0
 40
16.0
 10
92.94729815384652
 20
-173.6417697048535
 10
92.87839624414151
 20
-173.6417697048535
 10
92.78882376152502
 20
-173.6248887369757
 10
92.69890676936
 20
-173.5614989800471
 10
92.5459445298149
 20
-173.4516004340677
 10
92.52734101419456
 20
-173.3203422960796
 10
92.51046004631684
 20
-173.2125108073913
 10
92.51046004631684
 20
-173.2125108073913
 10
92.70648597942755
 20
-173.2125108073913
 10
92.70648597942755
 20
-173.2125108073913
 10
92.75506182576957
 20
-173.4112928168902
 10
92.86702742904019
 20
-173.4409206380634
 10
92.94936521113766
 20
-173.4409206380634
 10
93.0726996295096
 20
-173.4409206380634
 10
93.20705835343435
 20
-173.3413573785397
 10
93.20705835343435
 20
-173.1088134332853
 10
93.20705835343435
 20
-172.8528428387312
 10
93.04823945156433
 20
-172.7829074003807
 10
92.94178600107011
 20
-172.7829074003807
 10
92.9138807276396
 20
-172.7829074003807
 10
92.78882376152502
 20
-172.7829074003807
 10
92.71027558446133
 20
-172.9120984810775
 10
92.71027558446133
 20
-172.9120984810775
 10
92.55524628762508
 20
-172.8931504559087
 10
92.55524628762508
 20
-172.8931504559087
 10
92.55524628762508
 20
-172.8931504559087
 10
92.6616997381193
 20
-172.0466904951828
 10
92.6616997381193
 20
-172.0466904951828
 10
92.6616997381193
 20
-172.0466904951828
 10
93.34899628742664
 20
-172.0466904951828
 10
93.34899628742664
 20
-172.0466904951828
 10
93.34899628742664
 20
-172.0466904951828
 10
93.34899628742664
 20
-172.2413383900994
 10
93.34899628742664
 20
-172.2413383900994
 10
93.34899628742664
 20
-172.2413383900994
 10
92.80536021985422
 20
-172.2413383900994
 10
92.80536021985422
 20
-172.2413383900994
 10
92.80536021985422
 20
-172.2413383900994
 10
92.74748261570203
 20
-172.6643961156881
 10
92.74748261570203
 20
-172.6643961156881
 10
92.80191512436897
 20
-172.6306341799326
 10
92.87460663910774
 20
-172.5903265627552
 10
92.97933754185934
 20
-172.5903265627552
 10
93.20326874840057
 20
-172.5903265627552
 10
93.41273055390377
 20
-172.7767062285072
 10
93.41273055390377
 20
-173.0898654081164
 10
93.41273055390377
 20
-173.407158702308
 10
93.2146375635019
 20
-173.6417697048535
 10
92.94729815384652
 20
-173.6417697048535
 97
        0
 97
        0
 75
     2
 76
     1
 98
        0
  0
ENDBLK
  5
FA
330
F7
100
AcDbEntity
  8
0
100
AcDbBlockEnd
  0
BLOCK
  5
101
330
FF
100
AcDbEntity
  8
0
100
AcDbBlockBegin
  2
block 6
 70
     0
 10
0.0
 20
0.0
 30
0.0
  3
block 6
  1

  0
SPLINE
  5
103
330
FF
100
AcDbEntity
  8
_U+30EC_U+30A4_U+30E4_U+30FC 1
370
     0
100
AcDbSpline
210
0.0
220
0.0
230
1.0
 70
    11
 71
     3
 72
    26
 73
    22
 74
     0
 42
0.0000000001
 43
0.0000000001
 12
1.0
 22
0.0
 32
0.0
 13
1.0
 23
0.0
 33
0.0
 40
0.0
 40
0.0
 40
0.0
 40
0.0
 40
1.0
 40
1.0
 40
1.0
 40
2.0
 40
2.0
 40
2.0
 40
3.0
 40
3.0
 40
3.0
 40
4.0
 40
4.0
 40
4.0
 40
5.0
 40
5.0
 40
5.0
 40
6.0
 40
6.0
 40
6.0
 40
7.0
 40
7.0
 40
7.0
 40
7.0
 10
91.38184676534898
 20
-140.5912461671091
 30
0.0
 10
91.38184676534898
 20
-140.5912461671091
 30
0.0
 10
91.38184676534898
 20
-139.4870930640866
 30
0.0
 10
91.38184676534898
 20
-139.4870930640866
 30
0.0
 10
91.38184676534898
 20
-139.4870930640866
 30
0.0
 10
91.09021943252259
 20
-139.4870930640866
 30
0.0
 10
91.09021943252259
 20
-139.4870930640866
 30
0.0
 10
91.09021943252259
 20
-139.4870930640866
 30
0.0
 10
91.09021943252259
 20
-139.3389539582208
 30
0.0
 10
91.09021943252259
 20
-139.3389539582208
 30
0.0
 10
91.38356931309161
 20
-139.3241400476342
 30
0.0
 10
91.42456594936608
 20
-139.1611870311819
 30
0.0
 10
91.45074867505399
 20
-139.0471543706201
 30
0.0
 10
91.45074867505399
 20
-139.0471543706201
 30
0.0
 10
91.57959524620233
 20
-139.0471543706201
 30
0.0
 10
91.57959524620233
 20
-139.0471543706201
 30
0.0
 10
91.57959524620233
 20
-139.0471543706201
 30
0.0
 10
91.57959524620233
 20
-140.5912461671091
 30
0.0
 10
91.57959524620233
 20
-140.5912461671091
 30
0.0
 10
91.57959524620233
 20
-140.5912461671091
 30
0.0
 10
91.38184676534898
 20
-140.5912461671091
 30
0.0
 10
91.38184676534898
 20
-140.5912461671091
 30
0.0
  0
HATCH
  5
104
330
FF
100
AcDbEntity
  8
_U+30EC_U+30A4_U+30E4_U+30FC 1
 62
   179
420
  2234388
100
AcDbHatch
 10
0.0
 20
0.0
 30
0.0
210
0.0
220
0.0
230
1.0
  2
SOLID
 70
     1
 71
     0
 91
        1
 92
        1
 93
        1
 72
     4
 94
        3
 73
     0
 74
     1
 95
       26
 96
       22
 40
0.0
 40
0.0
 40
0.0
 40
0.0
 40
1.0
 40
1.0
 40
1.0
 40
2.0
 40
2.0
 40
2.0
 40
3.0
 40
3.0
 40
3.0
 40
4.0
 40
4.0
 40
4.0
 40
5.0
 40
5.0
 40
5.0
 40
6.0
 40
6.0
 40
6.0
 40
7.0
 40
7.0
 40
7.0
 40
7.0
 10
91.38184676534898
 20
-140.5912461671091
 10
91.38184676534898
 20
-140.5912461671091
 10
91.38184676534898
 20
-139.4870930640866
 10
91.38184676534898
 20
-139.4870930640866
 10
91.38184676534898
 20
-139.4870930640866
 10
91.09021943252259
 20
-139.4870930640866
 10
91.09021943252259
 20
-139.4870930640866
 10
91.09021943252259
 20
-139.4870930640866
 10
91.09021943252259
 20
-139.3389539582208
 10
91.09021943252259
 20
-139.3389539582208
 10
91.38356931309161
 20
-139.3241400476342
 10
91.42456594936608
 20
-139.1611870311819
 10
91.45074867505399
 20
-139.0471543706201
 10
91.45074867505399
 20
-139.0471543706201
 10
91.57959524620233
 20
-139.0471543706201
 10
91.57959524620233
 20
-139.0471543706201
 10
91.57959524620233
 20
-139.0471543706201
 10
91.57959524620233
 20
-140.5912461671091
 10
91.57959524620233
 20
-140.5912461671091
 10
91.57959524620233
 20
-140.5912461671091
 10
91.38184676534898
 20
-140.5912461671091
 10
91.38184676534898
 20
-140.5912461671091
 97
        0
 97
        0
 75
     2
 76
     1
 98
        0
  0
POLYLINE
  5
105
330
FF
100
AcDbEntity
  8
_U+30EC_U+30A4_U+30E4_U+30FC 1
370
     0
100
AcDb2dPolyline
 66
     1
 10
0.0
 20
0.0
 30
0.0
  0
VERTEX
  5
106
330
105
100
AcDbEntity
  8
_U+30EC_U+30A4_U+30E4_U+30FC 1
370
     0
100
AcDbVertex
100
AcDb2dVertex
 10
92.75781790215777
 20
-140.2443250517445
 30
0.0
  0
VERTEX
  5
107
330
105
100
AcDbEntity
  8
_U+30EC_U+30A4_U+30E4_U+30FC 1
370
     0
100
AcDbVertex
100
AcDb2dVertex
 10
92.75781790215777
 20
-140.5912461671091
 30
0.0
  0
VERTEX
  5
108
330
105
100
AcDbEntity
  8
_U+30EC_U+30A4_U+30E4_U+30FC 1
370
     0
100
AcDbVertex
100
AcDb2dVertex
 10
92.56523706453231
 20
-140.5912461671091
 30
0.0
  0
VERTEX
  5
109
330
105
100
AcDbEntity
  8
_U+30EC_U+30A4_U+30E4_U+30FC 1
370
     0
100
AcDbVertex
100
AcDb2dVertex
 10
92.56523706453231
 20
-140.2443250517445
 30
0.0
  0
VERTEX
  5
10A
330
105
100
AcDbEntity
  8
_U+30EC_U+30A4_U+30E4_U+30FC 1
370
     0
100
AcDbVertex
100
AcDb2dVertex
 10
91.98611651346181
 20
-140.2443250517445
 30
0.0
  0
VERTEX
  5
10B
330
105
100
AcDbEntity
  8
_U+30EC_U+30A4_U+30E4_U+30FC 1
370
     0
100
AcDbVertex
100
AcDb2dVertex
 10
91.98611651346181
 20
-140.0200493356547
 30
0.0
  0
VERTEX
  5
10C
330
105
100
AcDbEntity
  8
_U+30EC_U+30A4_U+30E4_U+30FC 1
370
     0
100
AcDbVertex
100
AcDb2dVertex
 10
92.58590763744381
 20
-139.0471543706201
 30
0.0
  0
VERTEX
  5
10D
330
105
100
AcDbEntity
  8
_U+30EC_U+30A4_U+30E4_U+30FC 1
370
     0
100
AcDbVertex
100
AcDb2dVertex
 10
92.75781790215777
 20
-139.0471543706201
 30
0.0
  0
VERTEX
  5
10E
330
105
100
AcDbEntity
  8
_U+30EC_U+30A4_U+30E4_U+30FC 1
370
     0
100
AcDbVertex
100
AcDb2dVertex
 10
92.75781790215777
 20
-140.0455430422456
 30
0.0
  0
VERTEX
  5
10F
330
105
100
AcDbEntity
  8
_U+30EC_U+30A4_U+30E4_U+30FC 1
370
     0
100
AcDbVertex
100
AcDb2dVertex
 10
92.94075247242453
 20
-140.0455430422456
 30
0.0
  0
VERTEX
  5
110
330
105
100
AcDbEntity
  8
_U+30EC_U+30A4_U+30E4_U+30FC 1
370
     0
100
AcDbVertex
100
AcDb2dVertex
 10
92.94075247242453
 20
-140.2443250517445
 30
0.0
  0
VERTEX
  5
111
330
105
100
AcDbEntity
  8
_U+30EC_U+30A4_U+30E4_U+30FC 1
370
     0
100
AcDbVertex
100
AcDb2dVertex
 10
92.75781790215777
 20
-140.2443250517445
 30
0.0
  0
SEQEND
  5
112
330
105
100
AcDbEntity
  8
_U+30EC_U+30A4_U+30E4_U+30FC 1
370
     0
  0
POLYLINE
  5
113
330
FF
100
AcDbEntity
  8
_U+30EC_U+30A4_U+30E4_U+30FC 1
370
     0
100
AcDb2dPolyline
 66
     1
 10
0.0
 20
0.0
 30
0.0
  0
VERTEX
  5
114
330
113
100
AcDbEntity
  8
_U+30EC_U+30A4_U+30E4_U+30FC 1
370
     0
100
AcDbVertex
100
AcDb2dVertex
 10
92.56523706453231
 20
-139.389596861854
 30
0.0
  0
VERTEX
  5
115
330
113
100
AcDbEntity
  8
_U+30EC_U+30A4_U+30E4_U+30FC 1
370
     0
100
AcDbVertex
100
AcDb2dVertex
 10
92.16181638320955
 20
-140.0455430422456
 30
0.0
  0
VERTEX
  5
116
330
113
100
AcDbEntity
  8
_U+30EC_U+30A4_U+30E4_U+30FC 1
370
     0
100
AcDbVertex
100
AcDb2dVertex
 10
92.56523706453231
 20
-140.0455430422456
 30
0.0
  0
VERTEX
  5
117
330
113
100
AcDbEntity
  8
_U+30EC_U+30A4_U+30E4_U+30FC 1
370
     0
100
AcDbVertex
100
AcDb2dVertex
 10
92.56523706453231
 20
-139.389596861854
 30
0.0
  0
SEQEND
  5
118
330
113
100
AcDbEntity
  8
_U+30EC_U+30A4_U+30E4_U+30FC 1
370
     0
  0
HATCH
  5
119
330
FF
100
AcDbEntity
  8
_U+30EC_U+30A4_U+30E4_U+30FC 1
 62
   179
420
  2234388
100
AcDbHatch
 10
0.0
 20
0.0
 30
0.0
210
0.0
220
0.0
230
1.0
  2
SOLID
 70
     1
 71
     0
 91
        2
 92
        1
 93
       11
 72
     1
 10
92.75781790215777
 20
-140.2443250517445
 11
92.75781790215777
 21
-140.5912461671091
 72
     1
 10
92.75781790215777
 20
-140.5912461671091
 11
92.56523706453231
 21
-140.5912461671091
 72
     1
 10
92.56523706453231
 20
-140.5912461671091
 11
92.56523706453231
 21
-140.2443250517445
 72
     1
 10
92.56523706453231
 20
-140.2443250517445
 11
91.98611651346181
 21
-140.2443250517445
 72
     1
 10
91.98611651346181
 20
-140.2443250517445
 11
91.98611651346181
 21
-140.0200493356547
 72
     1
 10
91.98611651346181
 20
-140.0200493356547
 11
92.58590763744381
 21
-139.0471543706201
 72
     1
 10
92.58590763744381
 20
-139.0471543706201
 11
92.75781790215777
 21
-139.0471543706201
 72
     1
 10
92.75781790215777
 20
-139.0471543706201
 11
92.75781790215777
 21
-140.0455430422456
 72
     1
 10
92.75781790215777
 20
-140.0455430422456
 11
92.94075247242453
 21
-140.0455430422456
 72
     1
 10
92.94075247242453
 20
-140.0455430422456
 11
92.94075247242453
 21
-140.2443250517445
 72
     1
 10
92.94075247242453
 20
-140.2443250517445
 11
92.75781790215777
 21
-140.2443250517445
 97
        0
 92
        1
 93
        3
 72
     1
 10
92.56523706453231
 20
-139.389596861854
 11
92.16181638320955
 21
-140.0455430422456
 72
     1
 10
92.16181638320955
 20
-140.0455430422456
 11
92.56523706453231
 21
-140.0455430422456
 72
     1
 10
92.56523706453231
 20
-140.0455430422456
 11
92.56523706453231
 21
-139.389596861854
 97
        0
 75
     2
 76
     1
 98
        0
  0
ENDBLK
  5
102
330
FF
100
AcDbEntity
  8
0
100
AcDbBlockEnd
  0
BLOCK
  5
11C
330
11A
100
AcDbEntity
  8
0
100
AcDbBlockBegin
  2
block 7
 70
     0
 10
0.0
 20
0.0
 30
0.0
  3
block 7
  1

  0
SPLINE
  5
11E
330
11A
100
AcDbEntity
  8
_U+30EC_U+30A4_U+30E4_U+30FC 1
370
     0
100
AcDbSpline
210
0.0
220
0.0
230
1.0
 70
    11
 71
     3
 72
    26
 73
    22
 74
     0
 42
0.0000000001
 43
0.0000000001
 12
1.0
 22
0.0
 32
0.0
 13
1.0
 23
0.0
 33
0.0
 40
0.0
 40
0.0
 40
0.0
 40
0.0
 40
1.0
 40
1.0
 40
1.0
 40
2.0
 40
2.0
 40
2.0
 40
3.0
 40
3.0
 40
3.0
 40
4.0
 40
4.0
 40
4.0
 40
5.0
 40
5.0
 40
5.0
 40
6.0
 40
6.0
 40
6.0
 40
7.0
 40
7.0
 40
7.0
 40
7.0
 10
103.151326471608
 20
-156.2991590321058
 30
0.0
 10
103.151326471608
 20
-156.2991590321058
 30
0.0
 10
102.0471733685854
 20
-156.2991590321058
 30
0.0
 10
102.0471733685854
 20
-156.2991590321058
 30
0.0
 10
102.0471733685854
 20
-156.2991590321058
 30
0.0
 10
102.0471733685854
 20
-156.5906141101579
 30
0.0
 10
102.0471733685854
 20
-156.5906141101579
 30
0.0
 10
102.0471733685854
 20
-156.5906141101579
 30
0.0
 10
101.8990342627197
 20
-156.5906141101579
 30
0.0
 10
101.8990342627197
 20
-156.5906141101579
 30
0.0
 10
101.8842203521331
 20
-156.2974364843631
 30
0.0
 10
101.7212673356808
 20
-156.2564398480887
 30
0.0
 10
101.6068901655705
 20
-156.2302571224008
 30
0.0
 10
101.6068901655705
 20
-156.2302571224008
 30
0.0
 10
101.6068901655705
 20
-156.1014105512524
 30
0.0
 10
101.6068901655705
 20
-156.1014105512524
 30
0.0
 10
101.6068901655705
 20
-156.1014105512524
 30
0.0
 10
103.151326471608
 20
-156.1014105512524
 30
0.0
 10
103.151326471608
 20
-156.1014105512524
 30
0.0
 10
103.151326471608
 20
-156.1014105512524
 30
0.0
 10
103.151326471608
 20
-156.2991590321058
 30
0.0
 10
103.151326471608
 20
-156.2991590321058
 30
0.0
  0
HATCH
  5
11F
330
11A
100
AcDbEntity
  8
_U+30EC_U+30A4_U+30E4_U+30FC 1
 62
   179
420
  2234388
100
AcDbHatch
 10
0.0
 20
0.0
 30
0.0
210
0.0
220
0.0
230
1.0
  2
SOLID
 70
     1
 71
     0
 91
        1
 92
        1
 93
        1
 72
     4
 94
        3
 73
     0
 74
     1
 95
       26
 96
       22
 40
0.0
 40
0.0
 40
0.0
 40
0.0
 40
1.0
 40
1.0
 40
1.0
 40
2.0
 40
2.0
 40
2.0
 40
3.0
 40
3.0
 40
3.0
 40
4.0
 40
4.0
 40
4.0
 40
5.0
 40
5.0
 40
5.0
 40
6.0
 40
6.0
 40
6.0
 40
7.0
 40
7.0
 40
7.0
 40
7.0
 10
103.151326471608
 20
-156.2991590321058
 10
103.151326471608
 20
-156.2991590321058
 10
102.0471733685854
 20
-156.2991590321058
 10
102.0471733685854
 20
-156.2991590321058
 10
102.0471733685854
 20
-156.2991590321058
 10
102.0471733685854
 20
-156.5906141101579
 10
102.0471733685854
 20
-156.5906141101579
 10
102.0471733685854
 20
-156.5906141101579
 10
101.8990342627197
 20
-156.5906141101579
 10
101.8990342627197
 20
-156.5906141101579
 10
101.8842203521331
 20
-156.2974364843631
 10
101.7212673356808
 20
-156.2564398480887
 10
101.6068901655705
 20
-156.2302571224008
 10
101.6068901655705
 20
-156.2302571224008
 10
101.6068901655705
 20
-156.1014105512524
 10
101.6068901655705
 20
-156.1014105512524
 10
101.6068901655705
 20
-156.1014105512524
 10
103.151326471608
 20
-156.1014105512524
 10
103.151326471608
 20
-156.1014105512524
 10
103.151326471608
 20
-156.1014105512524
 10
103.151326471608
 20
-156.2991590321058
 10
103.151326471608
 20
-156.2991590321058
 97
        0
 97
        0
 75
     2
 76
     1
 98
        0
  0
SPLINE
  5
120
330
11A
100
AcDbEntity
  8
_U+30EC_U+30A4_U+30E4_U+30FC 1
370
     0
100
AcDbSpline
210
0.0
220
0.0
230
1.0
 70
    11
 71
     3
 72
    32
 73
    28
 74
     0
 42
0.0000000001
 43
0.0000000001
 12
1.0
 22
0.0
 32
0.0
 13
1.0
 23
0.0
 33
0.0
 40
0.0
 40
0.0
 40
0.0
 40
0.0
 40
1.0
 40
1.0
 40
1.0
 40
2.0
 40
2.0
 40
2.0
 40
3.0
 40
3.0
 40
3.0
 40
4.0
 40
4.0
 40
4.0
 40
5.0
 40
5.0
 40
5.0
 40
6.0
 40
6.0
 40
6.0
 40
7.0
 40
7.0
 40
7.0
 40
8.0
 40
8.0
 40
8.0
 40
9.0
 40
9.0
 40
9.0
 40
9.0
 10
103.2019693752412
 20
-155.253917061881
 30
0.0
 10
103.2019693752412
 20
-155.4072238109746
 30
0.0
 10
103.1323784464391
 20
-155.6239203169968
 30
0.0
 10
102.8002712416611
 20
-155.6573377432037
 30
0.0
 10
102.8002712416611
 20
-155.6573377432037
 30
0.0
 10
102.8002712416611
 20
-155.4688910201606
 30
0.0
 10
102.8002712416611
 20
-155.4688910201606
 30
0.0
 10
102.8595268840074
 20
-155.4595892623504
 30
0.0
 10
103.0073214803246
 20
-155.4313394793713
 30
0.0
 10
103.0073214803246
 20
-155.2521945141384
 30
0.0
 10
103.0073214803246
 20
-154.9945013718417
 30
0.0
 10
102.6776258423861
 20
-154.9607394360862
 30
0.0
 10
102.4722981514653
 20
-154.9493706209849
 30
0.0
 10
102.5525688762716
 20
-155.0299858553397
 30
0.0
 10
102.6097574613267
 20
-155.0895860072345
 30
0.0
 10
102.6097574613267
 20
-155.2501274568472
 30
0.0
 10
102.6097574613267
 20
-155.4089463587172
 30
0.0
 10
102.5039930299296
 20
-155.6762857683726
 30
0.0
 10
102.0978162722186
 20
-155.6762857683726
 30
0.0
 10
101.778455920736
 20
-155.6762857683726
 30
0.0
 10
101.5583143192285
 20
-155.5005858986248
 30
0.0
 10
101.5583143192285
 20
-155.2204996356741
 30
0.0
 10
101.5583143192285
 20
-154.7664360507181
 30
0.0
 10
102.1126301828052
 20
-154.7571342929079
 30
0.0
 10
102.3262261028907
 20
-154.7571342929079
 30
0.0
 10
102.5567029908539
 20
-154.7571342929079
 30
0.0
 10
103.2019693752412
 20
-154.7740152607857
 30
0.0
 10
103.2019693752412
 20
-155.253917061881
 30
0.0
  0
SPLINE
  5
121
330
11A
100
AcDbEntity
  8
_U+30EC_U+30A4_U+30E4_U+30FC 1
370
     0
100
AcDbSpline
210
0.0
220
0.0
230
1.0
 70
    11
 71
     3
 72
    17
 73
    13
 74
     0
 42
0.0000000001
 43
0.0000000001
 12
1.0
 22
0.0
 32
0.0
 13
1.0
 23
0.0
 33
0.0
 40
0.0
 40
0.0
 40
0.0
 40
0.0
 40
1.0
 40
1.0
 40
1.0
 40
2.0
 40
2.0
 40
2.0
 40
3.0
 40
3.0
 40
3.0
 40
4.0
 40
4.0
 40
4.0
 40
4.0
 10
101.7508951568539
 20
-155.2184325783829
 30
0.0
 10
101.7508951568539
 20
-155.3231634811345
 30
0.0
 10
101.8080837419091
 20
-155.4781927779707
 30
0.0
 10
102.0936821576363
 20
-155.4781927779707
 30
0.0
 10
102.3200249310172
 20
-155.4781927779707
 30
0.0
 10
102.4151095664101
 20
-155.3548583595988
 30
0.0
 10
102.4151095664101
 20
-155.2353135462606
 30
0.0
 10
102.4151095664101
 20
-155.0038031296518
 30
0.0
 10
102.2056477609069
 20
-154.9700411938964
 30
0.0
 10
102.0892035335055
 20
-154.9700411938964
 30
0.0
 10
101.9138481733063
 20
-154.9700411938964
 30
0.0
 10
101.7508951568539
 20
-155.0541015237365
 30
0.0
 10
101.7508951568539
 20
-155.2184325783829
 30
0.0
  0
HATCH
  5
122
330
11A
100
AcDbEntity
  8
_U+30EC_U+30A4_U+30E4_U+30FC 1
 62
   179
420
  2234388
100
AcDbHatch
 10
0.0
 20
0.0
 30
0.0
210
0.0
220
0.0
230
1.0
  2
SOLID
 70
     1
 71
     0
 91
        2
 92
        1
 93
        1
 72
     4
 94
        3
 73
     0
 74
     1
 95
       32
 96
       28
 40
0.0
 40
0.0
 40
0.0
 40
0.0
 40
1.0
 40
1.0
 40
1.0
 40
2.0
 40
2.0
 40
2.0
 40
3.0
 40
3.0
 40
3.0
 40
4.0
 40
4.0
 40
4.0
 40
5.0
 40
5.0
 40
5.0
 40
6.0
 40
6.0
 40
6.0
 40
7.0
 40
7.0
 40
7.0
 40
8.0
 40
8.0
 40
8.0
 40
9.0
 40
9.0
 40
9.0
 40
9.0
 10
103.2019693752412
 20
-155.253917061881
 10
103.2019693752412
 20
-155.4072238109746
 10
103.1323784464391
 20
-155.6239203169968
 10
102.8002712416611
 20
-155.6573377432037
 10
102.8002712416611
 20
-155.6573377432037
 10
102.8002712416611
 20
-155.4688910201606
 10
102.8002712416611
 20
-155.4688910201606
 10
102.8595268840074
 20
-155.4595892623504
 10
103.0073214803246
 20
-155.4313394793713
 10
103.0073214803246
 20
-155.2521945141384
 10
103.0073214803246
 20
-154.9945013718417
 10
102.6776258423861
 20
-154.9607394360862
 10
102.4722981514653
 20
-154.9493706209849
 10
102.5525688762716
 20
-155.0299858553397
 10
102.6097574613267
 20
-155.0895860072345
 10
102.6097574613267
 20
-155.2501274568472
 10
102.6097574613267
 20
-155.4089463587172
 10
102.5039930299296
 20
-155.6762857683726
 10
102.0978162722186
 20
-155.6762857683726
 10
101.778455920736
 20
-155.6762857683726
 10
101.5583143192285
 20
-155.5005858986248
 10
101.5583143192285
 20
-155.2204996356741
 10
101.5583143192285
 20
-154.7664360507181
 10
102.1126301828052
 20
-154.7571342929079
 10
102.3262261028907
 20
-154.7571342929079
 10
102.5567029908539
 20
-154.7571342929079
 10
103.2019693752412
 20
-154.7740152607857
 10
103.2019693752412
 20
-155.253917061881
 97
        0
 97
        0
 92
        1
 93
        1
 72
     4
 94
        3
 73
     0
 74
     1
 95
       17
 96
       13
 40
0.0
 40
0.0
 40
0.0
 40
0.0
 40
1.0
 40
1.0
 40
1.0
 40
2.0
 40
2.0
 40
2.0
 40
3.0
 40
3.0
 40
3.0
 40
4.0
 40
4.0
 40
4.0
 40
4.0
 10
101.7508951568539
 20
-155.2184325783829
 10
101.7508951568539
 20
-155.3231634811345
 10
101.8080837419091
 20
-155.4781927779707
 10
102.0936821576363
 20
-155.4781927779707
 10
102.3200249310172
 20
-155.4781927779707
 10
102.4151095664101
 20
-155.3548583595988
 10
102.4151095664101
 20
-155.2353135462606
 10
102.4151095664101
 20
-155.0038031296518
 10
102.2056477609069
 20
-154.9700411938964
 10
102.0892035335055
 20
-154.9700411938964
 10
101.9138481733063
 20
-154.9700411938964
 10
101.7508951568539
 20
-155.0541015237365
 10
101.7508951568539
 20
-155.2184325783829
 97
        0
 97
        0
 75
     2
 76
     1
 98
        0
  0
ENDBLK
  5
11D
330
11A
100
AcDbEntity
  8
0
100
AcDbBlockEnd
  0
BLOCK
  5
125
330
123
100
AcDbEntity
  8
0
100
AcDbBlockBegin
  2
block 8
 70
     0
 10
0.0
 20
0.0
 30
0.0
  3
block 8
  1

  0
SPLINE
  5
127
330
123
100
AcDbEntity
  8
_U+30EC_U+30A4_U+30E4_U+30FC 1
370
     0
100
AcDbSpline
210
0.0
220
0.0
230
1.0
 70
    11
 71
     3
 72
    53
 73
    49
 74
     0
 42
0.0000000001
 43
0.0000000001
 12
1.0
 22
0.0
 32
0.0
 13
1.0
 23
0.0
 33
0.0
 40
0.0
 40
0.0
 40
0.0
 40
0.0
 40
1.0
 40
1.0
 40
1.0
 40
2.0
 40
2.0
 40
2.0
 40
3.0
 40
3.0
 40
3.0
 40
4.0
 40
4.0
 40
4.0
 40
5.0
 40
5.0
 40
5.0
 40
6.0
 40
6.0
 40
6.0
 40
7.0
 40
7.0
 40
7.0
 40
8.0
 40
8.0
 40
8.0
 40
9.0
 40
9.0
 40
9.0
 40
10.0
 40
10.0
 40
10.0
 40
11.0
 40
11.0
 40
11.0
 40
12.0
 40
12.0
 40
12.0
 40
13.0
 40
13.0
 40
13.0
 40
14.0
 40
14.0
 40
14.0
 40
15.0
 40
15.0
 40
15.0
 40
16.0
 40
16.0
 40
16.0
 40
16.0
 10
103.2019693752412
 20
-118.7734564590219
 30
0.0
 10
103.2019693752412
 20
-118.8423583687269
 30
0.0
 10
103.1850884073635
 20
-118.9319308513434
 30
0.0
 10
103.1216986504349
 20
-119.0218478435084
 30
0.0
 10
103.0118001044554
 20
-119.1748100830535
 30
0.0
 10
102.8805419664674
 20
-119.1934135986739
 30
0.0
 10
102.772710477779
 20
-119.2102945665516
 30
0.0
 10
102.772710477779
 20
-119.2102945665516
 30
0.0
 10
102.772710477779
 20
-119.0142686334409
 30
0.0
 10
102.772710477779
 20
-119.0142686334409
 30
0.0
 10
102.971492487278
 20
-118.9656927870989
 30
0.0
 10
103.0011203084511
 20
-118.8537271838282
 30
0.0
 10
103.0011203084511
 20
-118.7713894017308
 30
0.0
 10
103.0011203084511
 20
-118.6480549833588
 30
0.0
 10
102.9015570489274
 20
-118.5136962594341
 30
0.0
 10
102.669013103673
 20
-118.5136962594341
 30
0.0
 10
102.413042509119
 20
-118.5136962594341
 30
0.0
 10
102.3431070707684
 20
-118.6725151613041
 30
0.0
 10
102.3431070707684
 20
-118.7789686117983
 30
0.0
 10
102.3431070707684
 20
-118.8068738852288
 30
0.0
 10
102.3431070707684
 20
-118.9319308513434
 30
0.0
 10
102.4722981514653
 20
-119.0104790284071
 30
0.0
 10
102.4722981514653
 20
-119.0104790284071
 30
0.0
 10
102.4533501262964
 20
-119.1655083252434
 30
0.0
 10
102.4533501262964
 20
-119.1655083252434
 30
0.0
 10
102.4533501262964
 20
-119.1655083252434
 30
0.0
 10
101.6068901655705
 20
-119.0590548747491
 30
0.0
 10
101.6068901655705
 20
-119.0590548747491
 30
0.0
 10
101.6068901655705
 20
-119.0590548747491
 30
0.0
 10
101.6068901655705
 20
-118.3717583254418
 30
0.0
 10
101.6068901655705
 20
-118.3717583254418
 30
0.0
 10
101.6068901655705
 20
-118.3717583254418
 30
0.0
 10
101.8015380604871
 20
-118.3717583254418
 30
0.0
 10
101.8015380604871
 20
-118.3717583254418
 30
0.0
 10
101.8015380604871
 20
-118.3717583254418
 30
0.0
 10
101.8015380604871
 20
-118.9153943930142
 30
0.0
 10
101.8015380604871
 20
-118.9153943930142
 30
0.0
 10
101.8015380604871
 20
-118.9153943930142
 30
0.0
 10
102.2245957860758
 20
-118.9732719971664
 30
0.0
 10
102.2245957860758
 20
-118.9732719971664
 30
0.0
 10
102.1908338503203
 20
-118.9188394884995
 30
0.0
 10
102.1505262331429
 20
-118.8461479737607
 30
0.0
 10
102.1505262331429
 20
-118.7414170710091
 30
0.0
 10
102.1505262331429
 20
-118.5174858644679
 30
0.0
 10
102.3369058988949
 20
-118.3080240589647
 30
0.0
 10
102.6500650785042
 20
-118.3080240589647
 30
0.0
 10
102.9673583726957
 20
-118.3080240589647
 30
0.0
 10
103.2019693752412
 20
-118.5061170493665
 30
0.0
 10
103.2019693752412
 20
-118.7734564590219
 30
0.0
  0
HATCH
  5
128
330
123
100
AcDbEntity
  8
_U+30EC_U+30A4_U+30E4_U+30FC 1
 62
   179
420
  2234388
100
AcDbHatch
 10
0.0
 20
0.0
 30
0.0
210
0.0
220
0.0
230
1.0
  2
SOLID
 70
     1
 71
     0
 91
        1
 92
        1
 93
        1
 72
     4
 94
        3
 73
     0
 74
     1
 95
       53
 96
       49
 40
0.0
 40
0.0
 40
0.0
 40
0.0
 40
1.0
 40
1.0
 40
1.0
 40
2.0
 40
2.0
 40
2.0
 40
3.0
 40
3.0
 40
3.0
 40
4.0
 40
4.0
 40
4.0
 40
5.0
 40
5.0
 40
5.0
 40
6.0
 40
6.0
 40
6.0
 40
7.0
 40
7.0
 40
7.0
 40
8.0
 40
8.0
 40
8.0
 40
9.0
 40
9.0
 40
9.0
 40
10.0
 40
10.0
 40
10.0
 40
11.0
 40
11.0
 40
11.0
 40
12.0
 40
12.0
 40
12.0
 40
13.0
 40
13.0
 40
13.0
 40
14.0
 40
14.0
 40
14.0
 40
15.0
 40
15.0
 40
15.0
 40
16.0
 40
16.0
 40
16.0
 40
16.0
 10
103.2019693752412
 20
-118.7734564590219
 10
103.2019693752412
 20
-118.8423583687269
 10
103.1850884073635
 20
-118.9319308513434
 10
103.1216986504349
 20
-119.0218478435084
 10
103.0118001044554
 20
-119.1748100830535
 10
102.8805419664674
 20
-119.1934135986739
 10
102.772710477779
 20
-119.2102945665516
 10
102.772710477779
 20
-119.2102945665516
 10
102.772710477779
 20
-119.0142686334409
 10
102.772710477779
 20
-119.0142686334409
 10
102.971492487278
 20
-118.9656927870989
 10
103.0011203084511
 20
-118.8537271838282
 10
103.0011203084511
 20
-118.7713894017308
 10
103.0011203084511
 20
-118.6480549833588
 10
102.9015570489274
 20
-118.5136962594341
 10
102.669013103673
 20
-118.5136962594341
 10
102.413042509119
 20
-118.5136962594341
 10
102.3431070707684
 20
-118.6725151613041
 10
102.3431070707684
 20
-118.7789686117983
 10
102.3431070707684
 20
-118.8068738852288
 10
102.3431070707684
 20
-118.9319308513434
 10
102.4722981514653
 20
-119.0104790284071
 10
102.4722981514653
 20
-119.0104790284071
 10
102.4533501262964
 20
-119.1655083252434
 10
102.4533501262964
 20
-119.1655083252434
 10
102.4533501262964
 20
-119.1655083252434
 10
101.6068901655705
 20
-119.0590548747491
 10
101.6068901655705
 20
-119.0590548747491
 10
101.6068901655705
 20
-119.0590548747491
 10
101.6068901655705
 20
-118.3717583254418
 10
101.6068901655705
 20
-118.3717583254418
 10
101.6068901655705
 20
-118.3717583254418
 10
101.8015380604871
 20
-118.3717583254418
 10
101.8015380604871
 20
-118.3717583254418
 10
101.8015380604871
 20
-118.3717583254418
 10
101.8015380604871
 20
-118.9153943930142
 10
101.8015380604871
 20
-118.9153943930142
 10
101.8015380604871
 20
-118.9153943930142
 10
102.2245957860758
 20
-118.9732719971664
 10
102.2245957860758
 20
-118.9732719971664
 10
102.1908338503203
 20
-118.9188394884995
 10
102.1505262331429
 20
-118.8461479737607
 10
102.1505262331429
 20
-118.7414170710091
 10
102.1505262331429
 20
-118.5174858644679
 10
102.3369058988949
 20
-118.3080240589647
 10
102.6500650785042
 20
-118.3080240589647
 10
102.9673583726957
 20
-118.3080240589647
 10
103.2019693752412
 20
-118.5061170493665
 10
103.2019693752412
 20
-118.7734564590219
 97
        0
 97
        0
 75
     2
 76
     1
 98
        0
  0
SPLINE
  5
129
330
123
100
AcDbEntity
  8
_U+30EC_U+30A4_U+30E4_U+30FC 1
370
     0
100
AcDbSpline
210
0.0
220
0.0
230
1.0
 70
    11
 71
     3
 72
    53
 73
    49
 74
     0
 42
0.0000000001
 43
0.0000000001
 12
1.0
 22
0.0
 32
0.0
 13
1.0
 23
0.0
 33
0.0
 40
0.0
 40
0.0
 40
0.0
 40
0.0
 40
1.0
 40
1.0
 40
1.0
 40
2.0
 40
2.0
 40
2.0
 40
3.0
 40
3.0
 40
3.0
 40
4.0
 40
4.0
 40
4.0
 40
5.0
 40
5.0
 40
5.0
 40
6.0
 40
6.0
 40
6.0
 40
7.0
 40
7.0
 40
7.0
 40
8.0
 40
8.0
 40
8.0
 40
9.0
 40
9.0
 40
9.0
 40
10.0
 40
10.0
 40
10.0
 40
11.0
 40
11.0
 40
11.0
 40
12.0
 40
12.0
 40
12.0
 40
13.0
 40
13.0
 40
13.0
 40
14.0
 40
14.0
 40
14.0
 40
15.0
 40
15.0
 40
15.0
 40
16.0
 40
16.0
 40
16.0
 40
16.0
 10
103.2019693752412
 20
-117.7337266415735
 30
0.0
 10
103.2019693752412
 20
-117.8026285512785
 30
0.0
 10
103.1850884073635
 20
-117.892201033895
 30
0.0
 10
103.1216986504349
 20
-117.98211802606
 30
0.0
 10
103.0118001044554
 20
-118.1350802656051
 30
0.0
 10
102.8805419664674
 20
-118.1536837812255
 30
0.0
 10
102.772710477779
 20
-118.1705647491032
 30
0.0
 10
102.772710477779
 20
-118.1705647491032
 30
0.0
 10
102.772710477779
 20
-117.9745388159925
 30
0.0
 10
102.772710477779
 20
-117.9745388159925
 30
0.0
 10
102.971492487278
 20
-117.9259629696505
 30
0.0
 10
103.0011203084511
 20
-117.8139973663798
 30
0.0
 10
103.0011203084511
 20
-117.7316595842824
 30
0.0
 10
103.0011203084511
 20
-117.6083251659104
 30
0.0
 10
102.9015570489274
 20
-117.4739664419857
 30
0.0
 10
102.669013103673
 20
-117.4739664419857
 30
0.0
 10
102.413042509119
 20
-117.4739664419857
 30
0.0
 10
102.3431070707684
 20
-117.6327853438557
 30
0.0
 10
102.3431070707684
 20
-117.7392387943499
 30
0.0
 10
102.3431070707684
 20
-117.7671440677804
 30
0.0
 10
102.3431070707684
 20
-117.892201033895
 30
0.0
 10
102.4722981514653
 20
-117.9707492109587
 30
0.0
 10
102.4722981514653
 20
-117.9707492109587
 30
0.0
 10
102.4533501262964
 20
-118.1257785077949
 30
0.0
 10
102.4533501262964
 20
-118.1257785077949
 30
0.0
 10
102.4533501262964
 20
-118.1257785077949
 30
0.0
 10
101.6068901655705
 20
-118.0193250573007
 30
0.0
 10
101.6068901655705
 20
-118.0193250573007
 30
0.0
 10
101.6068901655705
 20
-118.0193250573007
 30
0.0
 10
101.6068901655705
 20
-117.3320285079934
 30
0.0
 10
101.6068901655705
 20
-117.3320285079934
 30
0.0
 10
101.6068901655705
 20
-117.3320285079934
 30
0.0
 10
101.8015380604871
 20
-117.3320285079934
 30
0.0
 10
101.8015380604871
 20
-117.3320285079934
 30
0.0
 10
101.8015380604871
 20
-117.3320285079934
 30
0.0
 10
101.8015380604871
 20
-117.8756645755658
 30
0.0
 10
101.8015380604871
 20
-117.8756645755658
 30
0.0
 10
101.8015380604871
 20
-117.8756645755658
 30
0.0
 10
102.2245957860758
 20
-117.933542179718
 30
0.0
 10
102.2245957860758
 20
-117.933542179718
 30
0.0
 10
102.1908338503203
 20
-117.8791096710511
 30
0.0
 10
102.1505262331429
 20
-117.8064181563123
 30
0.0
 10
102.1505262331429
 20
-117.7016872535607
 30
0.0
 10
102.1505262331429
 20
-117.4777560470195
 30
0.0
 10
102.3369058988949
 20
-117.2682942415163
 30
0.0
 10
102.6500650785042
 20
-117.2682942415163
 30
0.0
 10
102.9673583726957
 20
-117.2682942415163
 30
0.0
 10
103.2019693752412
 20
-117.4663872319181
 30
0.0
 10
103.2019693752412
 20
-117.7337266415735
 30
0.0
  0
HATCH
  5
12A
330
123
100
AcDbEntity
  8
_U+30EC_U+30A4_U+30E4_U+30FC 1
 62
   179
420
  2234388
100
AcDbHatch
 10
0.0
 20
0.0
 30
0.0
210
0.0
220
0.0
230
1.0
  2
SOLID
 70
     1
 71
     0
 91
        1
 92
        1
 93
        1
 72
     4
 94
        3
 73
     0
 74
     1
 95
       53
 96
       49
 40
0.0
 40
0.0
 40
0.0
 40
0.0
 40
1.0
 40
1.0
 40
1.0
 40
2.0
 40
2.0
 40
2.0
 40
3.0
 40
3.0
 40
3.0
 40
4.0
 40
4.0
 40
4.0
 40
5.0
 40
5.0
 40
5.0
 40
6.0
 40
6.0
 40
6.0
 40
7.0
 40
7.0
 40
7.0
 40
8.0
 40
8.0
 40
8.0
 40
9.0
 40
9.0
 40
9.0
 40
10.0
 40
10.0
 40
10.0
 40
11.0
 40
11.0
 40
11.0
 40
12.0
 40
12.0
 40
12.0
 40
13.0
 40
13.0
 40
13.0
 40
14.0
 40
14.0
 40
14.0
 40
15.0
 40
15.0
 40
15.0
 40
16.0
 40
16.0
 40
16.0
 40
16.0
 10
103.2019693752412
 20
-117.7337266415735
 10
103.2019693752412
 20
-117.8026285512785
 10
103.1850884073635
 20
-117.892201033895
 10
103.1216986504349
 20
-117.98211802606
 10
103.0118001044554
 20
-118.1350802656051
 10
102.8805419664674
 20
-118.1536837812255
 10
102.772710477779
 20
-118.1705647491032
 10
102.772710477779
 20
-118.1705647491032
 10
102.772710477779
 20
-117.9745388159925
 10
102.772710477779
 20
-117.9745388159925
 10
102.971492487278
 20
-117.9259629696505
 10
103.0011203084511
 20
-117.8139973663798
 10
103.0011203084511
 20
-117.7316595842824
 10
103.0011203084511
 20
-117.6083251659104
 10
102.9015570489274
 20
-117.4739664419857
 10
102.669013103673
 20
-117.4739664419857
 10
102.413042509119
 20
-117.4739664419857
 10
102.3431070707684
 20
-117.6327853438557
 10
102.3431070707684
 20
-117.7392387943499
 10
102.3431070707684
 20
-117.7671440677804
 10
102.3431070707684
 20
-117.892201033895
 10
102.4722981514653
 20
-117.9707492109587
 10
102.4722981514653
 20
-117.9707492109587
 10
102.4533501262964
 20
-118.1257785077949
 10
102.4533501262964
 20
-118.1257785077949
 10
102.4533501262964
 20
-118.1257785077949
 10
101.6068901655705
 20
-118.0193250573007
 10
101.6068901655705
 20
-118.0193250573007
 10
101.6068901655705
 20
-118.0193250573007
 10
101.6068901655705
 20
-117.3320285079934
 10
101.6068901655705
 20
-117.3320285079934
 10
101.6068901655705
 20
-117.3320285079934
 10
101.8015380604871
 20
-117.3320285079934
 10
101.8015380604871
 20
-117.3320285079934
 10
101.8015380604871
 20
-117.3320285079934
 10
101.8015380604871
 20
-117.8756645755658
 10
101.8015380604871
 20
-117.8756645755658
 10
101.8015380604871
 20
-117.8756645755658
 10
102.2245957860758
 20
-117.933542179718
 10
102.2245957860758
 20
-117.933542179718
 10
102.1908338503203
 20
-117.8791096710511
 10
102.1505262331429
 20
-117.8064181563123
 10
102.1505262331429
 20
-117.7016872535607
 10
102.1505262331429
 20
-117.4777560470195
 10
102.3369058988949
 20
-117.2682942415163
 10
102.6500650785042
 20
-117.2682942415163
 10
102.9673583726957
 20
-117.2682942415163
 10
103.2019693752412
 20
-117.4663872319181
 10
103.2019693752412
 20
-117.7337266415735
 97
        0
 97
        0
 75
     2
 76
     1
 98
        0
  0
ENDBLK
  5
126
330
123
100
AcDbEntity
  8
0
100
AcDbBlockEnd
  0
ENDSEC
  0
SECTION
  2
ENTITIES
  0
POLYLINE
  5
41
330
1F
100
AcDbEntity
  8
_U+30EC_U+30A4_U+30E4_U+30FC 1
370
     0
100
AcDb2dPolyline
 66
     1
 10
0.0
 20
0.0
 30
0.0
  0
VERTEX
  5
42
330
41
100
AcDbEntity
  8
_U+30EC_U+30A4_U+30E4_U+30FC 1
370
     0
100
AcDbVertex
100
AcDb2dVertex
 10
98.94555636457744
 20
-90.23688664410747
 30
0.0
  0
VERTEX
  5
43
330
41
100
AcDbEntity
  8
_U+30EC_U+30A4_U+30E4_U+30FC 1
370
     0
100
AcDbVertex
100
AcDb2dVertex
 10
100.1458121672897
 20
-90.23688664410747
 30
0.0
  0
VERTEX
  5
44
330
41
100
AcDbEntity
  8
_U+30EC_U+30A4_U+30E4_U+30FC 1
370
     0
100
AcDbVertex
100
AcDb2dVertex
 10
100.1458121672897
 20
-146.2363724634409
 30
0.0
  0
VERTEX
  5
45
330
41
100
AcDbEntity
  8
_U+30EC_U+30A4_U+30E4_U+30FC 1
370
     0
100
AcDbVertex
100
AcDb2dVertex
 10
85.9458388674025
 20
-146.2363724634409
 30
0.0
  0
VERTEX
  5
46
330
41
100
AcDbEntity
  8
_U+30EC_U+30A4_U+30E4_U+30FC 1
370
     0
100
AcDbVertex
100
AcDb2dVertex
 10
85.9458388674025
 20
-169.2365310688019
 30
0.0
  0
VERTEX
  5
47
330
41
100
AcDbEntity
  8
_U+30EC_U+30A4_U+30E4_U+30FC 1
370
     0
100
AcDbVertex
100
AcDb2dVertex
 10
98.94555636457744
 20
-169.2365310688019
 30
0.0
  0
VERTEX
  5
48
330
41
100
AcDbEntity
  8
_U+30EC_U+30A4_U+30E4_U+30FC 1
370
     0
100
AcDbVertex
100
AcDb2dVertex
 10
98.94555636457744
 20
-165.2360663475801
 30
0.0
  0
VERTEX
  5
49
330
41
100
AcDbEntity
  8
_U+30EC_U+30A4_U+30E4_U+30FC 1
370
     0
100
AcDbVertex
100
AcDb2dVertex
 10
99.94599883905403
 20
-165.2360663475801
 30
0.0
  0
VERTEX
  5
4A
330
41
100
AcDbEntity
  8
_U+30EC_U+30A4_U+30E4_U+30FC 1
370
     0
100
AcDbVertex
100
AcDb2dVertex
 10
99.94599883905403
 20
-170.2363032907744
 30
0.0
  0
VERTEX
  5
4B
330
41
100
AcDbEntity
  8
_U+30EC_U+30A4_U+30E4_U+30FC 1
370
     0
100
AcDbVertex
100
AcDb2dVertex
 10
84.94536108987477
 20
-170.2363032907744
 30
0.0
  0
VERTEX
  5
4C
330
41
100
AcDbEntity
  8
_U+30EC_U+30A4_U+30E4_U+30FC 1
370
     0
100
AcDbVertex
100
AcDb2dVertex
 10
84.94536108987477
 20
-145.2366002414684
 30
0.0
  0
VERTEX
  5
4D
330
41
100
AcDbEntity
  8
_U+30EC_U+30A4_U+30E4_U+30FC 1
370
     0
100
AcDbVertex
100
AcDb2dVertex
 10
98.94555636457744
 20
-145.2366002414684
 30
0.0
  0
VERTEX
  5
4E
330
41
100
AcDbEntity
  8
_U+30EC_U+30A4_U+30E4_U+30FC 1
370
     0
100
AcDbVertex
100
AcDb2dVertex
 10
98.94555636457744
 20
-90.23688664410747
 30
0.0
  0
SEQEND
  5
50
330
41
100
AcDbEntity
  8
_U+30EC_U+30A4_U+30E4_U+30FC 1
370
     0
  0
HATCH
  5
4F
330
1F
100
AcDbEntity
  8
_U+30EC_U+30A4_U+30E4_U+30FC 1
 62
   253
420
 11711154
100
AcDbHatch
 10
0.0
 20
0.0
 30
0.0
210
0.0
220
0.0
230
1.0
  2
SOLID
 70
     1
 71
     0
 91
        1
 92
        1
 93
       12
 72
     1
 10
98.94555636457744
 20
-90.23688664410747
 11
100.1458121672897
 21
-90.23688664410747
 72
     1
 10
100.1458121672897
 20
-90.23688664410747
 11
100.1458121672897
 21
-146.2363724634409
 72
     1
 10
100.1458121672897
 20
-146.2363724634409
 11
85.9458388674025
 21
-146.2363724634409
 72
     1
 10
85.9458388674025
 20
-146.2363724634409
 11
85.9458388674025
 21
-169.2365310688019
 72
     1
 10
85.9458388674025
 20
-169.2365310688019
 11
98.94555636457744
 21
-169.2365310688019
 72
     1
 10
98.94555636457744
 20
-169.2365310688019
 11
98.94555636457744
 21
-165.2360663475801
 72
     1
 10
98.94555636457744
 20
-165.2360663475801
 11
99.94599883905403
 21
-165.2360663475801
 72
     1
 10
99.94599883905403
 20
-165.2360663475801
 11
99.94599883905403
 21
-170.2363032907744
 72
     1
 10
99.94599883905403
 20
-170.2363032907744
 11
84.94536108987477
 21
-170.2363032907744
 72
     1
 10
84.94536108987477
 20
-170.2363032907744
 11
84.94536108987477
 21
-145.2366002414684
 72
     1
 10
84.94536108987477
 20
-145.2366002414684
 11
98.94555636457744
 21
-145.2366002414684
 72
     1
 10
98.94555636457744
 20
-145.2366002414684
 11
98.94555636457744
 21
-90.23688664410747
 97
        0
 75
     2
 76
     1
 98
        0
  0
POLYLINE
  5
51
330
1F
100
AcDbEntity
  8
_U+30EC_U+30A4_U+30E4_U+30FC 1
 62
   179
420
  2234388
370
    25
100
AcDb2dPolyline
 66
     1
 10
0.0
 20
0.0
 30
0.0
  0
VERTEX
  5
52
330
51
100
AcDbEntity
  8
_U+30EC_U+30A4_U+30E4_U+30FC 1
 62
   179
420
  2234388
370
    25
100
AcDbVertex
100
AcDb2dVertex
 10
98.94555636457744
 20
-90.23688664410747
 30
0.0
  0
VERTEX
  5
53
330
51
100
AcDbEntity
  8
_U+30EC_U+30A4_U+30E4_U+30FC 1
 62
   179
420
  2234388
370
    25
100
AcDbVertex
100
AcDb2dVertex
 10
98.94555636457744
 20
-145.2366002414684
 30
0.0
  0
SEQEND
  5
54
330
51
100
AcDbEntity
  8
_U+30EC_U+30A4_U+30E4_U+30FC 1
 62
   179
420
  2234388
370
    25
  0
POLYLINE
  5
55
330
1F
100
AcDbEntity
  8
_U+30EC_U+30A4_U+30E4_U+30FC 1
 62
   179
420
  2234388
370
    25
100
AcDb2dPolyline
 66
     1
 10
0.0
 20
0.0
 30
0.0
  0
VERTEX
  5
56
330
55
100
AcDbEntity
  8
_U+30EC_U+30A4_U+30E4_U+30FC 1
 62
   179
420
  2234388
370
    25
100
AcDbVertex
100
AcDb2dVertex
 10
100.1458121672897
 20
-90.23688664410747
 30
0.0
  0
VERTEX
  5
57
330
55
100
AcDbEntity
  8
_U+30EC_U+30A4_U+30E4_U+30FC 1
 62
   179
420
  2234388
370
    25
100
AcDbVertex
100
AcDb2dVertex
 10
98.94555636457744
 20
-90.23688664410747
 30
0.0
  0
SEQEND
  5
58
330
55
100
AcDbEntity
  8
_U+30EC_U+30A4_U+30E4_U+30FC 1
 62
   179
420
  2234388
370
    25
  0
POLYLINE
  5
59
330
1F
100
AcDbEntity
  8
_U+30EC_U+30A4_U+30E4_U+30FC 1
 62
   179
420
  2234388
370
    25
100
AcDb2dPolyline
 66
     1
 10
0.0
 20
0.0
 30
0.0
  0
VERTEX
  5
5A
330
59
100
AcDbEntity
  8
_U+30EC_U+30A4_U+30E4_U+30FC 1
 62
   179
420
  2234388
370
    25
100
AcDbVertex
100
AcDb2dVertex
 10
100.1458121672897
 20
-90.23688664410747
 30
0.0
  0
VERTEX
  5
5B
330
59
100
AcDbEntity
  8
_U+30EC_U+30A4_U+30E4_U+30FC 1
 62
   179
420
  2234388
370
    25
100
AcDbVertex
100
AcDb2dVertex
 10
100.1458121672897
 20
-146.2363724634409
 30
0.0
  0
SEQEND
  5
5C
330
59
100
AcDbEntity
  8
_U+30EC_U+30A4_U+30E4_U+30FC 1
 62
   179
420
  2234388
370
    25
  0
POLYLINE
  5
5D
330
1F
100
AcDbEntity
  8
_U+30EC_U+30A4_U+30E4_U+30FC 1
 62
   179
420
  2234388
370
    25
100
AcDb2dPolyline
 66
     1
 10
0.0
 20
0.0
 30
0.0
  0
VERTEX
  5
5E
330
5D
100
AcDbEntity
  8
_U+30EC_U+30A4_U+30E4_U+30FC 1
 62
   179
420
  2234388
370
    25
100
AcDbVertex
100
AcDb2dVertex
 10
98.94555636457744
 20
-145.2366002414684
 30
0.0
  0
VERTEX
  5
5F
330
5D
100
AcDbEntity
  8
_U+30EC_U+30A4_U+30E4_U+30FC 1
 62
   179
420
  2234388
370
    25
100
AcDbVertex
100
AcDb2dVertex
 10
84.94536108987477
 20
-145.2366002414684
 30
0.0
  0
SEQEND
  5
60
330
5D
100
AcDbEntity
  8
_U+30EC_U+30A4_U+30E4_U+30FC 1
 62
   179
420
  2234388
370
    25
  0
POLYLINE
  5
61
330
1F
100
AcDbEntity
  8
_U+30EC_U+30A4_U+30E4_U+30FC 1
 62
   179
420
  2234388
370
    25
100
AcDb2dPolyline
 66
     1
 10
0.0
 20
0.0
 30
0.0
  0
VERTEX
  5
62
330
61
100
AcDbEntity
  8
_U+30EC_U+30A4_U+30E4_U+30FC 1
 62
   179
420
  2234388
370
    25
100
AcDbVertex
100
AcDb2dVertex
 10
84.94536108987477
 20
-145.2366002414684
 30
0.0
  0
VERTEX
  5
63
330
61
100
AcDbEntity
  8
_U+30EC_U+30A4_U+30E4_U+30FC 1
 62
   179
420
  2234388
370
    25
100
AcDbVertex
100
AcDb2dVertex
 10
84.94536108987477
 20
-170.2363032907744
 30
0.0
  0
SEQEND
  5
64
330
61
100
AcDbEntity
  8
_U+30EC_U+30A4_U+30E4_U+30FC 1
 62
   179
420
  2234388
370
    25
  0
POLYLINE
  5
65
330
1F
100
AcDbEntity
  8
_U+30EC_U+30A4_U+30E4_U+30FC 1
 62
   179
420
  2234388
370
    25
100
AcDb2dPolyline
 66
     1
 10
0.0
 20
0.0
 30
0.0
  0
VERTEX
  5
66
330
65
100
AcDbEntity
  8
_U+30EC_U+30A4_U+30E4_U+30FC 1
 62
   179
420
  2234388
370
    25
100
AcDbVertex
100
AcDb2dVertex
 10
99.94599883905403
 20
-170.2363032907744
 30
0.0
  0
VERTEX
  5
67
330
65
100
AcDbEntity
  8
_U+30EC_U+30A4_U+30E4_U+30FC 1
 62
   179
420
  2234388
370
    25
100
AcDbVertex
100
AcDb2dVertex
 10
84.94536108987477
 20
-170.2363032907744
 30
0.0
  0
SEQEND
  5
68
330
65
100
AcDbEntity
  8
_U+30EC_U+30A4_U+30E4_U+30FC 1
 62
   179
420
  2234388
370
    25
  0
POLYLINE
  5
69
330
1F
100
AcDbEntity
  8
_U+30EC_U+30A4_U+30E4_U+30FC 1
 62
   179
420
  2234388
370
    25
100
AcDb2dPolyline
 66
     1
 10
0.0
 20
0.0
 30
0.0
  0
VERTEX
  5
6A
330
69
100
AcDbEntity
  8
_U+30EC_U+30A4_U+30E4_U+30FC 1
 62
   179
420
  2234388
370
    25
100
AcDbVertex
100
AcDb2dVertex
 10
100.1458121672897
 20
-146.2363724634409
 30
0.0
  0
VERTEX
  5
6B
330
69
100
AcDbEntity
  8
_U+30EC_U+30A4_U+30E4_U+30FC 1
 62
   179
420
  2234388
370
    25
100
AcDbVertex
100
AcDb2dVertex
 10
85.9458388674025
 20
-146.2363724634409
 30
0.0
  0
SEQEND
  5
6C
330
69
100
AcDbEntity
  8
_U+30EC_U+30A4_U+30E4_U+30FC 1
 62
   179
420
  2234388
370
    25
  0
POLYLINE
  5
6D
330
1F
100
AcDbEntity
  8
_U+30EC_U+30A4_U+30E4_U+30FC 1
 62
   179
420
  2234388
370
    25
100
AcDb2dPolyline
 66
     1
 10
0.0
 20
0.0
 30
0.0
  0
VERTEX
  5
6E
330
6D
100
AcDbEntity
  8
_U+30EC_U+30A4_U+30E4_U+30FC 1
 62
   179
420
  2234388
370
    25
100
AcDbVertex
100
AcDb2dVertex
 10
99.94599883905403
 20
-165.2360663475801
 30
0.0
  0
VERTEX
  5
6F
330
6D
100
AcDbEntity
  8
_U+30EC_U+30A4_U+30E4_U+30FC 1
 62
   179
420
  2234388
370
    25
100
AcDbVertex
100
AcDb2dVertex
 10
99.94599883905403
 20
-170.2363032907744
 30
0.0
  0
SEQEND
  5
70
330
6D
100
AcDbEntity
  8
_U+30EC_U+30A4_U+30E4_U+30FC 1
 62
   179
420
  2234388
370
    25
  0
POLYLINE
  5
71
330
1F
100
AcDbEntity
  8
_U+30EC_U+30A4_U+30E4_U+30FC 1
 62
   179
420
  2234388
370
    25
100
AcDb2dPolyline
 66
     1
 10
0.0
 20
0.0
 30
0.0
  0
VERTEX
  5
72
330
71
100
AcDbEntity
  8
_U+30EC_U+30A4_U+30E4_U+30FC 1
 62
   179
420
  2234388
370
    25
100
AcDbVertex
100
AcDb2dVertex
 10
99.94599883905403
 20
-165.2360663475801
 30
0.0
  0
VERTEX
  5
73
330
71
100
AcDbEntity
  8
_U+30EC_U+30A4_U+30E4_U+30FC 1
 62
   179
420
  2234388
370
    25
100
AcDbVertex
100
AcDb2dVertex
 10
98.94555636457744
 20
-165.2360663475801
 30
0.0
  0
SEQEND
  5
74
330
71
100
AcDbEntity
  8
_U+30EC_U+30A4_U+30E4_U+30FC 1
 62
   179
420
  2234388
370
    25
  0
POLYLINE
  5
75
330
1F
100
AcDbEntity
  8
_U+30EC_U+30A4_U+30E4_U+30FC 1
 62
   179
420
  2234388
370
    25
100
AcDb2dPolyline
 66
     1
 10
0.0
 20
0.0
 30
0.0
  0
VERTEX
  5
76
330
75
100
AcDbEntity
  8
_U+30EC_U+30A4_U+30E4_U+30FC 1
 62
   179
420
  2234388
370
    25
100
AcDbVertex
100
AcDb2dVertex
 10
98.94555636457744
 20
-165.2360663475801
 30
0.0
  0
VERTEX
  5
77
330
75
100
AcDbEntity
  8
_U+30EC_U+30A4_U+30E4_U+30FC 1
 62
   179
420
  2234388
370
    25
100
AcDbVertex
100
AcDb2dVertex
 10
98.94555636457744
 20
-169.2365310688019
 30
0.0
  0
SEQEND
  5
78
330
75
100
AcDbEntity
  8
_U+30EC_U+30A4_U+30E4_U+30FC 1
 62
   179
420
  2234388
370
    25
  0
POLYLINE
  5
79
330
1F
100
AcDbEntity
  8
_U+30EC_U+30A4_U+30E4_U+30FC 1
 62
   179
420
  2234388
370
    25
100
AcDb2dPolyline
 66
     1
 10
0.0
 20
0.0
 30
0.0
  0
VERTEX
  5
7A
330
79
100
AcDbEntity
  8
_U+30EC_U+30A4_U+30E4_U+30FC 1
 62
   179
420
  2234388
370
    25
100
AcDbVertex
100
AcDb2dVertex
 10
98.94555636457744
 20
-169.2365310688019
 30
0.0
  0
VERTEX
  5
7B
330
79
100
AcDbEntity
  8
_U+30EC_U+30A4_U+30E4_U+30FC 1
 62
   179
420
  2234388
370
    25
100
AcDbVertex
100
AcDb2dVertex
 10
85.9458388674025
 20
-169.2365310688019
 30
0.0
  0
SEQEND
  5
7C
330
79
100
AcDbEntity
  8
_U+30EC_U+30A4_U+30E4_U+30FC 1
 62
   179
420
  2234388
370
    25
  0
POLYLINE
  5
7D
330
1F
100
AcDbEntity
  8
_U+30EC_U+30A4_U+30E4_U+30FC 1
 62
   179
420
  2234388
370
    25
100
AcDb2dPolyline
 66
     1
 10
0.0
 20
0.0
 30
0.0
  0
VERTEX
  5
7E
330
7D
100
AcDbEntity
  8
_U+30EC_U+30A4_U+30E4_U+30FC 1
 62
   179
420
  2234388
370
    25
100
AcDbVertex
100
AcDb2dVertex
 10
85.9458388674025
 20
-146.2363724634409
 30
0.0
  0
VERTEX
  5
7F
330
7D
100
AcDbEntity
  8
_U+30EC_U+30A4_U+30E4_U+30FC 1
 62
   179
420
  2234388
370
    25
100
AcDbVertex
100
AcDb2dVertex
 10
85.9458388674025
 20
-169.2365310688019
 30
0.0
  0
SEQEND
  5
80
330
7D
100
AcDbEntity
  8
_U+30EC_U+30A4_U+30E4_U+30FC 1
 62
   179
420
  2234388
370
    25
  0
SPLINE
  5
81
330
1F
100
AcDbEntity
  8
_U+30EC_U+30A4_U+30E4_U+30FC 1
 62
   179
420
  2234388
370
     9
100
AcDbSpline
210
0.0
220
0.0
230
1.0
 70
    11
 71
     3
 72
    17
 73
    13
 74
     0
 42
0.0000000001
 43
0.0000000001
 12
1.0
 22
0.0
 32
0.0
 13
1.0
 23
0.0
 33
0.0
 40
0.0
 40
0.0
 40
0.0
 40
0.0
 40
1.0
 40
1.0
 40
1.0
 40
2.0
 40
2.0
 40
2.0
 40
3.0
 40
3.0
 40
3.0
 40
4.0
 40
4.0
 40
4.0
 40
4.0
 10
98.8456497004596
 20
-86.23642192288538
 30
0.0
 10
98.8456497004596
 20
-86.18131803401015
 30
0.0
 10
98.8904171993175
 20
-86.13651525624375
 30
0.0
 10
98.94555636457744
 20
-86.13651525624375
 30
0.0
 10
99.00066025206051
 20
-86.13651525624375
 30
0.0
 10
99.04546302869528
 20
-86.18131803401015
 30
0.0
 10
99.04546302869528
 20
-86.23642192288538
 30
0.0
 10
99.04546302869528
 20
-86.29223136731582
 30
0.0
 10
99.00066025206051
 20
-86.33703414508254
 30
0.0
 10
98.94555636457744
 20
-86.33703414508254
 30
0.0
 10
98.8904171993175
 20
-86.33703414508254
 30
0.0
 10
98.8456497004596
 20
-86.29223136731582
 30
0.0
 10
98.8456497004596
 20
-86.23642192288538
 30
0.0
  0
SPLINE
  5
82
330
1F
100
AcDbEntity
  8
_U+30EC_U+30A4_U+30E4_U+30FC 1
 62
   179
420
  2234388
370
     9
100
AcDbSpline
210
0.0
220
0.0
230
1.0
 70
    11
 71
     3
 72
    17
 73
    13
 74
     0
 42
0.0000000001
 43
0.0000000001
 12
1.0
 22
0.0
 32
0.0
 13
1.0
 23
0.0
 33
0.0
 40
0.0
 40
0.0
 40
0.0
 40
0.0
 40
1.0
 40
1.0
 40
1.0
 40
2.0
 40
2.0
 40
2.0
 40
3.0
 40
3.0
 40
3.0
 40
4.0
 40
4.0
 40
4.0
 40
4.0
 10
100.0459055031719
 20
-86.23642192288538
 30
0.0
 10
100.0459055031719
 20
-86.18131803401015
 30
0.0
 10
100.0907082798066
 20
-86.13651525624375
 30
0.0
 10
100.1458121672897
 20
-86.13651525624375
 30
0.0
 10
100.2009513325496
 20
-86.13651525624375
 30
0.0
 10
100.2457188314075
 20
-86.18131803401015
 30
0.0
 10
100.2457188314075
 20
-86.23642192288538
 30
0.0
 10
100.2457188314075
 20
-86.29223136731582
 30
0.0
 10
100.2009513325496
 20
-86.33703414508254
 30
0.0
 10
100.1458121672897
 20
-86.33703414508254
 30
0.0
 10
100.0907082798066
 20
-86.33703414508254
 30
0.0
 10
100.0459055031719
 20
-86.29223136731582
 30
0.0
 10
100.0459055031719
 20
-86.23642192288538
 30
0.0
  0
SPLINE
  5
83
330
1F
100
AcDbEntity
  8
_U+30EC_U+30A4_U+30E4_U+30FC 1
 62
   179
420
  2234388
370
     9
100
AcDbSpline
210
0.0
220
0.0
230
1.0
 70
    11
 71
     3
 72
    17
 73
    13
 74
     0
 42
0.0000000001
 43
0.0000000001
 12
1.0
 22
0.0
 32
0.0
 13
1.0
 23
0.0
 33
0.0
 40
0.0
 40
0.0
 40
0.0
 40
0.0
 40
1.0
 40
1.0
 40
1.0
 40
2.0
 40
2.0
 40
2.0
 40
3.0
 40
3.0
 40
3.0
 40
4.0
 40
4.0
 40
4.0
 40
4.0
 10
103.8458512395605
 20
-90.23688664410747
 30
0.0
 10
103.8458512395605
 20
-90.18174747745472
 30
0.0
 10
103.8906540161953
 20
-90.13694469968799
 30
0.0
 10
103.9457579036783
 20
-90.13694469968799
 30
0.0
 10
104.0008970689383
 20
-90.13694469968799
 30
0.0
 10
104.0456645677962
 20
-90.18174747745472
 30
0.0
 10
104.0456645677962
 20
-90.23688664410747
 30
0.0
 10
104.0456645677962
 20
-90.29199053298271
 30
0.0
 10
104.0008970689383
 20
-90.33679331074912
 30
0.0
 10
103.9457579036783
 20
-90.33679331074912
 30
0.0
 10
103.8906540161953
 20
-90.33679331074912
 30
0.0
 10
103.8458512395605
 20
-90.29199053298271
 30
0.0
 10
103.8458512395605
 20
-90.23688664410747
 30
0.0
  0
SPLINE
  5
84
330
1F
100
AcDbEntity
  8
_U+30EC_U+30A4_U+30E4_U+30FC 1
 62
   179
420
  2234388
370
     9
100
AcDbSpline
210
0.0
220
0.0
230
1.0
 70
    11
 71
     3
 72
    17
 73
    13
 74
     0
 42
0.0000000001
 43
0.0000000001
 12
1.0
 22
0.0
 32
0.0
 13
1.0
 23
0.0
 33
0.0
 40
0.0
 40
0.0
 40
0.0
 40
0.0
 40
1.0
 40
1.0
 40
1.0
 40
2.0
 40
2.0
 40
2.0
 40
3.0
 40
3.0
 40
3.0
 40
4.0
 40
4.0
 40
4.0
 40
4.0
 10
103.8458512395605
 20
-146.2363724634409
 30
0.0
 10
103.8458512395605
 20
-146.181268574566
 30
0.0
 10
103.8906540161953
 20
-146.1364657967993
 30
0.0
 10
103.9457579036783
 20
-146.1364657967993
 30
0.0
 10
104.0008970689383
 20
-146.1364657967993
 30
0.0
 10
104.0456645677962
 20
-146.181268574566
 30
0.0
 10
104.0456645677962
 20
-146.2363724634409
 30
0.0
 10
104.0456645677962
 20
-146.291511630094
 30
0.0
 10
104.0008970689383
 20
-146.3362791300825
 30
0.0
 10
103.9457579036783
 20
-146.3362791300825
 30
0.0
 10
103.8906540161953
 20
-146.3362791300825
 30
0.0
 10
103.8458512395605
 20
-146.291511630094
 30
0.0
 10
103.8458512395605
 20
-146.2363724634409
 30
0.0
  0
SPLINE
  5
85
330
1F
100
AcDbEntity
  8
_U+30EC_U+30A4_U+30E4_U+30FC 1
 62
   179
420
  2234388
370
     9
100
AcDbSpline
210
0.0
220
0.0
230
1.0
 70
    11
 71
     3
 72
    17
 73
    13
 74
     0
 42
0.0000000001
 43
0.0000000001
 12
1.0
 22
0.0
 32
0.0
 13
1.0
 23
0.0
 33
0.0
 40
0.0
 40
0.0
 40
0.0
 40
0.0
 40
1.0
 40
1.0
 40
1.0
 40
2.0
 40
2.0
 40
2.0
 40
3.0
 40
3.0
 40
3.0
 40
4.0
 40
4.0
 40
4.0
 40
4.0
 10
98.8456497004596
 20
-141.2361707980241
 30
0.0
 10
98.8456497004596
 20
-141.1810316313717
 30
0.0
 10
98.8904171993175
 20
-141.1362641313825
 30
0.0
 10
98.94555636457744
 20
-141.1362641313825
 30
0.0
 10
99.00066025206051
 20
-141.1362641313825
 30
0.0
 10
99.04546302869528
 20
-141.1810316313717
 30
0.0
 10
99.04546302869528
 20
-141.2361707980241
 30
0.0
 10
99.04546302869528
 20
-141.2919802424545
 30
0.0
 10
99.00066025206051
 20
-141.3360774646657
 30
0.0
 10
98.94555636457744
 20
-141.3360774646657
 30
0.0
 10
98.8904171993175
 20
-141.3360774646657
 30
0.0
 10
98.8456497004596
 20
-141.2919802424545
 30
0.0
 10
98.8456497004596
 20
-141.2361707980241
 30
0.0
  0
SPLINE
  5
86
330
1F
100
AcDbEntity
  8
_U+30EC_U+30A4_U+30E4_U+30FC 1
 62
   179
420
  2234388
370
     9
100
AcDbSpline
210
0.0
220
0.0
230
1.0
 70
    11
 71
     3
 72
    17
 73
    13
 74
     0
 42
0.0000000001
 43
0.0000000001
 12
1.0
 22
0.0
 32
0.0
 13
1.0
 23
0.0
 33
0.0
 40
0.0
 40
0.0
 40
0.0
 40
0.0
 40
1.0
 40
1.0
 40
1.0
 40
2.0
 40
2.0
 40
2.0
 40
3.0
 40
3.0
 40
3.0
 40
4.0
 40
4.0
 40
4.0
 40
4.0
 10
80.84569321523232
 20
-145.2366002414684
 30
0.0
 10
80.84569321523232
 20
-145.1807907970379
 30
0.0
 10
80.89049599186707
 20
-145.1360232970493
 30
0.0
 10
80.94559987935014
 20
-145.1360232970493
 30
0.0
 10
81.0007390446101
 20
-145.1360232970493
 30
0.0
 10
81.04554182124485
 20
-145.1807907970379
 30
0.0
 10
81.04554182124485
 20
-145.2366002414684
 30
0.0
 10
81.04554182124485
 20
-145.2917394081214
 30
0.0
 10
81.0007390446101
 20
-145.3365069081106
 30
0.0
 10
80.94559987935014
 20
-145.3365069081106
 30
0.0
 10
80.89049599186707
 20
-145.3365069081106
 30
0.0
 10
80.84569321523232
 20
-145.2917394081214
 30
0.0
 10
80.84569321523232
 20
-145.2366002414684
 30
0.0
  0
SPLINE
  5
87
330
1F
100
AcDbEntity
  8
_U+30EC_U+30A4_U+30E4_U+30FC 1
 62
   179
420
  2234388
370
     9
100
AcDbSpline
210
0.0
220
0.0
230
1.0
 70
    11
 71
     3
 72
    17
 73
    13
 74
     0
 42
0.0000000001
 43
0.0000000001
 12
1.0
 22
0.0
 32
0.0
 13
1.0
 23
0.0
 33
0.0
 40
0.0
 40
0.0
 40
0.0
 40
0.0
 40
1.0
 40
1.0
 40
1.0
 40
2.0
 40
2.0
 40
2.0
 40
3.0
 40
3.0
 40
3.0
 40
4.0
 40
4.0
 40
4.0
 40
4.0
 10
84.84545227985663
 20
-141.2361707980241
 30
0.0
 10
84.84545227985663
 20
-141.1810316313717
 30
0.0
 10
84.89025505649138
 20
-141.1362641313825
 30
0.0
 10
84.94536108987477
 20
-141.1362641313825
 30
0.0
 10
85.00116838699509
 20
-141.1362641313825
 30
0.0
 10
85.04597116362984
 20
-141.1810316313717
 30
0.0
 10
85.04597116362984
 20
-141.2361707980241
 30
0.0
 10
85.04597116362984
 20
-141.2919802424545
 30
0.0
 10
85.00116838699509
 20
-141.3360774646657
 30
0.0
 10
84.94536108987477
 20
-141.3360774646657
 30
0.0
 10
84.89025505649138
 20
-141.3360774646657
 30
0.0
 10
84.84545227985663
 20
-141.2919802424545
 30
0.0
 10
84.84545227985663
 20
-141.2361707980241
 30
0.0
  0
SPLINE
  5
88
330
1F
100
AcDbEntity
  8
_U+30EC_U+30A4_U+30E4_U+30FC 1
 62
   179
420
  2234388
370
     9
100
AcDbSpline
210
0.0
220
0.0
230
1.0
 70
    11
 71
     3
 72
    17
 73
    13
 74
     0
 42
0.0000000001
 43
0.0000000001
 12
1.0
 22
0.0
 32
0.0
 13
1.0
 23
0.0
 33
0.0
 40
0.0
 40
0.0
 40
0.0
 40
0.0
 40
1.0
 40
1.0
 40
1.0
 40
2.0
 40
2.0
 40
2.0
 40
3.0
 40
3.0
 40
3.0
 40
4.0
 40
4.0
 40
4.0
 40
4.0
 10
80.84569321523232
 20
-170.2363032907744
 30
0.0
 10
80.84569321523232
 20
-170.1811641241214
 30
0.0
 10
80.89049599186707
 20
-170.1363966241328
 30
0.0
 10
80.94559987935014
 20
-170.1363966241328
 30
0.0
 10
81.0007390446101
 20
-170.1363966241328
 30
0.0
 10
81.04554182124485
 20
-170.1811641241214
 30
0.0
 10
81.04554182124485
 20
-170.2363032907744
 30
0.0
 10
81.04554182124485
 20
-170.2914071796494
 30
0.0
 10
81.0007390446101
 20
-170.3362099574161
 30
0.0
 10
80.94559987935014
 20
-170.3362099574161
 30
0.0
 10
80.89049599186707
 20
-170.3362099574161
 30
0.0
 10
80.84569321523232
 20
-170.2914071796494
 30
0.0
 10
80.84569321523232
 20
-170.2363032907744
 30
0.0
  0
SPLINE
  5
89
330
1F
100
AcDbEntity
  8
_U+30EC_U+30A4_U+30E4_U+30FC 1
 62
   179
420
  2234388
370
     9
100
AcDbSpline
210
0.0
220
0.0
230
1.0
 70
    11
 71
     3
 72
    17
 73
    13
 74
     0
 42
0.0000000001
 43
0.0000000001
 12
1.0
 22
0.0
 32
0.0
 13
1.0
 23
0.0
 33
0.0
 40
0.0
 40
0.0
 40
0.0
 40
0.0
 40
1.0
 40
1.0
 40
1.0
 40
2.0
 40
2.0
 40
2.0
 40
3.0
 40
3.0
 40
3.0
 40
4.0
 40
4.0
 40
4.0
 40
4.0
 10
84.84545227985663
 20
-174.2360624564407
 30
0.0
 10
84.84545227985663
 20
-174.1809232897882
 30
0.0
 10
84.89025505649138
 20
-174.136155789799
 30
0.0
 10
84.94536108987477
 20
-174.136155789799
 30
0.0
 10
85.00116838699509
 20
-174.136155789799
 30
0.0
 10
85.04597116362984
 20
-174.1809232897882
 30
0.0
 10
85.04597116362984
 20
-174.2360624564407
 30
0.0
 10
85.04597116362984
 20
-174.2918719008718
 30
0.0
 10
85.00116838699509
 20
-174.3366394008603
 30
0.0
 10
84.94536108987477
 20
-174.3366394008603
 30
0.0
 10
84.89025505649138
 20
-174.3366394008603
 30
0.0
 10
84.84545227985663
 20
-174.2918719008718
 30
0.0
 10
84.84545227985663
 20
-174.2360624564407
 30
0.0
  0
SPLINE
  5
8A
330
1F
100
AcDbEntity
  8
_U+30EC_U+30A4_U+30E4_U+30FC 1
 62
   179
420
  2234388
370
     9
100
AcDbSpline
210
0.0
220
0.0
230
1.0
 70
    11
 71
     3
 72
    17
 73
    13
 74
     0
 42
0.0000000001
 43
0.0000000001
 12
1.0
 22
0.0
 32
0.0
 13
1.0
 23
0.0
 33
0.0
 40
0.0
 40
0.0
 40
0.0
 40
0.0
 40
1.0
 40
1.0
 40
1.0
 40
2.0
 40
2.0
 40
2.0
 40
3.0
 40
3.0
 40
3.0
 40
4.0
 40
4.0
 40
4.0
 40
4.0
 10
99.84609217493619
 20
-174.2360624564407
 30
0.0
 10
99.84609217493619
 20
-174.1809232897882
 30
0.0
 10
99.8901893960334
 20
-174.136155789799
 30
0.0
 10
99.94599883905403
 20
-174.136155789799
 30
0.0
 10
100.001138004314
 20
-174.136155789799
 30
0.0
 10
100.0459055031719
 20
-174.1809232897882
 30
0.0
 10
100.0459055031719
 20
-174.2360624564407
 30
0.0
 10
100.0459055031719
 20
-174.2918719008718
 30
0.0
 10
100.001138004314
 20
-174.3366394008603
 30
0.0
 10
99.94599883905403
 20
-174.3366394008603
 30
0.0
 10
99.8901893960334
 20
-174.3366394008603
 30
0.0
 10
99.84609217493619
 20
-174.2918719008718
 30
0.0
 10
99.84609217493619
 20
-174.2360624564407
 30
0.0
  0
SPLINE
  5
8B
330
1F
100
AcDbEntity
  8
_U+30EC_U+30A4_U+30E4_U+30FC 1
 62
   179
420
  2234388
370
     9
100
AcDbSpline
210
0.0
220
0.0
230
1.0
 70
    11
 71
     3
 72
    17
 73
    13
 74
     0
 42
0.0000000001
 43
0.0000000001
 12
1.0
 22
0.0
 32
0.0
 13
1.0
 23
0.0
 33
0.0
 40
0.0
 40
0.0
 40
0.0
 40
0.0
 40
1.0
 40
1.0
 40
1.0
 40
2.0
 40
2.0
 40
2.0
 40
3.0
 40
3.0
 40
3.0
 40
4.0
 40
4.0
 40
4.0
 40
4.0
 10
103.8458512395605
 20
-170.2363032907744
 30
0.0
 10
103.8458512395605
 20
-170.1811641241214
 30
0.0
 10
103.8906540161953
 20
-170.1363966241328
 30
0.0
 10
103.9457579036783
 20
-170.1363966241328
 30
0.0
 10
104.0008970689383
 20
-170.1363966241328
 30
0.0
 10
104.0456645677962
 20
-170.1811641241214
 30
0.0
 10
104.0456645677962
 20
-170.2363032907744
 30
0.0
 10
104.0456645677962
 20
-170.2914071796494
 30
0.0
 10
104.0008970689383
 20
-170.3362099574161
 30
0.0
 10
103.9457579036783
 20
-170.3362099574161
 30
0.0
 10
103.8906540161953
 20
-170.3362099574161
 30
0.0
 10
103.8458512395605
 20
-170.2914071796494
 30
0.0
 10
103.8458512395605
 20
-170.2363032907744
 30
0.0
  0
SPLINE
  5
8C
330
1F
100
AcDbEntity
  8
_U+30EC_U+30A4_U+30E4_U+30FC 1
 62
   179
420
  2234388
370
     9
100
AcDbSpline
210
0.0
220
0.0
230
1.0
 70
    11
 71
     3
 72
    17
 73
    13
 74
     0
 42
0.0000000001
 43
0.0000000001
 12
1.0
 22
0.0
 32
0.0
 13
1.0
 23
0.0
 33
0.0
 40
0.0
 40
0.0
 40
0.0
 40
0.0
 40
1.0
 40
1.0
 40
1.0
 40
2.0
 40
2.0
 40
2.0
 40
3.0
 40
3.0
 40
3.0
 40
4.0
 40
4.0
 40
4.0
 40
4.0
 10
103.8458512395605
 20
-165.2360663475801
 30
0.0
 10
103.8458512395605
 20
-165.1809624587046
 30
0.0
 10
103.8906540161953
 20
-165.1361596809385
 30
0.0
 10
103.9457579036783
 20
-165.1361596809385
 30
0.0
 10
104.0008970689383
 20
-165.1361596809385
 30
0.0
 10
104.0456645677962
 20
-165.1809624587046
 30
0.0
 10
104.0456645677962
 20
-165.2360663475801
 30
0.0
 10
104.0456645677962
 20
-165.2918757920106
 30
0.0
 10
104.0008970689383
 20
-165.3359730142218
 30
0.0
 10
103.9457579036783
 20
-165.3359730142218
 30
0.0
 10
103.8906540161953
 20
-165.3359730142218
 30
0.0
 10
103.8458512395605
 20
-165.2918757920106
 30
0.0
 10
103.8458512395605
 20
-165.2360663475801
 30
0.0
  0
POLYLINE
  5
8D
330
1F
100
AcDbEntity
  8
_U+30EC_U+30A4_U+30E4_U+30FC 1
 62
   179
420
  2234388
370
     9
100
AcDb2dPolyline
 66
     1
 10
0.0
 20
0.0
 30
0.0
  0
VERTEX
  5
8E
330
8D
100
AcDbEntity
  8
_U+30EC_U+30A4_U+30E4_U+30FC 1
 62
   179
420
  2234388
370
     9
100
AcDbVertex
100
AcDb2dVertex
 10
100.1458121672897
 20
-86.23642192288538
 30
0.0
  0
VERTEX
  5
8F
330
8D
100
AcDbEntity
  8
_U+30EC_U+30A4_U+30E4_U+30FC 1
 62
   179
420
  2234388
370
     9
100
AcDbVertex
100
AcDb2dVertex
 10
105.4037178664827
 20
-86.23642192288538
 30
0.0
  0
SEQEND
  5
90
330
8D
100
AcDbEntity
  8
_U+30EC_U+30A4_U+30E4_U+30FC 1
 62
   179
420
  2234388
370
     9
  0
POLYLINE
  5
91
330
1F
100
AcDbEntity
  8
_U+30EC_U+30A4_U+30E4_U+30FC 1
 62
   179
420
  2234388
370
     9
100
AcDb2dPolyline
 66
     1
 10
0.0
 20
0.0
 30
0.0
  0
VERTEX
  5
92
330
91
100
AcDbEntity
  8
_U+30EC_U+30A4_U+30E4_U+30FC 1
 62
   179
420
  2234388
370
     9
100
AcDbVertex
100
AcDb2dVertex
 10
100.1458121672897
 20
-86.23642192288538
 30
0.0
  0
VERTEX
  5
93
330
91
100
AcDbEntity
  8
_U+30EC_U+30A4_U+30E4_U+30FC 1
 62
   179
420
  2234388
370
     9
100
AcDbVertex
100
AcDb2dVertex
 10
97.94578416786153
 20
-86.23642192288538
 30
0.0
  0
SEQEND
  5
94
330
91
100
AcDbEntity
  8
_U+30EC_U+30A4_U+30E4_U+30FC 1
 62
   179
420
  2234388
370
     9
  0
POLYLINE
  5
95
330
1F
100
AcDbEntity
  8
_U+30EC_U+30A4_U+30E4_U+30FC 1
 62
   179
420
  2234388
370
     9
100
AcDb2dPolyline
 66
     1
 10
0.0
 20
0.0
 30
0.0
  0
VERTEX
  5
96
330
95
100
AcDbEntity
  8
_U+30EC_U+30A4_U+30E4_U+30FC 1
 62
   179
420
  2234388
370
     9
100
AcDbVertex
100
AcDb2dVertex
 10
100.1458121672897
 20
-87.69646331140909
 30
0.0
  0
VERTEX
  5
97
330
95
100
AcDbEntity
  8
_U+30EC_U+30A4_U+30E4_U+30FC 1
 62
   179
420
  2234388
370
     9
100
AcDbVertex
100
AcDb2dVertex
 10
100.1458121672897
 20
-85.23664970091316
 30
0.0
  0
SEQEND
  5
98
330
95
100
AcDbEntity
  8
_U+30EC_U+30A4_U+30E4_U+30FC 1
 62
   179
420
  2234388
370
     9
  0
POLYLINE
  5
99
330
1F
100
AcDbEntity
  8
_U+30EC_U+30A4_U+30E4_U+30FC 1
 62
   179
420
  2234388
370
     9
100
AcDb2dPolyline
 66
     1
 10
0.0
 20
0.0
 30
0.0
  0
VERTEX
  5
9A
330
99
100
AcDbEntity
  8
_U+30EC_U+30A4_U+30E4_U+30FC 1
 62
   179
420
  2234388
370
     9
100
AcDbVertex
100
AcDb2dVertex
 10
98.94555636457744
 20
-87.69646331140909
 30
0.0
  0
VERTEX
  5
9B
330
99
100
AcDbEntity
  8
_U+30EC_U+30A4_U+30E4_U+30FC 1
 62
   179
420
  2234388
370
     9
100
AcDbVertex
100
AcDb2dVertex
 10
98.94555636457744
 20
-85.23664970091316
 30
0.0
  0
SEQEND
  5
9C
330
99
100
AcDbEntity
  8
_U+30EC_U+30A4_U+30E4_U+30FC 1
 62
   179
420
  2234388
370
     9
  0
POLYLINE
  5
9D
330
1F
100
AcDbEntity
  8
_U+30EC_U+30A4_U+30E4_U+30FC 1
 62
   179
420
  2234388
370
     9
100
AcDb2dPolyline
 66
     1
 10
0.0
 20
0.0
 30
0.0
  0
VERTEX
  5
9E
330
9D
100
AcDbEntity
  8
_U+30EC_U+30A4_U+30E4_U+30FC 1
 62
   179
420
  2234388
370
     9
100
AcDbVertex
100
AcDb2dVertex
 10
103.9457579036783
 20
-165.2360663475801
 30
0.0
  0
VERTEX
  5
9F
330
9D
100
AcDbEntity
  8
_U+30EC_U+30A4_U+30E4_U+30FC 1
 62
   179
420
  2234388
370
     9
100
AcDbVertex
100
AcDb2dVertex
 10
103.9457579036783
 20
-170.2363032907744
 30
0.0
  0
SEQEND
  5
A0
330
9D
100
AcDbEntity
  8
_U+30EC_U+30A4_U+30E4_U+30FC 1
 62
   179
420
  2234388
370
     9
  0
POLYLINE
  5
A1
330
1F
100
AcDbEntity
  8
_U+30EC_U+30A4_U+30E4_U+30FC 1
 62
   179
420
  2234388
370
     9
100
AcDb2dPolyline
 66
     1
 10
0.0
 20
0.0
 30
0.0
  0
VERTEX
  5
A2
330
A1
100
AcDbEntity
  8
_U+30EC_U+30A4_U+30E4_U+30FC 1
 62
   179
420
  2234388
370
     9
100
AcDbVertex
100
AcDb2dVertex
 10
102.4857165520382
 20
-170.2363032907744
 30
0.0
  0
VERTEX
  5
A3
330
A1
100
AcDbEntity
  8
_U+30EC_U+30A4_U+30E4_U+30FC 1
 62
   179
420
  2234388
370
     9
100
AcDbVertex
100
AcDb2dVertex
 10
104.9455301003943
 20
-170.2363032907744
 30
0.0
  0
SEQEND
  5
A4
330
A1
100
AcDbEntity
  8
_U+30EC_U+30A4_U+30E4_U+30FC 1
 62
   179
420
  2234388
370
     9
  0
POLYLINE
  5
A5
330
1F
100
AcDbEntity
  8
_U+30EC_U+30A4_U+30E4_U+30FC 1
 62
   179
420
  2234388
370
     9
100
AcDb2dPolyline
 66
     1
 10
0.0
 20
0.0
 30
0.0
  0
VERTEX
  5
A6
330
A5
100
AcDbEntity
  8
_U+30EC_U+30A4_U+30E4_U+30FC 1
 62
   179
420
  2234388
370
     9
100
AcDbVertex
100
AcDb2dVertex
 10
80.94559987935014
 20
-145.2366002414684
 30
0.0
  0
VERTEX
  5
A7
330
A5
100
AcDbEntity
  8
_U+30EC_U+30A4_U+30E4_U+30FC 1
 62
   179
420
  2234388
370
     9
100
AcDbVertex
100
AcDb2dVertex
 10
80.94559987935014
 20
-170.2363032907744
 30
0.0
  0
SEQEND
  5
A8
330
A5
100
AcDbEntity
  8
_U+30EC_U+30A4_U+30E4_U+30FC 1
 62
   179
420
  2234388
370
     9
  0
POLYLINE
  5
A9
330
1F
100
AcDbEntity
  8
_U+30EC_U+30A4_U+30E4_U+30FC 1
 62
   179
420
  2234388
370
     9
100
AcDb2dPolyline
 66
     1
 10
0.0
 20
0.0
 30
0.0
  0
VERTEX
  5
AA
330
A9
100
AcDbEntity
  8
_U+30EC_U+30A4_U+30E4_U+30FC 1
 62
   179
420
  2234388
370
     9
100
AcDbVertex
100
AcDb2dVertex
 10
82.40564123099028
 20
-145.2366002414684
 30
0.0
  0
VERTEX
  5
AB
330
A9
100
AcDbEntity
  8
_U+30EC_U+30A4_U+30E4_U+30FC 1
 62
   179
420
  2234388
370
     9
100
AcDbVertex
100
AcDb2dVertex
 10
79.94586296041112
 20
-145.2366002414684
 30
0.0
  0
SEQEND
  5
AC
330
A9
100
AcDbEntity
  8
_U+30EC_U+30A4_U+30E4_U+30FC 1
 62
   179
420
  2234388
370
     9
  0
POLYLINE
  5
AD
330
1F
100
AcDbEntity
  8
_U+30EC_U+30A4_U+30E4_U+30FC 1
 62
   179
420
  2234388
370
     9
100
AcDb2dPolyline
 66
     1
 10
0.0
 20
0.0
 30
0.0
  0
VERTEX
  5
AE
330
AD
100
AcDbEntity
  8
_U+30EC_U+30A4_U+30E4_U+30FC 1
 62
   179
420
  2234388
370
     9
100
AcDbVertex
100
AcDb2dVertex
 10
82.40564123099028
 20
-170.2363032907744
 30
0.0
  0
VERTEX
  5
AF
330
AD
100
AcDbEntity
  8
_U+30EC_U+30A4_U+30E4_U+30FC 1
 62
   179
420
  2234388
370
     9
100
AcDbVertex
100
AcDb2dVertex
 10
79.94586296041112
 20
-170.2363032907744
 30
0.0
  0
SEQEND
  5
B0
330
AD
100
AcDbEntity
  8
_U+30EC_U+30A4_U+30E4_U+30FC 1
 62
   179
420
  2234388
370
     9
  0
POLYLINE
  5
B1
330
1F
100
AcDbEntity
  8
_U+30EC_U+30A4_U+30E4_U+30FC 1
 62
   179
420
  2234388
370
     9
100
AcDb2dPolyline
 66
     1
 10
0.0
 20
0.0
 30
0.0
  0
VERTEX
  5
B2
330
B1
100
AcDbEntity
  8
_U+30EC_U+30A4_U+30E4_U+30FC 1
 62
   179
420
  2234388
370
     9
100
AcDbVertex
100
AcDb2dVertex
 10
99.94599883905403
 20
-174.2360624564407
 30
0.0
  0
VERTEX
  5
B3
330
B1
100
AcDbEntity
  8
_U+30EC_U+30A4_U+30E4_U+30FC 1
 62
   179
420
  2234388
370
     9
100
AcDbVertex
100
AcDb2dVertex
 10
84.94536108987477
 20
-174.2360624564407
 30
0.0
  0
SEQEND
  5
B4
330
B1
100
AcDbEntity
  8
_U+30EC_U+30A4_U+30E4_U+30FC 1
 62
   179
420
  2234388
370
     9
  0
POLYLINE
  5
B5
330
1F
100
AcDbEntity
  8
_U+30EC_U+30A4_U+30E4_U+30FC 1
 62
   179
420
  2234388
370
     9
100
AcDb2dPolyline
 66
     1
 10
0.0
 20
0.0
 30
0.0
  0
VERTEX
  5
B6
330
B5
100
AcDbEntity
  8
_U+30EC_U+30A4_U+30E4_U+30FC 1
 62
   179
420
  2234388
370
     9
100
AcDbVertex
100
AcDb2dVertex
 10
99.94599883905403
 20
-172.776021067917
 30
0.0
  0
VERTEX
  5
B7
330
B5
100
AcDbEntity
  8
_U+30EC_U+30A4_U+30E4_U+30FC 1
 62
   179
420
  2234388
370
     9
100
AcDbVertex
100
AcDb2dVertex
 10
99.94599883905403
 20
-175.2365049561906
 30
0.0
  0
SEQEND
  5
B8
330
B5
100
AcDbEntity
  8
_U+30EC_U+30A4_U+30E4_U+30FC 1
 62
   179
420
  2234388
370
     9
  0
POLYLINE
  5
B9
330
1F
100
AcDbEntity
  8
_U+30EC_U+30A4_U+30E4_U+30FC 1
 62
   179
420
  2234388
370
     9
100
AcDb2dPolyline
 66
     1
 10
0.0
 20
0.0
 30
0.0
  0
VERTEX
  5
BA
330
B9
100
AcDbEntity
  8
_U+30EC_U+30A4_U+30E4_U+30FC 1
 62
   179
420
  2234388
370
     9
100
AcDbVertex
100
AcDb2dVertex
 10
84.94536108987477
 20
-172.776021067917
 30
0.0
  0
VERTEX
  5
BB
330
B9
100
AcDbEntity
  8
_U+30EC_U+30A4_U+30E4_U+30FC 1
 62
   179
420
  2234388
370
     9
100
AcDbVertex
100
AcDb2dVertex
 10
84.94536108987477
 20
-175.2365049561906
 30
0.0
  0
SEQEND
  5
BC
330
B9
100
AcDbEntity
  8
_U+30EC_U+30A4_U+30E4_U+30FC 1
 62
   179
420
  2234388
370
     9
  0
POLYLINE
  5
BD
330
1F
100
AcDbEntity
  8
_U+30EC_U+30A4_U+30E4_U+30FC 1
 62
   179
420
  2234388
370
     9
100
AcDb2dPolyline
 66
     1
 10
0.0
 20
0.0
 30
0.0
  0
VERTEX
  5
BE
330
BD
100
AcDbEntity
  8
_U+30EC_U+30A4_U+30E4_U+30FC 1
 62
   179
420
  2234388
370
     9
100
AcDbVertex
100
AcDb2dVertex
 10
84.94536108987477
 20
-141.2361707980241
 30
0.0
  0
VERTEX
  5
BF
330
BD
100
AcDbEntity
  8
_U+30EC_U+30A4_U+30E4_U+30FC 1
 62
   179
420
  2234388
370
     9
100
AcDbVertex
100
AcDb2dVertex
 10
98.94555636457744
 20
-141.2361707980241
 30
0.0
  0
SEQEND
  5
C0
330
BD
100
AcDbEntity
  8
_U+30EC_U+30A4_U+30E4_U+30FC 1
 62
   179
420
  2234388
370
     9
  0
POLYLINE
  5
C1
330
1F
100
AcDbEntity
  8
_U+30EC_U+30A4_U+30E4_U+30FC 1
 62
   179
420
  2234388
370
     9
100
AcDb2dPolyline
 66
     1
 10
0.0
 20
0.0
 30
0.0
  0
VERTEX
  5
C2
330
C1
100
AcDbEntity
  8
_U+30EC_U+30A4_U+30E4_U+30FC 1
 62
   179
420
  2234388
370
     9
100
AcDbVertex
100
AcDb2dVertex
 10
84.94536108987477
 20
-142.6962121865485
 30
0.0
  0
VERTEX
  5
C3
330
C1
100
AcDbEntity
  8
_U+30EC_U+30A4_U+30E4_U+30FC 1
 62
   179
420
  2234388
370
     9
100
AcDbVertex
100
AcDb2dVertex
 10
84.94536108987477
 20
-140.2363985760522
 30
0.0
  0
SEQEND
  5
C4
330
C1
100
AcDbEntity
  8
_U+30EC_U+30A4_U+30E4_U+30FC 1
 62
   179
420
  2234388
370
     9
  0
POLYLINE
  5
C5
330
1F
100
AcDbEntity
  8
_U+30EC_U+30A4_U+30E4_U+30FC 1
 62
   179
420
  2234388
370
     9
100
AcDb2dPolyline
 66
     1
 10
0.0
 20
0.0
 30
0.0
  0
VERTEX
  5
C6
330
C5
100
AcDbEntity
  8
_U+30EC_U+30A4_U+30E4_U+30FC 1
 62
   179
420
  2234388
370
     9
100
AcDbVertex
100
AcDb2dVertex
 10
103.9457579036783
 20
-146.2363724634409
 30
0.0
  0
VERTEX
  5
C7
330
C5
100
AcDbEntity
  8
_U+30EC_U+30A4_U+30E4_U+30FC 1
 62
   179
420
  2234388
370
     9
100
AcDbVertex
100
AcDb2dVertex
 10
103.9457579036783
 20
-165.2360663475801
 30
0.0
  0
SEQEND
  5
C8
330
C5
100
AcDbEntity
  8
_U+30EC_U+30A4_U+30E4_U+30FC 1
 62
   179
420
  2234388
370
     9
  0
POLYLINE
  5
C9
330
1F
100
AcDbEntity
  8
_U+30EC_U+30A4_U+30E4_U+30FC 1
 62
   179
420
  2234388
370
     9
100
AcDb2dPolyline
 66
     1
 10
0.0
 20
0.0
 30
0.0
  0
VERTEX
  5
CA
330
C9
100
AcDbEntity
  8
_U+30EC_U+30A4_U+30E4_U+30FC 1
 62
   179
420
  2234388
370
     9
100
AcDbVertex
100
AcDb2dVertex
 10
102.6855298802739
 20
-146.2363724634409
 30
0.0
  0
VERTEX
  5
CB
330
C9
100
AcDbEntity
  8
_U+30EC_U+30A4_U+30E4_U+30FC 1
 62
   179
420
  2234388
370
     9
100
AcDbVertex
100
AcDb2dVertex
 10
104.9455301003943
 20
-146.2363724634409
 30
0.0
  0
SEQEND
  5
CC
330
C9
100
AcDbEntity
  8
_U+30EC_U+30A4_U+30E4_U+30FC 1
 62
   179
420
  2234388
370
     9
  0
POLYLINE
  5
CD
330
1F
100
AcDbEntity
  8
_U+30EC_U+30A4_U+30E4_U+30FC 1
 62
   179
420
  2234388
370
     9
100
AcDb2dPolyline
 66
     1
 10
0.0
 20
0.0
 30
0.0
  0
VERTEX
  5
CE
330
CD
100
AcDbEntity
  8
_U+30EC_U+30A4_U+30E4_U+30FC 1
 62
   179
420
  2234388
370
     9
100
AcDbVertex
100
AcDb2dVertex
 10
102.4857165520382
 20
-165.2360663475801
 30
0.0
  0
VERTEX
  5
CF
330
CD
100
AcDbEntity
  8
_U+30EC_U+30A4_U+30E4_U+30FC 1
 62
   179
420
  2234388
370
     9
100
AcDbVertex
100
AcDb2dVertex
 10
104.9455301003943
 20
-165.2360663475801
 30
0.0
  0
SEQEND
  5
D0
330
CD
100
AcDbEntity
  8
_U+30EC_U+30A4_U+30E4_U+30FC 1
 62
   179
420
  2234388
370
     9
  0
POLYLINE
  5
D1
330
1F
100
AcDbEntity
  8
_U+30EC_U+30A4_U+30E4_U+30FC 1
 62
   179
420
  2234388
370
     9
100
AcDb2dPolyline
 66
     1
 10
0.0
 20
0.0
 30
0.0
  0
VERTEX
  5
D2
330
D1
100
AcDbEntity
  8
_U+30EC_U+30A4_U+30E4_U+30FC 1
 62
   179
420
  2234388
370
     9
100
AcDbVertex
100
AcDb2dVertex
 10
103.9457579036783
 20
-146.2363724634409
 30
0.0
  0
VERTEX
  5
D3
330
D1
100
AcDbEntity
  8
_U+30EC_U+30A4_U+30E4_U+30FC 1
 62
   179
420
  2234388
370
     9
100
AcDbVertex
100
AcDb2dVertex
 10
103.9457579036783
 20
-90.23688664410747
 30
0.0
  0
SEQEND
  5
D4
330
D1
100
AcDbEntity
  8
_U+30EC_U+30A4_U+30E4_U+30FC 1
 62
   179
420
  2234388
370
     9
  0
POLYLINE
  5
D5
330
1F
100
AcDbEntity
  8
_U+30EC_U+30A4_U+30E4_U+30FC 1
 62
   179
420
  2234388
370
     9
100
AcDb2dPolyline
 66
     1
 10
0.0
 20
0.0
 30
0.0
  0
VERTEX
  5
D6
330
D5
100
AcDbEntity
  8
_U+30EC_U+30A4_U+30E4_U+30FC 1
 62
   179
420
  2234388
370
     9
100
AcDbVertex
100
AcDb2dVertex
 10
102.6855298802739
 20
-90.23688664410747
 30
0.0
  0
VERTEX
  5
D7
330
D5
100
AcDbEntity
  8
_U+30EC_U+30A4_U+30E4_U+30FC 1
 62
   179
420
  2234388
370
     9
100
AcDbVertex
100
AcDb2dVertex
 10
104.9455301003943
 20
-90.23688664410747
 30
0.0
  0
SEQEND
  5
D8
330
D5
100
AcDbEntity
  8
_U+30EC_U+30A4_U+30E4_U+30FC 1
 62
   179
420
  2234388
370
     9
  0
INSERT
  5
DA
330
1F
100
AcDbEntity
  8
_U+30EC_U+30A4_U+30E4_U+30FC 1
100
AcDbBlockReference
  2
block 2
 10
0.0
 20
0.0
 30
0.0
  0
INSERT
  5
EA
330
1F
100
AcDbEntity
  8
_U+30EC_U+30A4_U+30E4_U+30FC 1
100
AcDbBlockReference
  2
block 3
 10
0.0
 20
0.0
 30
0.0
  0
INSERT
  5
F0
330
1F
100
AcDbEntity
  8
_U+30EC_U+30A4_U+30E4_U+30FC 1
100
AcDbBlockReference
  2
block 4
 10
0.0
 20
0.0
 30
0.0
  0
INSERT
  5
F8
330
1F
100
AcDbEntity
  8
_U+30EC_U+30A4_U+30E4_U+30FC 1
100
AcDbBlockReference
  2
block 5
 10
0.0
 20
0.0
 30
0.0
  0
INSERT
  5
100
330
1F
100
AcDbEntity
  8
_U+30EC_U+30A4_U+30E4_U+30FC 1
100
AcDbBlockReference
  2
block 6
 10
0.0
 20
0.0
 30
0.0
  0
INSERT
  5
11B
330
1F
100
AcDbEntity
  8
_U+30EC_U+30A4_U+30E4_U+30FC 1
100
AcDbBlockReference
  2
block 7
 10
0.0
 20
0.0
 30
0.0
  0
INSERT
  5
124
330
1F
100
AcDbEntity
  8
_U+30EC_U+30A4_U+30E4_U+30FC 1
100
AcDbBlockReference
  2
block 8
 10
0.0
 20
0.0
 30
0.0
  0
ENDSEC
  0
SECTION
  2
OBJECTS
  0
DICTIONARY
  5
C
330
0
100
AcDbDictionary
281
     1
  3
ACAD_GROUP
350
D
  3
ACAD_LAYOUT
350
1A
  3
ACAD_MATERIAL
350
3B
  3
ACAD_MLEADERSTYLE
350
12C
  3
ACAD_MLINESTYLE
350
17
  3
ACAD_PLOTSETTINGS
350
19
  3
ACAD_PLOTSTYLENAME
350
E
  3
ACAD_TABLESTYLE
350
12B
  3
ACAD_VISUALSTYLE
350
2A
  0
SUN
  5
3F
330
29
100
AcDbSun
 90
        1
290
     0
 63
     7
421
 16777215
 40
1.0
291
     1
 91
  2455826
 92
 54000000
292
     0
 70
     2
 71
   256
280
     1
  0
DICTIONARY
  5
D
102
{ACAD_REACTORS
330
C
102
}
330
C
100
AcDbDictionary
281
     1
  0
DICTIONARY
  5
1A
102
{ACAD_REACTORS
330
C
102
}
330
C
100
AcDbDictionary
281
     1
  3
Layout1
350
1E
  3
Layout2
350
26
  3
Model
350
22
  0
DICTIONARY
  5
3B
102
{ACAD_REACTORS
330
C
102
}
330
C
100
AcDbDictionary
281
     1
  3
ByBlock
350
3D
  3
ByLayer
350
3C
  3
Global
350
3E
  0
DICTIONARY
  5
12C
102
{ACAD_REACTORS
330
C
102
}
330
C
100
AcDbDictionary
281
     1
  0
DICTIONARY
  5
17
102
{ACAD_REACTORS
330
C
102
}
330
C
100
AcDbDictionary
281
     1
  3
Standard
350
18
  0
DICTIONARY
  5
19
102
{ACAD_REACTORS
330
C
102
}
330
C
100
AcDbDictionary
281
     1
  0
ACDBDICTIONARYWDFLT
  5
E
102
{ACAD_REACTORS
330
C
102
}
330
C
100
AcDbDictionary
281
     1
  3
Normal
350
F
100
AcDbDictionaryWithDefault
340
F
  0
DICTIONARY
  5
12B
102
{ACAD_REACTORS
330
C
102
}
330
C
100
AcDbDictionary
281
     1
  0
DICTIONARY
  5
2A
102
{ACAD_REACTORS
330
C
102
}
330
C
100
AcDbDictionary
281
     1
  3
2dWireframe
350
2F
  3
3D Hidden
350
31
  3
3dWireframe
350
30
  3
Basic
350
32
  3
Brighten
350
36
  3
ColorChange
350
3A
  3
Conceptual
350
34
  3
Dim
350
35
  3
Facepattern
350
39
  3
Flat
350
2B
  3
FlatWithEdges
350
2C
  3
Gouraud
350
2D
  3
GouraudWithEdges
350
2E
  3
Linepattern
350
38
  3
Realistic
350
33
  3
Thicken
350
37
  0
LAYOUT
  5
1E
102
{ACAD_REACTORS
330
1A
102
}
330
1A
100
AcDbPlotSettings
  1

  2
none_device
  4

  6

 40
0.0
 41
0.0
 42
0.0
 43
0.0
 44
0.0
 45
0.0
 46
0.0
 47
0.0
 48
0.0
 49
0.0
140
0.0
141
0.0
142
1.0
143
1.0
 70
   688
 72
     0
 73
     0
 74
     5
  7

 75
    16
 76
     0
 77
     2
 78
   300
147
1.0
148
0.0
149
0.0
100
AcDbLayout
  1
Layout1
 70
     1
 71
     1
 10
0.0
 20
0.0
 11
12.0
 21
9.0
 12
0.0
 22
0.0
 32
0.0
 14
1.000000000000000E+20
 24
1.000000000000000E+20
 34
1.000000000000000E+20
 15
-1.000000000000000E+20
 25
-1.000000000000000E+20
 35
-1.000000000000000E+20
146
0.0
 13
0.0
 23
0.0
 33
0.0
 16
1.0
 26
0.0
 36
0.0
 17
0.0
 27
1.0
 37
0.0
 76
     0
330
1B
  0
LAYOUT
  5
26
102
{ACAD_REACTORS
330
1A
102
}
330
1A
100
AcDbPlotSettings
  1

  2
none_device
  4

  6

 40
0.0
 41
0.0
 42
0.0
 43
0.0
 44
0.0
 45
0.0
 46
0.0
 47
0.0
 48
0.0
 49
0.0
140
0.0
141
0.0
142
1.0
143
1.0
 70
   688
 72
     0
 73
     0
 74
     5
  7

 75
    16
 76
     0
 77
     2
 78
   300
147
1.0
148
0.0
149
0.0
100
AcDbLayout
  1
Layout2
 70
     1
 71
     2
 10
0.0
 20
0.0
 11
0.0
 21
0.0
 12
0.0
 22
0.0
 32
0.0
 14
0.0
 24
0.0
 34
0.0
 15
0.0
 25
0.0
 35
0.0
146
0.0
 13
0.0
 23
0.0
 33
0.0
 16
1.0
 26
0.0
 36
0.0
 17
0.0
 27
1.0
 37
0.0
 76
     0
330
23
  0
LAYOUT
  5
22
102
{ACAD_REACTORS
330
1A
102
}
330
1A
100
AcDbPlotSettings
  1

  2
none_device
  4

  6

 40
0.0
 41
0.0
 42
0.0
 43
0.0
 44
0.0
 45
0.0
 46
0.0
 47
0.0
 48
0.0
 49
0.0
140
0.0
141
0.0
142
1.0
143
1.0
 70
  1712
 72
     0
 73
     0
 74
     0
  7

 75
     0
 76
     0
 77
     2
 78
   300
147
1.0
148
0.0
149
0.0
100
AcDbLayout
  1
Model
 70
     1
 71
     0
 10
0.0
 20
0.0
 11
12.0
 21
9.0
 12
0.0
 22
0.0
 32
0.0
 14
1.000000000000000E+20
 24
1.000000000000000E+20
 34
1.000000000000000E+20
 15
-1.000000000000000E+20
 25
-1.000000000000000E+20
 35
-1.000000000000000E+20
146
0.0
 13
0.0
 23
0.0
 33
0.0
 16
1.0
 26
0.0
 36
0.0
 17
0.0
 27
1.0
 37
0.0
 76
     0
330
1F
331
29
  0
MATERIAL
  5
3D
102
{ACAD_REACTORS
330
3B
102
}
330
3B
100
AcDbMaterial
  1
ByBlock
 72
     1
 94
      127
  0
MATERIAL
  5
3C
102
{ACAD_REACTORS
330
3B
102
}
330
3B
100
AcDbMaterial
  1
ByLayer
 72
     1
 94
      127
  0
MATERIAL
  5
3E
102
{ACAD_REACTORS
330
3B
102
}
330
3B
100
AcDbMaterial
  1
Global
 72
     1
 94
      127
  0
MLINESTYLE
  5
18
102
{ACAD_REACTORS
330
17
102
}
330
17
100
AcDbMlineStyle
  2
Standard
 70
     0
  3

 62
   256
 51
90.0
 52
90.0
 71
     2
 49
0.5
 62
   256
  6
BYLAYER
 49
-0.5
 62
   256
  6
BYLAYER
  0
ACDBPLACEHOLDER
  5
F
102
{ACAD_REACTORS
330
E
102
}
330
E
  0
VISUALSTYLE
  5
2F
102
{ACAD_REACTORS
330
2A
102
}
330
2A
100
AcDbVisualStyle
  2
2dWireframe
 70
     4
177
     2
291
     0
 71
     0
176
     1
 72
     2
176
     1
 73
     0
176
     1
 90
        0
176
     1
 40
-0.6
176
     1
 41
-30.0
176
     1
 62
     5
 63
     7
421
 16777215
176
     1
 74
     1
176
     1
 91
        4
176
     1
 64
     7
176
     1
 65
   257
176
     1
 75
     1
176
     1
175
     1
176
     1
 42
1.0
176
     1
 92
        0
176
     1
 66
   257
176
     1
 43
1.0
176
     1
 76
     1
176
     1
 77
     6
176
     1
 78
     2
176
     1
 67
     7
176
     1
 79
     5
176
     1
170
     0
176
     1
171
     0
176
     1
290
     0
176
     1
 93
        1
176
     1
 44
0.0
176
     1
173
     0
176
     1
  0
VISUALSTYLE
  5
31
102
{ACAD_REACTORS
330
2A
102
}
330
2A
100
AcDbVisualStyle
  2
3D Hidden
 70
     6
177
     2
291
     0
 71
     1
176
     1
 72
     2
176
     1
 73
     2
176
     1
 90
        0
176
     1
 40
-0.6
176
     1
 41
-30.0
176
     1
 62
     5
 63
     7
421
 16777215
176
     1
 74
     2
176
     1
 91
        2
176
     1
 64
     7
176
     1
 65
   257
176
     1
 75
     2
176
     1
175
     1
176
     1
 42
40.0
176
     1
 92
        0
176
     1
 66
   257
176
     1
 43
1.0
176
     1
 76
     1
176
     1
 77
     6
176
     1
 78
     2
176
     1
 67
     7
176
     1
 79
     3
176
     1
170
     0
176
     1
171
     0
176
     1
290
     0
176
     1
 93
        1
176
     1
 44
0.0
176
     1
173
     0
176
     1
  0
VISUALSTYLE
  5
30
102
{ACAD_REACTORS
330
2A
102
}
330
2A
100
AcDbVisualStyle
  2
3dWireframe
 70
     5
177
     2
291
     0
 71
     0
176
     1
 72
     2
176
     1
 73
     0
176
     1
 90
        0
176
     1
 40
-0.6
176
     1
 41
-30.0
176
     1
 62
     5
 63
     7
421
 16777215
176
     1
 74
     1
176
     1
 91
        4
176
     1
 64
     7
176
     1
 65
   257
176
     1
 75
     1
176
     1
175
     1
176
     1
 42
1.0
176
     1
 92
        0
176
     1
 66
   257
176
     1
 43
1.0
176
     1
 76
     1
176
     1
 77
     6
176
     1
 78
     2
176
     1
 67
     7
176
     1
 79
     5
176
     1
170
     0
176
     1
171
     0
176
     1
290
     0
176
     1
 93
        1
176
     1
 44
0.0
176
     1
173
     0
176
     1
  0
VISUALSTYLE
  5
32
102
{ACAD_REACTORS
330
2A
102
}
330
2A
100
AcDbVisualStyle
  2
Basic
 70
     7
177
     2
291
     1
 71
     1
176
     1
 72
     0
176
     1
 73
     1
176
     1
 90
        0
176
     1
 40
-0.6
176
     1
 41
-30.0
176
     1
 62
     5
 63
     7
421
 16777215
176
     1
 74
     0
176
     1
 91
        4
176
     1
 64
     7
176
     1
 65
   257
176
     1
 75
     1
176
     1
175
     1
176
     1
 42
1.0
176
     1
 92
        8
176
     1
 66
     7
176
     1
 43
1.0
176
     1
 76
     1
176
     1
 77
     6
176
     1
 78
     2
176
     1
 67
     7
176
     1
 79
     5
176
     1
170
     0
176
     1
171
     0
176
     1
290
     0
176
     1
 93
        1
176
     1
 44
0.0
176
     1
173
     0
176
     1
  0
VISUALSTYLE
  5
36
102
{ACAD_REACTORS
330
2A
102
}
330
2A
100
AcDbVisualStyle
  2
Brighten
 70
    12
177
     2
291
     1
 71
     2
176
     1
 72
     2
176
     1
 73
     0
176
     1
 90
        0
176
     1
 40
-0.6
176
     1
 41
-30.0
176
     1
 62
     5
 63
     7
421
 16777215
176
     1
 74
     1
176
     1
 91
        4
176
     1
 64
     7
176
     1
 65
   257
176
     1
 75
     1
176
     1
175
     1
176
     1
 42
1.0
176
     1
 92
        8
176
     1
 66
     7
176
     1
 43
1.0
176
     1
 76
     1
176
     1
 77
     6
176
     1
 78
     2
176
     1
 67
     7
176
     1
 79
     5
176
     1
170
     0
176
     1
171
     0
176
     1
290
     0
176
     1
 93
        1
176
     1
 44
50.0
176
     1
173
     0
176
     1
  0
VISUALSTYLE
  5
3A
102
{ACAD_REACTORS
330
2A
102
}
330
2A
100
AcDbVisualStyle
  2
ColorChange
 70
    16
177
     2
291
     1
 71
     2
176
     1
 72
     2
176
     1
 73
     3
176
     1
 90
        0
176
     1
 40
-0.6
176
     1
 41
-30.0
176
     1
 62
     5
 63
     8
421
  8421504
176
     1
 74
     1
176
     1
 91
        4
176
     1
 64
     7
176
     1
 65
   257
176
     1
 75
     1
176
     1
175
     1
176
     1
 42
1.0
176
     1
 92
        8
176
     1
 66
     8
424
  8421504
176
     1
 43
1.0
176
     1
 76
     1
176
     1
 77
     6
176
     1
 78
     2
176
     1
 67
     7
176
     1
 79
     5
176
     1
170
     0
176
     1
171
     0
176
     1
290
     0
176
     1
 93
        1
176
     1
 44
0.0
176
     1
173
     0
176
     1
  0
VISUALSTYLE
  5
34
102
{ACAD_REACTORS
330
2A
102
}
330
2A
100
AcDbVisualStyle
  2
Conceptual
 70
     9
177
     2
291
     0
 71
     3
176
     1
 72
     2
176
     1
 73
     0
176
     1
 90
        0
176
     1
 40
-0.6
176
     1
 41
-30.0
176
     1
 62
     5
 63
     7
421
 16777215
176
     1
 74
     2
176
     1
 91
        2
176
     1
 64
     7
176
     1
 65
   257
176
     1
 75
     1
176
     1
175
     1
176
     1
 42
40.0
176
     1
 92
        8
176
     1
 66
     7
176
     1
 43
1.0
176
     1
 76
     1
176
     1
 77
     6
176
     1
 78
     2
176
     1
 67
     7
176
     1
 79
     3
176
     1
170
     0
176
     1
171
     0
176
     1
290
     0
176
     1
 93
        1
176
     1
 44
0.0
176
     1
173
     0
176
     1
  0
VISUALSTYLE
  5
35
102
{ACAD_REACTORS
330
2A
102
}
330
2A
100
AcDbVisualStyle
  2
Dim
 70
    11
177
     2
291
     1
 71
     2
176
     1
 72
     2
176
     1
 73
     0
176
     1
 90
        0
176
     1
 40
-0.6
176
     1
 41
-30.0
176
     1
 62
     5
 63
     7
421
 16777215
176
     1
 74
     1
176
     1
 91
        4
176
     1
 64
     7
176
     1
 65
   257
176
     1
 75
     1
176
     1
175
     1
176
     1
 42
1.0
176
     1
 92
        8
176
     1
 66
     7
176
     1
 43
1.0
176
     1
 76
     1
176
     1
 77
     6
176
     1
 78
     2
176
     1
 67
     7
176
     1
 79
     5
176
     1
170
     0
176
     1
171
     0
176
     1
290
     0
176
     1
 93
        1
176
     1
 44
-50.0
176
     1
173
     0
176
     1
  0
VISUALSTYLE
  5
39
102
{ACAD_REACTORS
330
2A
102
}
330
2A
100
AcDbVisualStyle
  2
Facepattern
 70
    15
177
     2
291
     1
 71
     2
176
     1
 72
     2
176
     1
 73
     0
176
     1
 90
        0
176
     1
 40
-0.6
176
     1
 41
-30.0
176
     1
 62
     5
 63
     7
421
 16777215
176
     1
 74
     1
176
     1
 91
        4
176
     1
 64
     7
176
     1
 65
   257
176
     1
 75
     1
176
     1
175
     1
176
     1
 42
1.0
176
     1
 92
        8
176
     1
 66
     7
176
     1
 43
1.0
176
     1
 76
     1
176
     1
 77
     6
176
     1
 78
     2
176
     1
 67
     7
176
     1
 79
     5
176
     1
170
     0
176
     1
171
     0
176
     1
290
     0
176
     1
 93
        1
176
     1
 44
0.0
176
     1
173
     0
176
     1
  0
VISUALSTYLE
  5
2B
102
{ACAD_REACTORS
330
2A
102
}
330
2A
100
AcDbVisualStyle
  2
Flat
 70
     0
177
     2
291
     1
 71
     2
176
     1
 72
     1
176
     1
 73
     1
176
     1
 90
        2
176
     1
 40
-0.6
176
     1
 41
30.0
176
     1
 62
     5
 63
     7
421
 16777215
176
     1
 74
     0
176
     1
 91
        4
176
     1
 64
     7
176
     1
 65
   257
176
     1
 75
     1
176
     1
175
     1
176
     1
 42
1.0
176
     1
 92
        8
176
     1
 66
     7
176
     1
 43
1.0
176
     1
 76
     1
176
     1
 77
     6
176
     1
 78
     2
176
     1
 67
     7
176
     1
 79
     5
176
     1
170
     0
176
     1
171
     0
176
     1
290
     0
176
     1
 93
       13
176
     1
 44
0.0
176
     1
173
     0
176
     1
  0
VISUALSTYLE
  5
2C
102
{ACAD_REACTORS
330
2A
102
}
330
2A
100
AcDbVisualStyle
  2
FlatWithEdges
 70
     1
177
     2
291
     1
 71
     2
176
     1
 72
     1
176
     1
 73
     1
176
     1
 90
        2
176
     1
 40
-0.6
176
     1
 41
30.0
176
     1
 62
     5
 63
     7
421
 16777215
176
     1
 74
     1
176
     1
 91
        4
176
     1
 64
     7
176
     1
 65
   257
176
     1
 75
     1
176
     1
175
     1
176
     1
 42
1.0
176
     1
 92
        0
176
     1
 66
   257
176
     1
 43
1.0
176
     1
 76
     1
176
     1
 77
     6
176
     1
 78
     2
176
     1
 67
     7
176
     1
 79
     5
176
     1
170
     0
176
     1
171
     0
176
     1
290
     0
176
     1
 93
       13
176
     1
 44
0.0
176
     1
173
     0
176
     1
  0
VISUALSTYLE
  5
2D
102
{ACAD_REACTORS
330
2A
102
}
330
2A
100
AcDbVisualStyle
  2
Gouraud
 70
     2
177
     2
291
     1
 71
     2
176
     1
 72
     2
176
     1
 73
     1
176
     1
 90
        2
176
     1
 40
-0.6
176
     1
 41
30.0
176
     1
 62
     5
 63
     7
421
 16777215
176
     1
 74
     0
176
     1
 91
        4
176
     1
 64
     7
176
     1
 65
   257
176
     1
 75
     1
176
     1
175
     1
176
     1
 42
1.0
176
     1
 92
        0
176
     1
 66
     7
176
     1
 43
1.0
176
     1
 76
     1
176
     1
 77
     6
176
     1
 78
     2
176
     1
 67
     7
176
     1
 79
     5
176
     1
170
     0
176
     1
171
     0
176
     1
290
     0
176
     1
 93
       13
176
     1
 44
0.0
176
     1
173
     0
176
     1
  0
VISUALSTYLE
  5
2E
102
{ACAD_REACTORS
330
2A
102
}
330
2A
100
AcDbVisualStyle
  2
GouraudWithEdges
 70
     3
177
     2
291
     1
 71
     2
176
     1
 72
     2
176
     1
 73
     1
176
     1
 90
        2
176
     1
 40
-0.6
176
     1
 41
30.0
176
     1
 62
     5
 63
     7
421
 16777215
176
     1
 74
     1
176
     1
 91
        4
176
     1
 64
     7
176
     1
 65
   257
176
     1
 75
     1
176
     1
175
     1
176
     1
 42
1.0
176
     1
 92
        0
176
     1
 66
   257
176
     1
 43
1.0
176
     1
 76
     1
176
     1
 77
     6
176
     1
 78
     2
176
     1
 67
     7
176
     1
 79
     5
176
     1
170
     0
176
     1
171
     0
176
     1
290
     0
176
     1
 93
       13
176
     1
 44
0.0
176
     1
173
     0
176
     1
  0
VISUALSTYLE
  5
38
102
{ACAD_REACTORS
330
2A
102
}
330
2A
100
AcDbVisualStyle
  2
Linepattern
 70
    14
177
     2
291
     1
 71
     2
176
     1
 72
     2
176
     1
 73
     0
176
     1
 90
        0
176
     1
 40
-0.6
176
     1
 41
-30.0
176
     1
 62
     5
 63
     7
421
 16777215
176
     1
 74
     1
176
     1
 91
        4
176
     1
 64
     7
176
     1
 65
   257
176
     1
 75
     7
176
     1
175
     7
176
     1
 42
1.0
176
     1
 92
        8
176
     1
 66
     7
176
     1
 43
1.0
176
     1
 76
     1
176
     1
 77
     6
176
     1
 78
     2
176
     1
 67
     7
176
     1
 79
     5
176
     1
170
     0
176
     1
171
     0
176
     1
290
     0
176
     1
 93
        1
176
     1
 44
0.0
176
     1
173
     0
176
     1
  0
VISUALSTYLE
  5
33
102
{ACAD_REACTORS
330
2A
102
}
330
2A
100
AcDbVisualStyle
  2
Realistic
 70
     8
177
     2
291
     0
 71
     2
176
     1
 72
     2
176
     1
 73
     0
176
     1
 90
        0
176
     1
 40
-0.6
176
     1
 41
-30.0
176
     1
 62
     5
 63
     7
421
 16777215
176
     1
 74
     1
176
     1
 91
        0
176
     1
 64
     7
176
     1
 65
   257
176
     1
 75
     1
176
     1
175
     1
176
     1
 42
1.0
176
     1
 92
        8
176
     1
 66
     8
424
  7895160
176
     1
 43
1.0
176
     1
 76
     1
176
     1
 77
     6
176
     1
 78
     2
176
     1
 67
     7
176
     1
 79
     5
176
     1
170
     0
176
     1
171
     0
176
     1
290
     0
176
     1
 93
       13
176
     1
 44
0.0
176
     1
173
     0
176
     1
  0
VISUALSTYLE
  5
37
102
{ACAD_REACTORS
330
2A
102
}
330
2A
100
AcDbVisualStyle
  2
Thicken
 70
    13
177
     2
291
     1
 71
     2
176
     1
 72
     2
176
     1
 73
     0
176
     1
 90
        0
176
     1
 40
-0.6
176
     1
 41
-30.0
176
     1
 62
     5
 63
     7
421
 16777215
176
     1
 74
     1
176
     1
 91
        4
176
     1
 64
     7
176
     1
 65
   257
176
     1
 75
     1
176
     1
175
     1
176
     1
 42
1.0
176
     1
 92
       12
176
     1
 66
     7
176
     1
 43
1.0
176
     1
 76
     1
176
     1
 77
     6
176
     1
 78
     2
176
     1
 67
     7
176
     1
 79
     5
176
     1
170
     0
176
     1
171
     0
176
     1
290
     0
176
     1
 93
        1
176
     1
 44
0.0
176
     1
173
     0
176
     1
  0
ENDSEC
  0
EOF
