  0
SECTION
  2
HEADER
  9
$ACADVER
  1
AC1024
  9
$ACADMAINTVER
 70
     6
  9
$DWGCODEPAGE
  3
UNDEFINED
  9
$INSBASE
 10
0.0
 20
0.0
 30
0.0
  9
$EXTMIN
 10
1.000000000000000E+20
 20
1.000000000000000E+20
 30
1.000000000000000E+20
  9
$EXTMAX
 10
-1.000000000000000E+20
 20
-1.000000000000000E+20
 30
-1.000000000000000E+20
  9
$LIMMIN
 10
0.0
 20
0.0
  9
$LIMMAX
 10
12.0
 20
9.0
  9
$ORTHOMODE
 70
     0
  9
$REGENMODE
 70
     1
  9
$FILLMODE
 70
     1
  9
$QTEXTMODE
 70
     0
  9
$MIRRTEXT
 70
     1
  9
$LTSCALE
 40
1.0
  9
$ATTMODE
 70
     1
  9
$TEXTSIZE
 40
0.2
  9
$TRACEWID
 40
0.05
  9
$TEXTSTYLE
  7
Standard
  9
$CLAYER
  8
0
  9
$CELTYPE
  6
ByLayer
  9
$CECOLOR
 62
   256
  9
$CELTSCALE
 40
1.0
  9
$DISPSILH
 70
     0
  9
$DIMSCALE
 40
1.0
  9
$DIMASZ
 40
0.18
  9
$DIMEXO
 40
0.0625
  9
$DIMDLI
 40
0.38
  9
$DIMRND
 40
0.0
  9
$DIMDLE
 40
0.0
  9
$DIMEXE
 40
0.18
  9
$DIMTP
 40
0.0
  9
$DIMTM
 40
0.0
  9
$DIMTXT
 40
0.18
  9
$DIMCEN
 40
0.09
  9
$DIMTSZ
 40
0.0
  9
$DIMTOL
 70
     0
  9
$DIMLIM
 70
     0
  9
$DIMTIH
 70
     1
  9
$DIMTOH
 70
     1
  9
$DIMSE1
 70
     0
  9
$DIMSE2
 70
     0
  9
$DIMTAD
 70
     0
  9
$DIMZIN
 70
     0
  9
$DIMBLK
  1

  9
$DIMASO
 70
     1
  9
$DIMSHO
 70
     1
  9
$DIMPOST
  1

  9
$DIMAPOST
  1

  9
$DIMALT
 70
     0
  9
$DIMALTD
 70
     2
  9
$DIMALTF
 40
25.4
  9
$DIMLFAC
 40
1.0
  9
$DIMTOFL
 70
     0
  9
$DIMTVP
 40
0.0
  9
$DIMTIX
 70
     0
  9
$DIMSOXD
 70
     0
  9
$DIMSAH
 70
     0
  9
$DIMBLK1
  1

  9
$DIMBLK2
  1

  9
$DIMSTYLE
  2
Standard
  9
$DIMCLRD
 70
     0
  9
$DIMCLRE
 70
     0
  9
$DIMCLRT
 70
     0
  9
$DIMTFAC
 40
1.0
  9
$DIMGAP
 40
0.09
  9
$DIMJUST
 70
     0
  9
$DIMSD1
 70
     0
  9
$DIMSD2
 70
     0
  9
$DIMTOLJ
 70
     1
  9
$DIMTZIN
 70
     0
  9
$DIMALTZ
 70
     0
  9
$DIMALTTZ
 70
     0
  9
$DIMUPT
 70
     0
  9
$DIMDEC
 70
     4
  9
$DIMTDEC
 70
     4
  9
$DIMALTU
 70
     2
  9
$DIMALTTD
 70
     2
  9
$DIMTXSTY
  7
Standard
  9
$DIMAUNIT
 70
     0
  9
$DIMADEC
 70
     0
  9
$DIMALTRND
 40
0.0
  9
$DIMAZIN
 70
     0
  9
$DIMDSEP
 70
    46
  9
$DIMATFIT
 70
     3
  9
$DIMFRAC
 70
     0
  9
$DIMLDRBLK
  1

  9
$DIMLUNIT
 70
     2
  9
$DIMLWD
 70
    -2
  9
$DIMLWE
 70
    -2
  9
$DIMTMOVE
 70
     0
  9
$DIMFXL
 40
1.0
  9
$DIMFXLON
 70
     0
  9
$DIMJOGANG
 40
0.7853981633974483
  9
$DIMTFILL
 70
     0
  9
$DIMTFILLCLR
 70
     0
  9
$DIMARCSYM
 70
     0
  9
$DIMLTYPE
  6

  9
$DIMLTEX1
  6

  9
$DIMLTEX2
  6

  9
$DIMTXTDIRECTION
 70
     0
  9
$LUNITS
 70
     2
  9
$LUPREC
 70
     4
  9
$SKETCHINC
 40
0.1
  9
$FILLETRAD
 40
0.5
  9
$AUNITS
 70
     0
  9
$AUPREC
 70
     0
  9
$MENU
  1
.
  9
$ELEVATION
 40
0.0
  9
$PELEVATION
 40
0.0
  9
$THICKNESS
 40
0.0
  9
$LIMCHECK
 70
     0
  9
$CHAMFERA
 40
0.5
  9
$CHAMFERB
 40
0.5
  9
$CHAMFERC
 40
1.0
  9
$CHAMFERD
 40
0.0
  9
$SKPOLY
 70
     0
  9
$TDCREATE
 40
2457917.613634259
  9
$TDUCREATE
 40
2457917.238634259
  9
$TDUPDATE
 40
2457917.613634259
  9
$TDUUPDATE
 40
2457917.238634259
  9
$TDINDWG
 40
0.0000000116
  9
$TDUSRTIMER
 40
0.0000000116
  9
$USRTIMER
 70
     1
  9
$ANGBASE
 50
0.0
  9
$ANGDIR
 70
     0
  9
$PDMODE
 70
     0
  9
$PDSIZE
 40
0.0
  9
$PLINEWID
 40
0.0
  9
$SPLFRAME
 70
     0
  9
$SPLINETYPE
 70
     6
  9
$SPLINESEGS
 70
     8
  9
$HANDSEED
  5
13B
  9
$SURFTAB1
 70
     6
  9
$SURFTAB2
 70
     6
  9
$SURFTYPE
 70
     6
  9
$SURFU
 70
     6
  9
$SURFV
 70
     6
  9
$UCSBASE
  2

  9
$UCSNAME
  2

  9
$UCSORG
 10
0.0
 20
0.0
 30
0.0
  9
$UCSXDIR
 10
1.0
 20
0.0
 30
0.0
  9
$UCSYDIR
 10
0.0
 20
1.0
 30
0.0
  9
$UCSORTHOREF
  2

  9
$UCSORTHOVIEW
 70
     0
  9
$UCSORGTOP
 10
0.0
 20
0.0
 30
0.0
  9
$UCSORGBOTTOM
 10
0.0
 20
0.0
 30
0.0
  9
$UCSORGLEFT
 10
0.0
 20
0.0
 30
0.0
  9
$UCSORGRIGHT
 10
0.0
 20
0.0
 30
0.0
  9
$UCSORGFRONT
 10
0.0
 20
0.0
 30
0.0
  9
$UCSORGBACK
 10
0.0
 20
0.0
 30
0.0
  9
$PUCSBASE
  2

  9
$PUCSNAME
  2

  9
$PUCSORG
 10
0.0
 20
0.0
 30
0.0
  9
$PUCSXDIR
 10
1.0
 20
0.0
 30
0.0
  9
$PUCSYDIR
 10
0.0
 20
1.0
 30
0.0
  9
$PUCSORTHOREF
  2

  9
$PUCSORTHOVIEW
 70
     0
  9
$PUCSORGTOP
 10
0.0
 20
0.0
 30
0.0
  9
$PUCSORGBOTTOM
 10
0.0
 20
0.0
 30
0.0
  9
$PUCSORGLEFT
 10
0.0
 20
0.0
 30
0.0
  9
$PUCSORGRIGHT
 10
0.0
 20
0.0
 30
0.0
  9
$PUCSORGFRONT
 10
0.0
 20
0.0
 30
0.0
  9
$PUCSORGBACK
 10
0.0
 20
0.0
 30
0.0
  9
$USERI1
 70
     0
  9
$USERI2
 70
     0
  9
$USERI3
 70
     0
  9
$USERI4
 70
     0
  9
$USERI5
 70
     0
  9
$USERR1
 40
0.0
  9
$USERR2
 40
0.0
  9
$USERR3
 40
0.0
  9
$USERR4
 40
0.0
  9
$USERR5
 40
0.0
  9
$WORLDVIEW
 70
     1
  9
$SHADEDGE
 70
     3
  9
$SHADEDIF
 70
    70
  9
$TILEMODE
 70
     1
  9
$MAXACTVP
 70
    64
  9
$PINSBASE
 10
0.0
 20
0.0
 30
0.0
  9
$PLIMCHECK
 70
     0
  9
$PEXTMIN
 10
1.000000000000000E+20
 20
1.000000000000000E+20
 30
1.000000000000000E+20
  9
$PEXTMAX
 10
-1.000000000000000E+20
 20
-1.000000000000000E+20
 30
-1.000000000000000E+20
  9
$PLIMMIN
 10
0.0
 20
0.0
  9
$PLIMMAX
 10
12.0
 20
9.0
  9
$UNITMODE
 70
     0
  9
$VISRETAIN
 70
     1
  9
$PLINEGEN
 70
     0
  9
$PSLTSCALE
 70
     1
  9
$TREEDEPTH
 70
  3020
  9
$CMLSTYLE
  2
Standard
  9
$CMLJUST
 70
     0
  9
$CMLSCALE
 40
1.0
  9
$PROXYGRAPHICS
 70
     1
  9
$MEASUREMENT
 70
     0
  9
$CELWEIGHT
370
    -1
  9
$ENDCAPS
280
     0
  9
$JOINSTYLE
280
     0
  9
$LWDISPLAY
290
     1
  9
$INSUNITS
 70
     1
  9
$HYPERLINKBASE
  1

  9
$STYLESHEET
  1

  9
$XEDIT
290
     1
  9
$CEPSNTYPE
380
     0
  9
$PSTYLEMODE
290
     1
  9
$FINGERPRINTGUID
  2
{7575E300-8163-04D9-2A63-2310873A9BE7}
  9
$VERSIONGUID
  2
{FAEB1C32-E019-11D5-929B-00C0DF256EC4}
  9
$EXTNAMES
290
     1
  9
$PSVPSCALE
 40
0.0
  9
$OLESTARTUP
290
     0
  9
$SORTENTS
280
   127
  9
$INDEXCTL
280
     0
  9
$HIDETEXT
280
     1
  9
$XCLIPFRAME
280
     2
  9
$HALOGAP
280
     0
  9
$OBSCOLOR
 70
   257
  9
$OBSLTYPE
280
     0
  9
$INTERSECTIONDISPLAY
280
     0
  9
$INTERSECTIONCOLOR
 70
   257
  9
$DIMASSOC
280
     2
  9
$PROJECTNAME
  1

  9
$CAMERADISPLAY
290
     0
  9
$LENSLENGTH
 40
50.0
  9
$CAMERAHEIGHT
 40
0.0
  9
$STEPSPERSEC
 40
2.0
  9
$STEPSIZE
 40
6.0
  9
$3DDWFPREC
 40
2.0
  9
$PSOLWIDTH
 40
0.25
  9
$PSOLHEIGHT
 40
4.0
  9
$LOFTANG1
 40
1.570796326794897
  9
$LOFTANG2
 40
1.570796326794897
  9
$LOFTMAG1
 40
0.0
  9
$LOFTMAG2
 40
0.0
  9
$LOFTPARAM
 70
     7
  9
$LOFTNORMALS
280
     1
  9
$LATITUDE
 40
37.795
  9
$LONGITUDE
 40
-122.394
  9
$NORTHDIRECTION
 40
0.0
  9
$TIMEZONE
 70
 -8000
  9
$LIGHTGLYPHDISPLAY
280
     1
  9
$TILEMODELIGHTSYNCH
280
     1
  9
$CMATERIAL
347
3C
  9
$SOLIDHIST
280
     1
  9
$SHOWHIST
280
     1
  9
$DWFFRAME
280
     2
  9
$DGNFRAME
280
     2
  9
$REALWORLDSCALE
290
     1
  9
$INTERFERECOLOR
 62
   256
  9
$CSHADOW
280
     0
  9
$SHADOWPLANELOCATION
 40
0.0
  0
ENDSEC
  0
SECTION
  2
CLASSES
  0
CLASS
  1
ACDBDICTIONARYWDFLT
  2
AcDbDictionaryWithDefault
  3
ObjectDBX Classes
 90
        0
 91
        4
280
     0
281
     0
  0
CLASS
  1
VISUALSTYLE
  2
AcDbVisualStyle
  3
ObjectDBX Classes
 90
     4095
 91
        4
280
     0
281
     0
  0
CLASS
  1
MATERIAL
  2
AcDbMaterial
  3
ObjectDBX Classes
 90
     1153
 91
        4
280
     0
281
     0
  0
CLASS
  1
SUN
  2
AcDbSun
  3
SCENEOE
 90
     1024
 91
        4
280
     0
281
     0
  0
ENDSEC
  0
SECTION
  2
TABLES
  0
TABLE
  2
VPORT
  5
8
330
0
100
AcDbSymbolTable
 70
     1
  0
VPORT
  5
29
330
8
100
AcDbSymbolTableRecord
100
AcDbViewportTableRecord
  2
*Active
 70
     0
 10
0.0
 20
0.0
 11
1.0
 21
1.0
 12
0.0
 22
0.0
 13
0.0
 23
0.0
 14
0.5
 24
0.5
 15
0.5
 25
0.5
 16
0.0
 26
0.0
 36
1.0
 17
91.00082462281999
 27
-128.4993055234307
 37
0.0
 40
256.9986110468615
 41
0.7081814508812795
 42
50.0
 43
0.0
 44
0.0
 50
0.0
 51
0.0
 71
     0
 72
   100
 73
     1
 74
     3
 75
     0
 76
     0
 77
     0
 78
     0
281
     0
 65
     1
110
0.0
120
0.0
130
0.0
111
1.0
121
0.0
131
0.0
112
0.0
122
1.0
132
0.0
 79
     0
146
0.0
 60
     3
 61
     5
292
     1
282
     1
141
0.0
142
0.0
 63
   250
361
3F
  0
ENDTAB
  0
TABLE
  2
LTYPE
  5
5
330
0
100
AcDbSymbolTable
 70
     1
  0
LTYPE
  5
14
330
5
100
AcDbSymbolTableRecord
100
AcDbLinetypeTableRecord
  2
ByBlock
 70
     0
  3

 72
    65
 73
     0
 40
0.0
  0
LTYPE
  5
15
330
5
100
AcDbSymbolTableRecord
100
AcDbLinetypeTableRecord
  2
ByLayer
 70
     0
  3

 72
    65
 73
     0
 40
0.0
  0
LTYPE
  5
16
330
5
100
AcDbSymbolTableRecord
100
AcDbLinetypeTableRecord
  2
Continuous
 70
     0
  3
Solid line
 72
    65
 73
     0
 40
0.0
  0
ENDTAB
  0
TABLE
  2
LAYER
  5
2
330
0
100
AcDbSymbolTable
 70
     2
  0
LAYER
  5
10
330
2
100
AcDbSymbolTableRecord
100
AcDbLayerTableRecord
  2
0
 70
     0
 62
     7
  6
Continuous
370
    -3
390
F
347
3E
  0
LAYER
  5
40
330
2
100
AcDbSymbolTableRecord
100
AcDbLayerTableRecord
  2
_U+30EC_U+30A4_U+30E4_U+30FC 1
 70
     0
 62
     7
  6
Continuous
370
    -3
390
F
347
3E
  0
ENDTAB
  0
TABLE
  2
STYLE
  5
3
330
0
100
AcDbSymbolTable
 70
     1
  0
STYLE
  5
11
330
3
100
AcDbSymbolTableRecord
100
AcDbTextStyleTableRecord
  2
Standard
 70
     0
 40
0.0
 41
1.0
 50
0.0
 71
     0
 42
0.2
  3
txt
  4

  0
ENDTAB
  0
TABLE
  2
VIEW
  5
6
330
0
100
AcDbSymbolTable
 70
     0
  0
ENDTAB
  0
TABLE
  2
UCS
  5
7
330
0
100
AcDbSymbolTable
 70
     0
  0
ENDTAB
  0
TABLE
  2
APPID
  5
9
330
0
100
AcDbSymbolTable
 70
     1
  0
APPID
  5
12
330
9
100
AcDbSymbolTableRecord
100
AcDbRegAppTableRecord
  2
ACAD
 70
     0
  0
ENDTAB
  0
TABLE
  2
DIMSTYLE
  5
A
330
0
100
AcDbSymbolTable
 70
     1
100
AcDbDimStyleTable
  0
DIMSTYLE
105
27
330
A
100
AcDbSymbolTableRecord
100
AcDbDimStyleTableRecord
  2
Standard
 70
     0
178
     0
340
11
  0
ENDTAB
  0
TABLE
  2
BLOCK_RECORD
  5
1
330
0
100
AcDbSymbolTable
 70
     9
  0
BLOCK_RECORD
  5
1F
330
1
100
AcDbSymbolTableRecord
100
AcDbBlockTableRecord
  2
*Model_Space
340
22
 70
     0
280
     1
281
     0
  0
BLOCK_RECORD
  5
1B
330
1
100
AcDbSymbolTableRecord
100
AcDbBlockTableRecord
  2
*Paper_Space
340
1E
 70
     0
280
     1
281
     0
  0
BLOCK_RECORD
  5
23
330
1
100
AcDbSymbolTableRecord
100
AcDbBlockTableRecord
  2
*Paper_Space0
340
26
 70
     0
280
     1
281
     0
  0
BLOCK_RECORD
  5
F6
330
1
100
AcDbSymbolTableRecord
100
AcDbBlockTableRecord
  2
block 2
340
0
102
{BLKREFS
331
F7
102
}
 70
     0
280
     1
281
     0
  0
BLOCK_RECORD
  5
106
330
1
100
AcDbSymbolTableRecord
100
AcDbBlockTableRecord
  2
block 3
340
0
102
{BLKREFS
331
107
102
}
 70
     0
280
     1
281
     0
  0
BLOCK_RECORD
  5
10F
330
1
100
AcDbSymbolTableRecord
100
AcDbBlockTableRecord
  2
block 4
340
0
102
{BLKREFS
331
110
102
}
 70
     0
280
     1
281
     0
  0
BLOCK_RECORD
  5
117
330
1
100
AcDbSymbolTableRecord
100
AcDbBlockTableRecord
  2
block 5
340
0
102
{BLKREFS
331
118
102
}
 70
     0
280
     1
281
     0
  0
BLOCK_RECORD
  5
11D
330
1
100
AcDbSymbolTableRecord
100
AcDbBlockTableRecord
  2
block 6
340
0
102
{BLKREFS
331
11E
102
}
 70
     0
280
     1
281
     0
  0
BLOCK_RECORD
  5
125
330
1
100
AcDbSymbolTableRecord
100
AcDbBlockTableRecord
  2
block 7
340
0
102
{BLKREFS
331
126
102
}
 70
     0
280
     1
281
     0
  0
BLOCK_RECORD
  5
12B
330
1
100
AcDbSymbolTableRecord
100
AcDbBlockTableRecord
  2
block 8
340
0
102
{BLKREFS
331
12C
102
}
 70
     0
280
     1
281
     0
  0
BLOCK_RECORD
  5
131
330
1
100
AcDbSymbolTableRecord
100
AcDbBlockTableRecord
  2
block 9
340
0
102
{BLKREFS
331
132
102
}
 70
     0
280
     1
281
     0
  0
ENDTAB
  0
ENDSEC
  0
SECTION
  2
BLOCKS
  0
BLOCK
  5
20
330
1F
100
AcDbEntity
  8
0
100
AcDbBlockBegin
  2
*Model_Space
 70
     0
 10
0.0
 20
0.0
 30
0.0
  3
*Model_Space
  1

  0
ENDBLK
  5
21
330
1F
100
AcDbEntity
  8
0
100
AcDbBlockEnd
  0
BLOCK
  5
1C
330
1B
100
AcDbEntity
 67
     1
  8
0
100
AcDbBlockBegin
  2
*Paper_Space
 70
     0
 10
0.0
 20
0.0
 30
0.0
  3
*Paper_Space
  1

  0
ENDBLK
  5
1D
330
1B
100
AcDbEntity
 67
     1
  8
0
100
AcDbBlockEnd
  0
BLOCK
  5
24
330
23
100
AcDbEntity
  8
0
100
AcDbBlockBegin
  2
*Paper_Space0
 70
     0
 10
0.0
 20
0.0
 30
0.0
  3
*Paper_Space0
  1

  0
ENDBLK
  5
25
330
23
100
AcDbEntity
  8
0
100
AcDbBlockEnd
  0
BLOCK
  5
F8
330
F6
100
AcDbEntity
  8
0
100
AcDbBlockBegin
  2
block 2
 70
     0
 10
0.0
 20
0.0
 30
0.0
  3
block 2
  1

  0
SPLINE
  5
FA
330
F6
100
AcDbEntity
  8
_U+30EC_U+30A4_U+30E4_U+30FC 1
370
     0
100
AcDbSpline
210
0.0
220
0.0
230
1.0
 70
    11
 71
     3
 72
    26
 73
    22
 74
     0
 42
0.0000000001
 43
0.0000000001
 12
1.0
 22
0.0
 32
0.0
 13
1.0
 23
0.0
 33
0.0
 40
0.0
 40
0.0
 40
0.0
 40
0.0
 40
1.0
 40
1.0
 40
1.0
 40
2.0
 40
2.0
 40
2.0
 40
3.0
 40
3.0
 40
3.0
 40
4.0
 40
4.0
 40
4.0
 40
5.0
 40
5.0
 40
5.0
 40
6.0
 40
6.0
 40
6.0
 40
7.0
 40
7.0
 40
7.0
 40
7.0
 10
89.30600448071169
 20
-91.77062579085943
 30
0.0
 10
89.30600448071169
 20
-91.77062579085943
 30
0.0
 10
89.30600448071169
 20
-90.6663004330626
 30
0.0
 10
89.30600448071169
 20
-90.6663004330626
 30
0.0
 10
89.30600448071169
 20
-90.6663004330626
 30
0.0
 10
88.97596433322477
 20
-90.6663004330626
 30
0.0
 10
88.97596433322477
 20
-90.6663004330626
 30
0.0
 10
88.97596433322477
 20
-90.6663004330626
 30
0.0
 10
88.97596433322477
 20
-90.51833358197112
 30
0.0
 10
88.97596433322477
 20
-90.51833358197112
 30
0.0
 10
89.30807153800285
 20
-90.50351967138454
 30
0.0
 10
89.35458032705372
 20
-90.34056665493222
 30
0.0
 10
89.38420814822688
 20
-90.22636173959619
 30
0.0
 10
89.38420814822688
 20
-90.22636173959619
 30
0.0
 10
89.53028019680146
 20
-90.22636173959619
 30
0.0
 10
89.53028019680146
 20
-90.22636173959619
 30
0.0
 10
89.53028019680146
 20
-90.22636173959619
 30
0.0
 10
89.53028019680146
 20
-91.77062579085943
 30
0.0
 10
89.53028019680146
 20
-91.77062579085943
 30
0.0
 10
89.53028019680146
 20
-91.77062579085943
 30
0.0
 10
89.30600448071169
 20
-91.77062579085943
 30
0.0
 10
89.30600448071169
 20
-91.77062579085943
 30
0.0
  0
HATCH
  5
FB
330
F6
100
AcDbEntity
  8
_U+30EC_U+30A4_U+30E4_U+30FC 1
 62
   179
420
  2234388
100
AcDbHatch
 10
0.0
 20
0.0
 30
0.0
210
0.0
220
0.0
230
1.0
  2
SOLID
 70
     1
 71
     0
 91
        1
 92
        1
 93
        1
 72
     4
 94
        3
 73
     0
 74
     1
 95
       26
 96
       22
 40
0.0
 40
0.0
 40
0.0
 40
0.0
 40
1.0
 40
1.0
 40
1.0
 40
2.0
 40
2.0
 40
2.0
 40
3.0
 40
3.0
 40
3.0
 40
4.0
 40
4.0
 40
4.0
 40
5.0
 40
5.0
 40
5.0
 40
6.0
 40
6.0
 40
6.0
 40
7.0
 40
7.0
 40
7.0
 40
7.0
 10
89.30600448071169
 20
-91.77062579085943
 10
89.30600448071169
 20
-91.77062579085943
 10
89.30600448071169
 20
-90.6663004330626
 10
89.30600448071169
 20
-90.6663004330626
 10
89.30600448071169
 20
-90.6663004330626
 10
88.97596433322477
 20
-90.6663004330626
 10
88.97596433322477
 20
-90.6663004330626
 10
88.97596433322477
 20
-90.6663004330626
 10
88.97596433322477
 20
-90.51833358197112
 10
88.97596433322477
 20
-90.51833358197112
 10
89.30807153800285
 20
-90.50351967138454
 10
89.35458032705372
 20
-90.34056665493222
 10
89.38420814822688
 20
-90.22636173959619
 10
89.38420814822688
 20
-90.22636173959619
 10
89.53028019680146
 20
-90.22636173959619
 10
89.53028019680146
 20
-90.22636173959619
 10
89.53028019680146
 20
-90.22636173959619
 10
89.53028019680146
 20
-91.77062579085943
 10
89.53028019680146
 20
-91.77062579085943
 10
89.53028019680146
 20
-91.77062579085943
 10
89.30600448071169
 20
-91.77062579085943
 10
89.30600448071169
 20
-91.77062579085943
 97
        0
 97
        0
 75
     2
 76
     1
 98
        0
  0
POLYLINE
  5
FC
330
F6
100
AcDbEntity
  8
_U+30EC_U+30A4_U+30E4_U+30FC 1
370
     0
100
AcDb2dPolyline
 66
     1
 10
0.0
 20
0.0
 30
0.0
  0
VERTEX
  5
FD
330
FC
100
AcDbEntity
  8
_U+30EC_U+30A4_U+30E4_U+30FC 1
370
     0
100
AcDbVertex
100
AcDb2dVertex
 10
90.09148625134866
 20
-91.77062579085943
 30
0.0
  0
VERTEX
  5
FE
330
FC
100
AcDbEntity
  8
_U+30EC_U+30A4_U+30E4_U+30FC 1
370
     0
100
AcDbVertex
100
AcDb2dVertex
 10
90.09148625134866
 20
-91.51896156566193
 30
0.0
  0
VERTEX
  5
FF
330
FC
100
AcDbEntity
  8
_U+30EC_U+30A4_U+30E4_U+30FC 1
370
     0
100
AcDbVertex
100
AcDb2dVertex
 10
90.34315047654616
 20
-91.51896156566193
 30
0.0
  0
VERTEX
  5
100
330
FC
100
AcDbEntity
  8
_U+30EC_U+30A4_U+30E4_U+30FC 1
370
     0
100
AcDbVertex
100
AcDb2dVertex
 10
90.34315047654616
 20
-91.77062579085943
 30
0.0
  0
VERTEX
  5
101
330
FC
100
AcDbEntity
  8
_U+30EC_U+30A4_U+30E4_U+30FC 1
370
     0
100
AcDbVertex
100
AcDb2dVertex
 10
90.09148625134866
 20
-91.77062579085943
 30
0.0
  0
SEQEND
  5
102
330
FC
100
AcDbEntity
  8
_U+30EC_U+30A4_U+30E4_U+30FC 1
370
     0
  0
HATCH
  5
103
330
F6
100
AcDbEntity
  8
_U+30EC_U+30A4_U+30E4_U+30FC 1
 62
   179
420
  2234388
100
AcDbHatch
 10
0.0
 20
0.0
 30
0.0
210
0.0
220
0.0
230
1.0
  2
SOLID
 70
     1
 71
     0
 91
        1
 92
        1
 93
        4
 72
     1
 10
90.09148625134866
 20
-91.77062579085943
 11
90.09148625134866
 21
-91.51896156566193
 72
     1
 10
90.09148625134866
 20
-91.51896156566193
 11
90.34315047654616
 21
-91.51896156566193
 72
     1
 10
90.34315047654616
 20
-91.51896156566193
 11
90.34315047654616
 21
-91.77062579085943
 72
     1
 10
90.34315047654616
 20
-91.77062579085943
 11
90.09148625134866
 21
-91.77062579085943
 97
        0
 75
     2
 76
     1
 98
        0
  0
SPLINE
  5
104
330
F6
100
AcDbEntity
  8
_U+30EC_U+30A4_U+30E4_U+30FC 1
370
     0
100
AcDbSpline
210
0.0
220
0.0
230
1.0
 70
    11
 71
     3
 72
    44
 73
    40
 74
     0
 42
0.0000000001
 43
0.0000000001
 12
1.0
 22
0.0
 32
0.0
 13
1.0
 23
0.0
 33
0.0
 40
0.0
 40
0.0
 40
0.0
 40
0.0
 40
1.0
 40
1.0
 40
1.0
 40
2.0
 40
2.0
 40
2.0
 40
3.0
 40
3.0
 40
3.0
 40
4.0
 40
4.0
 40
4.0
 40
5.0
 40
5.0
 40
5.0
 40
6.0
 40
6.0
 40
6.0
 40
7.0
 40
7.0
 40
7.0
 40
8.0
 40
8.0
 40
8.0
 40
9.0
 40
9.0
 40
9.0
 40
10.0
 40
10.0
 40
10.0
 40
11.0
 40
11.0
 40
11.0
 40
12.0
 40
12.0
 40
12.0
 40
13.0
 40
13.0
 40
13.0
 40
13.0
 10
91.17272946939433
 20
-91.188921418175
 30
0.0
 10
90.95482717995228
 20
-91.34756806527075
 30
0.0
 10
90.86163734707627
 20
-91.42163761820362
 30
0.0
 10
90.81306150073424
 20
-91.5654703547128
 30
0.0
 10
90.81306150073424
 20
-91.5654703547128
 30
0.0
 10
91.5916530804007
 20
-91.5654703547128
 30
0.0
 10
91.5916530804007
 20
-91.5654703547128
 30
0.0
 10
91.5916530804007
 20
-91.5654703547128
 30
0.0
 10
91.5916530804007
 20
-91.77062579085943
 30
0.0
 10
91.5916530804007
 20
-91.77062579085943
 30
0.0
 10
91.5916530804007
 20
-91.77062579085943
 30
0.0
 10
90.56346433282789
 20
-91.77062579085943
 30
0.0
 10
90.56346433282789
 20
-91.77062579085943
 30
0.0
 10
90.59515921129218
 20
-91.4130248794905
 30
0.0
 10
90.66061602551193
 20
-91.33482121197532
 30
0.0
 10
91.04577770076287
 20
-91.03647594295269
 30
0.0
 10
91.30174829531693
 20
-90.83769393345378
 30
0.0
 10
91.36720510953667
 20
-90.76999780716862
 30
0.0
 10
91.36720510953667
 20
-90.63253849730715
 30
0.0
 10
91.36720510953667
 20
-90.51402721261455
 30
0.0
 10
91.29537486866921
 20
-90.3829413294008
 30
0.0
 10
91.09865991646144
 20
-90.3829413294008
 30
0.0
 10
90.83838295255083
 20
-90.3829413294008
 30
0.0
 10
90.82994246861196
 20
-90.61341821736401
 30
0.0
 10
90.8256360992554
 20
-90.72986244476546
 30
0.0
 10
90.8256360992554
 20
-90.72986244476546
 30
0.0
 10
90.6015326379399
 20
-90.72986244476546
 30
0.0
 10
90.6015326379399
 20
-90.72986244476546
 30
0.0
 10
90.60997312187877
 20
-90.602910676134
 30
0.0
 10
90.62048066310878
 20
-90.49077281808911
 30
0.0
 10
90.70092364268936
 20
-90.37226153339653
 30
0.0
 10
90.81082218866882
 20
-90.21154782900962
 30
0.0
 10
90.99702959964658
 20
-90.17761363847991
 30
0.0
 10
91.11347382704803
 20
-90.17761363847991
 30
0.0
 10
91.39080401361063
 20
-90.17761363847991
 30
0.0
 10
91.59785425227415
 20
-90.36175399216651
 30
0.0
 10
91.59785425227415
 20
-90.6346055545983
 30
0.0
 10
91.59785425227415
 20
-90.86301538527036
 30
0.0
 10
91.48175453442123
 20
-90.96257864479408
 30
0.0
 10
91.17272946939433
 20
-91.188921418175
 30
0.0
  0
HATCH
  5
105
330
F6
100
AcDbEntity
  8
_U+30EC_U+30A4_U+30E4_U+30FC 1
 62
   179
420
  2234388
100
AcDbHatch
 10
0.0
 20
0.0
 30
0.0
210
0.0
220
0.0
230
1.0
  2
SOLID
 70
     1
 71
     0
 91
        1
 92
        1
 93
        1
 72
     4
 94
        3
 73
     0
 74
     1
 95
       44
 96
       40
 40
0.0
 40
0.0
 40
0.0
 40
0.0
 40
1.0
 40
1.0
 40
1.0
 40
2.0
 40
2.0
 40
2.0
 40
3.0
 40
3.0
 40
3.0
 40
4.0
 40
4.0
 40
4.0
 40
5.0
 40
5.0
 40
5.0
 40
6.0
 40
6.0
 40
6.0
 40
7.0
 40
7.0
 40
7.0
 40
8.0
 40
8.0
 40
8.0
 40
9.0
 40
9.0
 40
9.0
 40
10.0
 40
10.0
 40
10.0
 40
11.0
 40
11.0
 40
11.0
 40
12.0
 40
12.0
 40
12.0
 40
13.0
 40
13.0
 40
13.0
 40
13.0
 10
91.17272946939433
 20
-91.188921418175
 10
90.95482717995228
 20
-91.34756806527075
 10
90.86163734707627
 20
-91.42163761820362
 10
90.81306150073424
 20
-91.5654703547128
 10
90.81306150073424
 20
-91.5654703547128
 10
91.5916530804007
 20
-91.5654703547128
 10
91.5916530804007
 20
-91.5654703547128
 10
91.5916530804007
 20
-91.5654703547128
 10
91.5916530804007
 20
-91.77062579085943
 10
91.5916530804007
 20
-91.77062579085943
 10
91.5916530804007
 20
-91.77062579085943
 10
90.56346433282789
 20
-91.77062579085943
 10
90.56346433282789
 20
-91.77062579085943
 10
90.59515921129218
 20
-91.4130248794905
 10
90.66061602551193
 20
-91.33482121197532
 10
91.04577770076287
 20
-91.03647594295269
 10
91.30174829531693
 20
-90.83769393345378
 10
91.36720510953667
 20
-90.76999780716862
 10
91.36720510953667
 20
-90.63253849730715
 10
91.36720510953667
 20
-90.51402721261455
 10
91.29537486866921
 20
-90.3829413294008
 10
91.09865991646144
 20
-90.3829413294008
 10
90.83838295255083
 20
-90.3829413294008
 10
90.82994246861196
 20
-90.61341821736401
 10
90.8256360992554
 20
-90.72986244476546
 10
90.8256360992554
 20
-90.72986244476546
 10
90.6015326379399
 20
-90.72986244476546
 10
90.6015326379399
 20
-90.72986244476546
 10
90.60997312187877
 20
-90.602910676134
 10
90.62048066310878
 20
-90.49077281808911
 10
90.70092364268936
 20
-90.37226153339653
 10
90.81082218866882
 20
-90.21154782900962
 10
90.99702959964658
 20
-90.17761363847991
 10
91.11347382704803
 20
-90.17761363847991
 10
91.39080401361063
 20
-90.17761363847991
 10
91.59785425227415
 20
-90.36175399216651
 10
91.59785425227415
 20
-90.6346055545983
 10
91.59785425227415
 20
-90.86301538527036
 10
91.48175453442123
 20
-90.96257864479408
 10
91.17272946939433
 20
-91.188921418175
 97
        0
 97
        0
 75
     2
 76
     1
 98
        0
  0
ENDBLK
  5
F9
330
F6
100
AcDbEntity
  8
0
100
AcDbBlockEnd
  0
BLOCK
  5
108
330
106
100
AcDbEntity
  8
0
100
AcDbBlockBegin
  2
block 3
 70
     0
 10
0.0
 20
0.0
 30
0.0
  3
block 3
  1

  0
SPLINE
  5
10A
330
106
100
AcDbEntity
  8
_U+30EC_U+30A4_U+30E4_U+30FC 1
370
     0
100
AcDbSpline
210
0.0
220
0.0
230
1.0
 70
    11
 71
     3
 72
    53
 73
    49
 74
     0
 42
0.0000000001
 43
0.0000000001
 12
1.0
 22
0.0
 32
0.0
 13
1.0
 23
0.0
 33
0.0
 40
0.0
 40
0.0
 40
0.0
 40
0.0
 40
1.0
 40
1.0
 40
1.0
 40
2.0
 40
2.0
 40
2.0
 40
3.0
 40
3.0
 40
3.0
 40
4.0
 40
4.0
 40
4.0
 40
5.0
 40
5.0
 40
5.0
 40
6.0
 40
6.0
 40
6.0
 40
7.0
 40
7.0
 40
7.0
 40
8.0
 40
8.0
 40
8.0
 40
9.0
 40
9.0
 40
9.0
 40
10.0
 40
10.0
 40
10.0
 40
11.0
 40
11.0
 40
11.0
 40
12.0
 40
12.0
 40
12.0
 40
13.0
 40
13.0
 40
13.0
 40
14.0
 40
14.0
 40
14.0
 40
15.0
 40
15.0
 40
15.0
 40
16.0
 40
16.0
 40
16.0
 40
16.0
 10
108.0326822646585
 20
-122.8297118833551
 30
0.0
 10
108.0326822646585
 20
-122.9079155508702
 30
0.0
 10
108.0158012967808
 20
-123.0095458676851
 30
0.0
 10
107.9524115398522
 20
-123.1111761845
 30
0.0
 10
107.8425129938727
 20
-123.2844644874081
 30
0.0
 10
107.7112548558847
 20
-123.3058240794166
 30
0.0
 10
107.6034233671964
 20
-123.3247721045855
 30
0.0
 10
107.6034233671964
 20
-123.3247721045855
 30
0.0
 10
107.6034233671964
 20
-123.1025634457869
 30
0.0
 10
107.6034233671964
 20
-123.1025634457869
 30
0.0
 10
107.8022053766953
 20
-123.0477864275714
 30
0.0
 10
107.8318331978684
 20
-122.9206624041657
 30
0.0
 10
107.8318331978684
 20
-122.8276448260639
 30
0.0
 10
107.8318331978684
 20
-122.6881184589113
 30
0.0
 10
107.7322699383447
 20
-122.5358452384633
 30
0.0
 10
107.4997259930904
 20
-122.5358452384633
 30
0.0
 10
107.2437553985363
 20
-122.5358452384633
 30
0.0
 10
107.1738199601857
 20
-122.7156792227933
 30
0.0
 10
107.1738199601857
 20
-122.8362575647771
 30
0.0
 10
107.1738199601857
 20
-122.8679524432414
 30
0.0
 10
107.1738199601857
 20
-123.0095458676851
 30
0.0
 10
107.3030110408826
 20
-123.0984293312046
 30
0.0
 10
107.3030110408826
 20
-123.0984293312046
 30
0.0
 10
107.2840630157137
 20
-123.2741292009523
 30
0.0
 10
107.2840630157137
 20
-123.2741292009523
 30
0.0
 10
107.2840630157137
 20
-123.2741292009523
 30
0.0
 10
106.4376030549878
 20
-123.1535508589686
 30
0.0
 10
106.4376030549878
 20
-123.1535508589686
 30
0.0
 10
106.4376030549878
 20
-123.1535508589686
 30
0.0
 10
106.4376030549878
 20
-122.3749592793021
 30
0.0
 10
106.4376030549878
 20
-122.3749592793021
 30
0.0
 10
106.4376030549878
 20
-122.3749592793021
 30
0.0
 10
106.6322509499044
 20
-122.3749592793021
 30
0.0
 10
106.6322509499044
 20
-122.3749592793021
 30
0.0
 10
106.6322509499044
 20
-122.3749592793021
 30
0.0
 10
106.6322509499044
 20
-122.9905978425163
 30
0.0
 10
106.6322509499044
 20
-122.9905978425163
 30
0.0
 10
106.6322509499044
 20
-122.9905978425163
 30
0.0
 10
107.0553086754931
 20
-123.056054656736
 30
0.0
 10
107.0553086754931
 20
-123.056054656736
 30
0.0
 10
107.0215467397377
 20
-122.9947319570986
 30
0.0
 10
106.9812391225603
 20
-122.9123941750011
 30
0.0
 10
106.9812391225603
 20
-122.7938828903085
 30
0.0
 10
106.9812391225603
 20
-122.5399793530456
 30
0.0
 10
107.1676187883123
 20
-122.3029567836604
 30
0.0
 10
107.4807779679215
 20
-122.3029567836604
 30
0.0
 10
107.798071262113
 20
-122.3029567836604
 30
0.0
 10
108.0326822646585
 20
-122.5272324997501
 30
0.0
 10
108.0326822646585
 20
-122.8297118833551
 30
0.0
  0
HATCH
  5
10B
330
106
100
AcDbEntity
  8
_U+30EC_U+30A4_U+30E4_U+30FC 1
 62
   179
420
  2234388
100
AcDbHatch
 10
0.0
 20
0.0
 30
0.0
210
0.0
220
0.0
230
1.0
  2
SOLID
 70
     1
 71
     0
 91
        1
 92
        1
 93
        1
 72
     4
 94
        3
 73
     0
 74
     1
 95
       53
 96
       49
 40
0.0
 40
0.0
 40
0.0
 40
0.0
 40
1.0
 40
1.0
 40
1.0
 40
2.0
 40
2.0
 40
2.0
 40
3.0
 40
3.0
 40
3.0
 40
4.0
 40
4.0
 40
4.0
 40
5.0
 40
5.0
 40
5.0
 40
6.0
 40
6.0
 40
6.0
 40
7.0
 40
7.0
 40
7.0
 40
8.0
 40
8.0
 40
8.0
 40
9.0
 40
9.0
 40
9.0
 40
10.0
 40
10.0
 40
10.0
 40
11.0
 40
11.0
 40
11.0
 40
12.0
 40
12.0
 40
12.0
 40
13.0
 40
13.0
 40
13.0
 40
14.0
 40
14.0
 40
14.0
 40
15.0
 40
15.0
 40
15.0
 40
16.0
 40
16.0
 40
16.0
 40
16.0
 10
108.0326822646585
 20
-122.8297118833551
 10
108.0326822646585
 20
-122.9079155508702
 10
108.0158012967808
 20
-123.0095458676851
 10
107.9524115398522
 20
-123.1111761845
 10
107.8425129938727
 20
-123.2844644874081
 10
107.7112548558847
 20
-123.3058240794166
 10
107.6034233671964
 20
-123.3247721045855
 10
107.6034233671964
 20
-123.3247721045855
 10
107.6034233671964
 20
-123.1025634457869
 10
107.6034233671964
 20
-123.1025634457869
 10
107.8022053766953
 20
-123.0477864275714
 10
107.8318331978684
 20
-122.9206624041657
 10
107.8318331978684
 20
-122.8276448260639
 10
107.8318331978684
 20
-122.6881184589113
 10
107.7322699383447
 20
-122.5358452384633
 10
107.4997259930904
 20
-122.5358452384633
 10
107.2437553985363
 20
-122.5358452384633
 10
107.1738199601857
 20
-122.7156792227933
 10
107.1738199601857
 20
-122.8362575647771
 10
107.1738199601857
 20
-122.8679524432414
 10
107.1738199601857
 20
-123.0095458676851
 10
107.3030110408826
 20
-123.0984293312046
 10
107.3030110408826
 20
-123.0984293312046
 10
107.2840630157137
 20
-123.2741292009523
 10
107.2840630157137
 20
-123.2741292009523
 10
107.2840630157137
 20
-123.2741292009523
 10
106.4376030549878
 20
-123.1535508589686
 10
106.4376030549878
 20
-123.1535508589686
 10
106.4376030549878
 20
-123.1535508589686
 10
106.4376030549878
 20
-122.3749592793021
 10
106.4376030549878
 20
-122.3749592793021
 10
106.4376030549878
 20
-122.3749592793021
 10
106.6322509499044
 20
-122.3749592793021
 10
106.6322509499044
 20
-122.3749592793021
 10
106.6322509499044
 20
-122.3749592793021
 10
106.6322509499044
 20
-122.9905978425163
 10
106.6322509499044
 20
-122.9905978425163
 10
106.6322509499044
 20
-122.9905978425163
 10
107.0553086754931
 20
-123.056054656736
 10
107.0553086754931
 20
-123.056054656736
 10
107.0215467397377
 20
-122.9947319570986
 10
106.9812391225603
 20
-122.9123941750011
 10
106.9812391225603
 20
-122.7938828903085
 10
106.9812391225603
 20
-122.5399793530456
 10
107.1676187883123
 20
-122.3029567836604
 10
107.4807779679215
 20
-122.3029567836604
 10
107.798071262113
 20
-122.3029567836604
 10
108.0326822646585
 20
-122.5272324997501
 10
108.0326822646585
 20
-122.8297118833551
 97
        0
 97
        0
 75
     2
 76
     1
 98
        0
  0
SPLINE
  5
10C
330
106
100
AcDbEntity
  8
_U+30EC_U+30A4_U+30E4_U+30FC 1
370
     0
100
AcDbSpline
210
0.0
220
0.0
230
1.0
 70
    11
 71
     3
 72
    29
 73
    25
 74
     0
 42
0.0000000001
 43
0.0000000001
 12
1.0
 22
0.0
 32
0.0
 13
1.0
 23
0.0
 33
0.0
 40
0.0
 40
0.0
 40
0.0
 40
0.0
 40
1.0
 40
1.0
 40
1.0
 40
2.0
 40
2.0
 40
2.0
 40
3.0
 40
3.0
 40
3.0
 40
4.0
 40
4.0
 40
4.0
 40
5.0
 40
5.0
 40
5.0
 40
6.0
 40
6.0
 40
6.0
 40
7.0
 40
7.0
 40
7.0
 40
8.0
 40
8.0
 40
8.0
 40
8.0
 10
107.8042724339864
 20
-121.2360107118785
 30
0.0
 10
108.0137342394896
 20
-121.3441867101154
 30
0.0
 10
108.0326822646585
 20
-121.5174750130234
 30
0.0
 10
108.0326822646585
 20
-121.6339192404249
 30
0.0
 10
108.0326822646585
 20
-121.794805199586
 30
0.0
 10
107.9861734756076
 20
-121.9363986240298
 30
0.0
 10
107.8042724339864
 20
-122.0314832594227
 30
0.0
 10
107.6096245390698
 20
-122.1351806335287
 30
0.0
 10
107.3726019696846
 20
-122.1541286586976
 30
0.0
 10
107.2099934627808
 20
-122.1541286586976
 30
0.0
 10
107.0659884714974
 20
-122.1541286586976
 30
0.0
 10
106.8141519915256
 20
-122.1372476908199
 30
0.0
 10
106.6153699820267
 20
-122.0314832594227
 30
0.0
 10
106.4124538579455
 20
-121.9236517707344
 30
0.0
 10
106.3890272086458
 20
-121.7627658115732
 30
0.0
 10
106.3890272086458
 20
-121.6339192404249
 30
0.0
 10
106.3890272086458
 20
-121.4751003385548
 30
0.0
 10
106.4334689404055
 20
-121.3314398568199
 30
0.0
 10
106.6153699820267
 20
-121.2360107118785
 30
0.0
 10
106.8079508196522
 20
-121.1367919619033
 30
0.0
 10
107.0363606503243
 20
-121.1133653126036
 30
0.0
 10
107.2099934627808
 20
-121.1133653126036
 30
0.0
 10
107.3812147083978
 20
-121.1133653126036
 30
0.0
 10
107.611691596361
 20
-121.1347249046122
 30
0.0
 10
107.8042724339864
 20
-121.2360107118785
 30
0.0
  0
SPLINE
  5
10D
330
106
100
AcDbEntity
  8
_U+30EC_U+30A4_U+30E4_U+30FC 1
370
     0
100
AcDbSpline
210
0.0
220
0.0
230
1.0
 70
    11
 71
     3
 72
    17
 73
    13
 74
     0
 42
0.0000000001
 43
0.0000000001
 12
1.0
 22
0.0
 32
0.0
 13
1.0
 23
0.0
 33
0.0
 40
0.0
 40
0.0
 40
0.0
 40
0.0
 40
1.0
 40
1.0
 40
1.0
 40
2.0
 40
2.0
 40
2.0
 40
3.0
 40
3.0
 40
3.0
 40
4.0
 40
4.0
 40
4.0
 40
4.0
 10
106.5816080462713
 20
-121.6339192404249
 30
0.0
 10
106.5816080462713
 20
-121.8833441535569
 30
0.0
 10
106.8651394047073
 20
-121.9301974521563
 30
0.0
 10
107.2099934627808
 20
-121.9301974521563
 30
0.0
 10
107.5293538142635
 20
-121.9301974521563
 30
0.0
 10
107.8380343697419
 20
-121.8940239495612
 30
0.0
 10
107.8380343697419
 20
-121.6339192404249
 30
0.0
 10
107.8380343697419
 20
-121.3862168750354
 30
0.0
 10
107.5569145781455
 20
-121.3376410286934
 30
0.0
 10
107.2099934627808
 20
-121.3376410286934
 30
0.0
 10
106.8902886017497
 20
-121.3376410286934
 30
0.0
 10
106.5816080462713
 20
-121.3758815885796
 30
0.0
 10
106.5816080462713
 20
-121.6339192404249
 30
0.0
  0
HATCH
  5
10E
330
106
100
AcDbEntity
  8
_U+30EC_U+30A4_U+30E4_U+30FC 1
 62
   179
420
  2234388
100
AcDbHatch
 10
0.0
 20
0.0
 30
0.0
210
0.0
220
0.0
230
1.0
  2
SOLID
 70
     1
 71
     0
 91
        2
 92
        1
 93
        1
 72
     4
 94
        3
 73
     0
 74
     1
 95
       29
 96
       25
 40
0.0
 40
0.0
 40
0.0
 40
0.0
 40
1.0
 40
1.0
 40
1.0
 40
2.0
 40
2.0
 40
2.0
 40
3.0
 40
3.0
 40
3.0
 40
4.0
 40
4.0
 40
4.0
 40
5.0
 40
5.0
 40
5.0
 40
6.0
 40
6.0
 40
6.0
 40
7.0
 40
7.0
 40
7.0
 40
8.0
 40
8.0
 40
8.0
 40
8.0
 10
107.8042724339864
 20
-121.2360107118785
 10
108.0137342394896
 20
-121.3441867101154
 10
108.0326822646585
 20
-121.5174750130234
 10
108.0326822646585
 20
-121.6339192404249
 10
108.0326822646585
 20
-121.794805199586
 10
107.9861734756076
 20
-121.9363986240298
 10
107.8042724339864
 20
-122.0314832594227
 10
107.6096245390698
 20
-122.1351806335287
 10
107.3726019696846
 20
-122.1541286586976
 10
107.2099934627808
 20
-122.1541286586976
 10
107.0659884714974
 20
-122.1541286586976
 10
106.8141519915256
 20
-122.1372476908199
 10
106.6153699820267
 20
-122.0314832594227
 10
106.4124538579455
 20
-121.9236517707344
 10
106.3890272086458
 20
-121.7627658115732
 10
106.3890272086458
 20
-121.6339192404249
 10
106.3890272086458
 20
-121.4751003385548
 10
106.4334689404055
 20
-121.3314398568199
 10
106.6153699820267
 20
-121.2360107118785
 10
106.8079508196522
 20
-121.1367919619033
 10
107.0363606503243
 20
-121.1133653126036
 10
107.2099934627808
 20
-121.1133653126036
 10
107.3812147083978
 20
-121.1133653126036
 10
107.611691596361
 20
-121.1347249046122
 10
107.8042724339864
 20
-121.2360107118785
 97
        0
 97
        0
 92
        1
 93
        1
 72
     4
 94
        3
 73
     0
 74
     1
 95
       17
 96
       13
 40
0.0
 40
0.0
 40
0.0
 40
0.0
 40
1.0
 40
1.0
 40
1.0
 40
2.0
 40
2.0
 40
2.0
 40
3.0
 40
3.0
 40
3.0
 40
4.0
 40
4.0
 40
4.0
 40
4.0
 10
106.5816080462713
 20
-121.6339192404249
 10
106.5816080462713
 20
-121.8833441535569
 10
106.8651394047073
 20
-121.9301974521563
 10
107.2099934627808
 20
-121.9301974521563
 10
107.5293538142635
 20
-121.9301974521563
 10
107.8380343697419
 20
-121.8940239495612
 10
107.8380343697419
 20
-121.6339192404249
 10
107.8380343697419
 20
-121.3862168750354
 10
107.5569145781455
 20
-121.3376410286934
 10
107.2099934627808
 20
-121.3376410286934
 10
106.8902886017497
 20
-121.3376410286934
 10
106.5816080462713
 20
-121.3758815885796
 10
106.5816080462713
 20
-121.6339192404249
 97
        0
 97
        0
 75
     2
 76
     1
 98
        0
  0
ENDBLK
  5
109
330
106
100
AcDbEntity
  8
0
100
AcDbBlockEnd
  0
BLOCK
  5
111
330
10F
100
AcDbEntity
  8
0
100
AcDbBlockBegin
  2
block 4
 70
     0
 10
0.0
 20
0.0
 30
0.0
  3
block 4
  1

  0
SPLINE
  5
113
330
10F
100
AcDbEntity
  8
_U+30EC_U+30A4_U+30E4_U+30FC 1
370
     0
100
AcDbSpline
210
0.0
220
0.0
230
1.0
 70
    11
 71
     3
 72
    26
 73
    22
 74
     0
 42
0.0000000001
 43
0.0000000001
 12
1.0
 22
0.0
 32
0.0
 13
1.0
 23
0.0
 33
0.0
 40
0.0
 40
0.0
 40
0.0
 40
0.0
 40
1.0
 40
1.0
 40
1.0
 40
2.0
 40
2.0
 40
2.0
 40
3.0
 40
3.0
 40
3.0
 40
4.0
 40
4.0
 40
4.0
 40
5.0
 40
5.0
 40
5.0
 40
6.0
 40
6.0
 40
6.0
 40
7.0
 40
7.0
 40
7.0
 40
7.0
 10
107.9820393610253
 20
-154.2589734857408
 30
0.0
 10
107.9820393610253
 20
-154.2589734857408
 30
0.0
 10
106.8778862580028
 20
-154.2589734857408
 30
0.0
 10
106.8778862580028
 20
-154.2589734857408
 30
0.0
 10
106.8778862580028
 20
-154.2589734857408
 30
0.0
 10
106.8778862580028
 20
-154.5890136332278
 30
0.0
 10
106.8778862580028
 20
-154.5890136332278
 30
0.0
 10
106.8778862580028
 20
-154.5890136332278
 30
0.0
 10
106.729747152137
 20
-154.5890136332278
 30
0.0
 10
106.729747152137
 20
-154.5890136332278
 30
0.0
 10
106.7149332415504
 20
-154.2569064284497
 30
0.0
 10
106.5519802250981
 20
-154.2103976393988
 30
0.0
 10
106.4376030549878
 20
-154.1807698182257
 30
0.0
 10
106.4376030549878
 20
-154.1807698182257
 30
0.0
 10
106.4376030549878
 20
-154.034697769651
 30
0.0
 10
106.4376030549878
 20
-154.034697769651
 30
0.0
 10
106.4376030549878
 20
-154.034697769651
 30
0.0
 10
107.9820393610253
 20
-154.034697769651
 30
0.0
 10
107.9820393610253
 20
-154.034697769651
 30
0.0
 10
107.9820393610253
 20
-154.034697769651
 30
0.0
 10
107.9820393610253
 20
-154.2589734857408
 30
0.0
 10
107.9820393610253
 20
-154.2589734857408
 30
0.0
  0
HATCH
  5
114
330
10F
100
AcDbEntity
  8
_U+30EC_U+30A4_U+30E4_U+30FC 1
 62
   179
420
  2234388
100
AcDbHatch
 10
0.0
 20
0.0
 30
0.0
210
0.0
220
0.0
230
1.0
  2
SOLID
 70
     1
 71
     0
 91
        1
 92
        1
 93
        1
 72
     4
 94
        3
 73
     0
 74
     1
 95
       26
 96
       22
 40
0.0
 40
0.0
 40
0.0
 40
0.0
 40
1.0
 40
1.0
 40
1.0
 40
2.0
 40
2.0
 40
2.0
 40
3.0
 40
3.0
 40
3.0
 40
4.0
 40
4.0
 40
4.0
 40
5.0
 40
5.0
 40
5.0
 40
6.0
 40
6.0
 40
6.0
 40
7.0
 40
7.0
 40
7.0
 40
7.0
 10
107.9820393610253
 20
-154.2589734857408
 10
107.9820393610253
 20
-154.2589734857408
 10
106.8778862580028
 20
-154.2589734857408
 10
106.8778862580028
 20
-154.2589734857408
 10
106.8778862580028
 20
-154.2589734857408
 10
106.8778862580028
 20
-154.5890136332278
 10
106.8778862580028
 20
-154.5890136332278
 10
106.8778862580028
 20
-154.5890136332278
 10
106.729747152137
 20
-154.5890136332278
 10
106.729747152137
 20
-154.5890136332278
 10
106.7149332415504
 20
-154.2569064284497
 10
106.5519802250981
 20
-154.2103976393988
 10
106.4376030549878
 20
-154.1807698182257
 10
106.4376030549878
 20
-154.1807698182257
 10
106.4376030549878
 20
-154.034697769651
 10
106.4376030549878
 20
-154.034697769651
 10
106.4376030549878
 20
-154.034697769651
 10
107.9820393610253
 20
-154.034697769651
 10
107.9820393610253
 20
-154.034697769651
 10
107.9820393610253
 20
-154.034697769651
 10
107.9820393610253
 20
-154.2589734857408
 10
107.9820393610253
 20
-154.2589734857408
 97
        0
 97
        0
 75
     2
 76
     1
 98
        0
  0
SPLINE
  5
115
330
10F
100
AcDbEntity
  8
_U+30EC_U+30A4_U+30E4_U+30FC 1
370
     0
100
AcDbSpline
210
0.0
220
0.0
230
1.0
 70
    11
 71
     3
 72
    62
 73
    58
 74
     0
 42
0.0000000001
 43
0.0000000001
 12
1.0
 22
0.0
 32
0.0
 13
1.0
 23
0.0
 33
0.0
 40
0.0
 40
0.0
 40
0.0
 40
0.0
 40
1.0
 40
1.0
 40
1.0
 40
2.0
 40
2.0
 40
2.0
 40
3.0
 40
3.0
 40
3.0
 40
4.0
 40
4.0
 40
4.0
 40
5.0
 40
5.0
 40
5.0
 40
6.0
 40
6.0
 40
6.0
 40
7.0
 40
7.0
 40
7.0
 40
8.0
 40
8.0
 40
8.0
 40
9.0
 40
9.0
 40
9.0
 40
10.0
 40
10.0
 40
10.0
 40
11.0
 40
11.0
 40
11.0
 40
12.0
 40
12.0
 40
12.0
 40
13.0
 40
13.0
 40
13.0
 40
14.0
 40
14.0
 40
14.0
 40
15.0
 40
15.0
 40
15.0
 40
16.0
 40
16.0
 40
16.0
 40
17.0
 40
17.0
 40
17.0
 40
18.0
 40
18.0
 40
18.0
 40
19.0
 40
19.0
 40
19.0
 40
19.0
 10
108.0326822646585
 20
-153.0418212508021
 30
0.0
 10
108.0326822646585
 20
-153.1372503957435
 30
0.0
 10
108.0116671821985
 20
-153.3549804304113
 30
0.0
 10
107.825632025995
 20
-153.4800373965258
 30
0.0
 10
107.7133219131758
 20
-153.5541069494587
 30
0.0
 10
107.6141031632006
 20
-153.558241064041
 30
0.0
 10
107.5293538142635
 20
-153.5623751786233
 30
0.0
 10
107.5293538142635
 20
-153.5623751786233
 30
0.0
 10
107.5293538142635
 20
-153.3422335771158
 30
0.0
 10
107.5293538142635
 20
-153.3422335771158
 30
0.0
 10
107.6034233671964
 20
-153.3401665198247
 30
0.0
 10
107.8380343697419
 20
-153.3298312333689
 30
0.0
 10
107.8380343697419
 20
-153.0462998749329
 30
0.0
 10
107.8380343697419
 20
-152.9088405650714
 30
0.0
 10
107.7684434409398
 20
-152.7562228350749
 30
0.0
 10
107.5400336102678
 20
-152.7562228350749
 30
0.0
 10
107.4235893828663
 20
-152.7562228350749
 30
0.0
 10
107.3750135365243
 20
-152.7944633949611
 30
0.0
 10
107.34331865806
 20
-152.8261582734254
 30
0.0
 10
107.2692491051271
 20
-152.9002278263583
 30
0.0
 10
107.2565022518317
 20
-153.0166720537597
 30
0.0
 10
107.2565022518317
 20
-153.0714490719752
 30
0.0
 10
107.2565022518317
 20
-153.0907416066926
 30
0.0
 10
107.2585693091229
 20
-153.1265705997392
 30
0.0
 10
107.2627034237052
 20
-153.1541313636212
 30
0.0
 10
107.2627034237052
 20
-153.1541313636212
 30
0.0
 10
107.0680555287885
 20
-153.1541313636212
 30
0.0
 10
107.0680555287885
 20
-153.1541313636212
 30
0.0
 10
107.0746012102105
 20
-153.1158908037349
 30
0.0
 10
107.0766682675017
 20
-153.0738606388149
 30
0.0
 10
107.0766682675017
 20
-153.0673149573929
 30
0.0
 10
107.0766682675017
 20
-153.0018581431732
 30
0.0
 10
107.0553086754931
 20
-152.8030761336742
 30
0.0
 10
106.8186306156565
 20
-152.8030761336742
 30
0.0
 10
106.6408636886176
 20
-152.8030761336742
 30
0.0
 10
106.5857421608536
 20
-152.9339897621137
 30
0.0
 10
106.5857421608536
 20
-153.0442328176417
 30
0.0
 10
106.5857421608536
 20
-153.3084716413604
 30
0.0
 10
106.8186306156565
 20
-153.3170843800735
 30
0.0
 10
106.8902886017497
 20
-153.3212184946558
 30
0.0
 10
106.8902886017497
 20
-153.3212184946558
 30
0.0
 10
106.8902886017497
 20
-153.5244791282855
 30
0.0
 10
106.8902886017497
 20
-153.5244791282855
 30
0.0
 10
106.7655761451836
 20
-153.5158663895724
 30
0.0
 10
106.3890272086458
 20
-153.4883056256904
 30
0.0
 10
106.3890272086458
 20
-153.0314859643463
 30
0.0
 10
106.3890272086458
 20
-152.8072102482565
 30
0.0
 10
106.5161512320515
 20
-152.566053564289
 30
0.0
 10
106.8120849342345
 20
-152.566053564289
 30
0.0
 10
106.9984645999865
 20
-152.566053564289
 30
0.0
 10
107.080802382084
 20
-152.6611381996819
 30
0.0
 10
107.1421250817214
 20
-152.7607014592057
 30
0.0
 10
107.1696858456034
 20
-152.6993787595682
 30
0.0
 10
107.2499565704097
 20
-152.517477717947
 30
0.0
 10
107.5272867569723
 20
-152.517477717947
 30
0.0
 10
107.8655951336239
 20
-152.517477717947
 30
0.0
 10
108.0326822646585
 20
-152.764835573788
 30
0.0
 10
108.0326822646585
 20
-153.0418212508021
 30
0.0
  0
HATCH
  5
116
330
10F
100
AcDbEntity
  8
_U+30EC_U+30A4_U+30E4_U+30FC 1
 62
   179
420
  2234388
100
AcDbHatch
 10
0.0
 20
0.0
 30
0.0
210
0.0
220
0.0
230
1.0
  2
SOLID
 70
     1
 71
     0
 91
        1
 92
        1
 93
        1
 72
     4
 94
        3
 73
     0
 74
     1
 95
       62
 96
       58
 40
0.0
 40
0.0
 40
0.0
 40
0.0
 40
1.0
 40
1.0
 40
1.0
 40
2.0
 40
2.0
 40
2.0
 40
3.0
 40
3.0
 40
3.0
 40
4.0
 40
4.0
 40
4.0
 40
5.0
 40
5.0
 40
5.0
 40
6.0
 40
6.0
 40
6.0
 40
7.0
 40
7.0
 40
7.0
 40
8.0
 40
8.0
 40
8.0
 40
9.0
 40
9.0
 40
9.0
 40
10.0
 40
10.0
 40
10.0
 40
11.0
 40
11.0
 40
11.0
 40
12.0
 40
12.0
 40
12.0
 40
13.0
 40
13.0
 40
13.0
 40
14.0
 40
14.0
 40
14.0
 40
15.0
 40
15.0
 40
15.0
 40
16.0
 40
16.0
 40
16.0
 40
17.0
 40
17.0
 40
17.0
 40
18.0
 40
18.0
 40
18.0
 40
19.0
 40
19.0
 40
19.0
 40
19.0
 10
108.0326822646585
 20
-153.0418212508021
 10
108.0326822646585
 20
-153.1372503957435
 10
108.0116671821985
 20
-153.3549804304113
 10
107.825632025995
 20
-153.4800373965258
 10
107.7133219131758
 20
-153.5541069494587
 10
107.6141031632006
 20
-153.558241064041
 10
107.5293538142635
 20
-153.5623751786233
 10
107.5293538142635
 20
-153.5623751786233
 10
107.5293538142635
 20
-153.3422335771158
 10
107.5293538142635
 20
-153.3422335771158
 10
107.6034233671964
 20
-153.3401665198247
 10
107.8380343697419
 20
-153.3298312333689
 10
107.8380343697419
 20
-153.0462998749329
 10
107.8380343697419
 20
-152.9088405650714
 10
107.7684434409398
 20
-152.7562228350749
 10
107.5400336102678
 20
-152.7562228350749
 10
107.4235893828663
 20
-152.7562228350749
 10
107.3750135365243
 20
-152.7944633949611
 10
107.34331865806
 20
-152.8261582734254
 10
107.2692491051271
 20
-152.9002278263583
 10
107.2565022518317
 20
-153.0166720537597
 10
107.2565022518317
 20
-153.0714490719752
 10
107.2565022518317
 20
-153.0907416066926
 10
107.2585693091229
 20
-153.1265705997392
 10
107.2627034237052
 20
-153.1541313636212
 10
107.2627034237052
 20
-153.1541313636212
 10
107.0680555287885
 20
-153.1541313636212
 10
107.0680555287885
 20
-153.1541313636212
 10
107.0746012102105
 20
-153.1158908037349
 10
107.0766682675017
 20
-153.0738606388149
 10
107.0766682675017
 20
-153.0673149573929
 10
107.0766682675017
 20
-153.0018581431732
 10
107.0553086754931
 20
-152.8030761336742
 10
106.8186306156565
 20
-152.8030761336742
 10
106.6408636886176
 20
-152.8030761336742
 10
106.5857421608536
 20
-152.9339897621137
 10
106.5857421608536
 20
-153.0442328176417
 10
106.5857421608536
 20
-153.3084716413604
 10
106.8186306156565
 20
-153.3170843800735
 10
106.8902886017497
 20
-153.3212184946558
 10
106.8902886017497
 20
-153.3212184946558
 10
106.8902886017497
 20
-153.5244791282855
 10
106.8902886017497
 20
-153.5244791282855
 10
106.7655761451836
 20
-153.5158663895724
 10
106.3890272086458
 20
-153.4883056256904
 10
106.3890272086458
 20
-153.0314859643463
 10
106.3890272086458
 20
-152.8072102482565
 10
106.5161512320515
 20
-152.566053564289
 10
106.8120849342345
 20
-152.566053564289
 10
106.9984645999865
 20
-152.566053564289
 10
107.080802382084
 20
-152.6611381996819
 10
107.1421250817214
 20
-152.7607014592057
 10
107.1696858456034
 20
-152.6993787595682
 10
107.2499565704097
 20
-152.517477717947
 10
107.5272867569723
 20
-152.517477717947
 10
107.8655951336239
 20
-152.517477717947
 10
108.0326822646585
 20
-152.764835573788
 10
108.0326822646585
 20
-153.0418212508021
 97
        0
 97
        0
 75
     2
 76
     1
 98
        0
  0
ENDBLK
  5
112
330
10F
100
AcDbEntity
  8
0
100
AcDbBlockEnd
  0
BLOCK
  5
119
330
117
100
AcDbEntity
  8
0
100
AcDbBlockBegin
  2
block 5
 70
     0
 10
0.0
 20
0.0
 30
0.0
  3
block 5
  1

  0
SPLINE
  5
11B
330
117
100
AcDbEntity
  8
_U+30EC_U+30A4_U+30E4_U+30FC 1
370
     0
100
AcDbSpline
210
0.0
220
0.0
230
1.0
 70
    11
 71
     3
 72
    62
 73
    58
 74
     0
 42
0.0000000001
 43
0.0000000001
 12
1.0
 22
0.0
 32
0.0
 13
1.0
 23
0.0
 33
0.0
 40
0.0
 40
0.0
 40
0.0
 40
0.0
 40
1.0
 40
1.0
 40
1.0
 40
2.0
 40
2.0
 40
2.0
 40
3.0
 40
3.0
 40
3.0
 40
4.0
 40
4.0
 40
4.0
 40
5.0
 40
5.0
 40
5.0
 40
6.0
 40
6.0
 40
6.0
 40
7.0
 40
7.0
 40
7.0
 40
8.0
 40
8.0
 40
8.0
 40
9.0
 40
9.0
 40
9.0
 40
10.0
 40
10.0
 40
10.0
 40
11.0
 40
11.0
 40
11.0
 40
12.0
 40
12.0
 40
12.0
 40
13.0
 40
13.0
 40
13.0
 40
14.0
 40
14.0
 40
14.0
 40
15.0
 40
15.0
 40
15.0
 40
16.0
 40
16.0
 40
16.0
 40
17.0
 40
17.0
 40
17.0
 40
18.0
 40
18.0
 40
18.0
 40
19.0
 40
19.0
 40
19.0
 40
19.0
 10
108.0326822646585
 20
-161.6300997859814
 30
0.0
 10
108.0326822646585
 20
-161.7255289309228
 30
0.0
 10
108.0116671821985
 20
-161.9432589655906
 30
0.0
 10
107.825632025995
 20
-162.0683159317051
 30
0.0
 10
107.7133219131758
 20
-162.1420409750895
 30
0.0
 10
107.6141031632006
 20
-162.1465195992203
 30
0.0
 10
107.5293538142635
 20
-162.1506537138026
 30
0.0
 10
107.5293538142635
 20
-162.1506537138026
 30
0.0
 10
107.5293538142635
 20
-161.9305121122952
 30
0.0
 10
107.5293538142635
 20
-161.9305121122952
 30
0.0
 10
107.6034233671964
 20
-161.928445055004
 30
0.0
 10
107.8380343697419
 20
-161.9181097685482
 30
0.0
 10
107.8380343697419
 20
-161.6345784101122
 30
0.0
 10
107.8380343697419
 20
-161.4971191002507
 30
0.0
 10
107.7684434409398
 20
-161.3445013702542
 30
0.0
 10
107.5400336102678
 20
-161.3445013702542
 30
0.0
 10
107.4235893828663
 20
-161.3445013702542
 30
0.0
 10
107.3750135365243
 20
-161.3827419301404
 30
0.0
 10
107.34331865806
 20
-161.4144368086047
 30
0.0
 10
107.2692491051271
 20
-161.4885063615376
 30
0.0
 10
107.2565022518317
 20
-161.6049505889391
 30
0.0
 10
107.2565022518317
 20
-161.6597276071545
 30
0.0
 10
107.2565022518317
 20
-161.6790201418719
 30
0.0
 10
107.2585693091229
 20
-161.7148491349185
 30
0.0
 10
107.2627034237052
 20
-161.7424098988005
 30
0.0
 10
107.2627034237052
 20
-161.7424098988005
 30
0.0
 10
107.0680555287885
 20
-161.7424098988005
 30
0.0
 10
107.0680555287885
 20
-161.7424098988005
 30
0.0
 10
107.0746012102105
 20
-161.7041693389143
 30
0.0
 10
107.0766682675017
 20
-161.6621391739942
 30
0.0
 10
107.0766682675017
 20
-161.6555934925722
 30
0.0
 10
107.0766682675017
 20
-161.5901366783525
 30
0.0
 10
107.0553086754931
 20
-161.3913546688536
 30
0.0
 10
106.8186306156565
 20
-161.3913546688536
 30
0.0
 10
106.6408636886176
 20
-161.3913546688536
 30
0.0
 10
106.5857421608536
 20
-161.522268297293
 30
0.0
 10
106.5857421608536
 20
-161.632511352821
 30
0.0
 10
106.5857421608536
 20
-161.8967501765397
 30
0.0
 10
106.8186306156565
 20
-161.9053629152528
 30
0.0
 10
106.8902886017497
 20
-161.9094970298351
 30
0.0
 10
106.8902886017497
 20
-161.9094970298351
 30
0.0
 10
106.8902886017497
 20
-162.1127576634649
 30
0.0
 10
106.8902886017497
 20
-162.1127576634649
 30
0.0
 10
106.7655761451836
 20
-162.1041449247518
 30
0.0
 10
106.3890272086458
 20
-162.0765841608697
 30
0.0
 10
106.3890272086458
 20
-161.6197644995256
 30
0.0
 10
106.3890272086458
 20
-161.3954887834359
 30
0.0
 10
106.5161512320515
 20
-161.1543320994684
 30
0.0
 10
106.8120849342345
 20
-161.1543320994684
 30
0.0
 10
106.9984645999865
 20
-161.1543320994684
 30
0.0
 10
107.080802382084
 20
-161.2494167348613
 30
0.0
 10
107.1421250817214
 20
-161.348979994385
 30
0.0
 10
107.1696858456034
 20
-161.2876572947475
 30
0.0
 10
107.2499565704097
 20
-161.1057562531263
 30
0.0
 10
107.5272867569723
 20
-161.1057562531263
 30
0.0
 10
107.8655951336239
 20
-161.1057562531263
 30
0.0
 10
108.0326822646585
 20
-161.3531141089673
 30
0.0
 10
108.0326822646585
 20
-161.6300997859814
 30
0.0
  0
HATCH
  5
11C
330
117
100
AcDbEntity
  8
_U+30EC_U+30A4_U+30E4_U+30FC 1
 62
   179
420
  2234388
100
AcDbHatch
 10
0.0
 20
0.0
 30
0.0
210
0.0
220
0.0
230
1.0
  2
SOLID
 70
     1
 71
     0
 91
        1
 92
        1
 93
        1
 72
     4
 94
        3
 73
     0
 74
     1
 95
       62
 96
       58
 40
0.0
 40
0.0
 40
0.0
 40
0.0
 40
1.0
 40
1.0
 40
1.0
 40
2.0
 40
2.0
 40
2.0
 40
3.0
 40
3.0
 40
3.0
 40
4.0
 40
4.0
 40
4.0
 40
5.0
 40
5.0
 40
5.0
 40
6.0
 40
6.0
 40
6.0
 40
7.0
 40
7.0
 40
7.0
 40
8.0
 40
8.0
 40
8.0
 40
9.0
 40
9.0
 40
9.0
 40
10.0
 40
10.0
 40
10.0
 40
11.0
 40
11.0
 40
11.0
 40
12.0
 40
12.0
 40
12.0
 40
13.0
 40
13.0
 40
13.0
 40
14.0
 40
14.0
 40
14.0
 40
15.0
 40
15.0
 40
15.0
 40
16.0
 40
16.0
 40
16.0
 40
17.0
 40
17.0
 40
17.0
 40
18.0
 40
18.0
 40
18.0
 40
19.0
 40
19.0
 40
19.0
 40
19.0
 10
108.0326822646585
 20
-161.6300997859814
 10
108.0326822646585
 20
-161.7255289309228
 10
108.0116671821985
 20
-161.9432589655906
 10
107.825632025995
 20
-162.0683159317051
 10
107.7133219131758
 20
-162.1420409750895
 10
107.6141031632006
 20
-162.1465195992203
 10
107.5293538142635
 20
-162.1506537138026
 10
107.5293538142635
 20
-162.1506537138026
 10
107.5293538142635
 20
-161.9305121122952
 10
107.5293538142635
 20
-161.9305121122952
 10
107.6034233671964
 20
-161.928445055004
 10
107.8380343697419
 20
-161.9181097685482
 10
107.8380343697419
 20
-161.6345784101122
 10
107.8380343697419
 20
-161.4971191002507
 10
107.7684434409398
 20
-161.3445013702542
 10
107.5400336102678
 20
-161.3445013702542
 10
107.4235893828663
 20
-161.3445013702542
 10
107.3750135365243
 20
-161.3827419301404
 10
107.34331865806
 20
-161.4144368086047
 10
107.2692491051271
 20
-161.4885063615376
 10
107.2565022518317
 20
-161.6049505889391
 10
107.2565022518317
 20
-161.6597276071545
 10
107.2565022518317
 20
-161.6790201418719
 10
107.2585693091229
 20
-161.7148491349185
 10
107.2627034237052
 20
-161.7424098988005
 10
107.2627034237052
 20
-161.7424098988005
 10
107.0680555287885
 20
-161.7424098988005
 10
107.0680555287885
 20
-161.7424098988005
 10
107.0746012102105
 20
-161.7041693389143
 10
107.0766682675017
 20
-161.6621391739942
 10
107.0766682675017
 20
-161.6555934925722
 10
107.0766682675017
 20
-161.5901366783525
 10
107.0553086754931
 20
-161.3913546688536
 10
106.8186306156565
 20
-161.3913546688536
 10
106.6408636886176
 20
-161.3913546688536
 10
106.5857421608536
 20
-161.522268297293
 10
106.5857421608536
 20
-161.632511352821
 10
106.5857421608536
 20
-161.8967501765397
 10
106.8186306156565
 20
-161.9053629152528
 10
106.8902886017497
 20
-161.9094970298351
 10
106.8902886017497
 20
-161.9094970298351
 10
106.8902886017497
 20
-162.1127576634649
 10
106.8902886017497
 20
-162.1127576634649
 10
106.7655761451836
 20
-162.1041449247518
 10
106.3890272086458
 20
-162.0765841608697
 10
106.3890272086458
 20
-161.6197644995256
 10
106.3890272086458
 20
-161.3954887834359
 10
106.5161512320515
 20
-161.1543320994684
 10
106.8120849342345
 20
-161.1543320994684
 10
106.9984645999865
 20
-161.1543320994684
 10
107.080802382084
 20
-161.2494167348613
 10
107.1421250817214
 20
-161.348979994385
 10
107.1696858456034
 20
-161.2876572947475
 10
107.2499565704097
 20
-161.1057562531263
 10
107.5272867569723
 20
-161.1057562531263
 10
107.8655951336239
 20
-161.1057562531263
 10
108.0326822646585
 20
-161.3531141089673
 10
108.0326822646585
 20
-161.6300997859814
 97
        0
 97
        0
 75
     2
 76
     1
 98
        0
  0
ENDBLK
  5
11A
330
117
100
AcDbEntity
  8
0
100
AcDbBlockEnd
  0
BLOCK
  5
11F
330
11D
100
AcDbEntity
  8
0
100
AcDbBlockBegin
  2
block 6
 70
     0
 10
0.0
 20
0.0
 30
0.0
  3
block 6
  1

  0
SPLINE
  5
121
330
11D
100
AcDbEntity
  8
_U+30EC_U+30A4_U+30E4_U+30FC 1
370
     0
100
AcDbSpline
210
0.0
220
0.0
230
1.0
 70
    11
 71
     3
 72
    44
 73
    40
 74
     0
 42
0.0000000001
 43
0.0000000001
 12
1.0
 22
0.0
 32
0.0
 13
1.0
 23
0.0
 33
0.0
 40
0.0
 40
0.0
 40
0.0
 40
0.0
 40
1.0
 40
1.0
 40
1.0
 40
2.0
 40
2.0
 40
2.0
 40
3.0
 40
3.0
 40
3.0
 40
4.0
 40
4.0
 40
4.0
 40
5.0
 40
5.0
 40
5.0
 40
6.0
 40
6.0
 40
6.0
 40
7.0
 40
7.0
 40
7.0
 40
8.0
 40
8.0
 40
8.0
 40
9.0
 40
9.0
 40
9.0
 40
10.0
 40
10.0
 40
10.0
 40
11.0
 40
11.0
 40
11.0
 40
12.0
 40
12.0
 40
12.0
 40
13.0
 40
13.0
 40
13.0
 40
13.0
 10
74.5480766957727
 20
-151.1180799318385
 30
0.0
 10
74.70689559764273
 20
-151.3358099665063
 30
0.0
 10
74.7809651505756
 20
-151.4288275446081
 30
0.0
 10
74.92462563231051
 20
-151.4777479004986
 30
0.0
 10
74.92462563231051
 20
-151.4777479004986
 30
0.0
 10
74.92462563231051
 20
-150.6991563208322
 30
0.0
 10
74.92462563231051
 20
-150.6991563208322
 30
0.0
 10
74.92462563231051
 20
-150.6991563208322
 30
0.0
 10
75.1299533232314
 20
-150.6991563208322
 30
0.0
 10
75.1299533232314
 20
-150.6991563208322
 30
0.0
 10
75.1299533232314
 20
-150.6991563208322
 30
0.0
 10
75.1299533232314
 20
-151.7271728136307
 30
0.0
 10
75.1299533232314
 20
-151.7271728136307
 30
0.0
 10
74.77235241186247
 20
-151.6954779351664
 30
0.0
 10
74.6941487443473
 20
-151.6300211209467
 30
0.0
 10
74.39580347532467
 20
-151.2448594456957
 30
0.0
 10
74.19702146582574
 20
-150.9888888511417
 30
0.0
 10
74.12915308476633
 20
-150.9234320369219
 30
0.0
 10
73.99169377490486
 20
-150.9234320369219
 30
0.0
 10
73.87318249021226
 20
-150.9234320369219
 30
0.0
 10
73.74226886177277
 20
-150.9954345325636
 30
0.0
 10
73.74226886177277
 20
-151.1921494847714
 30
0.0
 10
73.74226886177277
 20
-151.4522541939078
 30
0.0
 10
73.97274574973598
 20
-151.4608669326209
 30
0.0
 10
74.08918997713742
 20
-151.4650010472032
 30
0.0
 10
74.08918997713742
 20
-151.4650010472032
 30
0.0
 10
74.08918997713742
 20
-151.689276763293
 30
0.0
 10
74.08918997713742
 20
-151.689276763293
 30
0.0
 10
73.96206595373171
 20
-151.6806640245798
 30
0.0
 10
73.85010035046109
 20
-151.6699842285756
 30
0.0
 10
73.73158906576849
 20
-151.5897135037692
 30
0.0
 10
73.57070310660733
 20
-151.4798149577898
 30
0.0
 10
73.53694117085188
 20
-151.2934352920378
 30
0.0
 10
73.53694117085188
 20
-151.1773355741848
 30
0.0
 10
73.53694117085188
 20
-150.9000053876222
 30
0.0
 10
73.72090926976422
 20
-150.6926106394102
 30
0.0
 10
73.993760832196
 20
-150.6926106394102
 30
0.0
 10
74.22251517241659
 20
-150.6926106394102
 30
0.0
 10
74.32173392239179
 20
-150.8090548668116
 30
0.0
 10
74.5480766957727
 20
-151.1180799318385
 30
0.0
  0
HATCH
  5
122
330
11D
100
AcDbEntity
  8
_U+30EC_U+30A4_U+30E4_U+30FC 1
 62
   179
420
  2234388
100
AcDbHatch
 10
0.0
 20
0.0
 30
0.0
210
0.0
220
0.0
230
1.0
  2
SOLID
 70
     1
 71
     0
 91
        1
 92
        1
 93
        1
 72
     4
 94
        3
 73
     0
 74
     1
 95
       44
 96
       40
 40
0.0
 40
0.0
 40
0.0
 40
0.0
 40
1.0
 40
1.0
 40
1.0
 40
2.0
 40
2.0
 40
2.0
 40
3.0
 40
3.0
 40
3.0
 40
4.0
 40
4.0
 40
4.0
 40
5.0
 40
5.0
 40
5.0
 40
6.0
 40
6.0
 40
6.0
 40
7.0
 40
7.0
 40
7.0
 40
8.0
 40
8.0
 40
8.0
 40
9.0
 40
9.0
 40
9.0
 40
10.0
 40
10.0
 40
10.0
 40
11.0
 40
11.0
 40
11.0
 40
12.0
 40
12.0
 40
12.0
 40
13.0
 40
13.0
 40
13.0
 40
13.0
 10
74.5480766957727
 20
-151.1180799318385
 10
74.70689559764273
 20
-151.3358099665063
 10
74.7809651505756
 20
-151.4288275446081
 10
74.92462563231051
 20
-151.4777479004986
 10
74.92462563231051
 20
-151.4777479004986
 10
74.92462563231051
 20
-150.6991563208322
 10
74.92462563231051
 20
-150.6991563208322
 10
74.92462563231051
 20
-150.6991563208322
 10
75.1299533232314
 20
-150.6991563208322
 10
75.1299533232314
 20
-150.6991563208322
 10
75.1299533232314
 20
-150.6991563208322
 10
75.1299533232314
 20
-151.7271728136307
 10
75.1299533232314
 20
-151.7271728136307
 10
74.77235241186247
 20
-151.6954779351664
 10
74.6941487443473
 20
-151.6300211209467
 10
74.39580347532467
 20
-151.2448594456957
 10
74.19702146582574
 20
-150.9888888511417
 10
74.12915308476633
 20
-150.9234320369219
 10
73.99169377490486
 20
-150.9234320369219
 10
73.87318249021226
 20
-150.9234320369219
 10
73.74226886177277
 20
-150.9954345325636
 10
73.74226886177277
 20
-151.1921494847714
 10
73.74226886177277
 20
-151.4522541939078
 10
73.97274574973598
 20
-151.4608669326209
 10
74.08918997713742
 20
-151.4650010472032
 10
74.08918997713742
 20
-151.4650010472032
 10
74.08918997713742
 20
-151.689276763293
 10
74.08918997713742
 20
-151.689276763293
 10
73.96206595373171
 20
-151.6806640245798
 10
73.85010035046109
 20
-151.6699842285756
 10
73.73158906576849
 20
-151.5897135037692
 10
73.57070310660733
 20
-151.4798149577898
 10
73.53694117085188
 20
-151.2934352920378
 10
73.53694117085188
 20
-151.1773355741848
 10
73.53694117085188
 20
-150.9000053876222
 10
73.72090926976422
 20
-150.6926106394102
 10
73.993760832196
 20
-150.6926106394102
 10
74.22251517241659
 20
-150.6926106394102
 10
74.32173392239179
 20
-150.8090548668116
 10
74.5480766957727
 20
-151.1180799318385
 97
        0
 97
        0
 75
     2
 76
     1
 98
        0
  0
SPLINE
  5
123
330
11D
100
AcDbEntity
  8
_U+30EC_U+30A4_U+30E4_U+30FC 1
370
     0
100
AcDbSpline
210
0.0
220
0.0
230
1.0
 70
    11
 71
     3
 72
    53
 73
    49
 74
     0
 42
0.0000000001
 43
0.0000000001
 12
1.0
 22
0.0
 32
0.0
 13
1.0
 23
0.0
 33
0.0
 40
0.0
 40
0.0
 40
0.0
 40
0.0
 40
1.0
 40
1.0
 40
1.0
 40
2.0
 40
2.0
 40
2.0
 40
3.0
 40
3.0
 40
3.0
 40
4.0
 40
4.0
 40
4.0
 40
5.0
 40
5.0
 40
5.0
 40
6.0
 40
6.0
 40
6.0
 40
7.0
 40
7.0
 40
7.0
 40
8.0
 40
8.0
 40
8.0
 40
9.0
 40
9.0
 40
9.0
 40
10.0
 40
10.0
 40
10.0
 40
11.0
 40
11.0
 40
11.0
 40
12.0
 40
12.0
 40
12.0
 40
13.0
 40
13.0
 40
13.0
 40
14.0
 40
14.0
 40
14.0
 40
15.0
 40
15.0
 40
15.0
 40
16.0
 40
16.0
 40
16.0
 40
16.0
 10
75.18059622686458
 20
-150.0532009173478
 30
0.0
 10
75.18059622686458
 20
-150.131404584863
 30
0.0
 10
75.16371525898685
 20
-150.2330349016779
 30
0.0
 10
75.10032550205825
 20
-150.3346652184927
 30
0.0
 10
74.99042695607879
 20
-150.5079535214008
 30
0.0
 10
74.85916881809077
 20
-150.5293131134094
 30
0.0
 10
74.75133732940245
 20
-150.5482611385782
 30
0.0
 10
74.75133732940245
 20
-150.5482611385782
 30
0.0
 10
74.75133732940245
 20
-150.3260524797796
 30
0.0
 10
74.75133732940245
 20
-150.3260524797796
 30
0.0
 10
74.95011933890136
 20
-150.2712754615641
 30
0.0
 10
74.97974716007451
 20
-150.1441514381584
 30
0.0
 10
74.97974716007451
 20
-150.0511338600567
 30
0.0
 10
74.97974716007451
 20
-149.911607492904
 30
0.0
 10
74.88018390055079
 20
-149.759334272456
 30
0.0
 10
74.64763995529643
 20
-149.759334272456
 30
0.0
 10
74.39166936074237
 20
-149.759334272456
 30
0.0
 10
74.32173392239179
 20
-149.939168256786
 30
0.0
 10
74.32173392239179
 20
-150.0597465987698
 30
0.0
 10
74.32173392239179
 20
-150.0914414772341
 30
0.0
 10
74.32173392239179
 20
-150.2330349016779
 30
0.0
 10
74.45092500308866
 20
-150.3219183651973
 30
0.0
 10
74.45092500308866
 20
-150.3219183651973
 30
0.0
 10
74.43197697791979
 20
-150.497618234945
 30
0.0
 10
74.43197697791979
 20
-150.497618234945
 30
0.0
 10
74.43197697791979
 20
-150.497618234945
 30
0.0
 10
73.58551701719391
 20
-150.3770398929613
 30
0.0
 10
73.58551701719391
 20
-150.3770398929613
 30
0.0
 10
73.58551701719391
 20
-150.3770398929613
 30
0.0
 10
73.58551701719391
 20
-149.5984483132949
 30
0.0
 10
73.58551701719391
 20
-149.5984483132949
 30
0.0
 10
73.58551701719391
 20
-149.5984483132949
 30
0.0
 10
73.78016491211052
 20
-149.5984483132949
 30
0.0
 10
73.78016491211052
 20
-149.5984483132949
 30
0.0
 10
73.78016491211052
 20
-149.5984483132949
 30
0.0
 10
73.78016491211052
 20
-150.214086876509
 30
0.0
 10
73.78016491211052
 20
-150.214086876509
 30
0.0
 10
73.78016491211052
 20
-150.214086876509
 30
0.0
 10
74.2032226376992
 20
-150.2795436907287
 30
0.0
 10
74.2032226376992
 20
-150.2795436907287
 30
0.0
 10
74.16946070194375
 20
-150.2182209910913
 30
0.0
 10
74.12915308476633
 20
-150.1358832089938
 30
0.0
 10
74.12915308476633
 20
-150.0173719243012
 30
0.0
 10
74.12915308476633
 20
-149.7634683870383
 30
0.0
 10
74.31553275051834
 20
-149.5264458176531
 30
0.0
 10
74.62869193012756
 20
-149.5264458176531
 30
0.0
 10
74.94598522431906
 20
-149.5264458176531
 30
0.0
 10
75.18059622686458
 20
-149.7507215337429
 30
0.0
 10
75.18059622686458
 20
-150.0532009173478
 30
0.0
  0
HATCH
  5
124
330
11D
100
AcDbEntity
  8
_U+30EC_U+30A4_U+30E4_U+30FC 1
 62
   179
420
  2234388
100
AcDbHatch
 10
0.0
 20
0.0
 30
0.0
210
0.0
220
0.0
230
1.0
  2
SOLID
 70
     1
 71
     0
 91
        1
 92
        1
 93
        1
 72
     4
 94
        3
 73
     0
 74
     1
 95
       53
 96
       49
 40
0.0
 40
0.0
 40
0.0
 40
0.0
 40
1.0
 40
1.0
 40
1.0
 40
2.0
 40
2.0
 40
2.0
 40
3.0
 40
3.0
 40
3.0
 40
4.0
 40
4.0
 40
4.0
 40
5.0
 40
5.0
 40
5.0
 40
6.0
 40
6.0
 40
6.0
 40
7.0
 40
7.0
 40
7.0
 40
8.0
 40
8.0
 40
8.0
 40
9.0
 40
9.0
 40
9.0
 40
10.0
 40
10.0
 40
10.0
 40
11.0
 40
11.0
 40
11.0
 40
12.0
 40
12.0
 40
12.0
 40
13.0
 40
13.0
 40
13.0
 40
14.0
 40
14.0
 40
14.0
 40
15.0
 40
15.0
 40
15.0
 40
16.0
 40
16.0
 40
16.0
 40
16.0
 10
75.18059622686458
 20
-150.0532009173478
 10
75.18059622686458
 20
-150.131404584863
 10
75.16371525898685
 20
-150.2330349016779
 10
75.10032550205825
 20
-150.3346652184927
 10
74.99042695607879
 20
-150.5079535214008
 10
74.85916881809077
 20
-150.5293131134094
 10
74.75133732940245
 20
-150.5482611385782
 10
74.75133732940245
 20
-150.5482611385782
 10
74.75133732940245
 20
-150.3260524797796
 10
74.75133732940245
 20
-150.3260524797796
 10
74.95011933890136
 20
-150.2712754615641
 10
74.97974716007451
 20
-150.1441514381584
 10
74.97974716007451
 20
-150.0511338600567
 10
74.97974716007451
 20
-149.911607492904
 10
74.88018390055079
 20
-149.759334272456
 10
74.64763995529643
 20
-149.759334272456
 10
74.39166936074237
 20
-149.759334272456
 10
74.32173392239179
 20
-149.939168256786
 10
74.32173392239179
 20
-150.0597465987698
 10
74.32173392239179
 20
-150.0914414772341
 10
74.32173392239179
 20
-150.2330349016779
 10
74.45092500308866
 20
-150.3219183651973
 10
74.45092500308866
 20
-150.3219183651973
 10
74.43197697791979
 20
-150.497618234945
 10
74.43197697791979
 20
-150.497618234945
 10
74.43197697791979
 20
-150.497618234945
 10
73.58551701719391
 20
-150.3770398929613
 10
73.58551701719391
 20
-150.3770398929613
 10
73.58551701719391
 20
-150.3770398929613
 10
73.58551701719391
 20
-149.5984483132949
 10
73.58551701719391
 20
-149.5984483132949
 10
73.58551701719391
 20
-149.5984483132949
 10
73.78016491211052
 20
-149.5984483132949
 10
73.78016491211052
 20
-149.5984483132949
 10
73.78016491211052
 20
-149.5984483132949
 10
73.78016491211052
 20
-150.214086876509
 10
73.78016491211052
 20
-150.214086876509
 10
73.78016491211052
 20
-150.214086876509
 10
74.2032226376992
 20
-150.2795436907287
 10
74.2032226376992
 20
-150.2795436907287
 10
74.16946070194375
 20
-150.2182209910913
 10
74.12915308476633
 20
-150.1358832089938
 10
74.12915308476633
 20
-150.0173719243012
 10
74.12915308476633
 20
-149.7634683870383
 10
74.31553275051834
 20
-149.5264458176531
 10
74.62869193012756
 20
-149.5264458176531
 10
74.94598522431906
 20
-149.5264458176531
 10
75.18059622686458
 20
-149.7507215337429
 10
75.18059622686458
 20
-150.0532009173478
 97
        0
 97
        0
 75
     2
 76
     1
 98
        0
  0
ENDBLK
  5
120
330
11D
100
AcDbEntity
  8
0
100
AcDbBlockEnd
  0
BLOCK
  5
127
330
125
100
AcDbEntity
  8
0
100
AcDbBlockBegin
  2
block 7
 70
     0
 10
0.0
 20
0.0
 30
0.0
  3
block 7
  1

  0
SPLINE
  5
129
330
125
100
AcDbEntity
  8
_U+30EC_U+30A4_U+30E4_U+30FC 1
370
     0
100
AcDbSpline
210
0.0
220
0.0
230
1.0
 70
    11
 71
     3
 72
    62
 73
    58
 74
     0
 42
0.0000000001
 43
0.0000000001
 12
1.0
 22
0.0
 32
0.0
 13
1.0
 23
0.0
 33
0.0
 40
0.0
 40
0.0
 40
0.0
 40
0.0
 40
1.0
 40
1.0
 40
1.0
 40
2.0
 40
2.0
 40
2.0
 40
3.0
 40
3.0
 40
3.0
 40
4.0
 40
4.0
 40
4.0
 40
5.0
 40
5.0
 40
5.0
 40
6.0
 40
6.0
 40
6.0
 40
7.0
 40
7.0
 40
7.0
 40
8.0
 40
8.0
 40
8.0
 40
9.0
 40
9.0
 40
9.0
 40
10.0
 40
10.0
 40
10.0
 40
11.0
 40
11.0
 40
11.0
 40
12.0
 40
12.0
 40
12.0
 40
13.0
 40
13.0
 40
13.0
 40
14.0
 40
14.0
 40
14.0
 40
15.0
 40
15.0
 40
15.0
 40
16.0
 40
16.0
 40
16.0
 40
17.0
 40
17.0
 40
17.0
 40
18.0
 40
18.0
 40
18.0
 40
19.0
 40
19.0
 40
19.0
 40
19.0
 10
81.27169729956056
 20
-133.8795111427454
 30
0.0
 10
81.17626815461914
 20
-133.8795111427454
 30
0.0
 10
80.95853811995134
 20
-133.8584960602854
 30
0.0
 10
80.83348115383677
 20
-133.6721163945334
 30
0.0
 10
80.7594116009039
 20
-133.5601507912627
 30
0.0
 10
80.7552774863216
 20
-133.460587531739
 30
0.0
 10
80.7511433717393
 20
-133.3761826923504
 30
0.0
 10
80.7511433717393
 20
-133.3761826923504
 30
0.0
 10
80.97128497324677
 20
-133.3761826923504
 30
0.0
 10
80.97128497324677
 20
-133.3761826923504
 30
0.0
 10
80.97335203053791
 20
-133.4499077357347
 30
0.0
 10
80.98368731699367
 20
-133.6848632478288
 30
0.0
 10
81.26721867542973
 20
-133.6848632478288
 30
0.0
 10
81.4046779852912
 20
-133.6848632478288
 30
0.0
 10
81.55729571528776
 20
-133.6152723190267
 30
0.0
 10
81.55729571528776
 20
-133.3865179788062
 30
0.0
 10
81.55729571528776
 20
-133.2700737514047
 30
0.0
 10
81.51905515540149
 20
-133.2214979050627
 30
0.0
 10
81.4873602769372
 20
-133.1898030265984
 30
0.0
 10
81.41329072400433
 20
-133.1157334736655
 30
0.0
 10
81.29684649660288
 20
-133.1033311299186
 30
0.0
 10
81.2420694783874
 20
-133.1033311299186
 30
0.0
 10
81.22277694367
 20
-133.1033311299186
 30
0.0
 10
81.1869479506234
 20
-133.1053981872098
 30
0.0
 10
81.15938718674141
 20
-133.1095323017921
 30
0.0
 10
81.15938718674141
 20
-133.1095323017921
 30
0.0
 10
81.15938718674141
 20
-132.9145398973269
 30
0.0
 10
81.15938718674141
 20
-132.9145398973269
 30
0.0
 10
81.19762774662767
 20
-132.9210855787489
 30
0.0
 10
81.23965791154772
 20
-132.9234971455886
 30
0.0
 10
81.2462035929697
 20
-132.9234971455886
 30
0.0
 10
81.31166040718945
 20
-132.9234971455886
 30
0.0
 10
81.51044241668836
 20
-132.90213755358
 30
0.0
 10
81.51044241668836
 20
-132.6651149841948
 30
0.0
 10
81.51044241668836
 20
-132.4873480571559
 30
0.0
 10
81.37952878824888
 20
-132.432226529392
 30
0.0
 10
81.26928573272087
 20
-132.432226529392
 30
0.0
 10
81.00504690900222
 20
-132.432226529392
 30
0.0
 10
80.99643417028909
 20
-132.6651149841948
 30
0.0
 10
80.99230005570679
 20
-132.7371174798366
 30
0.0
 10
80.99230005570679
 20
-132.7371174798366
 30
0.0
 10
80.78903942207705
 20
-132.7371174798366
 30
0.0
 10
80.78903942207705
 20
-132.7371174798366
 30
0.0
 10
80.79765216079018
 20
-132.612060513722
 30
0.0
 10
80.82521292467217
 20
-132.2358560867327
 30
0.0
 10
81.2820325860163
 20
-132.2358560867327
 30
0.0
 10
81.50630830210606
 20
-132.2358560867327
 30
0.0
 10
81.74746498607355
 20
-132.3626356005899
 30
0.0
 10
81.74746498607355
 20
-132.6589138123214
 30
0.0
 10
81.74746498607355
 20
-132.8449489685249
 30
0.0
 10
81.65238035068066
 20
-132.9276312601709
 30
0.0
 10
81.55281709115694
 20
-132.9889539598083
 30
0.0
 10
81.61413979079438
 20
-133.0165147236903
 30
0.0
 10
81.79604083241557
 20
-133.0967854484966
 30
0.0
 10
81.79604083241557
 20
-133.3741156350593
 30
0.0
 10
81.79604083241557
 20
-133.7124240117108
 30
0.0
 10
81.54868297657464
 20
-133.8795111427454
 30
0.0
 10
81.27169729956056
 20
-133.8795111427454
 30
0.0
  0
HATCH
  5
12A
330
125
100
AcDbEntity
  8
_U+30EC_U+30A4_U+30E4_U+30FC 1
 62
   179
420
  2234388
100
AcDbHatch
 10
0.0
 20
0.0
 30
0.0
210
0.0
220
0.0
230
1.0
  2
SOLID
 70
     1
 71
     0
 91
        1
 92
        1
 93
        1
 72
     4
 94
        3
 73
     0
 74
     1
 95
       62
 96
       58
 40
0.0
 40
0.0
 40
0.0
 40
0.0
 40
1.0
 40
1.0
 40
1.0
 40
2.0
 40
2.0
 40
2.0
 40
3.0
 40
3.0
 40
3.0
 40
4.0
 40
4.0
 40
4.0
 40
5.0
 40
5.0
 40
5.0
 40
6.0
 40
6.0
 40
6.0
 40
7.0
 40
7.0
 40
7.0
 40
8.0
 40
8.0
 40
8.0
 40
9.0
 40
9.0
 40
9.0
 40
10.0
 40
10.0
 40
10.0
 40
11.0
 40
11.0
 40
11.0
 40
12.0
 40
12.0
 40
12.0
 40
13.0
 40
13.0
 40
13.0
 40
14.0
 40
14.0
 40
14.0
 40
15.0
 40
15.0
 40
15.0
 40
16.0
 40
16.0
 40
16.0
 40
17.0
 40
17.0
 40
17.0
 40
18.0
 40
18.0
 40
18.0
 40
19.0
 40
19.0
 40
19.0
 40
19.0
 10
81.27169729956056
 20
-133.8795111427454
 10
81.17626815461914
 20
-133.8795111427454
 10
80.95853811995134
 20
-133.8584960602854
 10
80.83348115383677
 20
-133.6721163945334
 10
80.7594116009039
 20
-133.5601507912627
 10
80.7552774863216
 20
-133.460587531739
 10
80.7511433717393
 20
-133.3761826923504
 10
80.7511433717393
 20
-133.3761826923504
 10
80.97128497324677
 20
-133.3761826923504
 10
80.97128497324677
 20
-133.3761826923504
 10
80.97335203053791
 20
-133.4499077357347
 10
80.98368731699367
 20
-133.6848632478288
 10
81.26721867542973
 20
-133.6848632478288
 10
81.4046779852912
 20
-133.6848632478288
 10
81.55729571528776
 20
-133.6152723190267
 10
81.55729571528776
 20
-133.3865179788062
 10
81.55729571528776
 20
-133.2700737514047
 10
81.51905515540149
 20
-133.2214979050627
 10
81.4873602769372
 20
-133.1898030265984
 10
81.41329072400433
 20
-133.1157334736655
 10
81.29684649660288
 20
-133.1033311299186
 10
81.2420694783874
 20
-133.1033311299186
 10
81.22277694367
 20
-133.1033311299186
 10
81.1869479506234
 20
-133.1053981872098
 10
81.15938718674141
 20
-133.1095323017921
 10
81.15938718674141
 20
-133.1095323017921
 10
81.15938718674141
 20
-132.9145398973269
 10
81.15938718674141
 20
-132.9145398973269
 10
81.19762774662767
 20
-132.9210855787489
 10
81.23965791154772
 20
-132.9234971455886
 10
81.2462035929697
 20
-132.9234971455886
 10
81.31166040718945
 20
-132.9234971455886
 10
81.51044241668836
 20
-132.90213755358
 10
81.51044241668836
 20
-132.6651149841948
 10
81.51044241668836
 20
-132.4873480571559
 10
81.37952878824888
 20
-132.432226529392
 10
81.26928573272087
 20
-132.432226529392
 10
81.00504690900222
 20
-132.432226529392
 10
80.99643417028909
 20
-132.6651149841948
 10
80.99230005570679
 20
-132.7371174798366
 10
80.99230005570679
 20
-132.7371174798366
 10
80.78903942207705
 20
-132.7371174798366
 10
80.78903942207705
 20
-132.7371174798366
 10
80.79765216079018
 20
-132.612060513722
 10
80.82521292467217
 20
-132.2358560867327
 10
81.2820325860163
 20
-132.2358560867327
 10
81.50630830210606
 20
-132.2358560867327
 10
81.74746498607355
 20
-132.3626356005899
 10
81.74746498607355
 20
-132.6589138123214
 10
81.74746498607355
 20
-132.8449489685249
 10
81.65238035068066
 20
-132.9276312601709
 10
81.55281709115694
 20
-132.9889539598083
 10
81.61413979079438
 20
-133.0165147236903
 10
81.79604083241557
 20
-133.0967854484966
 10
81.79604083241557
 20
-133.3741156350593
 10
81.79604083241557
 20
-133.7124240117108
 10
81.54868297657464
 20
-133.8795111427454
 10
81.27169729956056
 20
-133.8795111427454
 97
        0
 97
        0
 75
     2
 76
     1
 98
        0
  0
ENDBLK
  5
128
330
125
100
AcDbEntity
  8
0
100
AcDbBlockEnd
  0
BLOCK
  5
12D
330
12B
100
AcDbEntity
  8
0
100
AcDbBlockBegin
  2
block 8
 70
     0
 10
0.0
 20
0.0
 30
0.0
  3
block 8
  1

  0
SPLINE
  5
12F
330
12B
100
AcDbEntity
  8
_U+30EC_U+30A4_U+30E4_U+30FC 1
370
     0
100
AcDbSpline
210
0.0
220
0.0
230
1.0
 70
    11
 71
     3
 72
    26
 73
    22
 74
     0
 42
0.0000000001
 43
0.0000000001
 12
1.0
 22
0.0
 32
0.0
 13
1.0
 23
0.0
 33
0.0
 40
0.0
 40
0.0
 40
0.0
 40
0.0
 40
1.0
 40
1.0
 40
1.0
 40
2.0
 40
2.0
 40
2.0
 40
3.0
 40
3.0
 40
3.0
 40
4.0
 40
4.0
 40
4.0
 40
5.0
 40
5.0
 40
5.0
 40
6.0
 40
6.0
 40
6.0
 40
7.0
 40
7.0
 40
7.0
 40
7.0
 10
86.19112139772305
 20
-133.8288682391122
 30
0.0
 10
86.19112139772305
 20
-133.8288682391122
 30
0.0
 10
85.95409882833786
 20
-133.8288682391122
 30
0.0
 10
85.95409882833786
 20
-133.8288682391122
 30
0.0
 10
85.97959253492871
 20
-133.5201876836338
 30
0.0
 10
86.17217337255418
 20
-133.0020453226523
 30
0.0
 10
86.57835013026514
 20
-132.4963053054176
 30
0.0
 10
86.57835013026514
 20
-132.4963053054176
 30
0.0
 10
85.74050290825238
 20
-132.4963053054176
 30
0.0
 10
85.74050290825238
 20
-132.4963053054176
 30
0.0
 10
85.74050290825238
 20
-132.4963053054176
 30
0.0
 10
85.74050290825238
 20
-132.2847764426233
 30
0.0
 10
85.74050290825238
 20
-132.2847764426233
 30
0.0
 10
85.74050290825238
 20
-132.2847764426233
 30
0.0
 10
86.81537269965033
 20
-132.2847764426233
 30
0.0
 10
86.81537269965033
 20
-132.2847764426233
 30
0.0
 10
86.81537269965033
 20
-132.2847764426233
 30
0.0
 10
86.81537269965033
 20
-132.4963053054176
 30
0.0
 10
86.81537269965033
 20
-132.4963053054176
 30
0.0
 10
86.49153372403684
 20
-132.7860378357271
 30
0.0
 10
86.2248833334785
 20
-133.3782497496416
 30
0.0
 10
86.19112139772305
 20
-133.8288682391122
 30
0.0
  0
HATCH
  5
130
330
12B
100
AcDbEntity
  8
_U+30EC_U+30A4_U+30E4_U+30FC 1
 62
   179
420
  2234388
100
AcDbHatch
 10
0.0
 20
0.0
 30
0.0
210
0.0
220
0.0
230
1.0
  2
SOLID
 70
     1
 71
     0
 91
        1
 92
        1
 93
        1
 72
     4
 94
        3
 73
     0
 74
     1
 95
       26
 96
       22
 40
0.0
 40
0.0
 40
0.0
 40
0.0
 40
1.0
 40
1.0
 40
1.0
 40
2.0
 40
2.0
 40
2.0
 40
3.0
 40
3.0
 40
3.0
 40
4.0
 40
4.0
 40
4.0
 40
5.0
 40
5.0
 40
5.0
 40
6.0
 40
6.0
 40
6.0
 40
7.0
 40
7.0
 40
7.0
 40
7.0
 10
86.19112139772305
 20
-133.8288682391122
 10
86.19112139772305
 20
-133.8288682391122
 10
85.95409882833786
 20
-133.8288682391122
 10
85.95409882833786
 20
-133.8288682391122
 10
85.97959253492871
 20
-133.5201876836338
 10
86.17217337255418
 20
-133.0020453226523
 10
86.57835013026514
 20
-132.4963053054176
 10
86.57835013026514
 20
-132.4963053054176
 10
85.74050290825238
 20
-132.4963053054176
 10
85.74050290825238
 20
-132.4963053054176
 10
85.74050290825238
 20
-132.4963053054176
 10
85.74050290825238
 20
-132.2847764426233
 10
85.74050290825238
 20
-132.2847764426233
 10
85.74050290825238
 20
-132.2847764426233
 10
86.81537269965033
 20
-132.2847764426233
 10
86.81537269965033
 20
-132.2847764426233
 10
86.81537269965033
 20
-132.2847764426233
 10
86.81537269965033
 20
-132.4963053054176
 10
86.81537269965033
 20
-132.4963053054176
 10
86.49153372403684
 20
-132.7860378357271
 10
86.2248833334785
 20
-133.3782497496416
 10
86.19112139772305
 20
-133.8288682391122
 97
        0
 97
        0
 75
     2
 76
     1
 98
        0
  0
ENDBLK
  5
12E
330
12B
100
AcDbEntity
  8
0
100
AcDbBlockEnd
  0
BLOCK
  5
133
330
131
100
AcDbEntity
  8
0
100
AcDbBlockBegin
  2
block 9
 70
     0
 10
0.0
 20
0.0
 30
0.0
  3
block 9
  1

  0
SPLINE
  5
135
330
131
100
AcDbEntity
  8
_U+30EC_U+30A4_U+30E4_U+30FC 1
370
     0
100
AcDbSpline
210
0.0
220
0.0
230
1.0
 70
    11
 71
     3
 72
    44
 73
    40
 74
     0
 42
0.0000000001
 43
0.0000000001
 12
1.0
 22
0.0
 32
0.0
 13
1.0
 23
0.0
 33
0.0
 40
0.0
 40
0.0
 40
0.0
 40
0.0
 40
1.0
 40
1.0
 40
1.0
 40
2.0
 40
2.0
 40
2.0
 40
3.0
 40
3.0
 40
3.0
 40
4.0
 40
4.0
 40
4.0
 40
5.0
 40
5.0
 40
5.0
 40
6.0
 40
6.0
 40
6.0
 40
7.0
 40
7.0
 40
7.0
 40
8.0
 40
8.0
 40
8.0
 40
9.0
 40
9.0
 40
9.0
 40
10.0
 40
10.0
 40
10.0
 40
11.0
 40
11.0
 40
11.0
 40
12.0
 40
12.0
 40
12.0
 40
13.0
 40
13.0
 40
13.0
 40
13.0
 10
91.78457842757469
 20
-165.8944389776236
 30
0.0
 10
91.5668483929069
 20
-166.0536023890422
 30
0.0
 10
91.47383081480515
 20
-166.1273274324265
 30
0.0
 10
91.42491045891461
 20
-166.27133242371
 30
0.0
 10
91.42491045891461
 20
-166.27133242371
 30
0.0
 10
92.20350203858108
 20
-166.27133242371
 30
0.0
 10
92.20350203858108
 20
-166.27133242371
 30
0.0
 10
92.20350203858108
 20
-166.27133242371
 30
0.0
 10
92.20350203858108
 20
-166.4766601146308
 30
0.0
 10
92.20350203858108
 20
-166.4766601146308
 30
0.0
 10
92.20350203858108
 20
-166.4766601146308
 30
0.0
 10
91.17548554578252
 20
-166.4766601146308
 30
0.0
 10
91.17548554578252
 20
-166.4766601146308
 30
0.0
 10
91.20718042424681
 20
-166.1190592032619
 30
0.0
 10
91.27263723846657
 20
-166.0405110261982
 30
0.0
 10
91.6577989137175
 20
-165.7421657571756
 30
0.0
 10
91.91376950827156
 20
-165.5437282572252
 30
0.0
 10
91.97922632249131
 20
-165.4755153666172
 30
0.0
 10
91.97922632249131
 20
-165.3384005663043
 30
0.0
 10
91.97922632249131
 20
-165.2198892816117
 30
0.0
 10
91.90722382684959
 20
-165.0889756531722
 30
0.0
 10
91.71050887464182
 20
-165.0889756531722
 30
0.0
 10
91.45040416550546
 20
-165.0889756531722
 30
0.0
 10
91.44213593634086
 20
-165.3191080315869
 30
0.0
 10
91.43765731221004
 20
-165.4355522589883
 30
0.0
 10
91.43765731221004
 20
-165.4355522589883
 30
0.0
 10
91.21338159612027
 20
-165.4355522589883
 30
0.0
 10
91.21338159612027
 20
-165.4355522589883
 30
0.0
 10
91.2219943348334
 20
-165.3087727451311
 30
0.0
 10
91.23267413083767
 20
-165.196462632312
 30
0.0
 10
91.31294485564399
 20
-165.0779513476194
 30
0.0
 10
91.42284340162345
 20
-164.9174098980068
 30
0.0
 10
91.60922306737548
 20
-164.8836479622513
 30
0.0
 10
91.7253227852284
 20
-164.8836479622513
 30
0.0
 10
92.00265297179101
 20
-164.8836479622513
 30
0.0
 10
92.21004772000305
 20
-165.0676160611636
 30
0.0
 10
92.21004772000305
 20
-165.3404676235955
 30
0.0
 10
92.21004772000305
 20
-165.569221963816
 30
0.0
 10
92.0936034926016
 20
-165.6684407137912
 30
0.0
 10
91.78457842757469
 20
-165.8944389776236
 30
0.0
  0
HATCH
  5
136
330
131
100
AcDbEntity
  8
_U+30EC_U+30A4_U+30E4_U+30FC 1
 62
   179
420
  2234388
100
AcDbHatch
 10
0.0
 20
0.0
 30
0.0
210
0.0
220
0.0
230
1.0
  2
SOLID
 70
     1
 71
     0
 91
        1
 92
        1
 93
        1
 72
     4
 94
        3
 73
     0
 74
     1
 95
       44
 96
       40
 40
0.0
 40
0.0
 40
0.0
 40
0.0
 40
1.0
 40
1.0
 40
1.0
 40
2.0
 40
2.0
 40
2.0
 40
3.0
 40
3.0
 40
3.0
 40
4.0
 40
4.0
 40
4.0
 40
5.0
 40
5.0
 40
5.0
 40
6.0
 40
6.0
 40
6.0
 40
7.0
 40
7.0
 40
7.0
 40
8.0
 40
8.0
 40
8.0
 40
9.0
 40
9.0
 40
9.0
 40
10.0
 40
10.0
 40
10.0
 40
11.0
 40
11.0
 40
11.0
 40
12.0
 40
12.0
 40
12.0
 40
13.0
 40
13.0
 40
13.0
 40
13.0
 10
91.78457842757469
 20
-165.8944389776236
 10
91.5668483929069
 20
-166.0536023890422
 10
91.47383081480515
 20
-166.1273274324265
 10
91.42491045891461
 20
-166.27133242371
 10
91.42491045891461
 20
-166.27133242371
 10
92.20350203858108
 20
-166.27133242371
 10
92.20350203858108
 20
-166.27133242371
 10
92.20350203858108
 20
-166.27133242371
 10
92.20350203858108
 20
-166.4766601146308
 10
92.20350203858108
 20
-166.4766601146308
 10
92.20350203858108
 20
-166.4766601146308
 10
91.17548554578252
 20
-166.4766601146308
 10
91.17548554578252
 20
-166.4766601146308
 10
91.20718042424681
 20
-166.1190592032619
 10
91.27263723846657
 20
-166.0405110261982
 10
91.6577989137175
 20
-165.7421657571756
 10
91.91376950827156
 20
-165.5437282572252
 10
91.97922632249131
 20
-165.4755153666172
 10
91.97922632249131
 20
-165.3384005663043
 10
91.97922632249131
 20
-165.2198892816117
 10
91.90722382684959
 20
-165.0889756531722
 10
91.71050887464182
 20
-165.0889756531722
 10
91.45040416550546
 20
-165.0889756531722
 10
91.44213593634086
 20
-165.3191080315869
 10
91.43765731221004
 20
-165.4355522589883
 10
91.43765731221004
 20
-165.4355522589883
 10
91.21338159612027
 20
-165.4355522589883
 10
91.21338159612027
 20
-165.4355522589883
 10
91.2219943348334
 20
-165.3087727451311
 10
91.23267413083767
 20
-165.196462632312
 10
91.31294485564399
 20
-165.0779513476194
 10
91.42284340162345
 20
-164.9174098980068
 10
91.60922306737548
 20
-164.8836479622513
 10
91.7253227852284
 20
-164.8836479622513
 10
92.00265297179101
 20
-164.8836479622513
 10
92.21004772000305
 20
-165.0676160611636
 10
92.21004772000305
 20
-165.3404676235955
 10
92.21004772000305
 20
-165.569221963816
 10
92.0936034926016
 20
-165.6684407137912
 10
91.78457842757469
 20
-165.8944389776236
 97
        0
 97
        0
 75
     2
 76
     1
 98
        0
  0
SPLINE
  5
137
330
131
100
AcDbEntity
  8
_U+30EC_U+30A4_U+30E4_U+30FC 1
370
     0
100
AcDbSpline
210
0.0
220
0.0
230
1.0
 70
    11
 71
     3
 72
    53
 73
    49
 74
     0
 42
0.0000000001
 43
0.0000000001
 12
1.0
 22
0.0
 32
0.0
 13
1.0
 23
0.0
 33
0.0
 40
0.0
 40
0.0
 40
0.0
 40
0.0
 40
1.0
 40
1.0
 40
1.0
 40
2.0
 40
2.0
 40
2.0
 40
3.0
 40
3.0
 40
3.0
 40
4.0
 40
4.0
 40
4.0
 40
5.0
 40
5.0
 40
5.0
 40
6.0
 40
6.0
 40
6.0
 40
7.0
 40
7.0
 40
7.0
 40
8.0
 40
8.0
 40
8.0
 40
9.0
 40
9.0
 40
9.0
 40
10.0
 40
10.0
 40
10.0
 40
11.0
 40
11.0
 40
11.0
 40
12.0
 40
12.0
 40
12.0
 40
13.0
 40
13.0
 40
13.0
 40
14.0
 40
14.0
 40
14.0
 40
15.0
 40
15.0
 40
15.0
 40
16.0
 40
16.0
 40
16.0
 40
16.0
 10
92.84945744206541
 20
-166.5269585087155
 30
0.0
 10
92.77125377455025
 20
-166.5269585087155
 30
0.0
 10
92.66962345773537
 20
-166.5104220503863
 30
0.0
 10
92.5679931409205
 20
-166.4470322934577
 30
0.0
 10
92.39470483801244
 20
-166.3367892379297
 30
0.0
 10
92.3733452460039
 20
-166.2058756094902
 30
0.0
 10
92.35439722083501
 20
-166.0976996112533
 30
0.0
 10
92.35439722083501
 20
-166.0976996112533
 30
0.0
 10
92.57660587963363
 20
-166.0976996112533
 30
0.0
 10
92.57660587963363
 20
-166.0976996112533
 30
0.0
 10
92.63138289784911
 20
-166.2968261303008
 30
0.0
 10
92.75850692125482
 20
-166.326453951474
 30
0.0
 10
92.85152449935657
 20
-166.326453951474
 30
0.0
 10
92.99105086650918
 20
-166.326453951474
 30
0.0
 10
93.14332408695724
 20
-166.2265461824017
 30
0.0
 10
93.14332408695724
 20
-165.9943467466959
 30
0.0
 10
93.14332408695724
 20
-165.7380316425933
 30
0.0
 10
92.96349010262719
 20
-165.6684407137912
 30
0.0
 10
92.84291176064345
 20
-165.6684407137912
 30
0.0
 10
92.81121688217914
 20
-165.6684407137912
 30
0.0
 10
92.66962345773537
 20
-165.6684407137912
 30
0.0
 10
92.58073999421593
 20
-165.7972872849396
 30
0.0
 10
92.58073999421593
 20
-165.7972872849396
 30
0.0
 10
92.40504012446819
 20
-165.7786837693192
 30
0.0
 10
92.40504012446819
 20
-165.7786837693192
 30
0.0
 10
92.40504012446819
 20
-165.7786837693192
 30
0.0
 10
92.52561846645193
 20
-164.9318792990448
 30
0.0
 10
92.52561846645193
 20
-164.9318792990448
 30
0.0
 10
92.52561846645193
 20
-164.9318792990448
 30
0.0
 10
93.3042100461184
 20
-164.9318792990448
 30
0.0
 10
93.3042100461184
 20
-164.9318792990448
 30
0.0
 10
93.3042100461184
 20
-164.9318792990448
 30
0.0
 10
93.3042100461184
 20
-165.1268717035099
 30
0.0
 10
93.3042100461184
 20
-165.1268717035099
 30
0.0
 10
93.3042100461184
 20
-165.1268717035099
 30
0.0
 10
92.68857148290425
 20
-165.1268717035099
 30
0.0
 10
92.68857148290425
 20
-165.1268717035099
 30
0.0
 10
92.68857148290425
 20
-165.1268717035099
 30
0.0
 10
92.62311466868451
 20
-165.5499294290986
 30
0.0
 10
92.62311466868451
 20
-165.5499294290986
 30
0.0
 10
92.68443736832195
 20
-165.5161674933432
 30
0.0
 10
92.76677515041942
 20
-165.4755153666172
 30
0.0
 10
92.88528643511202
 20
-165.4755153666172
 30
0.0
 10
93.13918997237492
 20
-165.4755153666172
 30
0.0
 10
93.37621254176011
 20
-165.6622395419178
 30
0.0
 10
93.37621254176011
 20
-165.9750542119785
 30
0.0
 10
93.37621254176011
 20
-166.2926920157185
 30
0.0
 10
93.15193682567035
 20
-166.5269585087155
 30
0.0
 10
92.84945744206541
 20
-166.5269585087155
 30
0.0
  0
HATCH
  5
138
330
131
100
AcDbEntity
  8
_U+30EC_U+30A4_U+30E4_U+30FC 1
 62
   179
420
  2234388
100
AcDbHatch
 10
0.0
 20
0.0
 30
0.0
210
0.0
220
0.0
230
1.0
  2
SOLID
 70
     1
 71
     0
 91
        1
 92
        1
 93
        1
 72
     4
 94
        3
 73
     0
 74
     1
 95
       53
 96
       49
 40
0.0
 40
0.0
 40
0.0
 40
0.0
 40
1.0
 40
1.0
 40
1.0
 40
2.0
 40
2.0
 40
2.0
 40
3.0
 40
3.0
 40
3.0
 40
4.0
 40
4.0
 40
4.0
 40
5.0
 40
5.0
 40
5.0
 40
6.0
 40
6.0
 40
6.0
 40
7.0
 40
7.0
 40
7.0
 40
8.0
 40
8.0
 40
8.0
 40
9.0
 40
9.0
 40
9.0
 40
10.0
 40
10.0
 40
10.0
 40
11.0
 40
11.0
 40
11.0
 40
12.0
 40
12.0
 40
12.0
 40
13.0
 40
13.0
 40
13.0
 40
14.0
 40
14.0
 40
14.0
 40
15.0
 40
15.0
 40
15.0
 40
16.0
 40
16.0
 40
16.0
 40
16.0
 10
92.84945744206541
 20
-166.5269585087155
 10
92.77125377455025
 20
-166.5269585087155
 10
92.66962345773537
 20
-166.5104220503863
 10
92.5679931409205
 20
-166.4470322934577
 10
92.39470483801244
 20
-166.3367892379297
 10
92.3733452460039
 20
-166.2058756094902
 10
92.35439722083501
 20
-166.0976996112533
 10
92.35439722083501
 20
-166.0976996112533
 10
92.57660587963363
 20
-166.0976996112533
 10
92.57660587963363
 20
-166.0976996112533
 10
92.63138289784911
 20
-166.2968261303008
 10
92.75850692125482
 20
-166.326453951474
 10
92.85152449935657
 20
-166.326453951474
 10
92.99105086650918
 20
-166.326453951474
 10
93.14332408695724
 20
-166.2265461824017
 10
93.14332408695724
 20
-165.9943467466959
 10
93.14332408695724
 20
-165.7380316425933
 10
92.96349010262719
 20
-165.6684407137912
 10
92.84291176064345
 20
-165.6684407137912
 10
92.81121688217914
 20
-165.6684407137912
 10
92.66962345773537
 20
-165.6684407137912
 10
92.58073999421593
 20
-165.7972872849396
 10
92.58073999421593
 20
-165.7972872849396
 10
92.40504012446819
 20
-165.7786837693192
 10
92.40504012446819
 20
-165.7786837693192
 10
92.40504012446819
 20
-165.7786837693192
 10
92.52561846645193
 20
-164.9318792990448
 10
92.52561846645193
 20
-164.9318792990448
 10
92.52561846645193
 20
-164.9318792990448
 10
93.3042100461184
 20
-164.9318792990448
 10
93.3042100461184
 20
-164.9318792990448
 10
93.3042100461184
 20
-164.9318792990448
 10
93.3042100461184
 20
-165.1268717035099
 10
93.3042100461184
 20
-165.1268717035099
 10
93.3042100461184
 20
-165.1268717035099
 10
92.68857148290425
 20
-165.1268717035099
 10
92.68857148290425
 20
-165.1268717035099
 10
92.68857148290425
 20
-165.1268717035099
 10
92.62311466868451
 20
-165.5499294290986
 10
92.62311466868451
 20
-165.5499294290986
 10
92.68443736832195
 20
-165.5161674933432
 10
92.76677515041942
 20
-165.4755153666172
 10
92.88528643511202
 20
-165.4755153666172
 10
93.13918997237492
 20
-165.4755153666172
 10
93.37621254176011
 20
-165.6622395419178
 10
93.37621254176011
 20
-165.9750542119785
 10
93.37621254176011
 20
-166.2926920157185
 10
93.15193682567035
 20
-166.5269585087155
 10
92.84945744206541
 20
-166.5269585087155
 97
        0
 97
        0
 75
     2
 76
     1
 98
        0
  0
ENDBLK
  5
134
330
131
100
AcDbEntity
  8
0
100
AcDbBlockEnd
  0
ENDSEC
  0
SECTION
  2
ENTITIES
  0
POLYLINE
  5
41
330
1F
100
AcDbEntity
  8
_U+30EC_U+30A4_U+30E4_U+30FC 1
370
     0
100
AcDb2dPolyline
 66
     1
 10
0.0
 20
0.0
 30
0.0
  0
VERTEX
  5
42
330
41
100
AcDbEntity
  8
_U+30EC_U+30A4_U+30E4_U+30FC 1
370
     0
100
AcDbVertex
100
AcDb2dVertex
 10
82.78046761031655
 20
-139.1219030207752
 30
0.0
  0
VERTEX
  5
43
330
41
100
AcDbEntity
  8
_U+30EC_U+30A4_U+30E4_U+30FC 1
370
     0
100
AcDbVertex
100
AcDb2dVertex
 10
80.78042932800844
 20
-139.1219030207752
 30
0.0
  0
VERTEX
  5
44
330
41
100
AcDbEntity
  8
_U+30EC_U+30A4_U+30E4_U+30FC 1
370
     0
100
AcDbVertex
100
AcDb2dVertex
 10
80.78042932800844
 20
-146.1223546856914
 30
0.0
  0
VERTEX
  5
45
330
41
100
AcDbEntity
  8
_U+30EC_U+30A4_U+30E4_U+30FC 1
370
     0
100
AcDbVertex
100
AcDb2dVertex
 10
89.78056632061804
 20
-146.1223546856914
 30
0.0
  0
VERTEX
  5
46
330
41
100
AcDbEntity
  8
_U+30EC_U+30A4_U+30E4_U+30FC 1
370
     0
100
AcDbVertex
100
AcDb2dVertex
 10
89.78056632061804
 20
-97.12222692016388
 30
0.0
  0
VERTEX
  5
47
330
41
100
AcDbEntity
  8
_U+30EC_U+30A4_U+30E4_U+30FC 1
370
     0
100
AcDbVertex
100
AcDb2dVertex
 10
90.9805046233384
 20
-97.12222692016388
 30
0.0
  0
VERTEX
  5
48
330
41
100
AcDbEntity
  8
_U+30EC_U+30A4_U+30E4_U+30FC 1
370
     0
100
AcDbVertex
100
AcDb2dVertex
 10
90.9805046233384
 20
-147.1221269076639
 30
0.0
  0
VERTEX
  5
49
330
41
100
AcDbEntity
  8
_U+30EC_U+30A4_U+30E4_U+30FC 1
370
     0
100
AcDbVertex
100
AcDb2dVertex
 10
80.78042932800844
 20
-147.1221269076639
 30
0.0
  0
VERTEX
  5
4A
330
41
100
AcDbEntity
  8
_U+30EC_U+30A4_U+30E4_U+30FC 1
370
     0
100
AcDbVertex
100
AcDb2dVertex
 10
80.78042932800844
 20
-162.1220616261363
 30
0.0
  0
VERTEX
  5
4B
330
41
100
AcDbEntity
  8
_U+30EC_U+30A4_U+30E4_U+30FC 1
370
     0
100
AcDbVertex
100
AcDb2dVertex
 10
103.7807284634441
 20
-162.1220616261363
 30
0.0
  0
VERTEX
  5
4C
330
41
100
AcDbEntity
  8
_U+30EC_U+30A4_U+30E4_U+30FC 1
370
     0
100
AcDbVertex
100
AcDb2dVertex
 10
103.7807284634441
 20
-160.1218469044138
 30
0.0
  0
VERTEX
  5
4D
330
41
100
AcDbEntity
  8
_U+30EC_U+30A4_U+30E4_U+30FC 1
370
     0
100
AcDbVertex
100
AcDb2dVertex
 10
104.7805006601601
 20
-160.1218469044138
 30
0.0
  0
VERTEX
  5
4E
330
41
100
AcDbEntity
  8
_U+30EC_U+30A4_U+30E4_U+30FC 1
370
     0
100
AcDbVertex
100
AcDb2dVertex
 10
104.7805006601601
 20
-163.1218338481082
 30
0.0
  0
VERTEX
  5
4F
330
41
100
AcDbEntity
  8
_U+30EC_U+30A4_U+30E4_U+30FC 1
370
     0
100
AcDbVertex
100
AcDb2dVertex
 10
79.78030435352376
 20
-163.1218338481082
 30
0.0
  0
VERTEX
  5
50
330
41
100
AcDbEntity
  8
_U+30EC_U+30A4_U+30E4_U+30FC 1
370
     0
100
AcDbVertex
100
AcDb2dVertex
 10
79.78030435352376
 20
-138.1221307988027
 30
0.0
  0
VERTEX
  5
51
330
41
100
AcDbEntity
  8
_U+30EC_U+30A4_U+30E4_U+30FC 1
370
     0
100
AcDbVertex
100
AcDb2dVertex
 10
82.78046761031655
 20
-138.1221307988027
 30
0.0
  0
VERTEX
  5
52
330
41
100
AcDbEntity
  8
_U+30EC_U+30A4_U+30E4_U+30FC 1
370
     0
100
AcDbVertex
100
AcDb2dVertex
 10
82.78046761031655
 20
-139.1219030207752
 30
0.0
  0
SEQEND
  5
54
330
41
100
AcDbEntity
  8
_U+30EC_U+30A4_U+30E4_U+30FC 1
370
     0
  0
HATCH
  5
53
330
1F
100
AcDbEntity
  8
_U+30EC_U+30A4_U+30E4_U+30FC 1
 62
   253
420
 11711154
100
AcDbHatch
 10
0.0
 20
0.0
 30
0.0
210
0.0
220
0.0
230
1.0
  2
SOLID
 70
     1
 71
     0
 91
        1
 92
        1
 93
       16
 72
     1
 10
82.78046761031655
 20
-139.1219030207752
 11
80.78042932800844
 21
-139.1219030207752
 72
     1
 10
80.78042932800844
 20
-139.1219030207752
 11
80.78042932800844
 21
-146.1223546856914
 72
     1
 10
80.78042932800844
 20
-146.1223546856914
 11
89.78056632061804
 21
-146.1223546856914
 72
     1
 10
89.78056632061804
 20
-146.1223546856914
 11
89.78056632061804
 21
-97.12222692016388
 72
     1
 10
89.78056632061804
 20
-97.12222692016388
 11
90.9805046233384
 21
-97.12222692016388
 72
     1
 10
90.9805046233384
 20
-97.12222692016388
 11
90.9805046233384
 21
-147.1221269076639
 72
     1
 10
90.9805046233384
 20
-147.1221269076639
 11
80.78042932800844
 21
-147.1221269076639
 72
     1
 10
80.78042932800844
 20
-147.1221269076639
 11
80.78042932800844
 21
-162.1220616261363
 72
     1
 10
80.78042932800844
 20
-162.1220616261363
 11
103.7807284634441
 21
-162.1220616261363
 72
     1
 10
103.7807284634441
 20
-162.1220616261363
 11
103.7807284634441
 21
-160.1218469044138
 72
     1
 10
103.7807284634441
 20
-160.1218469044138
 11
104.7805006601601
 21
-160.1218469044138
 72
     1
 10
104.7805006601601
 20
-160.1218469044138
 11
104.7805006601601
 21
-163.1218338481082
 72
     1
 10
104.7805006601601
 20
-163.1218338481082
 11
79.78030435352376
 21
-163.1218338481082
 72
     1
 10
79.78030435352376
 20
-163.1218338481082
 11
79.78030435352376
 21
-138.1221307988027
 72
     1
 10
79.78030435352376
 20
-138.1221307988027
 11
82.78046761031655
 21
-138.1221307988027
 72
     1
 10
82.78046761031655
 20
-138.1221307988027
 11
82.78046761031655
 21
-139.1219030207752
 97
        0
 75
     2
 76
     1
 98
        0
  0
POLYLINE
  5
55
330
1F
100
AcDbEntity
  8
_U+30EC_U+30A4_U+30E4_U+30FC 1
 62
   179
420
  2234388
370
    25
100
AcDb2dPolyline
 66
     1
 10
0.0
 20
0.0
 30
0.0
  0
VERTEX
  5
56
330
55
100
AcDbEntity
  8
_U+30EC_U+30A4_U+30E4_U+30FC 1
 62
   179
420
  2234388
370
    25
100
AcDbVertex
100
AcDb2dVertex
 10
89.78056632061804
 20
-97.12222692016388
 30
0.0
  0
VERTEX
  5
57
330
55
100
AcDbEntity
  8
_U+30EC_U+30A4_U+30E4_U+30FC 1
 62
   179
420
  2234388
370
    25
100
AcDbVertex
100
AcDb2dVertex
 10
89.78056632061804
 20
-146.1223546856914
 30
0.0
  0
SEQEND
  5
58
330
55
100
AcDbEntity
  8
_U+30EC_U+30A4_U+30E4_U+30FC 1
 62
   179
420
  2234388
370
    25
  0
POLYLINE
  5
59
330
1F
100
AcDbEntity
  8
_U+30EC_U+30A4_U+30E4_U+30FC 1
 62
   179
420
  2234388
370
    25
100
AcDb2dPolyline
 66
     1
 10
0.0
 20
0.0
 30
0.0
  0
VERTEX
  5
5A
330
59
100
AcDbEntity
  8
_U+30EC_U+30A4_U+30E4_U+30FC 1
 62
   179
420
  2234388
370
    25
100
AcDbVertex
100
AcDb2dVertex
 10
90.9805046233384
 20
-97.12222692016388
 30
0.0
  0
VERTEX
  5
5B
330
59
100
AcDbEntity
  8
_U+30EC_U+30A4_U+30E4_U+30FC 1
 62
   179
420
  2234388
370
    25
100
AcDbVertex
100
AcDb2dVertex
 10
89.78056632061804
 20
-97.12222692016388
 30
0.0
  0
SEQEND
  5
5C
330
59
100
AcDbEntity
  8
_U+30EC_U+30A4_U+30E4_U+30FC 1
 62
   179
420
  2234388
370
    25
  0
POLYLINE
  5
5D
330
1F
100
AcDbEntity
  8
_U+30EC_U+30A4_U+30E4_U+30FC 1
 62
   179
420
  2234388
370
    25
100
AcDb2dPolyline
 66
     1
 10
0.0
 20
0.0
 30
0.0
  0
VERTEX
  5
5E
330
5D
100
AcDbEntity
  8
_U+30EC_U+30A4_U+30E4_U+30FC 1
 62
   179
420
  2234388
370
    25
100
AcDbVertex
100
AcDb2dVertex
 10
90.9805046233384
 20
-97.12222692016388
 30
0.0
  0
VERTEX
  5
5F
330
5D
100
AcDbEntity
  8
_U+30EC_U+30A4_U+30E4_U+30FC 1
 62
   179
420
  2234388
370
    25
100
AcDbVertex
100
AcDb2dVertex
 10
90.9805046233384
 20
-147.1221269076639
 30
0.0
  0
SEQEND
  5
60
330
5D
100
AcDbEntity
  8
_U+30EC_U+30A4_U+30E4_U+30FC 1
 62
   179
420
  2234388
370
    25
  0
POLYLINE
  5
61
330
1F
100
AcDbEntity
  8
_U+30EC_U+30A4_U+30E4_U+30FC 1
 62
   179
420
  2234388
370
    25
100
AcDb2dPolyline
 66
     1
 10
0.0
 20
0.0
 30
0.0
  0
VERTEX
  5
62
330
61
100
AcDbEntity
  8
_U+30EC_U+30A4_U+30E4_U+30FC 1
 62
   179
420
  2234388
370
    25
100
AcDbVertex
100
AcDb2dVertex
 10
90.9805046233384
 20
-147.1221269076639
 30
0.0
  0
VERTEX
  5
63
330
61
100
AcDbEntity
  8
_U+30EC_U+30A4_U+30E4_U+30FC 1
 62
   179
420
  2234388
370
    25
100
AcDbVertex
100
AcDb2dVertex
 10
80.78042932800844
 20
-147.1221269076639
 30
0.0
  0
SEQEND
  5
64
330
61
100
AcDbEntity
  8
_U+30EC_U+30A4_U+30E4_U+30FC 1
 62
   179
420
  2234388
370
    25
  0
POLYLINE
  5
65
330
1F
100
AcDbEntity
  8
_U+30EC_U+30A4_U+30E4_U+30FC 1
 62
   179
420
  2234388
370
    25
100
AcDb2dPolyline
 66
     1
 10
0.0
 20
0.0
 30
0.0
  0
VERTEX
  5
66
330
65
100
AcDbEntity
  8
_U+30EC_U+30A4_U+30E4_U+30FC 1
 62
   179
420
  2234388
370
    25
100
AcDbVertex
100
AcDb2dVertex
 10
82.78046761031655
 20
-138.1221307988027
 30
0.0
  0
VERTEX
  5
67
330
65
100
AcDbEntity
  8
_U+30EC_U+30A4_U+30E4_U+30FC 1
 62
   179
420
  2234388
370
    25
100
AcDbVertex
100
AcDb2dVertex
 10
82.78046761031655
 20
-139.1219030207752
 30
0.0
  0
SEQEND
  5
68
330
65
100
AcDbEntity
  8
_U+30EC_U+30A4_U+30E4_U+30FC 1
 62
   179
420
  2234388
370
    25
  0
POLYLINE
  5
69
330
1F
100
AcDbEntity
  8
_U+30EC_U+30A4_U+30E4_U+30FC 1
 62
   179
420
  2234388
370
    25
100
AcDb2dPolyline
 66
     1
 10
0.0
 20
0.0
 30
0.0
  0
VERTEX
  5
6A
330
69
100
AcDbEntity
  8
_U+30EC_U+30A4_U+30E4_U+30FC 1
 62
   179
420
  2234388
370
    25
100
AcDbVertex
100
AcDb2dVertex
 10
79.78030435352376
 20
-138.1221307988027
 30
0.0
  0
VERTEX
  5
6B
330
69
100
AcDbEntity
  8
_U+30EC_U+30A4_U+30E4_U+30FC 1
 62
   179
420
  2234388
370
    25
100
AcDbVertex
100
AcDb2dVertex
 10
79.78030435352376
 20
-163.1218338481082
 30
0.0
  0
SEQEND
  5
6C
330
69
100
AcDbEntity
  8
_U+30EC_U+30A4_U+30E4_U+30FC 1
 62
   179
420
  2234388
370
    25
  0
POLYLINE
  5
6D
330
1F
100
AcDbEntity
  8
_U+30EC_U+30A4_U+30E4_U+30FC 1
 62
   179
420
  2234388
370
    25
100
AcDb2dPolyline
 66
     1
 10
0.0
 20
0.0
 30
0.0
  0
VERTEX
  5
6E
330
6D
100
AcDbEntity
  8
_U+30EC_U+30A4_U+30E4_U+30FC 1
 62
   179
420
  2234388
370
    25
100
AcDbVertex
100
AcDb2dVertex
 10
104.7805006601601
 20
-160.1218469044138
 30
0.0
  0
VERTEX
  5
6F
330
6D
100
AcDbEntity
  8
_U+30EC_U+30A4_U+30E4_U+30FC 1
 62
   179
420
  2234388
370
    25
100
AcDbVertex
100
AcDb2dVertex
 10
103.7807284634441
 20
-160.1218469044138
 30
0.0
  0
SEQEND
  5
70
330
6D
100
AcDbEntity
  8
_U+30EC_U+30A4_U+30E4_U+30FC 1
 62
   179
420
  2234388
370
    25
  0
POLYLINE
  5
71
330
1F
100
AcDbEntity
  8
_U+30EC_U+30A4_U+30E4_U+30FC 1
 62
   179
420
  2234388
370
    25
100
AcDb2dPolyline
 66
     1
 10
0.0
 20
0.0
 30
0.0
  0
VERTEX
  5
72
330
71
100
AcDbEntity
  8
_U+30EC_U+30A4_U+30E4_U+30FC 1
 62
   179
420
  2234388
370
    25
100
AcDbVertex
100
AcDb2dVertex
 10
104.7805006601601
 20
-163.1218338481082
 30
0.0
  0
VERTEX
  5
73
330
71
100
AcDbEntity
  8
_U+30EC_U+30A4_U+30E4_U+30FC 1
 62
   179
420
  2234388
370
    25
100
AcDbVertex
100
AcDb2dVertex
 10
79.78030435352376
 20
-163.1218338481082
 30
0.0
  0
SEQEND
  5
74
330
71
100
AcDbEntity
  8
_U+30EC_U+30A4_U+30E4_U+30FC 1
 62
   179
420
  2234388
370
    25
  0
POLYLINE
  5
75
330
1F
100
AcDbEntity
  8
_U+30EC_U+30A4_U+30E4_U+30FC 1
 62
   179
420
  2234388
370
    25
100
AcDb2dPolyline
 66
     1
 10
0.0
 20
0.0
 30
0.0
  0
VERTEX
  5
76
330
75
100
AcDbEntity
  8
_U+30EC_U+30A4_U+30E4_U+30FC 1
 62
   179
420
  2234388
370
    25
100
AcDbVertex
100
AcDb2dVertex
 10
82.78046761031655
 20
-138.1221307988027
 30
0.0
  0
VERTEX
  5
77
330
75
100
AcDbEntity
  8
_U+30EC_U+30A4_U+30E4_U+30FC 1
 62
   179
420
  2234388
370
    25
100
AcDbVertex
100
AcDb2dVertex
 10
79.78030435352376
 20
-138.1221307988027
 30
0.0
  0
SEQEND
  5
78
330
75
100
AcDbEntity
  8
_U+30EC_U+30A4_U+30E4_U+30FC 1
 62
   179
420
  2234388
370
    25
  0
POLYLINE
  5
79
330
1F
100
AcDbEntity
  8
_U+30EC_U+30A4_U+30E4_U+30FC 1
 62
   179
420
  2234388
370
    25
100
AcDb2dPolyline
 66
     1
 10
0.0
 20
0.0
 30
0.0
  0
VERTEX
  5
7A
330
79
100
AcDbEntity
  8
_U+30EC_U+30A4_U+30E4_U+30FC 1
 62
   179
420
  2234388
370
    25
100
AcDbVertex
100
AcDb2dVertex
 10
104.7805006601601
 20
-160.1218469044138
 30
0.0
  0
VERTEX
  5
7B
330
79
100
AcDbEntity
  8
_U+30EC_U+30A4_U+30E4_U+30FC 1
 62
   179
420
  2234388
370
    25
100
AcDbVertex
100
AcDb2dVertex
 10
104.7805006601601
 20
-163.1218338481082
 30
0.0
  0
SEQEND
  5
7C
330
79
100
AcDbEntity
  8
_U+30EC_U+30A4_U+30E4_U+30FC 1
 62
   179
420
  2234388
370
    25
  0
POLYLINE
  5
7D
330
1F
100
AcDbEntity
  8
_U+30EC_U+30A4_U+30E4_U+30FC 1
 62
   179
420
  2234388
370
    25
100
AcDb2dPolyline
 66
     1
 10
0.0
 20
0.0
 30
0.0
  0
VERTEX
  5
7E
330
7D
100
AcDbEntity
  8
_U+30EC_U+30A4_U+30E4_U+30FC 1
 62
   179
420
  2234388
370
    25
100
AcDbVertex
100
AcDb2dVertex
 10
89.78056632061804
 20
-146.1223546856914
 30
0.0
  0
VERTEX
  5
7F
330
7D
100
AcDbEntity
  8
_U+30EC_U+30A4_U+30E4_U+30FC 1
 62
   179
420
  2234388
370
    25
100
AcDbVertex
100
AcDb2dVertex
 10
80.78042932800844
 20
-146.1223546856914
 30
0.0
  0
SEQEND
  5
80
330
7D
100
AcDbEntity
  8
_U+30EC_U+30A4_U+30E4_U+30FC 1
 62
   179
420
  2234388
370
    25
  0
POLYLINE
  5
81
330
1F
100
AcDbEntity
  8
_U+30EC_U+30A4_U+30E4_U+30FC 1
 62
   179
420
  2234388
370
    25
100
AcDb2dPolyline
 66
     1
 10
0.0
 20
0.0
 30
0.0
  0
VERTEX
  5
82
330
81
100
AcDbEntity
  8
_U+30EC_U+30A4_U+30E4_U+30FC 1
 62
   179
420
  2234388
370
    25
100
AcDbVertex
100
AcDb2dVertex
 10
80.78042932800844
 20
-139.1219030207752
 30
0.0
  0
VERTEX
  5
83
330
81
100
AcDbEntity
  8
_U+30EC_U+30A4_U+30E4_U+30FC 1
 62
   179
420
  2234388
370
    25
100
AcDbVertex
100
AcDb2dVertex
 10
80.78042932800844
 20
-146.1223546856914
 30
0.0
  0
SEQEND
  5
84
330
81
100
AcDbEntity
  8
_U+30EC_U+30A4_U+30E4_U+30FC 1
 62
   179
420
  2234388
370
    25
  0
POLYLINE
  5
85
330
1F
100
AcDbEntity
  8
_U+30EC_U+30A4_U+30E4_U+30FC 1
 62
   179
420
  2234388
370
    25
100
AcDb2dPolyline
 66
     1
 10
0.0
 20
0.0
 30
0.0
  0
VERTEX
  5
86
330
85
100
AcDbEntity
  8
_U+30EC_U+30A4_U+30E4_U+30FC 1
 62
   179
420
  2234388
370
    25
100
AcDbVertex
100
AcDb2dVertex
 10
82.78046761031655
 20
-139.1219030207752
 30
0.0
  0
VERTEX
  5
87
330
85
100
AcDbEntity
  8
_U+30EC_U+30A4_U+30E4_U+30FC 1
 62
   179
420
  2234388
370
    25
100
AcDbVertex
100
AcDb2dVertex
 10
80.78042932800844
 20
-139.1219030207752
 30
0.0
  0
SEQEND
  5
88
330
85
100
AcDbEntity
  8
_U+30EC_U+30A4_U+30E4_U+30FC 1
 62
   179
420
  2234388
370
    25
  0
POLYLINE
  5
89
330
1F
100
AcDbEntity
  8
_U+30EC_U+30A4_U+30E4_U+30FC 1
 62
   179
420
  2234388
370
    25
100
AcDb2dPolyline
 66
     1
 10
0.0
 20
0.0
 30
0.0
  0
VERTEX
  5
8A
330
89
100
AcDbEntity
  8
_U+30EC_U+30A4_U+30E4_U+30FC 1
 62
   179
420
  2234388
370
    25
100
AcDbVertex
100
AcDb2dVertex
 10
103.7807284634441
 20
-162.1220616261363
 30
0.0
  0
VERTEX
  5
8B
330
89
100
AcDbEntity
  8
_U+30EC_U+30A4_U+30E4_U+30FC 1
 62
   179
420
  2234388
370
    25
100
AcDbVertex
100
AcDb2dVertex
 10
80.78042932800844
 20
-162.1220616261363
 30
0.0
  0
SEQEND
  5
8C
330
89
100
AcDbEntity
  8
_U+30EC_U+30A4_U+30E4_U+30FC 1
 62
   179
420
  2234388
370
    25
  0
POLYLINE
  5
8D
330
1F
100
AcDbEntity
  8
_U+30EC_U+30A4_U+30E4_U+30FC 1
 62
   179
420
  2234388
370
    25
100
AcDb2dPolyline
 66
     1
 10
0.0
 20
0.0
 30
0.0
  0
VERTEX
  5
8E
330
8D
100
AcDbEntity
  8
_U+30EC_U+30A4_U+30E4_U+30FC 1
 62
   179
420
  2234388
370
    25
100
AcDbVertex
100
AcDb2dVertex
 10
103.7807284634441
 20
-160.1218469044138
 30
0.0
  0
VERTEX
  5
8F
330
8D
100
AcDbEntity
  8
_U+30EC_U+30A4_U+30E4_U+30FC 1
 62
   179
420
  2234388
370
    25
100
AcDbVertex
100
AcDb2dVertex
 10
103.7807284634441
 20
-162.1220616261363
 30
0.0
  0
SEQEND
  5
90
330
8D
100
AcDbEntity
  8
_U+30EC_U+30A4_U+30E4_U+30FC 1
 62
   179
420
  2234388
370
    25
  0
POLYLINE
  5
91
330
1F
100
AcDbEntity
  8
_U+30EC_U+30A4_U+30E4_U+30FC 1
 62
   179
420
  2234388
370
    25
100
AcDb2dPolyline
 66
     1
 10
0.0
 20
0.0
 30
0.0
  0
VERTEX
  5
92
330
91
100
AcDbEntity
  8
_U+30EC_U+30A4_U+30E4_U+30FC 1
 62
   179
420
  2234388
370
    25
100
AcDbVertex
100
AcDb2dVertex
 10
80.78042932800844
 20
-147.1221269076639
 30
0.0
  0
VERTEX
  5
93
330
91
100
AcDbEntity
  8
_U+30EC_U+30A4_U+30E4_U+30FC 1
 62
   179
420
  2234388
370
    25
100
AcDbVertex
100
AcDb2dVertex
 10
80.78042932800844
 20
-162.1220616261363
 30
0.0
  0
SEQEND
  5
94
330
91
100
AcDbEntity
  8
_U+30EC_U+30A4_U+30E4_U+30FC 1
 62
   179
420
  2234388
370
    25
  0
SPLINE
  5
95
330
1F
100
AcDbEntity
  8
_U+30EC_U+30A4_U+30E4_U+30FC 1
 62
   179
420
  2234388
370
     9
100
AcDbSpline
210
0.0
220
0.0
230
1.0
 70
    11
 71
     3
 72
    17
 73
    13
 74
     0
 42
0.0000000001
 43
0.0000000001
 12
1.0
 22
0.0
 32
0.0
 13
1.0
 23
0.0
 33
0.0
 40
0.0
 40
0.0
 40
0.0
 40
0.0
 40
1.0
 40
1.0
 40
1.0
 40
2.0
 40
2.0
 40
2.0
 40
3.0
 40
3.0
 40
3.0
 40
4.0
 40
4.0
 40
4.0
 40
4.0
 10
89.68030687873143
 20
-93.12179747671965
 30
0.0
 10
89.68030687873143
 20
-93.06665831006657
 30
0.0
 10
89.7251096553662
 20
-93.021890810078
 30
0.0
 10
89.78056632061804
 20
-93.021890810078
 30
0.0
 10
89.8356702081011
 20
-93.021890810078
 30
0.0
 10
89.88047298473587
 20
-93.06665831006657
 30
0.0
 10
89.88047298473587
 20
-93.12179747671965
 30
0.0
 10
89.88047298473587
 20
-93.17690136559456
 30
0.0
 10
89.8356702081011
 20
-93.22170414336128
 30
0.0
 10
89.78056632061804
 20
-93.22170414336128
 30
0.0
 10
89.7251096553662
 20
-93.22170414336128
 30
0.0
 10
89.68030687873143
 20
-93.17690136559456
 30
0.0
 10
89.68030687873143
 20
-93.12179747671965
 30
0.0
  0
SPLINE
  5
96
330
1F
100
AcDbEntity
  8
_U+30EC_U+30A4_U+30E4_U+30FC 1
 62
   179
420
  2234388
370
     9
100
AcDbSpline
210
0.0
220
0.0
230
1.0
 70
    11
 71
     3
 72
    17
 73
    13
 74
     0
 42
0.0000000001
 43
0.0000000001
 12
1.0
 22
0.0
 32
0.0
 13
1.0
 23
0.0
 33
0.0
 40
0.0
 40
0.0
 40
0.0
 40
0.0
 40
1.0
 40
1.0
 40
1.0
 40
2.0
 40
2.0
 40
2.0
 40
3.0
 40
3.0
 40
3.0
 40
4.0
 40
4.0
 40
4.0
 40
4.0
 10
90.88059795922057
 20
-93.12179747671965
 30
0.0
 10
90.88059795922057
 20
-93.06665831006657
 30
0.0
 10
90.92536545807845
 20
-93.021890810078
 30
0.0
 10
90.9805046233384
 20
-93.021890810078
 30
0.0
 10
91.03560851082148
 20
-93.021890810078
 30
0.0
 10
91.08041128745623
 20
-93.06665831006657
 30
0.0
 10
91.08041128745623
 20
-93.12179747671965
 30
0.0
 10
91.08041128745623
 20
-93.17690136559456
 30
0.0
 10
91.03560851082148
 20
-93.22170414336128
 30
0.0
 10
90.9805046233384
 20
-93.22170414336128
 30
0.0
 10
90.92536545807845
 20
-93.22170414336128
 30
0.0
 10
90.88059795922057
 20
-93.17690136559456
 30
0.0
 10
90.88059795922057
 20
-93.12179747671965
 30
0.0
  0
SPLINE
  5
97
330
1F
100
AcDbEntity
  8
_U+30EC_U+30A4_U+30E4_U+30FC 1
 62
   179
420
  2234388
370
     9
100
AcDbSpline
210
0.0
220
0.0
230
1.0
 70
    11
 71
     3
 72
    17
 73
    13
 74
     0
 42
0.0000000001
 43
0.0000000001
 12
1.0
 22
0.0
 32
0.0
 13
1.0
 23
0.0
 33
0.0
 40
0.0
 40
0.0
 40
0.0
 40
0.0
 40
1.0
 40
1.0
 40
1.0
 40
2.0
 40
2.0
 40
2.0
 40
3.0
 40
3.0
 40
3.0
 40
4.0
 40
4.0
 40
4.0
 40
4.0
 10
79.68039768940592
 20
-134.1217013553585
 30
0.0
 10
79.68039768940592
 20
-134.0665974664836
 30
0.0
 10
79.72520046604069
 20
-134.0217946887168
 30
0.0
 10
79.78030435352376
 20
-134.0217946887168
 30
0.0
 10
79.83579629655249
 20
-134.0217946887168
 30
0.0
 10
79.88056379541037
 20
-134.0665974664836
 30
0.0
 10
79.88056379541037
 20
-134.1217013553585
 30
0.0
 10
79.88056379541037
 20
-134.1768405220116
 30
0.0
 10
79.83579629655249
 20
-134.2216080220001
 30
0.0
 10
79.78030435352376
 20
-134.2216080220001
 30
0.0
 10
79.72520046604069
 20
-134.2216080220001
 30
0.0
 10
79.68039768940592
 20
-134.1768405220116
 30
0.0
 10
79.68039768940592
 20
-134.1217013553585
 30
0.0
  0
SPLINE
  5
98
330
1F
100
AcDbEntity
  8
_U+30EC_U+30A4_U+30E4_U+30FC 1
 62
   179
420
  2234388
370
     9
100
AcDbSpline
210
0.0
220
0.0
230
1.0
 70
    11
 71
     3
 72
    17
 73
    13
 74
     0
 42
0.0000000001
 43
0.0000000001
 12
1.0
 22
0.0
 32
0.0
 13
1.0
 23
0.0
 33
0.0
 40
0.0
 40
0.0
 40
0.0
 40
0.0
 40
1.0
 40
1.0
 40
1.0
 40
2.0
 40
2.0
 40
2.0
 40
3.0
 40
3.0
 40
3.0
 40
4.0
 40
4.0
 40
4.0
 40
4.0
 10
82.68056094619871
 20
-134.1217013553585
 30
0.0
 10
82.68056094619871
 20
-134.0665974664836
 30
0.0
 10
82.72536372283348
 20
-134.0217946887168
 30
0.0
 10
82.78046761031655
 20
-134.0217946887168
 30
0.0
 10
82.8356067755765
 20
-134.0217946887168
 30
0.0
 10
82.88037427443439
 20
-134.0665974664836
 30
0.0
 10
82.88037427443439
 20
-134.1217013553585
 30
0.0
 10
82.88037427443439
 20
-134.1768405220116
 30
0.0
 10
82.8356067755765
 20
-134.2216080220001
 30
0.0
 10
82.78046761031655
 20
-134.2216080220001
 30
0.0
 10
82.72536372283348
 20
-134.2216080220001
 30
0.0
 10
82.68056094619871
 20
-134.1768405220116
 30
0.0
 10
82.68056094619871
 20
-134.1217013553585
 30
0.0
  0
SPLINE
  5
99
330
1F
100
AcDbEntity
  8
_U+30EC_U+30A4_U+30E4_U+30FC 1
 62
   179
420
  2234388
370
     9
100
AcDbSpline
210
0.0
220
0.0
230
1.0
 70
    11
 71
     3
 72
    17
 73
    13
 74
     0
 42
0.0000000001
 43
0.0000000001
 12
1.0
 22
0.0
 32
0.0
 13
1.0
 23
0.0
 33
0.0
 40
0.0
 40
0.0
 40
0.0
 40
0.0
 40
1.0
 40
1.0
 40
1.0
 40
2.0
 40
2.0
 40
2.0
 40
3.0
 40
3.0
 40
3.0
 40
4.0
 40
4.0
 40
4.0
 40
4.0
 10
89.68030687873143
 20
-136.1219160770809
 30
0.0
 10
89.68030687873143
 20
-136.0668121882053
 30
0.0
 10
89.7251096553662
 20
-136.0220094104386
 30
0.0
 10
89.78056632061804
 20
-136.0220094104386
 30
0.0
 10
89.8356702081011
 20
-136.0220094104386
 30
0.0
 10
89.88047298473587
 20
-136.0668121882053
 30
0.0
 10
89.88047298473587
 20
-136.1219160770809
 30
0.0
 10
89.88047298473587
 20
-136.1770552437333
 30
0.0
 10
89.8356702081011
 20
-136.2218227437226
 30
0.0
 10
89.78056632061804
 20
-136.2218227437226
 30
0.0
 10
89.7251096553662
 20
-136.2218227437226
 30
0.0
 10
89.68030687873143
 20
-136.1770552437333
 30
0.0
 10
89.68030687873143
 20
-136.1219160770809
 30
0.0
  0
SPLINE
  5
9A
330
1F
100
AcDbEntity
  8
_U+30EC_U+30A4_U+30E4_U+30FC 1
 62
   179
420
  2234388
370
     9
100
AcDbSpline
210
0.0
220
0.0
230
1.0
 70
    11
 71
     3
 72
    17
 73
    13
 74
     0
 42
0.0000000001
 43
0.0000000001
 12
1.0
 22
0.0
 32
0.0
 13
1.0
 23
0.0
 33
0.0
 40
0.0
 40
0.0
 40
0.0
 40
0.0
 40
1.0
 40
1.0
 40
1.0
 40
2.0
 40
2.0
 40
2.0
 40
3.0
 40
3.0
 40
3.0
 40
4.0
 40
4.0
 40
4.0
 40
4.0
 10
75.68032112478971
 20
-163.1218338481082
 30
0.0
 10
75.68032112478971
 20
-163.0666946814557
 30
0.0
 10
75.7250886236476
 20
-163.0219271814665
 30
0.0
 10
75.78054720327698
 20
-163.0219271814665
 30
0.0
 10
75.83568445415939
 20
-163.0219271814665
 30
0.0
 10
75.88045195301729
 20
-163.0666946814557
 30
0.0
 10
75.88045195301729
 20
-163.1218338481082
 30
0.0
 10
75.88045195301729
 20
-163.1769377369837
 30
0.0
 10
75.83568445415939
 20
-163.2217405147505
 30
0.0
 10
75.78054720327698
 20
-163.2217405147505
 30
0.0
 10
75.7250886236476
 20
-163.2217405147505
 30
0.0
 10
75.68032112478971
 20
-163.1769377369837
 30
0.0
 10
75.68032112478971
 20
-163.1218338481082
 30
0.0
  0
SPLINE
  5
9B
330
1F
100
AcDbEntity
  8
_U+30EC_U+30A4_U+30E4_U+30FC 1
 62
   179
420
  2234388
370
     9
100
AcDbSpline
210
0.0
220
0.0
230
1.0
 70
    11
 71
     3
 72
    17
 73
    13
 74
     0
 42
0.0000000001
 43
0.0000000001
 12
1.0
 22
0.0
 32
0.0
 13
1.0
 23
0.0
 33
0.0
 40
0.0
 40
0.0
 40
0.0
 40
0.0
 40
1.0
 40
1.0
 40
1.0
 40
2.0
 40
2.0
 40
2.0
 40
3.0
 40
3.0
 40
3.0
 40
4.0
 40
4.0
 40
4.0
 40
4.0
 10
75.68032112478971
 20
-138.1221307988027
 30
0.0
 10
75.68032112478971
 20
-138.0670269099278
 30
0.0
 10
75.7250886236476
 20
-138.0222241321611
 30
0.0
 10
75.78054720327698
 20
-138.0222241321611
 30
0.0
 10
75.83568445415939
 20
-138.0222241321611
 30
0.0
 10
75.88045195301729
 20
-138.0670269099278
 30
0.0
 10
75.88045195301729
 20
-138.1221307988027
 30
0.0
 10
75.88045195301729
 20
-138.1772699654558
 30
0.0
 10
75.83568445415939
 20
-138.2220374654443
 30
0.0
 10
75.78054720327698
 20
-138.2220374654443
 30
0.0
 10
75.7250886236476
 20
-138.2220374654443
 30
0.0
 10
75.68032112478971
 20
-138.1772699654558
 30
0.0
 10
75.68032112478971
 20
-138.1221307988027
 30
0.0
  0
SPLINE
  5
9C
330
1F
100
AcDbEntity
  8
_U+30EC_U+30A4_U+30E4_U+30FC 1
 62
   179
420
  2234388
370
     9
100
AcDbSpline
210
0.0
220
0.0
230
1.0
 70
    11
 71
     3
 72
    17
 73
    13
 74
     0
 42
0.0000000001
 43
0.0000000001
 12
1.0
 22
0.0
 32
0.0
 13
1.0
 23
0.0
 33
0.0
 40
0.0
 40
0.0
 40
0.0
 40
0.0
 40
1.0
 40
1.0
 40
1.0
 40
2.0
 40
2.0
 40
2.0
 40
3.0
 40
3.0
 40
3.0
 40
4.0
 40
4.0
 40
4.0
 40
4.0
 10
79.68039768940592
 20
-167.1222632915531
 30
0.0
 10
79.68039768940592
 20
-167.066453847122
 30
0.0
 10
79.72520046604069
 20
-167.0216863471334
 30
0.0
 10
79.78030435352376
 20
-167.0216863471334
 30
0.0
 10
79.83579629655249
 20
-167.0216863471334
 30
0.0
 10
79.88056379541037
 20
-167.066453847122
 30
0.0
 10
79.88056379541037
 20
-167.1222632915531
 30
0.0
 10
79.88056379541037
 20
-167.1774024582055
 30
0.0
 10
79.83579629655249
 20
-167.2221699581947
 30
0.0
 10
79.78030435352376
 20
-167.2221699581947
 30
0.0
 10
79.72520046604069
 20
-167.2221699581947
 30
0.0
 10
79.68039768940592
 20
-167.1774024582055
 30
0.0
 10
79.68039768940592
 20
-167.1222632915531
 30
0.0
  0
SPLINE
  5
9D
330
1F
100
AcDbEntity
  8
_U+30EC_U+30A4_U+30E4_U+30FC 1
 62
   179
420
  2234388
370
     9
100
AcDbSpline
210
0.0
220
0.0
230
1.0
 70
    11
 71
     3
 72
    17
 73
    13
 74
     0
 42
0.0000000001
 43
0.0000000001
 12
1.0
 22
0.0
 32
0.0
 13
1.0
 23
0.0
 33
0.0
 40
0.0
 40
0.0
 40
0.0
 40
0.0
 40
1.0
 40
1.0
 40
1.0
 40
2.0
 40
2.0
 40
2.0
 40
3.0
 40
3.0
 40
3.0
 40
4.0
 40
4.0
 40
4.0
 40
4.0
 10
108.6803530606665
 20
-163.1218338481082
 30
0.0
 10
108.6803530606665
 20
-163.0666946814557
 30
0.0
 10
108.7251558373013
 20
-163.0219271814665
 30
0.0
 10
108.7802597247844
 20
-163.0219271814665
 30
0.0
 10
108.836069167805
 20
-163.0219271814665
 30
0.0
 10
108.8808719444398
 20
-163.0666946814557
 30
0.0
 10
108.8808719444398
 20
-163.1218338481082
 30
0.0
 10
108.8808719444398
 20
-163.1769377369837
 30
0.0
 10
108.836069167805
 20
-163.2217405147505
 30
0.0
 10
108.7802597247844
 20
-163.2217405147505
 30
0.0
 10
108.7251558373013
 20
-163.2217405147505
 30
0.0
 10
108.6803530606665
 20
-163.1769377369837
 30
0.0
 10
108.6803530606665
 20
-163.1218338481082
 30
0.0
  0
SPLINE
  5
9E
330
1F
100
AcDbEntity
  8
_U+30EC_U+30A4_U+30E4_U+30FC 1
 62
   179
420
  2234388
370
     9
100
AcDbSpline
210
0.0
220
0.0
230
1.0
 70
    11
 71
     3
 72
    17
 73
    13
 74
     0
 42
0.0000000001
 43
0.0000000001
 12
1.0
 22
0.0
 32
0.0
 13
1.0
 23
0.0
 33
0.0
 40
0.0
 40
0.0
 40
0.0
 40
0.0
 40
1.0
 40
1.0
 40
1.0
 40
2.0
 40
2.0
 40
2.0
 40
3.0
 40
3.0
 40
3.0
 40
4.0
 40
4.0
 40
4.0
 40
4.0
 10
108.6803530606665
 20
-160.1218469044138
 30
0.0
 10
108.6803530606665
 20
-160.0667077377614
 30
0.0
 10
108.7251558373013
 20
-160.0219402377722
 30
0.0
 10
108.7802597247844
 20
-160.0219402377722
 30
0.0
 10
108.836069167805
 20
-160.0219402377722
 30
0.0
 10
108.8808719444398
 20
-160.0667077377614
 30
0.0
 10
108.8808719444398
 20
-160.1218469044138
 30
0.0
 10
108.8808719444398
 20
-160.1776563488443
 30
0.0
 10
108.836069167805
 20
-160.2224238488335
 30
0.0
 10
108.7802597247844
 20
-160.2224238488335
 30
0.0
 10
108.7251558373013
 20
-160.2224238488335
 30
0.0
 10
108.6803530606665
 20
-160.1776563488443
 30
0.0
 10
108.6803530606665
 20
-160.1218469044138
 30
0.0
  0
SPLINE
  5
9F
330
1F
100
AcDbEntity
  8
_U+30EC_U+30A4_U+30E4_U+30FC 1
 62
   179
420
  2234388
370
     9
100
AcDbSpline
210
0.0
220
0.0
230
1.0
 70
    11
 71
     3
 72
    17
 73
    13
 74
     0
 42
0.0000000001
 43
0.0000000001
 12
1.0
 22
0.0
 32
0.0
 13
1.0
 23
0.0
 33
0.0
 40
0.0
 40
0.0
 40
0.0
 40
0.0
 40
1.0
 40
1.0
 40
1.0
 40
2.0
 40
2.0
 40
2.0
 40
3.0
 40
3.0
 40
3.0
 40
4.0
 40
4.0
 40
4.0
 40
4.0
 10
104.6805939960422
 20
-167.1222632915531
 30
0.0
 10
104.6805939960422
 20
-167.066453847122
 30
0.0
 10
104.725396772677
 20
-167.0216863471334
 30
0.0
 10
104.7805006601601
 20
-167.0216863471334
 30
0.0
 10
104.83563982542
 20
-167.0216863471334
 30
0.0
 10
104.8804073242779
 20
-167.066453847122
 30
0.0
 10
104.8804073242779
 20
-167.1222632915531
 30
0.0
 10
104.8804073242779
 20
-167.1774024582055
 30
0.0
 10
104.83563982542
 20
-167.2221699581947
 30
0.0
 10
104.7805006601601
 20
-167.2221699581947
 30
0.0
 10
104.725396772677
 20
-167.2221699581947
 30
0.0
 10
104.6805939960422
 20
-167.1774024582055
 30
0.0
 10
104.6805939960422
 20
-167.1222632915531
 30
0.0
  0
SPLINE
  5
A0
330
1F
100
AcDbEntity
  8
_U+30EC_U+30A4_U+30E4_U+30FC 1
 62
   179
420
  2234388
370
     9
100
AcDbSpline
210
0.0
220
0.0
230
1.0
 70
    11
 71
     3
 72
    17
 73
    13
 74
     0
 42
0.0000000001
 43
0.0000000001
 12
1.0
 22
0.0
 32
0.0
 13
1.0
 23
0.0
 33
0.0
 40
0.0
 40
0.0
 40
0.0
 40
0.0
 40
1.0
 40
1.0
 40
1.0
 40
2.0
 40
2.0
 40
2.0
 40
3.0
 40
3.0
 40
3.0
 40
4.0
 40
4.0
 40
4.0
 40
4.0
 10
108.6803530606665
 20
-147.1221269076639
 30
0.0
 10
108.6803530606665
 20
-147.0669877410108
 30
0.0
 10
108.7251558373013
 20
-147.0222202410223
 30
0.0
 10
108.7802597247844
 20
-147.0222202410223
 30
0.0
 10
108.836069167805
 20
-147.0222202410223
 30
0.0
 10
108.8808719444398
 20
-147.0669877410108
 30
0.0
 10
108.8808719444398
 20
-147.1221269076639
 30
0.0
 10
108.8808719444398
 20
-147.1772307965388
 30
0.0
 10
108.836069167805
 20
-147.2220335743056
 30
0.0
 10
108.7802597247844
 20
-147.2220335743056
 30
0.0
 10
108.7251558373013
 20
-147.2220335743056
 30
0.0
 10
108.6803530606665
 20
-147.1772307965388
 30
0.0
 10
108.6803530606665
 20
-147.1221269076639
 30
0.0
  0
SPLINE
  5
A1
330
1F
100
AcDbEntity
  8
_U+30EC_U+30A4_U+30E4_U+30FC 1
 62
   179
420
  2234388
370
     9
100
AcDbSpline
210
0.0
220
0.0
230
1.0
 70
    11
 71
     3
 72
    17
 73
    13
 74
     0
 42
0.0000000001
 43
0.0000000001
 12
1.0
 22
0.0
 32
0.0
 13
1.0
 23
0.0
 33
0.0
 40
0.0
 40
0.0
 40
0.0
 40
0.0
 40
1.0
 40
1.0
 40
1.0
 40
2.0
 40
2.0
 40
2.0
 40
3.0
 40
3.0
 40
3.0
 40
4.0
 40
4.0
 40
4.0
 40
4.0
 10
108.6803530606665
 20
-97.12222692016388
 30
0.0
 10
108.6803530606665
 20
-97.06712303128865
 30
0.0
 10
108.7251558373013
 20
-97.02232025352225
 30
0.0
 10
108.7802597247844
 20
-97.02232025352225
 30
0.0
 10
108.836069167805
 20
-97.02232025352225
 30
0.0
 10
108.8808719444398
 20
-97.06712303128865
 30
0.0
 10
108.8808719444398
 20
-97.12222692016388
 30
0.0
 10
108.8808719444398
 20
-97.17736608681665
 30
0.0
 10
108.836069167805
 20
-97.22213358680553
 30
0.0
 10
108.7802597247844
 20
-97.22213358680553
 30
0.0
 10
108.7251558373013
 20
-97.22213358680553
 30
0.0
 10
108.6803530606665
 20
-97.17736608681665
 30
0.0
 10
108.6803530606665
 20
-97.12222692016388
 30
0.0
  0
POLYLINE
  5
A2
330
1F
100
AcDbEntity
  8
_U+30EC_U+30A4_U+30E4_U+30FC 1
 62
   179
420
  2234388
370
     9
100
AcDb2dPolyline
 66
     1
 10
0.0
 20
0.0
 30
0.0
  0
VERTEX
  5
A3
330
A2
100
AcDbEntity
  8
_U+30EC_U+30A4_U+30E4_U+30FC 1
 62
   179
420
  2234388
370
     9
100
AcDbVertex
100
AcDb2dVertex
 10
90.9805046233384
 20
-93.12179747671965
 30
0.0
  0
VERTEX
  5
A4
330
A2
100
AcDbEntity
  8
_U+30EC_U+30A4_U+30E4_U+30FC 1
 62
   179
420
  2234388
370
     9
100
AcDbVertex
100
AcDb2dVertex
 10
96.2380575447626
 20
-93.12179747671965
 30
0.0
  0
SEQEND
  5
A5
330
A2
100
AcDbEntity
  8
_U+30EC_U+30A4_U+30E4_U+30FC 1
 62
   179
420
  2234388
370
     9
  0
POLYLINE
  5
A6
330
1F
100
AcDbEntity
  8
_U+30EC_U+30A4_U+30E4_U+30FC 1
 62
   179
420
  2234388
370
     9
100
AcDb2dPolyline
 66
     1
 10
0.0
 20
0.0
 30
0.0
  0
VERTEX
  5
A7
330
A6
100
AcDbEntity
  8
_U+30EC_U+30A4_U+30E4_U+30FC 1
 62
   179
420
  2234388
370
     9
100
AcDbVertex
100
AcDb2dVertex
 10
90.9805046233384
 20
-93.12179747671965
 30
0.0
  0
VERTEX
  5
A8
330
A6
100
AcDbEntity
  8
_U+30EC_U+30A4_U+30E4_U+30FC 1
 62
   179
420
  2234388
370
     9
100
AcDbVertex
100
AcDb2dVertex
 10
88.78044134613336
 20
-93.12179747671965
 30
0.0
  0
SEQEND
  5
A9
330
A6
100
AcDbEntity
  8
_U+30EC_U+30A4_U+30E4_U+30FC 1
 62
   179
420
  2234388
370
     9
  0
POLYLINE
  5
AA
330
1F
100
AcDbEntity
  8
_U+30EC_U+30A4_U+30E4_U+30FC 1
 62
   179
420
  2234388
370
     9
100
AcDb2dPolyline
 66
     1
 10
0.0
 20
0.0
 30
0.0
  0
VERTEX
  5
AB
330
AA
100
AcDbEntity
  8
_U+30EC_U+30A4_U+30E4_U+30FC 1
 62
   179
420
  2234388
370
     9
100
AcDbVertex
100
AcDb2dVertex
 10
90.9805046233384
 20
-94.58183886524336
 30
0.0
  0
VERTEX
  5
AC
330
AA
100
AcDbEntity
  8
_U+30EC_U+30A4_U+30E4_U+30FC 1
 62
   179
420
  2234388
370
     9
100
AcDbVertex
100
AcDb2dVertex
 10
90.9805046233384
 20
-92.12202525474743
 30
0.0
  0
SEQEND
  5
AD
330
AA
100
AcDbEntity
  8
_U+30EC_U+30A4_U+30E4_U+30FC 1
 62
   179
420
  2234388
370
     9
  0
POLYLINE
  5
AE
330
1F
100
AcDbEntity
  8
_U+30EC_U+30A4_U+30E4_U+30FC 1
 62
   179
420
  2234388
370
     9
100
AcDb2dPolyline
 66
     1
 10
0.0
 20
0.0
 30
0.0
  0
VERTEX
  5
AF
330
AE
100
AcDbEntity
  8
_U+30EC_U+30A4_U+30E4_U+30FC 1
 62
   179
420
  2234388
370
     9
100
AcDbVertex
100
AcDb2dVertex
 10
89.78056632061804
 20
-94.58183886524336
 30
0.0
  0
VERTEX
  5
B0
330
AE
100
AcDbEntity
  8
_U+30EC_U+30A4_U+30E4_U+30FC 1
 62
   179
420
  2234388
370
     9
100
AcDbVertex
100
AcDb2dVertex
 10
89.78056632061804
 20
-92.12202525474743
 30
0.0
  0
SEQEND
  5
B1
330
AE
100
AcDbEntity
  8
_U+30EC_U+30A4_U+30E4_U+30FC 1
 62
   179
420
  2234388
370
     9
  0
POLYLINE
  5
B2
330
1F
100
AcDbEntity
  8
_U+30EC_U+30A4_U+30E4_U+30FC 1
 62
   179
420
  2234388
370
     9
100
AcDb2dPolyline
 66
     1
 10
0.0
 20
0.0
 30
0.0
  0
VERTEX
  5
B3
330
B2
100
AcDbEntity
  8
_U+30EC_U+30A4_U+30E4_U+30FC 1
 62
   179
420
  2234388
370
     9
100
AcDbVertex
100
AcDb2dVertex
 10
108.7802597247844
 20
-147.1221269076639
 30
0.0
  0
VERTEX
  5
B4
330
B2
100
AcDbEntity
  8
_U+30EC_U+30A4_U+30E4_U+30FC 1
 62
   179
420
  2234388
370
     9
100
AcDbVertex
100
AcDb2dVertex
 10
108.7802597247844
 20
-97.12222692016388
 30
0.0
  0
SEQEND
  5
B5
330
B2
100
AcDbEntity
  8
_U+30EC_U+30A4_U+30E4_U+30FC 1
 62
   179
420
  2234388
370
     9
  0
POLYLINE
  5
B6
330
1F
100
AcDbEntity
  8
_U+30EC_U+30A4_U+30E4_U+30FC 1
 62
   179
420
  2234388
370
     9
100
AcDb2dPolyline
 66
     1
 10
0.0
 20
0.0
 30
0.0
  0
VERTEX
  5
B7
330
B6
100
AcDbEntity
  8
_U+30EC_U+30A4_U+30E4_U+30FC 1
 62
   179
420
  2234388
370
     9
100
AcDbVertex
100
AcDb2dVertex
 10
93.52057511409136
 20
-147.1221269076639
 30
0.0
  0
VERTEX
  5
B8
330
B6
100
AcDbEntity
  8
_U+30EC_U+30A4_U+30E4_U+30FC 1
 62
   179
420
  2234388
370
     9
100
AcDbVertex
100
AcDb2dVertex
 10
109.7807374770378
 20
-147.1221269076639
 30
0.0
  0
SEQEND
  5
B9
330
B6
100
AcDbEntity
  8
_U+30EC_U+30A4_U+30E4_U+30FC 1
 62
   179
420
  2234388
370
     9
  0
POLYLINE
  5
BA
330
1F
100
AcDbEntity
  8
_U+30EC_U+30A4_U+30E4_U+30FC 1
 62
   179
420
  2234388
370
     9
100
AcDb2dPolyline
 66
     1
 10
0.0
 20
0.0
 30
0.0
  0
VERTEX
  5
BB
330
BA
100
AcDbEntity
  8
_U+30EC_U+30A4_U+30E4_U+30FC 1
 62
   179
420
  2234388
370
     9
100
AcDbVertex
100
AcDb2dVertex
 10
93.52057511409136
 20
-97.12222692016388
 30
0.0
  0
VERTEX
  5
BC
330
BA
100
AcDbEntity
  8
_U+30EC_U+30A4_U+30E4_U+30FC 1
 62
   179
420
  2234388
370
     9
100
AcDbVertex
100
AcDb2dVertex
 10
109.7807374770378
 20
-97.12222692016388
 30
0.0
  0
SEQEND
  5
BD
330
BA
100
AcDbEntity
  8
_U+30EC_U+30A4_U+30E4_U+30FC 1
 62
   179
420
  2234388
370
     9
  0
POLYLINE
  5
BE
330
1F
100
AcDbEntity
  8
_U+30EC_U+30A4_U+30E4_U+30FC 1
 62
   179
420
  2234388
370
     9
100
AcDb2dPolyline
 66
     1
 10
0.0
 20
0.0
 30
0.0
  0
VERTEX
  5
BF
330
BE
100
AcDbEntity
  8
_U+30EC_U+30A4_U+30E4_U+30FC 1
 62
   179
420
  2234388
370
     9
100
AcDbVertex
100
AcDb2dVertex
 10
108.7802597247844
 20
-160.1218469044138
 30
0.0
  0
VERTEX
  5
C0
330
BE
100
AcDbEntity
  8
_U+30EC_U+30A4_U+30E4_U+30FC 1
 62
   179
420
  2234388
370
     9
100
AcDbVertex
100
AcDb2dVertex
 10
108.7802597247844
 20
-147.1221269076639
 30
0.0
  0
SEQEND
  5
C1
330
BE
100
AcDbEntity
  8
_U+30EC_U+30A4_U+30E4_U+30FC 1
 62
   179
420
  2234388
370
     9
  0
POLYLINE
  5
C2
330
1F
100
AcDbEntity
  8
_U+30EC_U+30A4_U+30E4_U+30FC 1
 62
   179
420
  2234388
370
     9
100
AcDb2dPolyline
 66
     1
 10
0.0
 20
0.0
 30
0.0
  0
VERTEX
  5
C3
330
C2
100
AcDbEntity
  8
_U+30EC_U+30A4_U+30E4_U+30FC 1
 62
   179
420
  2234388
370
     9
100
AcDbVertex
100
AcDb2dVertex
 10
107.3202183731442
 20
-160.1218469044138
 30
0.0
  0
VERTEX
  5
C4
330
C2
100
AcDbEntity
  8
_U+30EC_U+30A4_U+30E4_U+30FC 1
 62
   179
420
  2234388
370
     9
100
AcDbVertex
100
AcDb2dVertex
 10
109.7807374770378
 20
-160.1218469044138
 30
0.0
  0
SEQEND
  5
C5
330
C2
100
AcDbEntity
  8
_U+30EC_U+30A4_U+30E4_U+30FC 1
 62
   179
420
  2234388
370
     9
  0
POLYLINE
  5
C6
330
1F
100
AcDbEntity
  8
_U+30EC_U+30A4_U+30E4_U+30FC 1
 62
   179
420
  2234388
370
     9
100
AcDb2dPolyline
 66
     1
 10
0.0
 20
0.0
 30
0.0
  0
VERTEX
  5
C7
330
C6
100
AcDbEntity
  8
_U+30EC_U+30A4_U+30E4_U+30FC 1
 62
   179
420
  2234388
370
     9
100
AcDbVertex
100
AcDb2dVertex
 10
108.7802597247844
 20
-160.1218469044138
 30
0.0
  0
VERTEX
  5
C8
330
C6
100
AcDbEntity
  8
_U+30EC_U+30A4_U+30E4_U+30FC 1
 62
   179
420
  2234388
370
     9
100
AcDbVertex
100
AcDb2dVertex
 10
108.7802597247844
 20
-163.1218338481082
 30
0.0
  0
SEQEND
  5
C9
330
C6
100
AcDbEntity
  8
_U+30EC_U+30A4_U+30E4_U+30FC 1
 62
   179
420
  2234388
370
     9
  0
POLYLINE
  5
CA
330
1F
100
AcDbEntity
  8
_U+30EC_U+30A4_U+30E4_U+30FC 1
 62
   179
420
  2234388
370
     9
100
AcDb2dPolyline
 66
     1
 10
0.0
 20
0.0
 30
0.0
  0
VERTEX
  5
CB
330
CA
100
AcDbEntity
  8
_U+30EC_U+30A4_U+30E4_U+30FC 1
 62
   179
420
  2234388
370
     9
100
AcDbVertex
100
AcDb2dVertex
 10
107.3202183731442
 20
-163.1218338481082
 30
0.0
  0
VERTEX
  5
CC
330
CA
100
AcDbEntity
  8
_U+30EC_U+30A4_U+30E4_U+30FC 1
 62
   179
420
  2234388
370
     9
100
AcDbVertex
100
AcDb2dVertex
 10
109.7807374770378
 20
-163.1218338481082
 30
0.0
  0
SEQEND
  5
CD
330
CA
100
AcDbEntity
  8
_U+30EC_U+30A4_U+30E4_U+30FC 1
 62
   179
420
  2234388
370
     9
  0
POLYLINE
  5
CE
330
1F
100
AcDbEntity
  8
_U+30EC_U+30A4_U+30E4_U+30FC 1
 62
   179
420
  2234388
370
     9
100
AcDb2dPolyline
 66
     1
 10
0.0
 20
0.0
 30
0.0
  0
VERTEX
  5
CF
330
CE
100
AcDbEntity
  8
_U+30EC_U+30A4_U+30E4_U+30FC 1
 62
   179
420
  2234388
370
     9
100
AcDbVertex
100
AcDb2dVertex
 10
75.78054720327698
 20
-138.1221307988027
 30
0.0
  0
VERTEX
  5
D0
330
CE
100
AcDbEntity
  8
_U+30EC_U+30A4_U+30E4_U+30FC 1
 62
   179
420
  2234388
370
     9
100
AcDbVertex
100
AcDb2dVertex
 10
75.78054720327698
 20
-163.1218338481082
 30
0.0
  0
SEQEND
  5
D1
330
CE
100
AcDbEntity
  8
_U+30EC_U+30A4_U+30E4_U+30FC 1
 62
   179
420
  2234388
370
     9
  0
POLYLINE
  5
D2
330
1F
100
AcDbEntity
  8
_U+30EC_U+30A4_U+30E4_U+30FC 1
 62
   179
420
  2234388
370
     9
100
AcDb2dPolyline
 66
     1
 10
0.0
 20
0.0
 30
0.0
  0
VERTEX
  5
D3
330
D2
100
AcDbEntity
  8
_U+30EC_U+30A4_U+30E4_U+30FC 1
 62
   179
420
  2234388
370
     9
100
AcDbVertex
100
AcDb2dVertex
 10
77.24058664053958
 20
-138.1221307988027
 30
0.0
  0
VERTEX
  5
D4
330
D2
100
AcDbEntity
  8
_U+30EC_U+30A4_U+30E4_U+30FC 1
 62
   179
420
  2234388
370
     9
100
AcDbVertex
100
AcDb2dVertex
 10
74.78045559219164
 20
-138.1221307988027
 30
0.0
  0
SEQEND
  5
D5
330
D2
100
AcDbEntity
  8
_U+30EC_U+30A4_U+30E4_U+30FC 1
 62
   179
420
  2234388
370
     9
  0
POLYLINE
  5
D6
330
1F
100
AcDbEntity
  8
_U+30EC_U+30A4_U+30E4_U+30FC 1
 62
   179
420
  2234388
370
     9
100
AcDb2dPolyline
 66
     1
 10
0.0
 20
0.0
 30
0.0
  0
VERTEX
  5
D7
330
D6
100
AcDbEntity
  8
_U+30EC_U+30A4_U+30E4_U+30FC 1
 62
   179
420
  2234388
370
     9
100
AcDbVertex
100
AcDb2dVertex
 10
77.24058664053958
 20
-163.1218338481082
 30
0.0
  0
VERTEX
  5
D8
330
D6
100
AcDbEntity
  8
_U+30EC_U+30A4_U+30E4_U+30FC 1
 62
   179
420
  2234388
370
     9
100
AcDbVertex
100
AcDb2dVertex
 10
74.78045559219164
 20
-163.1218338481082
 30
0.0
  0
SEQEND
  5
D9
330
D6
100
AcDbEntity
  8
_U+30EC_U+30A4_U+30E4_U+30FC 1
 62
   179
420
  2234388
370
     9
  0
POLYLINE
  5
DA
330
1F
100
AcDbEntity
  8
_U+30EC_U+30A4_U+30E4_U+30FC 1
 62
   179
420
  2234388
370
     9
100
AcDb2dPolyline
 66
     1
 10
0.0
 20
0.0
 30
0.0
  0
VERTEX
  5
DB
330
DA
100
AcDbEntity
  8
_U+30EC_U+30A4_U+30E4_U+30FC 1
 62
   179
420
  2234388
370
     9
100
AcDbVertex
100
AcDb2dVertex
 10
82.78046761031655
 20
-134.1217013553585
 30
0.0
  0
VERTEX
  5
DC
330
DA
100
AcDbEntity
  8
_U+30EC_U+30A4_U+30E4_U+30FC 1
 62
   179
420
  2234388
370
     9
100
AcDbVertex
100
AcDb2dVertex
 10
79.78030435352376
 20
-134.1217013553585
 30
0.0
  0
SEQEND
  5
DD
330
DA
100
AcDbEntity
  8
_U+30EC_U+30A4_U+30E4_U+30FC 1
 62
   179
420
  2234388
370
     9
  0
POLYLINE
  5
DE
330
1F
100
AcDbEntity
  8
_U+30EC_U+30A4_U+30E4_U+30FC 1
 62
   179
420
  2234388
370
     9
100
AcDb2dPolyline
 66
     1
 10
0.0
 20
0.0
 30
0.0
  0
VERTEX
  5
DF
330
DE
100
AcDbEntity
  8
_U+30EC_U+30A4_U+30E4_U+30FC 1
 62
   179
420
  2234388
370
     9
100
AcDbVertex
100
AcDb2dVertex
 10
82.78046761031655
 20
-135.5817427438822
 30
0.0
  0
VERTEX
  5
E0
330
DE
100
AcDbEntity
  8
_U+30EC_U+30A4_U+30E4_U+30FC 1
 62
   179
420
  2234388
370
     9
100
AcDbVertex
100
AcDb2dVertex
 10
82.78046761031655
 20
-133.1219291333859
 30
0.0
  0
SEQEND
  5
E1
330
DE
100
AcDbEntity
  8
_U+30EC_U+30A4_U+30E4_U+30FC 1
 62
   179
420
  2234388
370
     9
  0
POLYLINE
  5
E2
330
1F
100
AcDbEntity
  8
_U+30EC_U+30A4_U+30E4_U+30FC 1
 62
   179
420
  2234388
370
     9
100
AcDb2dPolyline
 66
     1
 10
0.0
 20
0.0
 30
0.0
  0
VERTEX
  5
E3
330
E2
100
AcDbEntity
  8
_U+30EC_U+30A4_U+30E4_U+30FC 1
 62
   179
420
  2234388
370
     9
100
AcDbVertex
100
AcDb2dVertex
 10
79.78030435352376
 20
-135.5817427438822
 30
0.0
  0
VERTEX
  5
E4
330
E2
100
AcDbEntity
  8
_U+30EC_U+30A4_U+30E4_U+30FC 1
 62
   179
420
  2234388
370
     9
100
AcDbVertex
100
AcDb2dVertex
 10
79.78030435352376
 20
-133.1219291333859
 30
0.0
  0
SEQEND
  5
E5
330
E2
100
AcDbEntity
  8
_U+30EC_U+30A4_U+30E4_U+30FC 1
 62
   179
420
  2234388
370
     9
  0
POLYLINE
  5
E6
330
1F
100
AcDbEntity
  8
_U+30EC_U+30A4_U+30E4_U+30FC 1
 62
   179
420
  2234388
370
     9
100
AcDb2dPolyline
 66
     1
 10
0.0
 20
0.0
 30
0.0
  0
VERTEX
  5
E7
330
E6
100
AcDbEntity
  8
_U+30EC_U+30A4_U+30E4_U+30FC 1
 62
   179
420
  2234388
370
     9
100
AcDbVertex
100
AcDb2dVertex
 10
82.78046761031655
 20
-134.1217013553585
 30
0.0
  0
VERTEX
  5
E8
330
E6
100
AcDbEntity
  8
_U+30EC_U+30A4_U+30E4_U+30FC 1
 62
   179
420
  2234388
370
     9
100
AcDbVertex
100
AcDb2dVertex
 10
89.78056632061804
 20
-134.1217013553585
 30
0.0
  0
SEQEND
  5
E9
330
E6
100
AcDbEntity
  8
_U+30EC_U+30A4_U+30E4_U+30FC 1
 62
   179
420
  2234388
370
     9
  0
POLYLINE
  5
EA
330
1F
100
AcDbEntity
  8
_U+30EC_U+30A4_U+30E4_U+30FC 1
 62
   179
420
  2234388
370
     9
100
AcDb2dPolyline
 66
     1
 10
0.0
 20
0.0
 30
0.0
  0
VERTEX
  5
EB
330
EA
100
AcDbEntity
  8
_U+30EC_U+30A4_U+30E4_U+30FC 1
 62
   179
420
  2234388
370
     9
100
AcDbVertex
100
AcDb2dVertex
 10
104.7805006601601
 20
-167.1222632915531
 30
0.0
  0
VERTEX
  5
EC
330
EA
100
AcDbEntity
  8
_U+30EC_U+30A4_U+30E4_U+30FC 1
 62
   179
420
  2234388
370
     9
100
AcDbVertex
100
AcDb2dVertex
 10
79.78030435352376
 20
-167.1222632915531
 30
0.0
  0
SEQEND
  5
ED
330
EA
100
AcDbEntity
  8
_U+30EC_U+30A4_U+30E4_U+30FC 1
 62
   179
420
  2234388
370
     9
  0
POLYLINE
  5
EE
330
1F
100
AcDbEntity
  8
_U+30EC_U+30A4_U+30E4_U+30FC 1
 62
   179
420
  2234388
370
     9
100
AcDb2dPolyline
 66
     1
 10
0.0
 20
0.0
 30
0.0
  0
VERTEX
  5
EF
330
EE
100
AcDbEntity
  8
_U+30EC_U+30A4_U+30E4_U+30FC 1
 62
   179
420
  2234388
370
     9
100
AcDbVertex
100
AcDb2dVertex
 10
104.7805006601601
 20
-165.6622571808069
 30
0.0
  0
VERTEX
  5
F0
330
EE
100
AcDbEntity
  8
_U+30EC_U+30A4_U+30E4_U+30FC 1
 62
   179
420
  2234388
370
     9
100
AcDbVertex
100
AcDb2dVertex
 10
104.7805006601601
 20
-168.122035513525
 30
0.0
  0
SEQEND
  5
F1
330
EE
100
AcDbEntity
  8
_U+30EC_U+30A4_U+30E4_U+30FC 1
 62
   179
420
  2234388
370
     9
  0
POLYLINE
  5
F2
330
1F
100
AcDbEntity
  8
_U+30EC_U+30A4_U+30E4_U+30FC 1
 62
   179
420
  2234388
370
     9
100
AcDb2dPolyline
 66
     1
 10
0.0
 20
0.0
 30
0.0
  0
VERTEX
  5
F3
330
F2
100
AcDbEntity
  8
_U+30EC_U+30A4_U+30E4_U+30FC 1
 62
   179
420
  2234388
370
     9
100
AcDbVertex
100
AcDb2dVertex
 10
79.78030435352376
 20
-165.6622571808069
 30
0.0
  0
VERTEX
  5
F4
330
F2
100
AcDbEntity
  8
_U+30EC_U+30A4_U+30E4_U+30FC 1
 62
   179
420
  2234388
370
     9
100
AcDbVertex
100
AcDb2dVertex
 10
79.78030435352376
 20
-168.122035513525
 30
0.0
  0
SEQEND
  5
F5
330
F2
100
AcDbEntity
  8
_U+30EC_U+30A4_U+30E4_U+30FC 1
 62
   179
420
  2234388
370
     9
  0
INSERT
  5
F7
330
1F
100
AcDbEntity
  8
_U+30EC_U+30A4_U+30E4_U+30FC 1
100
AcDbBlockReference
  2
block 2
 10
0.0
 20
0.0
 30
0.0
  0
INSERT
  5
107
330
1F
100
AcDbEntity
  8
_U+30EC_U+30A4_U+30E4_U+30FC 1
100
AcDbBlockReference
  2
block 3
 10
0.0
 20
0.0
 30
0.0
  0
INSERT
  5
110
330
1F
100
AcDbEntity
  8
_U+30EC_U+30A4_U+30E4_U+30FC 1
100
AcDbBlockReference
  2
block 4
 10
0.0
 20
0.0
 30
0.0
  0
INSERT
  5
118
330
1F
100
AcDbEntity
  8
_U+30EC_U+30A4_U+30E4_U+30FC 1
100
AcDbBlockReference
  2
block 5
 10
0.0
 20
0.0
 30
0.0
  0
INSERT
  5
11E
330
1F
100
AcDbEntity
  8
_U+30EC_U+30A4_U+30E4_U+30FC 1
100
AcDbBlockReference
  2
block 6
 10
0.0
 20
0.0
 30
0.0
  0
INSERT
  5
126
330
1F
100
AcDbEntity
  8
_U+30EC_U+30A4_U+30E4_U+30FC 1
100
AcDbBlockReference
  2
block 7
 10
0.0
 20
0.0
 30
0.0
  0
INSERT
  5
12C
330
1F
100
AcDbEntity
  8
_U+30EC_U+30A4_U+30E4_U+30FC 1
100
AcDbBlockReference
  2
block 8
 10
0.0
 20
0.0
 30
0.0
  0
INSERT
  5
132
330
1F
100
AcDbEntity
  8
_U+30EC_U+30A4_U+30E4_U+30FC 1
100
AcDbBlockReference
  2
block 9
 10
0.0
 20
0.0
 30
0.0
  0
ENDSEC
  0
SECTION
  2
OBJECTS
  0
DICTIONARY
  5
C
330
0
100
AcDbDictionary
281
     1
  3
ACAD_GROUP
350
D
  3
ACAD_LAYOUT
350
1A
  3
ACAD_MATERIAL
350
3B
  3
ACAD_MLEADERSTYLE
350
13A
  3
ACAD_MLINESTYLE
350
17
  3
ACAD_PLOTSETTINGS
350
19
  3
ACAD_PLOTSTYLENAME
350
E
  3
ACAD_TABLESTYLE
350
139
  3
ACAD_VISUALSTYLE
350
2A
  0
SUN
  5
3F
330
29
100
AcDbSun
 90
        1
290
     0
 63
     7
421
 16777215
 40
1.0
291
     1
 91
  2455826
 92
 54000000
292
     0
 70
     2
 71
   256
280
     1
  0
DICTIONARY
  5
D
102
{ACAD_REACTORS
330
C
102
}
330
C
100
AcDbDictionary
281
     1
  0
DICTIONARY
  5
1A
102
{ACAD_REACTORS
330
C
102
}
330
C
100
AcDbDictionary
281
     1
  3
Layout1
350
1E
  3
Layout2
350
26
  3
Model
350
22
  0
DICTIONARY
  5
3B
102
{ACAD_REACTORS
330
C
102
}
330
C
100
AcDbDictionary
281
     1
  3
ByBlock
350
3D
  3
ByLayer
350
3C
  3
Global
350
3E
  0
DICTIONARY
  5
13A
102
{ACAD_REACTORS
330
C
102
}
330
C
100
AcDbDictionary
281
     1
  0
DICTIONARY
  5
17
102
{ACAD_REACTORS
330
C
102
}
330
C
100
AcDbDictionary
281
     1
  3
Standard
350
18
  0
DICTIONARY
  5
19
102
{ACAD_REACTORS
330
C
102
}
330
C
100
AcDbDictionary
281
     1
  0
ACDBDICTIONARYWDFLT
  5
E
102
{ACAD_REACTORS
330
C
102
}
330
C
100
AcDbDictionary
281
     1
  3
Normal
350
F
100
AcDbDictionaryWithDefault
340
F
  0
DICTIONARY
  5
139
102
{ACAD_REACTORS
330
C
102
}
330
C
100
AcDbDictionary
281
     1
  0
DICTIONARY
  5
2A
102
{ACAD_REACTORS
330
C
102
}
330
C
100
AcDbDictionary
281
     1
  3
2dWireframe
350
2F
  3
3D Hidden
350
31
  3
3dWireframe
350
30
  3
Basic
350
32
  3
Brighten
350
36
  3
ColorChange
350
3A
  3
Conceptual
350
34
  3
Dim
350
35
  3
Facepattern
350
39
  3
Flat
350
2B
  3
FlatWithEdges
350
2C
  3
Gouraud
350
2D
  3
GouraudWithEdges
350
2E
  3
Linepattern
350
38
  3
Realistic
350
33
  3
Thicken
350
37
  0
LAYOUT
  5
1E
102
{ACAD_REACTORS
330
1A
102
}
330
1A
100
AcDbPlotSettings
  1

  2
none_device
  4

  6

 40
0.0
 41
0.0
 42
0.0
 43
0.0
 44
0.0
 45
0.0
 46
0.0
 47
0.0
 48
0.0
 49
0.0
140
0.0
141
0.0
142
1.0
143
1.0
 70
   688
 72
     0
 73
     0
 74
     5
  7

 75
    16
 76
     0
 77
     2
 78
   300
147
1.0
148
0.0
149
0.0
100
AcDbLayout
  1
Layout1
 70
     1
 71
     1
 10
0.0
 20
0.0
 11
12.0
 21
9.0
 12
0.0
 22
0.0
 32
0.0
 14
1.000000000000000E+20
 24
1.000000000000000E+20
 34
1.000000000000000E+20
 15
-1.000000000000000E+20
 25
-1.000000000000000E+20
 35
-1.000000000000000E+20
146
0.0
 13
0.0
 23
0.0
 33
0.0
 16
1.0
 26
0.0
 36
0.0
 17
0.0
 27
1.0
 37
0.0
 76
     0
330
1B
  0
LAYOUT
  5
26
102
{ACAD_REACTORS
330
1A
102
}
330
1A
100
AcDbPlotSettings
  1

  2
none_device
  4

  6

 40
0.0
 41
0.0
 42
0.0
 43
0.0
 44
0.0
 45
0.0
 46
0.0
 47
0.0
 48
0.0
 49
0.0
140
0.0
141
0.0
142
1.0
143
1.0
 70
   688
 72
     0
 73
     0
 74
     5
  7

 75
    16
 76
     0
 77
     2
 78
   300
147
1.0
148
0.0
149
0.0
100
AcDbLayout
  1
Layout2
 70
     1
 71
     2
 10
0.0
 20
0.0
 11
0.0
 21
0.0
 12
0.0
 22
0.0
 32
0.0
 14
0.0
 24
0.0
 34
0.0
 15
0.0
 25
0.0
 35
0.0
146
0.0
 13
0.0
 23
0.0
 33
0.0
 16
1.0
 26
0.0
 36
0.0
 17
0.0
 27
1.0
 37
0.0
 76
     0
330
23
  0
LAYOUT
  5
22
102
{ACAD_REACTORS
330
1A
102
}
330
1A
100
AcDbPlotSettings
  1

  2
none_device
  4

  6

 40
0.0
 41
0.0
 42
0.0
 43
0.0
 44
0.0
 45
0.0
 46
0.0
 47
0.0
 48
0.0
 49
0.0
140
0.0
141
0.0
142
1.0
143
1.0
 70
  1712
 72
     0
 73
     0
 74
     0
  7

 75
     0
 76
     0
 77
     2
 78
   300
147
1.0
148
0.0
149
0.0
100
AcDbLayout
  1
Model
 70
     1
 71
     0
 10
0.0
 20
0.0
 11
12.0
 21
9.0
 12
0.0
 22
0.0
 32
0.0
 14
1.000000000000000E+20
 24
1.000000000000000E+20
 34
1.000000000000000E+20
 15
-1.000000000000000E+20
 25
-1.000000000000000E+20
 35
-1.000000000000000E+20
146
0.0
 13
0.0
 23
0.0
 33
0.0
 16
1.0
 26
0.0
 36
0.0
 17
0.0
 27
1.0
 37
0.0
 76
     0
330
1F
331
29
  0
MATERIAL
  5
3D
102
{ACAD_REACTORS
330
3B
102
}
330
3B
100
AcDbMaterial
  1
ByBlock
 72
     1
 94
      127
  0
MATERIAL
  5
3C
102
{ACAD_REACTORS
330
3B
102
}
330
3B
100
AcDbMaterial
  1
ByLayer
 72
     1
 94
      127
  0
MATERIAL
  5
3E
102
{ACAD_REACTORS
330
3B
102
}
330
3B
100
AcDbMaterial
  1
Global
 72
     1
 94
      127
  0
MLINESTYLE
  5
18
102
{ACAD_REACTORS
330
17
102
}
330
17
100
AcDbMlineStyle
  2
Standard
 70
     0
  3

 62
   256
 51
90.0
 52
90.0
 71
     2
 49
0.5
 62
   256
  6
BYLAYER
 49
-0.5
 62
   256
  6
BYLAYER
  0
ACDBPLACEHOLDER
  5
F
102
{ACAD_REACTORS
330
E
102
}
330
E
  0
VISUALSTYLE
  5
2F
102
{ACAD_REACTORS
330
2A
102
}
330
2A
100
AcDbVisualStyle
  2
2dWireframe
 70
     4
177
     2
291
     0
 71
     0
176
     1
 72
     2
176
     1
 73
     0
176
     1
 90
        0
176
     1
 40
-0.6
176
     1
 41
-30.0
176
     1
 62
     5
 63
     7
421
 16777215
176
     1
 74
     1
176
     1
 91
        4
176
     1
 64
     7
176
     1
 65
   257
176
     1
 75
     1
176
     1
175
     1
176
     1
 42
1.0
176
     1
 92
        0
176
     1
 66
   257
176
     1
 43
1.0
176
     1
 76
     1
176
     1
 77
     6
176
     1
 78
     2
176
     1
 67
     7
176
     1
 79
     5
176
     1
170
     0
176
     1
171
     0
176
     1
290
     0
176
     1
 93
        1
176
     1
 44
0.0
176
     1
173
     0
176
     1
  0
VISUALSTYLE
  5
31
102
{ACAD_REACTORS
330
2A
102
}
330
2A
100
AcDbVisualStyle
  2
3D Hidden
 70
     6
177
     2
291
     0
 71
     1
176
     1
 72
     2
176
     1
 73
     2
176
     1
 90
        0
176
     1
 40
-0.6
176
     1
 41
-30.0
176
     1
 62
     5
 63
     7
421
 16777215
176
     1
 74
     2
176
     1
 91
        2
176
     1
 64
     7
176
     1
 65
   257
176
     1
 75
     2
176
     1
175
     1
176
     1
 42
40.0
176
     1
 92
        0
176
     1
 66
   257
176
     1
 43
1.0
176
     1
 76
     1
176
     1
 77
     6
176
     1
 78
     2
176
     1
 67
     7
176
     1
 79
     3
176
     1
170
     0
176
     1
171
     0
176
     1
290
     0
176
     1
 93
        1
176
     1
 44
0.0
176
     1
173
     0
176
     1
  0
VISUALSTYLE
  5
30
102
{ACAD_REACTORS
330
2A
102
}
330
2A
100
AcDbVisualStyle
  2
3dWireframe
 70
     5
177
     2
291
     0
 71
     0
176
     1
 72
     2
176
     1
 73
     0
176
     1
 90
        0
176
     1
 40
-0.6
176
     1
 41
-30.0
176
     1
 62
     5
 63
     7
421
 16777215
176
     1
 74
     1
176
     1
 91
        4
176
     1
 64
     7
176
     1
 65
   257
176
     1
 75
     1
176
     1
175
     1
176
     1
 42
1.0
176
     1
 92
        0
176
     1
 66
   257
176
     1
 43
1.0
176
     1
 76
     1
176
     1
 77
     6
176
     1
 78
     2
176
     1
 67
     7
176
     1
 79
     5
176
     1
170
     0
176
     1
171
     0
176
     1
290
     0
176
     1
 93
        1
176
     1
 44
0.0
176
     1
173
     0
176
     1
  0
VISUALSTYLE
  5
32
102
{ACAD_REACTORS
330
2A
102
}
330
2A
100
AcDbVisualStyle
  2
Basic
 70
     7
177
     2
291
     1
 71
     1
176
     1
 72
     0
176
     1
 73
     1
176
     1
 90
        0
176
     1
 40
-0.6
176
     1
 41
-30.0
176
     1
 62
     5
 63
     7
421
 16777215
176
     1
 74
     0
176
     1
 91
        4
176
     1
 64
     7
176
     1
 65
   257
176
     1
 75
     1
176
     1
175
     1
176
     1
 42
1.0
176
     1
 92
        8
176
     1
 66
     7
176
     1
 43
1.0
176
     1
 76
     1
176
     1
 77
     6
176
     1
 78
     2
176
     1
 67
     7
176
     1
 79
     5
176
     1
170
     0
176
     1
171
     0
176
     1
290
     0
176
     1
 93
        1
176
     1
 44
0.0
176
     1
173
     0
176
     1
  0
VISUALSTYLE
  5
36
102
{ACAD_REACTORS
330
2A
102
}
330
2A
100
AcDbVisualStyle
  2
Brighten
 70
    12
177
     2
291
     1
 71
     2
176
     1
 72
     2
176
     1
 73
     0
176
     1
 90
        0
176
     1
 40
-0.6
176
     1
 41
-30.0
176
     1
 62
     5
 63
     7
421
 16777215
176
     1
 74
     1
176
     1
 91
        4
176
     1
 64
     7
176
     1
 65
   257
176
     1
 75
     1
176
     1
175
     1
176
     1
 42
1.0
176
     1
 92
        8
176
     1
 66
     7
176
     1
 43
1.0
176
     1
 76
     1
176
     1
 77
     6
176
     1
 78
     2
176
     1
 67
     7
176
     1
 79
     5
176
     1
170
     0
176
     1
171
     0
176
     1
290
     0
176
     1
 93
        1
176
     1
 44
50.0
176
     1
173
     0
176
     1
  0
VISUALSTYLE
  5
3A
102
{ACAD_REACTORS
330
2A
102
}
330
2A
100
AcDbVisualStyle
  2
ColorChange
 70
    16
177
     2
291
     1
 71
     2
176
     1
 72
     2
176
     1
 73
     3
176
     1
 90
        0
176
     1
 40
-0.6
176
     1
 41
-30.0
176
     1
 62
     5
 63
     8
421
  8421504
176
     1
 74
     1
176
     1
 91
        4
176
     1
 64
     7
176
     1
 65
   257
176
     1
 75
     1
176
     1
175
     1
176
     1
 42
1.0
176
     1
 92
        8
176
     1
 66
     8
424
  8421504
176
     1
 43
1.0
176
     1
 76
     1
176
     1
 77
     6
176
     1
 78
     2
176
     1
 67
     7
176
     1
 79
     5
176
     1
170
     0
176
     1
171
     0
176
     1
290
     0
176
     1
 93
        1
176
     1
 44
0.0
176
     1
173
     0
176
     1
  0
VISUALSTYLE
  5
34
102
{ACAD_REACTORS
330
2A
102
}
330
2A
100
AcDbVisualStyle
  2
Conceptual
 70
     9
177
     2
291
     0
 71
     3
176
     1
 72
     2
176
     1
 73
     0
176
     1
 90
        0
176
     1
 40
-0.6
176
     1
 41
-30.0
176
     1
 62
     5
 63
     7
421
 16777215
176
     1
 74
     2
176
     1
 91
        2
176
     1
 64
     7
176
     1
 65
   257
176
     1
 75
     1
176
     1
175
     1
176
     1
 42
40.0
176
     1
 92
        8
176
     1
 66
     7
176
     1
 43
1.0
176
     1
 76
     1
176
     1
 77
     6
176
     1
 78
     2
176
     1
 67
     7
176
     1
 79
     3
176
     1
170
     0
176
     1
171
     0
176
     1
290
     0
176
     1
 93
        1
176
     1
 44
0.0
176
     1
173
     0
176
     1
  0
VISUALSTYLE
  5
35
102
{ACAD_REACTORS
330
2A
102
}
330
2A
100
AcDbVisualStyle
  2
Dim
 70
    11
177
     2
291
     1
 71
     2
176
     1
 72
     2
176
     1
 73
     0
176
     1
 90
        0
176
     1
 40
-0.6
176
     1
 41
-30.0
176
     1
 62
     5
 63
     7
421
 16777215
176
     1
 74
     1
176
     1
 91
        4
176
     1
 64
     7
176
     1
 65
   257
176
     1
 75
     1
176
     1
175
     1
176
     1
 42
1.0
176
     1
 92
        8
176
     1
 66
     7
176
     1
 43
1.0
176
     1
 76
     1
176
     1
 77
     6
176
     1
 78
     2
176
     1
 67
     7
176
     1
 79
     5
176
     1
170
     0
176
     1
171
     0
176
     1
290
     0
176
     1
 93
        1
176
     1
 44
-50.0
176
     1
173
     0
176
     1
  0
VISUALSTYLE
  5
39
102
{ACAD_REACTORS
330
2A
102
}
330
2A
100
AcDbVisualStyle
  2
Facepattern
 70
    15
177
     2
291
     1
 71
     2
176
     1
 72
     2
176
     1
 73
     0
176
     1
 90
        0
176
     1
 40
-0.6
176
     1
 41
-30.0
176
     1
 62
     5
 63
     7
421
 16777215
176
     1
 74
     1
176
     1
 91
        4
176
     1
 64
     7
176
     1
 65
   257
176
     1
 75
     1
176
     1
175
     1
176
     1
 42
1.0
176
     1
 92
        8
176
     1
 66
     7
176
     1
 43
1.0
176
     1
 76
     1
176
     1
 77
     6
176
     1
 78
     2
176
     1
 67
     7
176
     1
 79
     5
176
     1
170
     0
176
     1
171
     0
176
     1
290
     0
176
     1
 93
        1
176
     1
 44
0.0
176
     1
173
     0
176
     1
  0
VISUALSTYLE
  5
2B
102
{ACAD_REACTORS
330
2A
102
}
330
2A
100
AcDbVisualStyle
  2
Flat
 70
     0
177
     2
291
     1
 71
     2
176
     1
 72
     1
176
     1
 73
     1
176
     1
 90
        2
176
     1
 40
-0.6
176
     1
 41
30.0
176
     1
 62
     5
 63
     7
421
 16777215
176
     1
 74
     0
176
     1
 91
        4
176
     1
 64
     7
176
     1
 65
   257
176
     1
 75
     1
176
     1
175
     1
176
     1
 42
1.0
176
     1
 92
        8
176
     1
 66
     7
176
     1
 43
1.0
176
     1
 76
     1
176
     1
 77
     6
176
     1
 78
     2
176
     1
 67
     7
176
     1
 79
     5
176
     1
170
     0
176
     1
171
     0
176
     1
290
     0
176
     1
 93
       13
176
     1
 44
0.0
176
     1
173
     0
176
     1
  0
VISUALSTYLE
  5
2C
102
{ACAD_REACTORS
330
2A
102
}
330
2A
100
AcDbVisualStyle
  2
FlatWithEdges
 70
     1
177
     2
291
     1
 71
     2
176
     1
 72
     1
176
     1
 73
     1
176
     1
 90
        2
176
     1
 40
-0.6
176
     1
 41
30.0
176
     1
 62
     5
 63
     7
421
 16777215
176
     1
 74
     1
176
     1
 91
        4
176
     1
 64
     7
176
     1
 65
   257
176
     1
 75
     1
176
     1
175
     1
176
     1
 42
1.0
176
     1
 92
        0
176
     1
 66
   257
176
     1
 43
1.0
176
     1
 76
     1
176
     1
 77
     6
176
     1
 78
     2
176
     1
 67
     7
176
     1
 79
     5
176
     1
170
     0
176
     1
171
     0
176
     1
290
     0
176
     1
 93
       13
176
     1
 44
0.0
176
     1
173
     0
176
     1
  0
VISUALSTYLE
  5
2D
102
{ACAD_REACTORS
330
2A
102
}
330
2A
100
AcDbVisualStyle
  2
Gouraud
 70
     2
177
     2
291
     1
 71
     2
176
     1
 72
     2
176
     1
 73
     1
176
     1
 90
        2
176
     1
 40
-0.6
176
     1
 41
30.0
176
     1
 62
     5
 63
     7
421
 16777215
176
     1
 74
     0
176
     1
 91
        4
176
     1
 64
     7
176
     1
 65
   257
176
     1
 75
     1
176
     1
175
     1
176
     1
 42
1.0
176
     1
 92
        0
176
     1
 66
     7
176
     1
 43
1.0
176
     1
 76
     1
176
     1
 77
     6
176
     1
 78
     2
176
     1
 67
     7
176
     1
 79
     5
176
     1
170
     0
176
     1
171
     0
176
     1
290
     0
176
     1
 93
       13
176
     1
 44
0.0
176
     1
173
     0
176
     1
  0
VISUALSTYLE
  5
2E
102
{ACAD_REACTORS
330
2A
102
}
330
2A
100
AcDbVisualStyle
  2
GouraudWithEdges
 70
     3
177
     2
291
     1
 71
     2
176
     1
 72
     2
176
     1
 73
     1
176
     1
 90
        2
176
     1
 40
-0.6
176
     1
 41
30.0
176
     1
 62
     5
 63
     7
421
 16777215
176
     1
 74
     1
176
     1
 91
        4
176
     1
 64
     7
176
     1
 65
   257
176
     1
 75
     1
176
     1
175
     1
176
     1
 42
1.0
176
     1
 92
        0
176
     1
 66
   257
176
     1
 43
1.0
176
     1
 76
     1
176
     1
 77
     6
176
     1
 78
     2
176
     1
 67
     7
176
     1
 79
     5
176
     1
170
     0
176
     1
171
     0
176
     1
290
     0
176
     1
 93
       13
176
     1
 44
0.0
176
     1
173
     0
176
     1
  0
VISUALSTYLE
  5
38
102
{ACAD_REACTORS
330
2A
102
}
330
2A
100
AcDbVisualStyle
  2
Linepattern
 70
    14
177
     2
291
     1
 71
     2
176
     1
 72
     2
176
     1
 73
     0
176
     1
 90
        0
176
     1
 40
-0.6
176
     1
 41
-30.0
176
     1
 62
     5
 63
     7
421
 16777215
176
     1
 74
     1
176
     1
 91
        4
176
     1
 64
     7
176
     1
 65
   257
176
     1
 75
     7
176
     1
175
     7
176
     1
 42
1.0
176
     1
 92
        8
176
     1
 66
     7
176
     1
 43
1.0
176
     1
 76
     1
176
     1
 77
     6
176
     1
 78
     2
176
     1
 67
     7
176
     1
 79
     5
176
     1
170
     0
176
     1
171
     0
176
     1
290
     0
176
     1
 93
        1
176
     1
 44
0.0
176
     1
173
     0
176
     1
  0
VISUALSTYLE
  5
33
102
{ACAD_REACTORS
330
2A
102
}
330
2A
100
AcDbVisualStyle
  2
Realistic
 70
     8
177
     2
291
     0
 71
     2
176
     1
 72
     2
176
     1
 73
     0
176
     1
 90
        0
176
     1
 40
-0.6
176
     1
 41
-30.0
176
     1
 62
     5
 63
     7
421
 16777215
176
     1
 74
     1
176
     1
 91
        0
176
     1
 64
     7
176
     1
 65
   257
176
     1
 75
     1
176
     1
175
     1
176
     1
 42
1.0
176
     1
 92
        8
176
     1
 66
     8
424
  7895160
176
     1
 43
1.0
176
     1
 76
     1
176
     1
 77
     6
176
     1
 78
     2
176
     1
 67
     7
176
     1
 79
     5
176
     1
170
     0
176
     1
171
     0
176
     1
290
     0
176
     1
 93
       13
176
     1
 44
0.0
176
     1
173
     0
176
     1
  0
VISUALSTYLE
  5
37
102
{ACAD_REACTORS
330
2A
102
}
330
2A
100
AcDbVisualStyle
  2
Thicken
 70
    13
177
     2
291
     1
 71
     2
176
     1
 72
     2
176
     1
 73
     0
176
     1
 90
        0
176
     1
 40
-0.6
176
     1
 41
-30.0
176
     1
 62
     5
 63
     7
421
 16777215
176
     1
 74
     1
176
     1
 91
        4
176
     1
 64
     7
176
     1
 65
   257
176
     1
 75
     1
176
     1
175
     1
176
     1
 42
1.0
176
     1
 92
       12
176
     1
 66
     7
176
     1
 43
1.0
176
     1
 76
     1
176
     1
 77
     6
176
     1
 78
     2
176
     1
 67
     7
176
     1
 79
     5
176
     1
170
     0
176
     1
171
     0
176
     1
290
     0
176
     1
 93
        1
176
     1
 44
0.0
176
     1
173
     0
176
     1
  0
ENDSEC
  0
EOF
