  0
SECTION
  2
HEADER
  9
$ACADVER
  1
AC1024
  9
$ACADMAINTVER
 70
     6
  9
$DWGCODEPAGE
  3
UNDEFINED
  9
$INSBASE
 10
0.0
 20
0.0
 30
0.0
  9
$EXTMIN
 10
1.000000000000000E+20
 20
1.000000000000000E+20
 30
1.000000000000000E+20
  9
$EXTMAX
 10
-1.000000000000000E+20
 20
-1.000000000000000E+20
 30
-1.000000000000000E+20
  9
$LIMMIN
 10
0.0
 20
0.0
  9
$LIMMAX
 10
12.0
 20
9.0
  9
$ORTHOMODE
 70
     0
  9
$REGENMODE
 70
     1
  9
$FILLMODE
 70
     1
  9
$QTEXTMODE
 70
     0
  9
$MIRRTEXT
 70
     1
  9
$LTSCALE
 40
1.0
  9
$ATTMODE
 70
     1
  9
$TEXTSIZE
 40
0.2
  9
$TRACEWID
 40
0.05
  9
$TEXTSTYLE
  7
Standard
  9
$CLAYER
  8
0
  9
$CELTYPE
  6
ByLayer
  9
$CECOLOR
 62
   256
  9
$CELTSCALE
 40
1.0
  9
$DISPSILH
 70
     0
  9
$DIMSCALE
 40
1.0
  9
$DIMASZ
 40
0.18
  9
$DIMEXO
 40
0.0625
  9
$DIMDLI
 40
0.38
  9
$DIMRND
 40
0.0
  9
$DIMDLE
 40
0.0
  9
$DIMEXE
 40
0.18
  9
$DIMTP
 40
0.0
  9
$DIMTM
 40
0.0
  9
$DIMTXT
 40
0.18
  9
$DIMCEN
 40
0.09
  9
$DIMTSZ
 40
0.0
  9
$DIMTOL
 70
     0
  9
$DIMLIM
 70
     0
  9
$DIMTIH
 70
     1
  9
$DIMTOH
 70
     1
  9
$DIMSE1
 70
     0
  9
$DIMSE2
 70
     0
  9
$DIMTAD
 70
     0
  9
$DIMZIN
 70
     0
  9
$DIMBLK
  1

  9
$DIMASO
 70
     1
  9
$DIMSHO
 70
     1
  9
$DIMPOST
  1

  9
$DIMAPOST
  1

  9
$DIMALT
 70
     0
  9
$DIMALTD
 70
     2
  9
$DIMALTF
 40
25.4
  9
$DIMLFAC
 40
1.0
  9
$DIMTOFL
 70
     0
  9
$DIMTVP
 40
0.0
  9
$DIMTIX
 70
     0
  9
$DIMSOXD
 70
     0
  9
$DIMSAH
 70
     0
  9
$DIMBLK1
  1

  9
$DIMBLK2
  1

  9
$DIMSTYLE
  2
Standard
  9
$DIMCLRD
 70
     0
  9
$DIMCLRE
 70
     0
  9
$DIMCLRT
 70
     0
  9
$DIMTFAC
 40
1.0
  9
$DIMGAP
 40
0.09
  9
$DIMJUST
 70
     0
  9
$DIMSD1
 70
     0
  9
$DIMSD2
 70
     0
  9
$DIMTOLJ
 70
     1
  9
$DIMTZIN
 70
     0
  9
$DIMALTZ
 70
     0
  9
$DIMALTTZ
 70
     0
  9
$DIMUPT
 70
     0
  9
$DIMDEC
 70
     4
  9
$DIMTDEC
 70
     4
  9
$DIMALTU
 70
     2
  9
$DIMALTTD
 70
     2
  9
$DIMTXSTY
  7
Standard
  9
$DIMAUNIT
 70
     0
  9
$DIMADEC
 70
     0
  9
$DIMALTRND
 40
0.0
  9
$DIMAZIN
 70
     0
  9
$DIMDSEP
 70
    46
  9
$DIMATFIT
 70
     3
  9
$DIMFRAC
 70
     0
  9
$DIMLDRBLK
  1

  9
$DIMLUNIT
 70
     2
  9
$DIMLWD
 70
    -2
  9
$DIMLWE
 70
    -2
  9
$DIMTMOVE
 70
     0
  9
$DIMFXL
 40
1.0
  9
$DIMFXLON
 70
     0
  9
$DIMJOGANG
 40
0.7853981633974483
  9
$DIMTFILL
 70
     0
  9
$DIMTFILLCLR
 70
     0
  9
$DIMARCSYM
 70
     0
  9
$DIMLTYPE
  6

  9
$DIMLTEX1
  6

  9
$DIMLTEX2
  6

  9
$DIMTXTDIRECTION
 70
     0
  9
$LUNITS
 70
     2
  9
$LUPREC
 70
     4
  9
$SKETCHINC
 40
0.1
  9
$FILLETRAD
 40
0.5
  9
$AUNITS
 70
     0
  9
$AUPREC
 70
     0
  9
$MENU
  1
.
  9
$ELEVATION
 40
0.0
  9
$PELEVATION
 40
0.0
  9
$THICKNESS
 40
0.0
  9
$LIMCHECK
 70
     0
  9
$CHAMFERA
 40
0.5
  9
$CHAMFERB
 40
0.5
  9
$CHAMFERC
 40
1.0
  9
$CHAMFERD
 40
0.0
  9
$SKPOLY
 70
     0
  9
$TDCREATE
 40
2457917.613611099
  9
$TDUCREATE
 40
2457917.238611111
  9
$TDUPDATE
 40
2457917.613611099
  9
$TDUUPDATE
 40
2457917.238611111
  9
$TDINDWG
 40
0.0000000116
  9
$TDUSRTIMER
 40
0.0000000116
  9
$USRTIMER
 70
     1
  9
$ANGBASE
 50
0.0
  9
$ANGDIR
 70
     0
  9
$PDMODE
 70
     0
  9
$PDSIZE
 40
0.0
  9
$PLINEWID
 40
0.0
  9
$SPLFRAME
 70
     0
  9
$SPLINETYPE
 70
     6
  9
$SPLINESEGS
 70
     8
  9
$HANDSEED
  5
15B
  9
$SURFTAB1
 70
     6
  9
$SURFTAB2
 70
     6
  9
$SURFTYPE
 70
     6
  9
$SURFU
 70
     6
  9
$SURFV
 70
     6
  9
$UCSBASE
  2

  9
$UCSNAME
  2

  9
$UCSORG
 10
0.0
 20
0.0
 30
0.0
  9
$UCSXDIR
 10
1.0
 20
0.0
 30
0.0
  9
$UCSYDIR
 10
0.0
 20
1.0
 30
0.0
  9
$UCSORTHOREF
  2

  9
$UCSORTHOVIEW
 70
     0
  9
$UCSORGTOP
 10
0.0
 20
0.0
 30
0.0
  9
$UCSORGBOTTOM
 10
0.0
 20
0.0
 30
0.0
  9
$UCSORGLEFT
 10
0.0
 20
0.0
 30
0.0
  9
$UCSORGRIGHT
 10
0.0
 20
0.0
 30
0.0
  9
$UCSORGFRONT
 10
0.0
 20
0.0
 30
0.0
  9
$UCSORGBACK
 10
0.0
 20
0.0
 30
0.0
  9
$PUCSBASE
  2

  9
$PUCSNAME
  2

  9
$PUCSORG
 10
0.0
 20
0.0
 30
0.0
  9
$PUCSXDIR
 10
1.0
 20
0.0
 30
0.0
  9
$PUCSYDIR
 10
0.0
 20
1.0
 30
0.0
  9
$PUCSORTHOREF
  2

  9
$PUCSORTHOVIEW
 70
     0
  9
$PUCSORGTOP
 10
0.0
 20
0.0
 30
0.0
  9
$PUCSORGBOTTOM
 10
0.0
 20
0.0
 30
0.0
  9
$PUCSORGLEFT
 10
0.0
 20
0.0
 30
0.0
  9
$PUCSORGRIGHT
 10
0.0
 20
0.0
 30
0.0
  9
$PUCSORGFRONT
 10
0.0
 20
0.0
 30
0.0
  9
$PUCSORGBACK
 10
0.0
 20
0.0
 30
0.0
  9
$USERI1
 70
     0
  9
$USERI2
 70
     0
  9
$USERI3
 70
     0
  9
$USERI4
 70
     0
  9
$USERI5
 70
     0
  9
$USERR1
 40
0.0
  9
$USERR2
 40
0.0
  9
$USERR3
 40
0.0
  9
$USERR4
 40
0.0
  9
$USERR5
 40
0.0
  9
$WORLDVIEW
 70
     1
  9
$SHADEDGE
 70
     3
  9
$SHADEDIF
 70
    70
  9
$TILEMODE
 70
     1
  9
$MAXACTVP
 70
    64
  9
$PINSBASE
 10
0.0
 20
0.0
 30
0.0
  9
$PLIMCHECK
 70
     0
  9
$PEXTMIN
 10
1.000000000000000E+20
 20
1.000000000000000E+20
 30
1.000000000000000E+20
  9
$PEXTMAX
 10
-1.000000000000000E+20
 20
-1.000000000000000E+20
 30
-1.000000000000000E+20
  9
$PLIMMIN
 10
0.0
 20
0.0
  9
$PLIMMAX
 10
12.0
 20
9.0
  9
$UNITMODE
 70
     0
  9
$VISRETAIN
 70
     1
  9
$PLINEGEN
 70
     0
  9
$PSLTSCALE
 70
     1
  9
$TREEDEPTH
 70
  3020
  9
$CMLSTYLE
  2
Standard
  9
$CMLJUST
 70
     0
  9
$CMLSCALE
 40
1.0
  9
$PROXYGRAPHICS
 70
     1
  9
$MEASUREMENT
 70
     0
  9
$CELWEIGHT
370
    -1
  9
$ENDCAPS
280
     0
  9
$JOINSTYLE
280
     0
  9
$LWDISPLAY
290
     1
  9
$INSUNITS
 70
     1
  9
$HYPERLINKBASE
  1

  9
$STYLESHEET
  1

  9
$XEDIT
290
     1
  9
$CEPSNTYPE
380
     0
  9
$PSTYLEMODE
290
     1
  9
$FINGERPRINTGUID
  2
{72E43555-9F33-F181-CD0F-E3729E44C308}
  9
$VERSIONGUID
  2
{FAEB1C32-E019-11D5-929B-00C0DF256EC4}
  9
$EXTNAMES
290
     1
  9
$PSVPSCALE
 40
0.0
  9
$OLESTARTUP
290
     0
  9
$SORTENTS
280
   127
  9
$INDEXCTL
280
     0
  9
$HIDETEXT
280
     1
  9
$XCLIPFRAME
280
     2
  9
$HALOGAP
280
     0
  9
$OBSCOLOR
 70
   257
  9
$OBSLTYPE
280
     0
  9
$INTERSECTIONDISPLAY
280
     0
  9
$INTERSECTIONCOLOR
 70
   257
  9
$DIMASSOC
280
     2
  9
$PROJECTNAME
  1

  9
$CAMERADISPLAY
290
     0
  9
$LENSLENGTH
 40
50.0
  9
$CAMERAHEIGHT
 40
0.0
  9
$STEPSPERSEC
 40
2.0
  9
$STEPSIZE
 40
6.0
  9
$3DDWFPREC
 40
2.0
  9
$PSOLWIDTH
 40
0.25
  9
$PSOLHEIGHT
 40
4.0
  9
$LOFTANG1
 40
1.570796326794897
  9
$LOFTANG2
 40
1.570796326794897
  9
$LOFTMAG1
 40
0.0
  9
$LOFTMAG2
 40
0.0
  9
$LOFTPARAM
 70
     7
  9
$LOFTNORMALS
280
     1
  9
$LATITUDE
 40
37.795
  9
$LONGITUDE
 40
-122.394
  9
$NORTHDIRECTION
 40
0.0
  9
$TIMEZONE
 70
 -8000
  9
$LIGHTGLYPHDISPLAY
280
     1
  9
$TILEMODELIGHTSYNCH
280
     1
  9
$CMATERIAL
347
3C
  9
$SOLIDHIST
280
     1
  9
$SHOWHIST
280
     1
  9
$DWFFRAME
280
     2
  9
$DGNFRAME
280
     2
  9
$REALWORLDSCALE
290
     1
  9
$INTERFERECOLOR
 62
   256
  9
$CSHADOW
280
     0
  9
$SHADOWPLANELOCATION
 40
0.0
  0
ENDSEC
  0
SECTION
  2
CLASSES
  0
CLASS
  1
ACDBDICTIONARYWDFLT
  2
AcDbDictionaryWithDefault
  3
ObjectDBX Classes
 90
        0
 91
        4
280
     0
281
     0
  0
CLASS
  1
VISUALSTYLE
  2
AcDbVisualStyle
  3
ObjectDBX Classes
 90
     4095
 91
        4
280
     0
281
     0
  0
CLASS
  1
MATERIAL
  2
AcDbMaterial
  3
ObjectDBX Classes
 90
     1153
 91
        4
280
     0
281
     0
  0
CLASS
  1
SUN
  2
AcDbSun
  3
SCENEOE
 90
     1024
 91
        4
280
     0
281
     0
  0
ENDSEC
  0
SECTION
  2
TABLES
  0
TABLE
  2
VPORT
  5
8
330
0
100
AcDbSymbolTable
 70
     1
  0
VPORT
  5
29
330
8
100
AcDbSymbolTableRecord
100
AcDbViewportTableRecord
  2
*Active
 70
     0
 10
0.0
 20
0.0
 11
1.0
 21
1.0
 12
0.0
 22
0.0
 13
0.0
 23
0.0
 14
0.5
 24
0.5
 15
0.5
 25
0.5
 16
0.0
 26
0.0
 36
1.0
 17
91.00082462281999
 27
-128.4993055234307
 37
0.0
 40
256.9986110468615
 41
0.7081814508812795
 42
50.0
 43
0.0
 44
0.0
 50
0.0
 51
0.0
 71
     0
 72
   100
 73
     1
 74
     3
 75
     0
 76
     0
 77
     0
 78
     0
281
     0
 65
     1
110
0.0
120
0.0
130
0.0
111
1.0
121
0.0
131
0.0
112
0.0
122
1.0
132
0.0
 79
     0
146
0.0
 60
     3
 61
     5
292
     1
282
     1
141
0.0
142
0.0
 63
   250
361
3F
  0
ENDTAB
  0
TABLE
  2
LTYPE
  5
5
330
0
100
AcDbSymbolTable
 70
     1
  0
LTYPE
  5
14
330
5
100
AcDbSymbolTableRecord
100
AcDbLinetypeTableRecord
  2
ByBlock
 70
     0
  3

 72
    65
 73
     0
 40
0.0
  0
LTYPE
  5
15
330
5
100
AcDbSymbolTableRecord
100
AcDbLinetypeTableRecord
  2
ByLayer
 70
     0
  3

 72
    65
 73
     0
 40
0.0
  0
LTYPE
  5
16
330
5
100
AcDbSymbolTableRecord
100
AcDbLinetypeTableRecord
  2
Continuous
 70
     0
  3
Solid line
 72
    65
 73
     0
 40
0.0
  0
ENDTAB
  0
TABLE
  2
LAYER
  5
2
330
0
100
AcDbSymbolTable
 70
     2
  0
LAYER
  5
10
330
2
100
AcDbSymbolTableRecord
100
AcDbLayerTableRecord
  2
0
 70
     0
 62
     7
  6
Continuous
370
    -3
390
F
347
3E
  0
LAYER
  5
40
330
2
100
AcDbSymbolTableRecord
100
AcDbLayerTableRecord
  2
_U+30EC_U+30A4_U+30E4_U+30FC 1
 70
     0
 62
     7
  6
Continuous
370
    -3
390
F
347
3E
  0
ENDTAB
  0
TABLE
  2
STYLE
  5
3
330
0
100
AcDbSymbolTable
 70
     1
  0
STYLE
  5
11
330
3
100
AcDbSymbolTableRecord
100
AcDbTextStyleTableRecord
  2
Standard
 70
     0
 40
0.0
 41
1.0
 50
0.0
 71
     0
 42
0.2
  3
txt
  4

  0
ENDTAB
  0
TABLE
  2
VIEW
  5
6
330
0
100
AcDbSymbolTable
 70
     0
  0
ENDTAB
  0
TABLE
  2
UCS
  5
7
330
0
100
AcDbSymbolTable
 70
     0
  0
ENDTAB
  0
TABLE
  2
APPID
  5
9
330
0
100
AcDbSymbolTable
 70
     1
  0
APPID
  5
12
330
9
100
AcDbSymbolTableRecord
100
AcDbRegAppTableRecord
  2
ACAD
 70
     0
  0
ENDTAB
  0
TABLE
  2
DIMSTYLE
  5
A
330
0
100
AcDbSymbolTable
 70
     1
100
AcDbDimStyleTable
  0
DIMSTYLE
105
27
330
A
100
AcDbSymbolTableRecord
100
AcDbDimStyleTableRecord
  2
Standard
 70
     0
178
     0
340
11
  0
ENDTAB
  0
TABLE
  2
BLOCK_RECORD
  5
1
330
0
100
AcDbSymbolTable
 70
     9
  0
BLOCK_RECORD
  5
1F
330
1
100
AcDbSymbolTableRecord
100
AcDbBlockTableRecord
  2
*Model_Space
340
22
 70
     0
280
     1
281
     0
  0
BLOCK_RECORD
  5
1B
330
1
100
AcDbSymbolTableRecord
100
AcDbBlockTableRecord
  2
*Paper_Space
340
1E
 70
     0
280
     1
281
     0
  0
BLOCK_RECORD
  5
23
330
1
100
AcDbSymbolTableRecord
100
AcDbBlockTableRecord
  2
*Paper_Space0
340
26
 70
     0
280
     1
281
     0
  0
BLOCK_RECORD
  5
F6
330
1
100
AcDbSymbolTableRecord
100
AcDbBlockTableRecord
  2
block 2
340
0
102
{BLKREFS
331
F7
102
}
 70
     0
280
     1
281
     0
  0
BLOCK_RECORD
  5
106
330
1
100
AcDbSymbolTableRecord
100
AcDbBlockTableRecord
  2
block 3
340
0
102
{BLKREFS
331
107
102
}
 70
     0
280
     1
281
     0
  0
BLOCK_RECORD
  5
10C
330
1
100
AcDbSymbolTableRecord
100
AcDbBlockTableRecord
  2
block 4
340
0
102
{BLKREFS
331
10D
102
}
 70
     0
280
     1
281
     0
  0
BLOCK_RECORD
  5
11F
330
1
100
AcDbSymbolTableRecord
100
AcDbBlockTableRecord
  2
block 5
340
0
102
{BLKREFS
331
120
102
}
 70
     0
280
     1
281
     0
  0
BLOCK_RECORD
  5
13A
330
1
100
AcDbSymbolTableRecord
100
AcDbBlockTableRecord
  2
block 6
340
0
102
{BLKREFS
331
13B
102
}
 70
     0
280
     1
281
     0
  0
BLOCK_RECORD
  5
142
330
1
100
AcDbSymbolTableRecord
100
AcDbBlockTableRecord
  2
block 7
340
0
102
{BLKREFS
331
143
102
}
 70
     0
280
     1
281
     0
  0
BLOCK_RECORD
  5
148
330
1
100
AcDbSymbolTableRecord
100
AcDbBlockTableRecord
  2
block 8
340
0
102
{BLKREFS
331
149
102
}
 70
     0
280
     1
281
     0
  0
BLOCK_RECORD
  5
150
330
1
100
AcDbSymbolTableRecord
100
AcDbBlockTableRecord
  2
block 9
340
0
102
{BLKREFS
331
151
102
}
 70
     0
280
     1
281
     0
  0
ENDTAB
  0
ENDSEC
  0
SECTION
  2
BLOCKS
  0
BLOCK
  5
20
330
1F
100
AcDbEntity
  8
0
100
AcDbBlockBegin
  2
*Model_Space
 70
     0
 10
0.0
 20
0.0
 30
0.0
  3
*Model_Space
  1

  0
ENDBLK
  5
21
330
1F
100
AcDbEntity
  8
0
100
AcDbBlockEnd
  0
BLOCK
  5
1C
330
1B
100
AcDbEntity
 67
     1
  8
0
100
AcDbBlockBegin
  2
*Paper_Space
 70
     0
 10
0.0
 20
0.0
 30
0.0
  3
*Paper_Space
  1

  0
ENDBLK
  5
1D
330
1B
100
AcDbEntity
 67
     1
  8
0
100
AcDbBlockEnd
  0
BLOCK
  5
24
330
23
100
AcDbEntity
  8
0
100
AcDbBlockBegin
  2
*Paper_Space0
 70
     0
 10
0.0
 20
0.0
 30
0.0
  3
*Paper_Space0
  1

  0
ENDBLK
  5
25
330
23
100
AcDbEntity
  8
0
100
AcDbBlockEnd
  0
BLOCK
  5
F8
330
F6
100
AcDbEntity
  8
0
100
AcDbBlockBegin
  2
block 2
 70
     0
 10
0.0
 20
0.0
 30
0.0
  3
block 2
  1

  0
SPLINE
  5
FA
330
F6
100
AcDbEntity
  8
_U+30EC_U+30A4_U+30E4_U+30FC 1
370
     0
100
AcDbSpline
210
0.0
220
0.0
230
1.0
 70
    11
 71
     3
 72
    26
 73
    22
 74
     0
 42
0.0000000001
 43
0.0000000001
 12
1.0
 22
0.0
 32
0.0
 13
1.0
 23
0.0
 33
0.0
 40
0.0
 40
0.0
 40
0.0
 40
0.0
 40
1.0
 40
1.0
 40
1.0
 40
2.0
 40
2.0
 40
2.0
 40
3.0
 40
3.0
 40
3.0
 40
4.0
 40
4.0
 40
4.0
 40
5.0
 40
5.0
 40
5.0
 40
6.0
 40
6.0
 40
6.0
 40
7.0
 40
7.0
 40
7.0
 40
7.0
 10
97.91202525764005
 20
-91.68312036553408
 30
0.0
 10
97.91202525764005
 20
-91.68312036553408
 30
0.0
 10
97.91202525764005
 20
-90.57879500773726
 30
0.0
 10
97.91202525764005
 20
-90.57879500773726
 30
0.0
 10
97.91202525764005
 20
-90.57879500773726
 30
0.0
 10
97.62091468913644
 20
-90.57879500773726
 30
0.0
 10
97.62091468913644
 20
-90.57879500773726
 30
0.0
 10
97.62091468913644
 20
-90.57879500773726
 30
0.0
 10
97.62091468913644
 20
-90.43082815664577
 30
0.0
 10
97.62091468913644
 20
-90.43082815664577
 30
0.0
 10
97.91409231493121
 20
-90.41601424605919
 30
0.0
 10
97.95508895120568
 20
-90.25306122960687
 30
0.0
 10
97.98127167689357
 20
-90.13885631427084
 30
0.0
 10
97.98127167689357
 20
-90.13885631427084
 30
0.0
 10
98.11011824804191
 20
-90.13885631427084
 30
0.0
 10
98.11011824804191
 20
-90.13885631427084
 30
0.0
 10
98.11011824804191
 20
-90.13885631427084
 30
0.0
 10
98.11011824804191
 20
-91.68312036553408
 30
0.0
 10
98.11011824804191
 20
-91.68312036553408
 30
0.0
 10
98.11011824804191
 20
-91.68312036553408
 30
0.0
 10
97.91202525764005
 20
-91.68312036553408
 30
0.0
 10
97.91202525764005
 20
-91.68312036553408
 30
0.0
  0
HATCH
  5
FB
330
F6
100
AcDbEntity
  8
_U+30EC_U+30A4_U+30E4_U+30FC 1
 62
   179
420
  2234388
100
AcDbHatch
 10
0.0
 20
0.0
 30
0.0
210
0.0
220
0.0
230
1.0
  2
SOLID
 70
     1
 71
     0
 91
        1
 92
        1
 93
        1
 72
     4
 94
        3
 73
     0
 74
     1
 95
       26
 96
       22
 40
0.0
 40
0.0
 40
0.0
 40
0.0
 40
1.0
 40
1.0
 40
1.0
 40
2.0
 40
2.0
 40
2.0
 40
3.0
 40
3.0
 40
3.0
 40
4.0
 40
4.0
 40
4.0
 40
5.0
 40
5.0
 40
5.0
 40
6.0
 40
6.0
 40
6.0
 40
7.0
 40
7.0
 40
7.0
 40
7.0
 10
97.91202525764005
 20
-91.68312036553408
 10
97.91202525764005
 20
-91.68312036553408
 10
97.91202525764005
 20
-90.57879500773726
 10
97.91202525764005
 20
-90.57879500773726
 10
97.91202525764005
 20
-90.57879500773726
 10
97.62091468913644
 20
-90.57879500773726
 10
97.62091468913644
 20
-90.57879500773726
 10
97.62091468913644
 20
-90.57879500773726
 10
97.62091468913644
 20
-90.43082815664577
 10
97.62091468913644
 20
-90.43082815664577
 10
97.91409231493121
 20
-90.41601424605919
 10
97.95508895120568
 20
-90.25306122960687
 10
97.98127167689357
 20
-90.13885631427084
 10
97.98127167689357
 20
-90.13885631427084
 10
98.11011824804191
 20
-90.13885631427084
 10
98.11011824804191
 20
-90.13885631427084
 10
98.11011824804191
 20
-90.13885631427084
 10
98.11011824804191
 20
-91.68312036553408
 10
98.11011824804191
 20
-91.68312036553408
 10
98.11011824804191
 20
-91.68312036553408
 10
97.91202525764005
 20
-91.68312036553408
 10
97.91202525764005
 20
-91.68312036553408
 97
        0
 97
        0
 75
     2
 76
     1
 98
        0
  0
POLYLINE
  5
FC
330
F6
100
AcDbEntity
  8
_U+30EC_U+30A4_U+30E4_U+30FC 1
370
     0
100
AcDb2dPolyline
 66
     1
 10
0.0
 20
0.0
 30
0.0
  0
VERTEX
  5
FD
330
FC
100
AcDbEntity
  8
_U+30EC_U+30A4_U+30E4_U+30FC 1
370
     0
100
AcDbVertex
100
AcDb2dVertex
 10
98.6062119979179
 20
-91.68312036553408
 30
0.0
  0
VERTEX
  5
FE
330
FC
100
AcDbEntity
  8
_U+30EC_U+30A4_U+30E4_U+30FC 1
370
     0
100
AcDbVertex
100
AcDb2dVertex
 10
98.6062119979179
 20
-91.43145614033658
 30
0.0
  0
VERTEX
  5
FF
330
FC
100
AcDbEntity
  8
_U+30EC_U+30A4_U+30E4_U+30FC 1
370
     0
100
AcDbVertex
100
AcDb2dVertex
 10
98.82842065671652
 20
-91.43145614033658
 30
0.0
  0
VERTEX
  5
100
330
FC
100
AcDbEntity
  8
_U+30EC_U+30A4_U+30E4_U+30FC 1
370
     0
100
AcDbVertex
100
AcDb2dVertex
 10
98.82842065671652
 20
-91.68312036553408
 30
0.0
  0
VERTEX
  5
101
330
FC
100
AcDbEntity
  8
_U+30EC_U+30A4_U+30E4_U+30FC 1
370
     0
100
AcDbVertex
100
AcDb2dVertex
 10
98.6062119979179
 20
-91.68312036553408
 30
0.0
  0
SEQEND
  5
102
330
FC
100
AcDbEntity
  8
_U+30EC_U+30A4_U+30E4_U+30FC 1
370
     0
  0
HATCH
  5
103
330
F6
100
AcDbEntity
  8
_U+30EC_U+30A4_U+30E4_U+30FC 1
 62
   179
420
  2234388
100
AcDbHatch
 10
0.0
 20
0.0
 30
0.0
210
0.0
220
0.0
230
1.0
  2
SOLID
 70
     1
 71
     0
 91
        1
 92
        1
 93
        4
 72
     1
 10
98.6062119979179
 20
-91.68312036553408
 11
98.6062119979179
 21
-91.43145614033658
 72
     1
 10
98.6062119979179
 20
-91.43145614033658
 11
98.82842065671652
 21
-91.43145614033658
 72
     1
 10
98.82842065671652
 20
-91.43145614033658
 11
98.82842065671652
 21
-91.68312036553408
 72
     1
 10
98.82842065671652
 20
-91.68312036553408
 11
98.6062119979179
 21
-91.68312036553408
 97
        0
 75
     2
 76
     1
 98
        0
  0
SPLINE
  5
104
330
F6
100
AcDbEntity
  8
_U+30EC_U+30A4_U+30E4_U+30FC 1
370
     0
100
AcDbSpline
210
0.0
220
0.0
230
1.0
 70
    11
 71
     3
 72
    44
 73
    40
 74
     0
 42
0.0000000001
 43
0.0000000001
 12
1.0
 22
0.0
 32
0.0
 13
1.0
 23
0.0
 33
0.0
 40
0.0
 40
0.0
 40
0.0
 40
0.0
 40
1.0
 40
1.0
 40
1.0
 40
2.0
 40
2.0
 40
2.0
 40
3.0
 40
3.0
 40
3.0
 40
4.0
 40
4.0
 40
4.0
 40
5.0
 40
5.0
 40
5.0
 40
6.0
 40
6.0
 40
6.0
 40
7.0
 40
7.0
 40
7.0
 40
8.0
 40
8.0
 40
8.0
 40
9.0
 40
9.0
 40
9.0
 40
10.0
 40
10.0
 40
10.0
 40
11.0
 40
11.0
 40
11.0
 40
12.0
 40
12.0
 40
12.0
 40
13.0
 40
13.0
 40
13.0
 40
13.0
 10
99.56153697597767
 20
-91.10141599284965
 30
0.0
 10
99.3689561383522
 20
-91.2600626399454
 30
0.0
 10
99.28696286580326
 20
-91.33413219287827
 30
0.0
 10
99.24389917223765
 20
-91.47796492938745
 30
0.0
 10
99.24389917223765
 20
-91.47796492938745
 30
0.0
 10
99.93119572154498
 20
-91.47796492938745
 30
0.0
 10
99.93119572154498
 20
-91.47796492938745
 30
0.0
 10
99.93119572154498
 20
-91.47796492938745
 30
0.0
 10
99.93119572154498
 20
-91.68312036553408
 30
0.0
 10
99.93119572154498
 20
-91.68312036553408
 30
0.0
 10
99.93119572154498
 20
-91.68312036553408
 30
0.0
 10
99.02341306118166
 20
-91.68312036553408
 30
0.0
 10
99.02341306118166
 20
-91.68312036553408
 30
0.0
 10
99.05131833461218
 20
-91.32551945416515
 30
0.0
 10
99.1095404483129
 20
-91.24731578664998
 30
0.0
 10
99.44922686315853
 20
-90.94897051762734
 30
0.0
 10
99.67522512699092
 20
-90.75018850812843
 30
0.0
 10
99.73310273114312
 20
-90.68249238184328
 30
0.0
 10
99.73310273114312
 20
-90.5450330719818
 30
0.0
 10
99.73310273114312
 20
-90.4265217872892
 30
0.0
 10
99.66971297421452
 20
-90.29543590407545
 30
0.0
 10
99.49608016175793
 20
-90.29543590407545
 30
0.0
 10
99.26629229289176
 20
-90.29543590407545
 30
0.0
 10
99.25871308282422
 20
-90.52591279203867
 30
0.0
 10
99.25492347779044
 20
-90.64235701944011
 30
0.0
 10
99.25492347779044
 20
-90.64235701944011
 30
0.0
 10
99.05717499693709
 20
-90.64235701944011
 30
0.0
 10
99.05717499693709
 20
-90.64235701944011
 30
0.0
 10
99.06440969745613
 20
-90.51540525080866
 30
0.0
 10
99.0737114552663
 20
-90.40326739276377
 30
0.0
 10
99.14502493181097
 20
-90.28475610807118
 30
0.0
 10
99.24183211494649
 20
-90.12404240368427
 30
0.0
 10
99.40650767914143
 20
-90.09010821315456
 30
0.0
 10
99.50917152460188
 20
-90.09010821315456
 30
0.0
 10
99.75377330405462
 20
-90.09010821315456
 30
0.0
 10
99.93670787432139
 20
-90.27424856684117
 30
0.0
 10
99.93670787432139
 20
-90.54710012927295
 30
0.0
 10
99.93670787432139
 20
-90.77550995994501
 30
0.0
 10
99.83404402886094
 20
-90.87507321946873
 30
0.0
 10
99.56153697597767
 20
-91.10141599284965
 30
0.0
  0
HATCH
  5
105
330
F6
100
AcDbEntity
  8
_U+30EC_U+30A4_U+30E4_U+30FC 1
 62
   179
420
  2234388
100
AcDbHatch
 10
0.0
 20
0.0
 30
0.0
210
0.0
220
0.0
230
1.0
  2
SOLID
 70
     1
 71
     0
 91
        1
 92
        1
 93
        1
 72
     4
 94
        3
 73
     0
 74
     1
 95
       44
 96
       40
 40
0.0
 40
0.0
 40
0.0
 40
0.0
 40
1.0
 40
1.0
 40
1.0
 40
2.0
 40
2.0
 40
2.0
 40
3.0
 40
3.0
 40
3.0
 40
4.0
 40
4.0
 40
4.0
 40
5.0
 40
5.0
 40
5.0
 40
6.0
 40
6.0
 40
6.0
 40
7.0
 40
7.0
 40
7.0
 40
8.0
 40
8.0
 40
8.0
 40
9.0
 40
9.0
 40
9.0
 40
10.0
 40
10.0
 40
10.0
 40
11.0
 40
11.0
 40
11.0
 40
12.0
 40
12.0
 40
12.0
 40
13.0
 40
13.0
 40
13.0
 40
13.0
 10
99.56153697597767
 20
-91.10141599284965
 10
99.3689561383522
 20
-91.2600626399454
 10
99.28696286580326
 20
-91.33413219287827
 10
99.24389917223765
 20
-91.47796492938745
 10
99.24389917223765
 20
-91.47796492938745
 10
99.93119572154498
 20
-91.47796492938745
 10
99.93119572154498
 20
-91.47796492938745
 10
99.93119572154498
 20
-91.47796492938745
 10
99.93119572154498
 20
-91.68312036553408
 10
99.93119572154498
 20
-91.68312036553408
 10
99.93119572154498
 20
-91.68312036553408
 10
99.02341306118166
 20
-91.68312036553408
 10
99.02341306118166
 20
-91.68312036553408
 10
99.05131833461218
 20
-91.32551945416515
 10
99.1095404483129
 20
-91.24731578664998
 10
99.44922686315853
 20
-90.94897051762734
 10
99.67522512699092
 20
-90.75018850812843
 10
99.73310273114312
 20
-90.68249238184328
 10
99.73310273114312
 20
-90.5450330719818
 10
99.73310273114312
 20
-90.4265217872892
 10
99.66971297421452
 20
-90.29543590407545
 10
99.49608016175793
 20
-90.29543590407545
 10
99.26629229289176
 20
-90.29543590407545
 10
99.25871308282422
 20
-90.52591279203867
 10
99.25492347779044
 20
-90.64235701944011
 10
99.25492347779044
 20
-90.64235701944011
 10
99.05717499693709
 20
-90.64235701944011
 10
99.05717499693709
 20
-90.64235701944011
 10
99.06440969745613
 20
-90.51540525080866
 10
99.0737114552663
 20
-90.40326739276377
 10
99.14502493181097
 20
-90.28475610807118
 10
99.24183211494649
 20
-90.12404240368427
 10
99.40650767914143
 20
-90.09010821315456
 10
99.50917152460188
 20
-90.09010821315456
 10
99.75377330405462
 20
-90.09010821315456
 10
99.93670787432139
 20
-90.27424856684117
 10
99.93670787432139
 20
-90.54710012927295
 10
99.93670787432139
 20
-90.77550995994501
 10
99.83404402886094
 20
-90.87507321946873
 10
99.56153697597767
 20
-91.10141599284965
 97
        0
 97
        0
 75
     2
 76
     1
 98
        0
  0
ENDBLK
  5
F9
330
F6
100
AcDbEntity
  8
0
100
AcDbBlockEnd
  0
BLOCK
  5
108
330
106
100
AcDbEntity
  8
0
100
AcDbBlockBegin
  2
block 3
 70
     0
 10
0.0
 20
0.0
 30
0.0
  3
block 3
  1

  0
SPLINE
  5
10A
330
106
100
AcDbEntity
  8
_U+30EC_U+30A4_U+30E4_U+30FC 1
370
     0
100
AcDbSpline
210
0.0
220
0.0
230
1.0
 70
    11
 71
     3
 72
    62
 73
    58
 74
     0
 42
0.0000000001
 43
0.0000000001
 12
1.0
 22
0.0
 32
0.0
 13
1.0
 23
0.0
 33
0.0
 40
0.0
 40
0.0
 40
0.0
 40
0.0
 40
1.0
 40
1.0
 40
1.0
 40
2.0
 40
2.0
 40
2.0
 40
3.0
 40
3.0
 40
3.0
 40
4.0
 40
4.0
 40
4.0
 40
5.0
 40
5.0
 40
5.0
 40
6.0
 40
6.0
 40
6.0
 40
7.0
 40
7.0
 40
7.0
 40
8.0
 40
8.0
 40
8.0
 40
9.0
 40
9.0
 40
9.0
 40
10.0
 40
10.0
 40
10.0
 40
11.0
 40
11.0
 40
11.0
 40
12.0
 40
12.0
 40
12.0
 40
13.0
 40
13.0
 40
13.0
 40
14.0
 40
14.0
 40
14.0
 40
15.0
 40
15.0
 40
15.0
 40
16.0
 40
16.0
 40
16.0
 40
17.0
 40
17.0
 40
17.0
 40
18.0
 40
18.0
 40
18.0
 40
19.0
 40
19.0
 40
19.0
 40
19.0
 10
86.7369967773609
 20
-133.880544671391
 30
0.0
 10
86.6529364475208
 20
-133.880544671391
 30
0.0
 10
86.46035560989533
 20
-133.8591850793824
 30
0.0
 10
86.35011255436734
 20
-133.673149923179
 30
0.0
 10
86.28500024969611
 20
-133.5608398103598
 30
0.0
 10
86.28121064466234
 20
-133.4616210603846
 30
0.0
 10
86.27742103962856
 20
-133.3768717114474
 30
0.0
 10
86.27742103962856
 20
-133.3768717114474
 30
0.0
 10
86.47172442499665
 20
-133.3768717114474
 30
0.0
 10
86.47172442499665
 20
-133.3768717114474
 30
0.0
 10
86.47344697273928
 20
-133.4509412643803
 30
0.0
 10
86.48274873054946
 20
-133.6858967764744
 30
0.0
 10
86.73320717232711
 20
-133.6858967764744
 30
0.0
 10
86.85447453340791
 20
-133.6858967764744
 30
0.0
 10
86.98917776688118
 20
-133.6159613381238
 30
0.0
 10
86.98917776688118
 20
-133.3875515074517
 30
0.0
 10
86.98917776688118
 20
-133.2711072800503
 30
0.0
 10
86.95541583112573
 20
-133.2225314337083
 30
0.0
 10
86.92751055769521
 20
-133.190836555244
 30
0.0
 10
86.86205374347546
 20
-133.1167670023111
 30
0.0
 10
86.75938989801502
 20
-133.1040201490157
 30
0.0
 10
86.710814051673
 20
-133.1040201490157
 30
0.0
 10
86.69393308379527
 20
-133.1040201490157
 30
0.0
 10
86.66223820533098
 20
-133.1060872063068
 30
0.0
 10
86.63777802738569
 20
-133.1102213208891
 30
0.0
 10
86.63777802738569
 20
-133.1102213208891
 30
0.0
 10
86.63777802738569
 20
-132.9155734259725
 30
0.0
 10
86.63777802738569
 20
-132.9155734259725
 30
0.0
 10
86.67153996314114
 20
-132.9221191073945
 30
0.0
 10
86.70874699438184
 20
-132.9241861646856
 30
0.0
 10
86.71460365670677
 20
-132.9241861646856
 30
0.0
 10
86.77248126085897
 20
-132.9241861646856
 30
0.0
 10
86.94783662105819
 20
-132.9031710822256
 30
0.0
 10
86.94783662105819
 20
-132.6661485128404
 30
0.0
 10
86.94783662105819
 20
-132.4883815858015
 30
0.0
 10
86.8320814127538
 20
-132.4332600580375
 30
0.0
 10
86.73492972006974
 20
-132.4332600580375
 30
0.0
 10
86.5013522461698
 20
-132.4332600580375
 30
0.0
 10
86.49411754565078
 20
-132.6661485128404
 30
0.0
 10
86.49032794061701
 20
-132.7381510084821
 30
0.0
 10
86.49032794061701
 20
-132.7381510084821
 30
0.0
 10
86.31083846583549
 20
-132.7381510084821
 30
0.0
 10
86.31083846583549
 20
-132.7381510084821
 30
0.0
 10
86.31841767590304
 20
-132.6130940423676
 30
0.0
 10
86.34287785384831
 20
-132.2365451058297
 30
0.0
 10
86.74629853517106
 20
-132.2365451058297
 30
0.0
 10
86.94404701602441
 20
-132.2365451058297
 30
0.0
 10
87.15729842656137
 20
-132.3636691292355
 30
0.0
 10
87.15729842656137
 20
-132.6596028314184
 30
0.0
 10
87.15729842656137
 20
-132.8459824971705
 30
0.0
 10
87.07323809672128
 20
-132.9283202792679
 30
0.0
 10
86.98538816184741
 20
-132.9896429789054
 30
0.0
 10
87.03947616096583
 20
-133.0172037427874
 30
0.0
 10
87.20001761057847
 20
-133.0978189771422
 30
0.0
 10
87.20001761057847
 20
-133.3748046541563
 30
0.0
 10
87.20001761057847
 20
-133.7134575403564
 30
0.0
 10
86.98159855681364
 20
-133.880544671391
 30
0.0
 10
86.7369967773609
 20
-133.880544671391
 30
0.0
  0
HATCH
  5
10B
330
106
100
AcDbEntity
  8
_U+30EC_U+30A4_U+30E4_U+30FC 1
 62
   179
420
  2234388
100
AcDbHatch
 10
0.0
 20
0.0
 30
0.0
210
0.0
220
0.0
230
1.0
  2
SOLID
 70
     1
 71
     0
 91
        1
 92
        1
 93
        1
 72
     4
 94
        3
 73
     0
 74
     1
 95
       62
 96
       58
 40
0.0
 40
0.0
 40
0.0
 40
0.0
 40
1.0
 40
1.0
 40
1.0
 40
2.0
 40
2.0
 40
2.0
 40
3.0
 40
3.0
 40
3.0
 40
4.0
 40
4.0
 40
4.0
 40
5.0
 40
5.0
 40
5.0
 40
6.0
 40
6.0
 40
6.0
 40
7.0
 40
7.0
 40
7.0
 40
8.0
 40
8.0
 40
8.0
 40
9.0
 40
9.0
 40
9.0
 40
10.0
 40
10.0
 40
10.0
 40
11.0
 40
11.0
 40
11.0
 40
12.0
 40
12.0
 40
12.0
 40
13.0
 40
13.0
 40
13.0
 40
14.0
 40
14.0
 40
14.0
 40
15.0
 40
15.0
 40
15.0
 40
16.0
 40
16.0
 40
16.0
 40
17.0
 40
17.0
 40
17.0
 40
18.0
 40
18.0
 40
18.0
 40
19.0
 40
19.0
 40
19.0
 40
19.0
 10
86.7369967773609
 20
-133.880544671391
 10
86.6529364475208
 20
-133.880544671391
 10
86.46035560989533
 20
-133.8591850793824
 10
86.35011255436734
 20
-133.673149923179
 10
86.28500024969611
 20
-133.5608398103598
 10
86.28121064466234
 20
-133.4616210603846
 10
86.27742103962856
 20
-133.3768717114474
 10
86.27742103962856
 20
-133.3768717114474
 10
86.47172442499665
 20
-133.3768717114474
 10
86.47172442499665
 20
-133.3768717114474
 10
86.47344697273928
 20
-133.4509412643803
 10
86.48274873054946
 20
-133.6858967764744
 10
86.73320717232711
 20
-133.6858967764744
 10
86.85447453340791
 20
-133.6858967764744
 10
86.98917776688118
 20
-133.6159613381238
 10
86.98917776688118
 20
-133.3875515074517
 10
86.98917776688118
 20
-133.2711072800503
 10
86.95541583112573
 20
-133.2225314337083
 10
86.92751055769521
 20
-133.190836555244
 10
86.86205374347546
 20
-133.1167670023111
 10
86.75938989801502
 20
-133.1040201490157
 10
86.710814051673
 20
-133.1040201490157
 10
86.69393308379527
 20
-133.1040201490157
 10
86.66223820533098
 20
-133.1060872063068
 10
86.63777802738569
 20
-133.1102213208891
 10
86.63777802738569
 20
-133.1102213208891
 10
86.63777802738569
 20
-132.9155734259725
 10
86.63777802738569
 20
-132.9155734259725
 10
86.67153996314114
 20
-132.9221191073945
 10
86.70874699438184
 20
-132.9241861646856
 10
86.71460365670677
 20
-132.9241861646856
 10
86.77248126085897
 20
-132.9241861646856
 10
86.94783662105819
 20
-132.9031710822256
 10
86.94783662105819
 20
-132.6661485128404
 10
86.94783662105819
 20
-132.4883815858015
 10
86.8320814127538
 20
-132.4332600580375
 10
86.73492972006974
 20
-132.4332600580375
 10
86.5013522461698
 20
-132.4332600580375
 10
86.49411754565078
 20
-132.6661485128404
 10
86.49032794061701
 20
-132.7381510084821
 10
86.49032794061701
 20
-132.7381510084821
 10
86.31083846583549
 20
-132.7381510084821
 10
86.31083846583549
 20
-132.7381510084821
 10
86.31841767590304
 20
-132.6130940423676
 10
86.34287785384831
 20
-132.2365451058297
 10
86.74629853517106
 20
-132.2365451058297
 10
86.94404701602441
 20
-132.2365451058297
 10
87.15729842656137
 20
-132.3636691292355
 10
87.15729842656137
 20
-132.6596028314184
 10
87.15729842656137
 20
-132.8459824971705
 10
87.07323809672128
 20
-132.9283202792679
 10
86.98538816184741
 20
-132.9896429789054
 10
87.03947616096583
 20
-133.0172037427874
 10
87.20001761057847
 20
-133.0978189771422
 10
87.20001761057847
 20
-133.3748046541563
 10
87.20001761057847
 20
-133.7134575403564
 10
86.98159855681364
 20
-133.880544671391
 10
86.7369967773609
 20
-133.880544671391
 97
        0
 97
        0
 75
     2
 76
     1
 98
        0
  0
ENDBLK
  5
109
330
106
100
AcDbEntity
  8
0
100
AcDbBlockEnd
  0
BLOCK
  5
10E
330
10C
100
AcDbEntity
  8
0
100
AcDbBlockBegin
  2
block 4
 70
     0
 10
0.0
 20
0.0
 30
0.0
  3
block 4
  1

  0
SPLINE
  5
110
330
10C
100
AcDbEntity
  8
_U+30EC_U+30A4_U+30E4_U+30FC 1
370
     0
100
AcDbSpline
210
0.0
220
0.0
230
1.0
 70
    11
 71
     3
 72
    32
 73
    28
 74
     0
 42
0.0000000001
 43
0.0000000001
 12
1.0
 22
0.0
 32
0.0
 13
1.0
 23
0.0
 33
0.0
 40
0.0
 40
0.0
 40
0.0
 40
0.0
 40
1.0
 40
1.0
 40
1.0
 40
2.0
 40
2.0
 40
2.0
 40
3.0
 40
3.0
 40
3.0
 40
4.0
 40
4.0
 40
4.0
 40
5.0
 40
5.0
 40
5.0
 40
6.0
 40
6.0
 40
6.0
 40
7.0
 40
7.0
 40
7.0
 40
8.0
 40
8.0
 40
8.0
 40
9.0
 40
9.0
 40
9.0
 40
9.0
 10
92.34578448212189
 20
-133.880544671391
 30
0.0
 10
92.19247773302827
 20
-133.880544671391
 30
0.0
 10
91.97578122700605
 20
-133.8106092330404
 30
0.0
 10
91.94236380079913
 20
-133.4785020282623
 30
0.0
 10
91.94236380079913
 20
-133.4785020282623
 30
0.0
 10
92.1308105238423
 20
-133.4785020282623
 30
0.0
 10
92.1308105238423
 20
-133.4785020282623
 30
0.0
 10
92.14011228165248
 20
-133.5377576706086
 30
0.0
 10
92.16836206463152
 20
-133.6858967764744
 30
0.0
 10
92.34750702986452
 20
-133.6858967764744
 30
0.0
 10
92.6052001721612
 20
-133.6858967764744
 30
0.0
 10
92.63896210791665
 20
-133.3558566289874
 30
0.0
 10
92.65033092301798
 20
-133.1505289380665
 30
0.0
 10
92.56971568866314
 20
-133.2307996628729
 30
0.0
 10
92.51011553676831
 20
-133.287988247928
 30
0.0
 10
92.34957408715566
 20
-133.287988247928
 30
0.0
 10
92.19075518528565
 20
-133.287988247928
 30
0.0
 10
91.92341577563026
 20
-133.1822238165308
 30
0.0
 10
91.92341577563026
 20
-132.7760470588199
 30
0.0
 10
91.92341577563026
 20
-132.4566867073372
 30
0.0
 10
92.099115645378
 20
-132.2365451058297
 30
0.0
 10
92.37920190832881
 20
-132.2365451058297
 30
0.0
 10
92.83326549328474
 20
-132.2365451058297
 30
0.0
 10
92.84256725109492
 20
-132.7908609694065
 30
0.0
 10
92.84256725109492
 20
-133.0044568894919
 30
0.0
 10
92.84256725109492
 20
-133.2352782870037
 30
0.0
 10
92.8256862832172
 20
-133.880544671391
 30
0.0
 10
92.34578448212189
 20
-133.880544671391
 30
0.0
  0
SPLINE
  5
111
330
10C
100
AcDbEntity
  8
_U+30EC_U+30A4_U+30E4_U+30FC 1
370
     0
100
AcDbSpline
210
0.0
220
0.0
230
1.0
 70
    11
 71
     3
 72
    17
 73
    13
 74
     0
 42
0.0000000001
 43
0.0000000001
 12
1.0
 22
0.0
 32
0.0
 13
1.0
 23
0.0
 33
0.0
 40
0.0
 40
0.0
 40
0.0
 40
0.0
 40
1.0
 40
1.0
 40
1.0
 40
2.0
 40
2.0
 40
2.0
 40
3.0
 40
3.0
 40
3.0
 40
4.0
 40
4.0
 40
4.0
 40
4.0
 10
92.38126896561997
 20
-132.4291259434552
 30
0.0
 10
92.27653806286837
 20
-132.4291259434552
 30
0.0
 10
92.12150876603212
 20
-132.4863145285104
 30
0.0
 10
92.12150876603212
 20
-132.7719129442376
 30
0.0
 10
92.12150876603212
 20
-132.9982557176185
 30
0.0
 10
92.24484318440408
 20
-133.0933403530114
 30
0.0
 10
92.36438799774224
 20
-133.0933403530114
 30
0.0
 10
92.59589841435103
 20
-133.0933403530114
 30
0.0
 10
92.62966035010648
 20
-132.8838785475082
 30
0.0
 10
92.62966035010648
 20
-132.7677788296553
 30
0.0
 10
92.62966035010648
 20
-132.5920789599076
 30
0.0
 10
92.54560002026638
 20
-132.4291259434552
 30
0.0
 10
92.38126896561997
 20
-132.4291259434552
 30
0.0
  0
HATCH
  5
112
330
10C
100
AcDbEntity
  8
_U+30EC_U+30A4_U+30E4_U+30FC 1
 62
   179
420
  2234388
100
AcDbHatch
 10
0.0
 20
0.0
 30
0.0
210
0.0
220
0.0
230
1.0
  2
SOLID
 70
     1
 71
     0
 91
        2
 92
        1
 93
        1
 72
     4
 94
        3
 73
     0
 74
     1
 95
       32
 96
       28
 40
0.0
 40
0.0
 40
0.0
 40
0.0
 40
1.0
 40
1.0
 40
1.0
 40
2.0
 40
2.0
 40
2.0
 40
3.0
 40
3.0
 40
3.0
 40
4.0
 40
4.0
 40
4.0
 40
5.0
 40
5.0
 40
5.0
 40
6.0
 40
6.0
 40
6.0
 40
7.0
 40
7.0
 40
7.0
 40
8.0
 40
8.0
 40
8.0
 40
9.0
 40
9.0
 40
9.0
 40
9.0
 10
92.34578448212189
 20
-133.880544671391
 10
92.19247773302827
 20
-133.880544671391
 10
91.97578122700605
 20
-133.8106092330404
 10
91.94236380079913
 20
-133.4785020282623
 10
91.94236380079913
 20
-133.4785020282623
 10
92.1308105238423
 20
-133.4785020282623
 10
92.1308105238423
 20
-133.4785020282623
 10
92.14011228165248
 20
-133.5377576706086
 10
92.16836206463152
 20
-133.6858967764744
 10
92.34750702986452
 20
-133.6858967764744
 10
92.6052001721612
 20
-133.6858967764744
 10
92.63896210791665
 20
-133.3558566289874
 10
92.65033092301798
 20
-133.1505289380665
 10
92.56971568866314
 20
-133.2307996628729
 10
92.51011553676831
 20
-133.287988247928
 10
92.34957408715566
 20
-133.287988247928
 10
92.19075518528565
 20
-133.287988247928
 10
91.92341577563026
 20
-133.1822238165308
 10
91.92341577563026
 20
-132.7760470588199
 10
91.92341577563026
 20
-132.4566867073372
 10
92.099115645378
 20
-132.2365451058297
 10
92.37920190832881
 20
-132.2365451058297
 10
92.83326549328474
 20
-132.2365451058297
 10
92.84256725109492
 20
-132.7908609694065
 10
92.84256725109492
 20
-133.0044568894919
 10
92.84256725109492
 20
-133.2352782870037
 10
92.8256862832172
 20
-133.880544671391
 10
92.34578448212189
 20
-133.880544671391
 97
        0
 97
        0
 92
        1
 93
        1
 72
     4
 94
        3
 73
     0
 74
     1
 95
       17
 96
       13
 40
0.0
 40
0.0
 40
0.0
 40
0.0
 40
1.0
 40
1.0
 40
1.0
 40
2.0
 40
2.0
 40
2.0
 40
3.0
 40
3.0
 40
3.0
 40
4.0
 40
4.0
 40
4.0
 40
4.0
 10
92.38126896561997
 20
-132.4291259434552
 10
92.27653806286837
 20
-132.4291259434552
 10
92.12150876603212
 20
-132.4863145285104
 10
92.12150876603212
 20
-132.7719129442376
 10
92.12150876603212
 20
-132.9982557176185
 10
92.24484318440408
 20
-133.0933403530114
 10
92.36438799774224
 20
-133.0933403530114
 10
92.59589841435103
 20
-133.0933403530114
 10
92.62966035010648
 20
-132.8838785475082
 10
92.62966035010648
 20
-132.7677788296553
 10
92.62966035010648
 20
-132.5920789599076
 10
92.54560002026638
 20
-132.4291259434552
 10
92.38126896561997
 20
-132.4291259434552
 97
        0
 97
        0
 75
     2
 76
     1
 98
        0
  0
POLYLINE
  5
113
330
10C
100
AcDbEntity
  8
_U+30EC_U+30A4_U+30E4_U+30FC 1
370
     0
100
AcDb2dPolyline
 66
     1
 10
0.0
 20
0.0
 30
0.0
  0
VERTEX
  5
114
330
113
100
AcDbEntity
  8
_U+30EC_U+30A4_U+30E4_U+30FC 1
370
     0
100
AcDbVertex
100
AcDb2dVertex
 10
93.03445906962334
 20
-133.8295572582093
 30
0.0
  0
VERTEX
  5
115
330
113
100
AcDbEntity
  8
_U+30EC_U+30A4_U+30E4_U+30FC 1
370
     0
100
AcDbVertex
100
AcDb2dVertex
 10
93.03445906962334
 20
-133.578065287786
 30
0.0
  0
VERTEX
  5
116
330
113
100
AcDbEntity
  8
_U+30EC_U+30A4_U+30E4_U+30FC 1
370
     0
100
AcDbVertex
100
AcDb2dVertex
 10
93.25666772842195
 20
-133.578065287786
 30
0.0
  0
VERTEX
  5
117
330
113
100
AcDbEntity
  8
_U+30EC_U+30A4_U+30E4_U+30FC 1
370
     0
100
AcDbVertex
100
AcDb2dVertex
 10
93.25666772842195
 20
-133.8295572582093
 30
0.0
  0
VERTEX
  5
118
330
113
100
AcDbEntity
  8
_U+30EC_U+30A4_U+30E4_U+30FC 1
370
     0
100
AcDbVertex
100
AcDb2dVertex
 10
93.03445906962334
 20
-133.8295572582093
 30
0.0
  0
SEQEND
  5
119
330
113
100
AcDbEntity
  8
_U+30EC_U+30A4_U+30E4_U+30FC 1
370
     0
  0
HATCH
  5
11A
330
10C
100
AcDbEntity
  8
_U+30EC_U+30A4_U+30E4_U+30FC 1
 62
   179
420
  2234388
100
AcDbHatch
 10
0.0
 20
0.0
 30
0.0
210
0.0
220
0.0
230
1.0
  2
SOLID
 70
     1
 71
     0
 91
        1
 92
        1
 93
        4
 72
     1
 10
93.03445906962334
 20
-133.8295572582093
 11
93.03445906962334
 21
-133.578065287786
 72
     1
 10
93.03445906962334
 20
-133.578065287786
 11
93.25666772842195
 21
-133.578065287786
 72
     1
 10
93.25666772842195
 20
-133.578065287786
 11
93.25666772842195
 21
-133.8295572582093
 72
     1
 10
93.25666772842195
 20
-133.8295572582093
 11
93.03445906962334
 21
-133.8295572582093
 97
        0
 75
     2
 76
     1
 98
        0
  0
SPLINE
  5
11B
330
10C
100
AcDbEntity
  8
_U+30EC_U+30A4_U+30E4_U+30FC 1
370
     0
100
AcDbSpline
210
0.0
220
0.0
230
1.0
 70
    11
 71
     3
 72
    29
 73
    25
 74
     0
 42
0.0000000001
 43
0.0000000001
 12
1.0
 22
0.0
 32
0.0
 13
1.0
 23
0.0
 33
0.0
 40
0.0
 40
0.0
 40
0.0
 40
0.0
 40
1.0
 40
1.0
 40
1.0
 40
2.0
 40
2.0
 40
2.0
 40
3.0
 40
3.0
 40
3.0
 40
4.0
 40
4.0
 40
4.0
 40
5.0
 40
5.0
 40
5.0
 40
6.0
 40
6.0
 40
6.0
 40
7.0
 40
7.0
 40
7.0
 40
8.0
 40
8.0
 40
8.0
 40
8.0
 10
93.90710175603712
 20
-133.880544671391
 30
0.0
 10
93.67180173439455
 20
-133.880544671391
 30
0.0
 10
93.44752601830479
 20
-133.742740851981
 30
0.0
 10
93.44752601830479
 20
-133.3937526793252
 30
0.0
 10
93.44752601830479
 20
-133.1377820847711
 30
0.0
 10
93.57292749396788
 20
-133.0426974493782
 30
0.0
 10
93.66628958161816
 20
-132.9813747497408
 30
0.0
 10
93.55604652609016
 20
-132.9221191073945
 30
0.0
 10
93.48886716412778
 20
-132.8077419372842
 30
0.0
 10
93.48886716412778
 20
-132.6472004876715
 30
0.0
 10
93.48886716412778
 20
-132.3719373584001
 30
0.0
 10
93.664222524327
 20
-132.2365451058297
 30
0.0
 10
93.90710175603712
 20
-132.2365451058297
 30
0.0
 10
94.15756019781477
 20
-132.2365451058297
 30
0.0
 10
94.32568085749497
 20
-132.3805500971132
 30
0.0
 10
94.32568085749497
 20
-132.6472004876715
 30
0.0
 10
94.32568085749497
 20
-132.8077419372842
 30
0.0
 10
94.25643443824146
 20
-132.9221191073945
 30
0.0
 10
94.14619138271345
 20
-132.9813747497408
 30
0.0
 10
94.22473955977715
 20
-133.0320176533739
 30
0.0
 10
94.36495494602683
 20
-133.1274467983154
 30
0.0
 10
94.36495494602683
 20
-133.3896185647429
 30
0.0
 10
94.36495494602683
 20
-133.7641004439895
 30
0.0
 10
94.11828610928293
 20
-133.880544671391
 30
0.0
 10
93.90710175603712
 20
-133.880544671391
 30
0.0
  0
SPLINE
  5
11C
330
10C
100
AcDbEntity
  8
_U+30EC_U+30A4_U+30E4_U+30FC 1
370
     0
100
AcDbSpline
210
0.0
220
0.0
230
1.0
 70
    11
 71
     3
 72
    17
 73
    13
 74
     0
 42
0.0000000001
 43
0.0000000001
 12
1.0
 22
0.0
 32
0.0
 13
1.0
 23
0.0
 33
0.0
 40
0.0
 40
0.0
 40
0.0
 40
0.0
 40
1.0
 40
1.0
 40
1.0
 40
2.0
 40
2.0
 40
2.0
 40
3.0
 40
3.0
 40
3.0
 40
4.0
 40
4.0
 40
4.0
 40
4.0
 10
93.90710175603712
 20
-133.0892062384291
 30
0.0
 10
93.78032224217992
 20
-133.0892062384291
 30
0.0
 10
93.64561900870666
 20
-133.1760226446574
 30
0.0
 10
93.64561900870666
 20
-133.3789387687386
 30
0.0
 10
93.64561900870666
 20
-133.5842664596595
 30
0.0
 10
93.7579291215258
 20
-133.6858967764744
 30
0.0
 10
93.90710175603712
 20
-133.6858967764744
 30
0.0
 10
94.07143281068353
 20
-133.6858967764744
 30
0.0
 10
94.16858450336758
 20
-133.5632513771995
 30
0.0
 10
94.16858450336758
 20
-133.3854844501606
 30
0.0
 10
94.16858450336758
 20
-133.163275791362
 30
0.0
 10
94.02492402163266
 20
-133.0892062384291
 30
0.0
 10
93.90710175603712
 20
-133.0892062384291
 30
0.0
  0
SPLINE
  5
11D
330
10C
100
AcDbEntity
  8
_U+30EC_U+30A4_U+30E4_U+30FC 1
370
     0
100
AcDbSpline
210
0.0
220
0.0
230
1.0
 70
    11
 71
     3
 72
    17
 73
    13
 74
     0
 42
0.0000000001
 43
0.0000000001
 12
1.0
 22
0.0
 32
0.0
 13
1.0
 23
0.0
 33
0.0
 40
0.0
 40
0.0
 40
0.0
 40
0.0
 40
1.0
 40
1.0
 40
1.0
 40
2.0
 40
2.0
 40
2.0
 40
3.0
 40
3.0
 40
3.0
 40
4.0
 40
4.0
 40
4.0
 40
4.0
 10
93.90710175603712
 20
-132.4291259434552
 30
0.0
 10
93.76137421701105
 20
-132.4291259434552
 30
0.0
 10
93.68661564498113
 20
-132.5242105788481
 30
0.0
 10
93.68661564498113
 20
-132.6596028314184
 30
0.0
 10
93.68661564498113
 20
-132.7825927402419
 30
0.0
 10
93.75034991145824
 20
-132.9011040249345
 30
0.0
 10
93.90710175603712
 20
-132.9011040249345
 30
0.0
 10
94.06419811016451
 20
-132.9011040249345
 30
0.0
 10
94.12758786709311
 20
-132.7825927402419
 30
0.0
 10
94.12758786709311
 20
-132.6596028314184
 30
0.0
 10
94.12758786709311
 20
-132.5242105788481
 30
0.0
 10
94.05110674732056
 20
-132.4291259434552
 30
0.0
 10
93.90710175603712
 20
-132.4291259434552
 30
0.0
  0
HATCH
  5
11E
330
10C
100
AcDbEntity
  8
_U+30EC_U+30A4_U+30E4_U+30FC 1
 62
   179
420
  2234388
100
AcDbHatch
 10
0.0
 20
0.0
 30
0.0
210
0.0
220
0.0
230
1.0
  2
SOLID
 70
     1
 71
     0
 91
        3
 92
        1
 93
        1
 72
     4
 94
        3
 73
     0
 74
     1
 95
       29
 96
       25
 40
0.0
 40
0.0
 40
0.0
 40
0.0
 40
1.0
 40
1.0
 40
1.0
 40
2.0
 40
2.0
 40
2.0
 40
3.0
 40
3.0
 40
3.0
 40
4.0
 40
4.0
 40
4.0
 40
5.0
 40
5.0
 40
5.0
 40
6.0
 40
6.0
 40
6.0
 40
7.0
 40
7.0
 40
7.0
 40
8.0
 40
8.0
 40
8.0
 40
8.0
 10
93.90710175603712
 20
-133.880544671391
 10
93.67180173439455
 20
-133.880544671391
 10
93.44752601830479
 20
-133.742740851981
 10
93.44752601830479
 20
-133.3937526793252
 10
93.44752601830479
 20
-133.1377820847711
 10
93.57292749396788
 20
-133.0426974493782
 10
93.66628958161816
 20
-132.9813747497408
 10
93.55604652609016
 20
-132.9221191073945
 10
93.48886716412778
 20
-132.8077419372842
 10
93.48886716412778
 20
-132.6472004876715
 10
93.48886716412778
 20
-132.3719373584001
 10
93.664222524327
 20
-132.2365451058297
 10
93.90710175603712
 20
-132.2365451058297
 10
94.15756019781477
 20
-132.2365451058297
 10
94.32568085749497
 20
-132.3805500971132
 10
94.32568085749497
 20
-132.6472004876715
 10
94.32568085749497
 20
-132.8077419372842
 10
94.25643443824146
 20
-132.9221191073945
 10
94.14619138271345
 20
-132.9813747497408
 10
94.22473955977715
 20
-133.0320176533739
 10
94.36495494602683
 20
-133.1274467983154
 10
94.36495494602683
 20
-133.3896185647429
 10
94.36495494602683
 20
-133.7641004439895
 10
94.11828610928293
 20
-133.880544671391
 10
93.90710175603712
 20
-133.880544671391
 97
        0
 97
        0
 92
        1
 93
        1
 72
     4
 94
        3
 73
     0
 74
     1
 95
       17
 96
       13
 40
0.0
 40
0.0
 40
0.0
 40
0.0
 40
1.0
 40
1.0
 40
1.0
 40
2.0
 40
2.0
 40
2.0
 40
3.0
 40
3.0
 40
3.0
 40
4.0
 40
4.0
 40
4.0
 40
4.0
 10
93.90710175603712
 20
-133.0892062384291
 10
93.78032224217992
 20
-133.0892062384291
 10
93.64561900870666
 20
-133.1760226446574
 10
93.64561900870666
 20
-133.3789387687386
 10
93.64561900870666
 20
-133.5842664596595
 10
93.7579291215258
 20
-133.6858967764744
 10
93.90710175603712
 20
-133.6858967764744
 10
94.07143281068353
 20
-133.6858967764744
 10
94.16858450336758
 20
-133.5632513771995
 10
94.16858450336758
 20
-133.3854844501606
 10
94.16858450336758
 20
-133.163275791362
 10
94.02492402163266
 20
-133.0892062384291
 10
93.90710175603712
 20
-133.0892062384291
 97
        0
 97
        0
 92
        1
 93
        1
 72
     4
 94
        3
 73
     0
 74
     1
 95
       17
 96
       13
 40
0.0
 40
0.0
 40
0.0
 40
0.0
 40
1.0
 40
1.0
 40
1.0
 40
2.0
 40
2.0
 40
2.0
 40
3.0
 40
3.0
 40
3.0
 40
4.0
 40
4.0
 40
4.0
 40
4.0
 10
93.90710175603712
 20
-132.4291259434552
 10
93.76137421701105
 20
-132.4291259434552
 10
93.68661564498113
 20
-132.5242105788481
 10
93.68661564498113
 20
-132.6596028314184
 10
93.68661564498113
 20
-132.7825927402419
 10
93.75034991145824
 20
-132.9011040249345
 10
93.90710175603712
 20
-132.9011040249345
 10
94.06419811016451
 20
-132.9011040249345
 10
94.12758786709311
 20
-132.7825927402419
 10
94.12758786709311
 20
-132.6596028314184
 10
94.12758786709311
 20
-132.5242105788481
 10
94.05110674732056
 20
-132.4291259434552
 10
93.90710175603712
 20
-132.4291259434552
 97
        0
 97
        0
 75
     2
 76
     1
 98
        0
  0
ENDBLK
  5
10F
330
10C
100
AcDbEntity
  8
0
100
AcDbBlockEnd
  0
BLOCK
  5
121
330
11F
100
AcDbEntity
  8
0
100
AcDbBlockBegin
  2
block 5
 70
     0
 10
0.0
 20
0.0
 30
0.0
  3
block 5
  1

  0
SPLINE
  5
123
330
11F
100
AcDbEntity
  8
_U+30EC_U+30A4_U+30E4_U+30FC 1
370
     0
100
AcDbSpline
210
0.0
220
0.0
230
1.0
 70
    11
 71
     3
 72
    26
 73
    22
 74
     0
 42
0.0000000001
 43
0.0000000001
 12
1.0
 22
0.0
 32
0.0
 13
1.0
 23
0.0
 33
0.0
 40
0.0
 40
0.0
 40
0.0
 40
0.0
 40
1.0
 40
1.0
 40
1.0
 40
2.0
 40
2.0
 40
2.0
 40
3.0
 40
3.0
 40
3.0
 40
4.0
 40
4.0
 40
4.0
 40
5.0
 40
5.0
 40
5.0
 40
6.0
 40
6.0
 40
6.0
 40
7.0
 40
7.0
 40
7.0
 40
7.0
 10
91.68225909166277
 20
-166.8294378923204
 30
0.0
 10
91.68225909166277
 20
-166.8294378923204
 30
0.0
 10
91.68225909166277
 20
-165.7252847892979
 30
0.0
 10
91.68225909166277
 20
-165.7252847892979
 30
0.0
 10
91.68225909166277
 20
-165.7252847892979
 30
0.0
 10
91.39080401361063
 20
-165.7252847892979
 30
0.0
 10
91.39080401361063
 20
-165.7252847892979
 30
0.0
 10
91.39080401361063
 20
-165.7252847892979
 30
0.0
 10
91.39080401361063
 20
-165.5771456834321
 30
0.0
 10
91.39080401361063
 20
-165.5771456834321
 30
0.0
 10
91.6839816394054
 20
-165.5623317728455
 30
0.0
 10
91.72497827567987
 20
-165.3993787563932
 30
0.0
 10
91.75116100136776
 20
-165.2850015862829
 30
0.0
 10
91.75116100136776
 20
-165.2850015862829
 30
0.0
 10
91.8800075725161
 20
-165.2850015862829
 30
0.0
 10
91.8800075725161
 20
-165.2850015862829
 30
0.0
 10
91.8800075725161
 20
-165.2850015862829
 30
0.0
 10
91.8800075725161
 20
-166.8294378923204
 30
0.0
 10
91.8800075725161
 20
-166.8294378923204
 30
0.0
 10
91.8800075725161
 20
-166.8294378923204
 30
0.0
 10
91.68225909166277
 20
-166.8294378923204
 30
0.0
 10
91.68225909166277
 20
-166.8294378923204
 30
0.0
  0
HATCH
  5
124
330
11F
100
AcDbEntity
  8
_U+30EC_U+30A4_U+30E4_U+30FC 1
 62
   179
420
  2234388
100
AcDbHatch
 10
0.0
 20
0.0
 30
0.0
210
0.0
220
0.0
230
1.0
  2
SOLID
 70
     1
 71
     0
 91
        1
 92
        1
 93
        1
 72
     4
 94
        3
 73
     0
 74
     1
 95
       26
 96
       22
 40
0.0
 40
0.0
 40
0.0
 40
0.0
 40
1.0
 40
1.0
 40
1.0
 40
2.0
 40
2.0
 40
2.0
 40
3.0
 40
3.0
 40
3.0
 40
4.0
 40
4.0
 40
4.0
 40
5.0
 40
5.0
 40
5.0
 40
6.0
 40
6.0
 40
6.0
 40
7.0
 40
7.0
 40
7.0
 40
7.0
 10
91.68225909166277
 20
-166.8294378923204
 10
91.68225909166277
 20
-166.8294378923204
 10
91.68225909166277
 20
-165.7252847892979
 10
91.68225909166277
 20
-165.7252847892979
 10
91.68225909166277
 20
-165.7252847892979
 10
91.39080401361063
 20
-165.7252847892979
 10
91.39080401361063
 20
-165.7252847892979
 10
91.39080401361063
 20
-165.7252847892979
 10
91.39080401361063
 20
-165.5771456834321
 10
91.39080401361063
 20
-165.5771456834321
 10
91.6839816394054
 20
-165.5623317728455
 10
91.72497827567987
 20
-165.3993787563932
 10
91.75116100136776
 20
-165.2850015862829
 10
91.75116100136776
 20
-165.2850015862829
 10
91.8800075725161
 20
-165.2850015862829
 10
91.8800075725161
 20
-165.2850015862829
 10
91.8800075725161
 20
-165.2850015862829
 10
91.8800075725161
 20
-166.8294378923204
 10
91.8800075725161
 20
-166.8294378923204
 10
91.8800075725161
 20
-166.8294378923204
 10
91.68225909166277
 20
-166.8294378923204
 10
91.68225909166277
 20
-166.8294378923204
 97
        0
 97
        0
 75
     2
 76
     1
 98
        0
  0
POLYLINE
  5
125
330
11F
100
AcDbEntity
  8
_U+30EC_U+30A4_U+30E4_U+30FC 1
370
     0
100
AcDb2dPolyline
 66
     1
 10
0.0
 20
0.0
 30
0.0
  0
VERTEX
  5
126
330
125
100
AcDbEntity
  8
_U+30EC_U+30A4_U+30E4_U+30FC 1
370
     0
100
AcDbVertex
100
AcDb2dVertex
 10
93.05823022847156
 20
-166.4825167769558
 30
0.0
  0
VERTEX
  5
127
330
125
100
AcDbEntity
  8
_U+30EC_U+30A4_U+30E4_U+30FC 1
370
     0
100
AcDbVertex
100
AcDb2dVertex
 10
93.05823022847156
 20
-166.8294378923204
 30
0.0
  0
VERTEX
  5
128
330
125
100
AcDbEntity
  8
_U+30EC_U+30A4_U+30E4_U+30FC 1
370
     0
100
AcDbVertex
100
AcDb2dVertex
 10
92.86564939084609
 20
-166.8294378923204
 30
0.0
  0
VERTEX
  5
129
330
125
100
AcDbEntity
  8
_U+30EC_U+30A4_U+30E4_U+30FC 1
370
     0
100
AcDbVertex
100
AcDb2dVertex
 10
92.86564939084609
 20
-166.4825167769558
 30
0.0
  0
VERTEX
  5
12A
330
125
100
AcDbEntity
  8
_U+30EC_U+30A4_U+30E4_U+30FC 1
370
     0
100
AcDbVertex
100
AcDb2dVertex
 10
92.2865288397756
 20
-166.4825167769558
 30
0.0
  0
VERTEX
  5
12B
330
125
100
AcDbEntity
  8
_U+30EC_U+30A4_U+30E4_U+30FC 1
370
     0
100
AcDbVertex
100
AcDb2dVertex
 10
92.2865288397756
 20
-166.258241060866
 30
0.0
  0
VERTEX
  5
12C
330
125
100
AcDbEntity
  8
_U+30EC_U+30A4_U+30E4_U+30FC 1
370
     0
100
AcDbVertex
100
AcDb2dVertex
 10
92.88631996375759
 20
-165.2850015862829
 30
0.0
  0
VERTEX
  5
12D
330
125
100
AcDbEntity
  8
_U+30EC_U+30A4_U+30E4_U+30FC 1
370
     0
100
AcDbVertex
100
AcDb2dVertex
 10
93.05823022847156
 20
-165.2850015862829
 30
0.0
  0
VERTEX
  5
12E
330
125
100
AcDbEntity
  8
_U+30EC_U+30A4_U+30E4_U+30FC 1
370
     0
100
AcDbVertex
100
AcDb2dVertex
 10
93.05823022847156
 20
-166.2837347674568
 30
0.0
  0
VERTEX
  5
12F
330
125
100
AcDbEntity
  8
_U+30EC_U+30A4_U+30E4_U+30FC 1
370
     0
100
AcDbVertex
100
AcDb2dVertex
 10
93.24116479873832
 20
-166.2837347674568
 30
0.0
  0
VERTEX
  5
130
330
125
100
AcDbEntity
  8
_U+30EC_U+30A4_U+30E4_U+30FC 1
370
     0
100
AcDbVertex
100
AcDb2dVertex
 10
93.24116479873832
 20
-166.4825167769558
 30
0.0
  0
VERTEX
  5
131
330
125
100
AcDbEntity
  8
_U+30EC_U+30A4_U+30E4_U+30FC 1
370
     0
100
AcDbVertex
100
AcDb2dVertex
 10
93.05823022847156
 20
-166.4825167769558
 30
0.0
  0
SEQEND
  5
132
330
125
100
AcDbEntity
  8
_U+30EC_U+30A4_U+30E4_U+30FC 1
370
     0
  0
POLYLINE
  5
133
330
11F
100
AcDbEntity
  8
_U+30EC_U+30A4_U+30E4_U+30FC 1
370
     0
100
AcDb2dPolyline
 66
     1
 10
0.0
 20
0.0
 30
0.0
  0
VERTEX
  5
134
330
133
100
AcDbEntity
  8
_U+30EC_U+30A4_U+30E4_U+30FC 1
370
     0
100
AcDbVertex
100
AcDb2dVertex
 10
92.86564939084609
 20
-165.6277885870653
 30
0.0
  0
VERTEX
  5
135
330
133
100
AcDbEntity
  8
_U+30EC_U+30A4_U+30E4_U+30FC 1
370
     0
100
AcDbVertex
100
AcDb2dVertex
 10
92.46222870952333
 20
-166.2837347674568
 30
0.0
  0
VERTEX
  5
136
330
133
100
AcDbEntity
  8
_U+30EC_U+30A4_U+30E4_U+30FC 1
370
     0
100
AcDbVertex
100
AcDb2dVertex
 10
92.86564939084609
 20
-166.2837347674568
 30
0.0
  0
VERTEX
  5
137
330
133
100
AcDbEntity
  8
_U+30EC_U+30A4_U+30E4_U+30FC 1
370
     0
100
AcDbVertex
100
AcDb2dVertex
 10
92.86564939084609
 20
-165.6277885870653
 30
0.0
  0
SEQEND
  5
138
330
133
100
AcDbEntity
  8
_U+30EC_U+30A4_U+30E4_U+30FC 1
370
     0
  0
HATCH
  5
139
330
11F
100
AcDbEntity
  8
_U+30EC_U+30A4_U+30E4_U+30FC 1
 62
   179
420
  2234388
100
AcDbHatch
 10
0.0
 20
0.0
 30
0.0
210
0.0
220
0.0
230
1.0
  2
SOLID
 70
     1
 71
     0
 91
        2
 92
        1
 93
       11
 72
     1
 10
93.05823022847156
 20
-166.4825167769558
 11
93.05823022847156
 21
-166.8294378923204
 72
     1
 10
93.05823022847156
 20
-166.8294378923204
 11
92.86564939084609
 21
-166.8294378923204
 72
     1
 10
92.86564939084609
 20
-166.8294378923204
 11
92.86564939084609
 21
-166.4825167769558
 72
     1
 10
92.86564939084609
 20
-166.4825167769558
 11
92.2865288397756
 21
-166.4825167769558
 72
     1
 10
92.2865288397756
 20
-166.4825167769558
 11
92.2865288397756
 21
-166.258241060866
 72
     1
 10
92.2865288397756
 20
-166.258241060866
 11
92.88631996375759
 21
-165.2850015862829
 72
     1
 10
92.88631996375759
 20
-165.2850015862829
 11
93.05823022847156
 21
-165.2850015862829
 72
     1
 10
93.05823022847156
 20
-165.2850015862829
 11
93.05823022847156
 21
-166.2837347674568
 72
     1
 10
93.05823022847156
 20
-166.2837347674568
 11
93.24116479873832
 21
-166.2837347674568
 72
     1
 10
93.24116479873832
 20
-166.2837347674568
 11
93.24116479873832
 21
-166.4825167769558
 72
     1
 10
93.24116479873832
 20
-166.4825167769558
 11
93.05823022847156
 21
-166.4825167769558
 97
        0
 92
        1
 93
        3
 72
     1
 10
92.86564939084609
 20
-165.6277885870653
 11
92.46222870952333
 21
-166.2837347674568
 72
     1
 10
92.46222870952333
 20
-166.2837347674568
 11
92.86564939084609
 21
-166.2837347674568
 72
     1
 10
92.86564939084609
 20
-166.2837347674568
 11
92.86564939084609
 21
-165.6277885870653
 97
        0
 75
     2
 76
     1
 98
        0
  0
ENDBLK
  5
122
330
11F
100
AcDbEntity
  8
0
100
AcDbBlockEnd
  0
BLOCK
  5
13C
330
13A
100
AcDbEntity
  8
0
100
AcDbBlockBegin
  2
block 6
 70
     0
 10
0.0
 20
0.0
 30
0.0
  3
block 6
  1

  0
SPLINE
  5
13E
330
13A
100
AcDbEntity
  8
_U+30EC_U+30A4_U+30E4_U+30FC 1
370
     0
100
AcDbSpline
210
0.0
220
0.0
230
1.0
 70
    11
 71
     3
 72
    44
 73
    40
 74
     0
 42
0.0000000001
 43
0.0000000001
 12
1.0
 22
0.0
 32
0.0
 13
1.0
 23
0.0
 33
0.0
 40
0.0
 40
0.0
 40
0.0
 40
0.0
 40
1.0
 40
1.0
 40
1.0
 40
2.0
 40
2.0
 40
2.0
 40
3.0
 40
3.0
 40
3.0
 40
4.0
 40
4.0
 40
4.0
 40
5.0
 40
5.0
 40
5.0
 40
6.0
 40
6.0
 40
6.0
 40
7.0
 40
7.0
 40
7.0
 40
8.0
 40
8.0
 40
8.0
 40
9.0
 40
9.0
 40
9.0
 40
10.0
 40
10.0
 40
10.0
 40
11.0
 40
11.0
 40
11.0
 40
12.0
 40
12.0
 40
12.0
 40
13.0
 40
13.0
 40
13.0
 40
13.0
 10
80.00786402079665
 20
-151.413669124473
 30
0.0
 10
80.16668292266667
 20
-151.6062499620984
 30
0.0
 10
80.24075247559954
 20
-151.6882432346474
 30
0.0
 10
80.38441295733446
 20
-151.731306928213
 30
0.0
 10
80.38441295733446
 20
-151.731306928213
 30
0.0
 10
80.38441295733446
 20
-151.0440103789057
 30
0.0
 10
80.38441295733446
 20
-151.0440103789057
 30
0.0
 10
80.38441295733446
 20
-151.0440103789057
 30
0.0
 10
80.58974064825534
 20
-151.0440103789057
 30
0.0
 10
80.58974064825534
 20
-151.0440103789057
 30
0.0
 10
80.58974064825534
 20
-151.0440103789057
 30
0.0
 10
80.58974064825534
 20
-151.951793039269
 30
0.0
 10
80.58974064825534
 20
-151.951793039269
 30
0.0
 10
80.23213973688641
 20
-151.9235432562899
 30
0.0
 10
80.15393606937124
 20
-151.8656656521377
 30
0.0
 10
79.85559080034861
 20
-151.5256347277436
 30
0.0
 10
79.6568087908497
 20
-151.2996364639112
 30
0.0
 10
79.58894040979027
 20
-151.241758859759
 30
0.0
 10
79.4514810999288
 20
-151.241758859759
 30
0.0
 10
79.33296981523621
 20
-151.241758859759
 30
0.0
 10
79.20205618679671
 20
-151.3054931262361
 30
0.0
 10
79.20205618679671
 20
-151.4791259386927
 30
0.0
 10
79.20205618679671
 20
-151.7089138075589
 30
0.0
 10
79.43253307475993
 20
-151.7164930176264
 30
0.0
 10
79.54897730216138
 20
-151.7199381131117
 30
0.0
 10
79.54897730216138
 20
-151.7199381131117
 30
0.0
 10
79.54897730216138
 20
-151.9180311035136
 30
0.0
 10
79.54897730216138
 20
-151.9180311035136
 30
0.0
 10
79.42185327875565
 20
-151.910451893446
 30
0.0
 10
79.30988767548503
 20
-151.9011501356358
 30
0.0
 10
79.19137639079244
 20
-151.8301811686397
 30
0.0
 10
79.03049043163126
 20
-151.7330294759556
 30
0.0
 10
78.99672849587583
 20
-151.5686984213092
 30
0.0
 10
78.99672849587583
 20
-151.4660345758488
 30
0.0
 10
78.99672849587583
 20
-151.221432796396
 30
0.0
 10
79.18069659478816
 20
-151.0381537165808
 30
0.0
 10
79.45354815721996
 20
-151.0381537165808
 30
0.0
 10
79.68230249744055
 20
-151.0381537165808
 30
0.0
 10
79.78152124741574
 20
-151.1411620715897
 30
0.0
 10
80.00786402079665
 20
-151.413669124473
 30
0.0
  0
HATCH
  5
13F
330
13A
100
AcDbEntity
  8
_U+30EC_U+30A4_U+30E4_U+30FC 1
 62
   179
420
  2234388
100
AcDbHatch
 10
0.0
 20
0.0
 30
0.0
210
0.0
220
0.0
230
1.0
  2
SOLID
 70
     1
 71
     0
 91
        1
 92
        1
 93
        1
 72
     4
 94
        3
 73
     0
 74
     1
 95
       44
 96
       40
 40
0.0
 40
0.0
 40
0.0
 40
0.0
 40
1.0
 40
1.0
 40
1.0
 40
2.0
 40
2.0
 40
2.0
 40
3.0
 40
3.0
 40
3.0
 40
4.0
 40
4.0
 40
4.0
 40
5.0
 40
5.0
 40
5.0
 40
6.0
 40
6.0
 40
6.0
 40
7.0
 40
7.0
 40
7.0
 40
8.0
 40
8.0
 40
8.0
 40
9.0
 40
9.0
 40
9.0
 40
10.0
 40
10.0
 40
10.0
 40
11.0
 40
11.0
 40
11.0
 40
12.0
 40
12.0
 40
12.0
 40
13.0
 40
13.0
 40
13.0
 40
13.0
 10
80.00786402079665
 20
-151.413669124473
 10
80.16668292266667
 20
-151.6062499620984
 10
80.24075247559954
 20
-151.6882432346474
 10
80.38441295733446
 20
-151.731306928213
 10
80.38441295733446
 20
-151.731306928213
 10
80.38441295733446
 20
-151.0440103789057
 10
80.38441295733446
 20
-151.0440103789057
 10
80.38441295733446
 20
-151.0440103789057
 10
80.58974064825534
 20
-151.0440103789057
 10
80.58974064825534
 20
-151.0440103789057
 10
80.58974064825534
 20
-151.0440103789057
 10
80.58974064825534
 20
-151.951793039269
 10
80.58974064825534
 20
-151.951793039269
 10
80.23213973688641
 20
-151.9235432562899
 10
80.15393606937124
 20
-151.8656656521377
 10
79.85559080034861
 20
-151.5256347277436
 10
79.6568087908497
 20
-151.2996364639112
 10
79.58894040979027
 20
-151.241758859759
 10
79.4514810999288
 20
-151.241758859759
 10
79.33296981523621
 20
-151.241758859759
 10
79.20205618679671
 20
-151.3054931262361
 10
79.20205618679671
 20
-151.4791259386927
 10
79.20205618679671
 20
-151.7089138075589
 10
79.43253307475993
 20
-151.7164930176264
 10
79.54897730216138
 20
-151.7199381131117
 10
79.54897730216138
 20
-151.7199381131117
 10
79.54897730216138
 20
-151.9180311035136
 10
79.54897730216138
 20
-151.9180311035136
 10
79.42185327875565
 20
-151.910451893446
 10
79.30988767548503
 20
-151.9011501356358
 10
79.19137639079244
 20
-151.8301811686397
 10
79.03049043163126
 20
-151.7330294759556
 10
78.99672849587583
 20
-151.5686984213092
 10
78.99672849587583
 20
-151.4660345758488
 10
78.99672849587583
 20
-151.221432796396
 10
79.18069659478816
 20
-151.0381537165808
 10
79.45354815721996
 20
-151.0381537165808
 10
79.68230249744055
 20
-151.0381537165808
 10
79.78152124741574
 20
-151.1411620715897
 10
80.00786402079665
 20
-151.413669124473
 97
        0
 97
        0
 75
     2
 76
     1
 98
        0
  0
SPLINE
  5
140
330
13A
100
AcDbEntity
  8
_U+30EC_U+30A4_U+30E4_U+30FC 1
370
     0
100
AcDbSpline
210
0.0
220
0.0
230
1.0
 70
    11
 71
     3
 72
    53
 73
    49
 74
     0
 42
0.0000000001
 43
0.0000000001
 12
1.0
 22
0.0
 32
0.0
 13
1.0
 23
0.0
 33
0.0
 40
0.0
 40
0.0
 40
0.0
 40
0.0
 40
1.0
 40
1.0
 40
1.0
 40
2.0
 40
2.0
 40
2.0
 40
3.0
 40
3.0
 40
3.0
 40
4.0
 40
4.0
 40
4.0
 40
5.0
 40
5.0
 40
5.0
 40
6.0
 40
6.0
 40
6.0
 40
7.0
 40
7.0
 40
7.0
 40
8.0
 40
8.0
 40
8.0
 40
9.0
 40
9.0
 40
9.0
 40
10.0
 40
10.0
 40
10.0
 40
11.0
 40
11.0
 40
11.0
 40
12.0
 40
12.0
 40
12.0
 40
13.0
 40
13.0
 40
13.0
 40
14.0
 40
14.0
 40
14.0
 40
15.0
 40
15.0
 40
15.0
 40
16.0
 40
16.0
 40
16.0
 40
16.0
 10
80.64038355188852
 20
-150.4731580569998
 30
0.0
 10
80.64038355188852
 20
-150.5420599667048
 30
0.0
 10
80.6235025840108
 20
-150.6316324493213
 30
0.0
 10
80.5601128270822
 20
-150.7215494414863
 30
0.0
 10
80.45021428110273
 20
-150.8745116810314
 30
0.0
 10
80.3189561431147
 20
-150.8931151966517
 30
0.0
 10
80.21112465442638
 20
-150.9099961645294
 30
0.0
 10
80.21112465442638
 20
-150.9099961645294
 30
0.0
 10
80.21112465442638
 20
-150.7139702314187
 30
0.0
 10
80.21112465442638
 20
-150.7139702314187
 30
0.0
 10
80.4099066639253
 20
-150.6653943850767
 30
0.0
 10
80.43953448509845
 20
-150.5534287818061
 30
0.0
 10
80.43953448509845
 20
-150.4710909997086
 30
0.0
 10
80.43953448509845
 20
-150.3477565813367
 30
0.0
 10
80.33997122557473
 20
-150.2133978574119
 30
0.0
 10
80.10742728032037
 20
-150.2133978574119
 30
0.0
 10
79.85145668576631
 20
-150.2133978574119
 30
0.0
 10
79.78152124741574
 20
-150.3722167592819
 30
0.0
 10
79.78152124741574
 20
-150.4786702097762
 30
0.0
 10
79.78152124741574
 20
-150.5065754832067
 30
0.0
 10
79.78152124741574
 20
-150.6316324493213
 30
0.0
 10
79.91071232811261
 20
-150.710180626385
 30
0.0
 10
79.91071232811261
 20
-150.710180626385
 30
0.0
 10
79.89176430294373
 20
-150.8652099232212
 30
0.0
 10
79.89176430294373
 20
-150.8652099232212
 30
0.0
 10
79.89176430294373
 20
-150.8652099232212
 30
0.0
 10
79.04530434221785
 20
-150.758756472727
 30
0.0
 10
79.04530434221785
 20
-150.758756472727
 30
0.0
 10
79.04530434221785
 20
-150.758756472727
 30
0.0
 10
79.04530434221785
 20
-150.0714599234196
 30
0.0
 10
79.04530434221785
 20
-150.0714599234196
 30
0.0
 10
79.04530434221785
 20
-150.0714599234196
 30
0.0
 10
79.23995223713446
 20
-150.0714599234196
 30
0.0
 10
79.23995223713446
 20
-150.0714599234196
 30
0.0
 10
79.23995223713446
 20
-150.0714599234196
 30
0.0
 10
79.23995223713446
 20
-150.6150959909921
 30
0.0
 10
79.23995223713446
 20
-150.6150959909921
 30
0.0
 10
79.23995223713446
 20
-150.6150959909921
 30
0.0
 10
79.66300996272314
 20
-150.6729735951443
 30
0.0
 10
79.66300996272314
 20
-150.6729735951443
 30
0.0
 10
79.62924802696769
 20
-150.6185410864773
 30
0.0
 10
79.58894040979027
 20
-150.5458495717386
 30
0.0
 10
79.58894040979027
 20
-150.4411186689869
 30
0.0
 10
79.58894040979027
 20
-150.2171874624457
 30
0.0
 10
79.77532007554228
 20
-150.0077256569425
 30
0.0
 10
80.0884792551515
 20
-150.0077256569425
 30
0.0
 10
80.405772549343
 20
-150.0077256569425
 30
0.0
 10
80.64038355188852
 20
-150.2058186473444
 30
0.0
 10
80.64038355188852
 20
-150.4731580569998
 30
0.0
  0
HATCH
  5
141
330
13A
100
AcDbEntity
  8
_U+30EC_U+30A4_U+30E4_U+30FC 1
 62
   179
420
  2234388
100
AcDbHatch
 10
0.0
 20
0.0
 30
0.0
210
0.0
220
0.0
230
1.0
  2
SOLID
 70
     1
 71
     0
 91
        1
 92
        1
 93
        1
 72
     4
 94
        3
 73
     0
 74
     1
 95
       53
 96
       49
 40
0.0
 40
0.0
 40
0.0
 40
0.0
 40
1.0
 40
1.0
 40
1.0
 40
2.0
 40
2.0
 40
2.0
 40
3.0
 40
3.0
 40
3.0
 40
4.0
 40
4.0
 40
4.0
 40
5.0
 40
5.0
 40
5.0
 40
6.0
 40
6.0
 40
6.0
 40
7.0
 40
7.0
 40
7.0
 40
8.0
 40
8.0
 40
8.0
 40
9.0
 40
9.0
 40
9.0
 40
10.0
 40
10.0
 40
10.0
 40
11.0
 40
11.0
 40
11.0
 40
12.0
 40
12.0
 40
12.0
 40
13.0
 40
13.0
 40
13.0
 40
14.0
 40
14.0
 40
14.0
 40
15.0
 40
15.0
 40
15.0
 40
16.0
 40
16.0
 40
16.0
 40
16.0
 10
80.64038355188852
 20
-150.4731580569998
 10
80.64038355188852
 20
-150.5420599667048
 10
80.6235025840108
 20
-150.6316324493213
 10
80.5601128270822
 20
-150.7215494414863
 10
80.45021428110273
 20
-150.8745116810314
 10
80.3189561431147
 20
-150.8931151966517
 10
80.21112465442638
 20
-150.9099961645294
 10
80.21112465442638
 20
-150.9099961645294
 10
80.21112465442638
 20
-150.7139702314187
 10
80.21112465442638
 20
-150.7139702314187
 10
80.4099066639253
 20
-150.6653943850767
 10
80.43953448509845
 20
-150.5534287818061
 10
80.43953448509845
 20
-150.4710909997086
 10
80.43953448509845
 20
-150.3477565813367
 10
80.33997122557473
 20
-150.2133978574119
 10
80.10742728032037
 20
-150.2133978574119
 10
79.85145668576631
 20
-150.2133978574119
 10
79.78152124741574
 20
-150.3722167592819
 10
79.78152124741574
 20
-150.4786702097762
 10
79.78152124741574
 20
-150.5065754832067
 10
79.78152124741574
 20
-150.6316324493213
 10
79.91071232811261
 20
-150.710180626385
 10
79.91071232811261
 20
-150.710180626385
 10
79.89176430294373
 20
-150.8652099232212
 10
79.89176430294373
 20
-150.8652099232212
 10
79.89176430294373
 20
-150.8652099232212
 10
79.04530434221785
 20
-150.758756472727
 10
79.04530434221785
 20
-150.758756472727
 10
79.04530434221785
 20
-150.758756472727
 10
79.04530434221785
 20
-150.0714599234196
 10
79.04530434221785
 20
-150.0714599234196
 10
79.04530434221785
 20
-150.0714599234196
 10
79.23995223713446
 20
-150.0714599234196
 10
79.23995223713446
 20
-150.0714599234196
 10
79.23995223713446
 20
-150.0714599234196
 10
79.23995223713446
 20
-150.6150959909921
 10
79.23995223713446
 20
-150.6150959909921
 10
79.23995223713446
 20
-150.6150959909921
 10
79.66300996272314
 20
-150.6729735951443
 10
79.66300996272314
 20
-150.6729735951443
 10
79.62924802696769
 20
-150.6185410864773
 10
79.58894040979027
 20
-150.5458495717386
 10
79.58894040979027
 20
-150.4411186689869
 10
79.58894040979027
 20
-150.2171874624457
 10
79.77532007554228
 20
-150.0077256569425
 10
80.0884792551515
 20
-150.0077256569425
 10
80.405772549343
 20
-150.0077256569425
 10
80.64038355188852
 20
-150.2058186473444
 10
80.64038355188852
 20
-150.4731580569998
 97
        0
 97
        0
 75
     2
 76
     1
 98
        0
  0
ENDBLK
  5
13D
330
13A
100
AcDbEntity
  8
0
100
AcDbBlockEnd
  0
BLOCK
  5
144
330
142
100
AcDbEntity
  8
0
100
AcDbBlockBegin
  2
block 7
 70
     0
 10
0.0
 20
0.0
 30
0.0
  3
block 7
  1

  0
SPLINE
  5
146
330
142
100
AcDbEntity
  8
_U+30EC_U+30A4_U+30E4_U+30FC 1
370
     0
100
AcDbSpline
210
0.0
220
0.0
230
1.0
 70
    11
 71
     3
 72
    62
 73
    58
 74
     0
 42
0.0000000001
 43
0.0000000001
 12
1.0
 22
0.0
 32
0.0
 13
1.0
 23
0.0
 33
0.0
 40
0.0
 40
0.0
 40
0.0
 40
0.0
 40
1.0
 40
1.0
 40
1.0
 40
2.0
 40
2.0
 40
2.0
 40
3.0
 40
3.0
 40
3.0
 40
4.0
 40
4.0
 40
4.0
 40
5.0
 40
5.0
 40
5.0
 40
6.0
 40
6.0
 40
6.0
 40
7.0
 40
7.0
 40
7.0
 40
8.0
 40
8.0
 40
8.0
 40
9.0
 40
9.0
 40
9.0
 40
10.0
 40
10.0
 40
10.0
 40
11.0
 40
11.0
 40
11.0
 40
12.0
 40
12.0
 40
12.0
 40
13.0
 40
13.0
 40
13.0
 40
14.0
 40
14.0
 40
14.0
 40
15.0
 40
15.0
 40
15.0
 40
16.0
 40
16.0
 40
16.0
 40
17.0
 40
17.0
 40
17.0
 40
18.0
 40
18.0
 40
18.0
 40
19.0
 40
19.0
 40
19.0
 40
19.0
 10
102.5019259726384
 20
-161.983566582768
 30
0.0
 10
102.5019259726384
 20
-162.0676269126081
 30
0.0
 10
102.4809108901784
 20
-162.2602077502336
 30
0.0
 10
102.2948757339749
 20
-162.3704508057615
 30
0.0
 10
102.1825656211557
 20
-162.4355631104328
 30
0.0
 10
102.0833468711806
 20
-162.4393527154666
 30
0.0
 10
101.9985975222434
 20
-162.4431423205003
 30
0.0
 10
101.9985975222434
 20
-162.4431423205003
 30
0.0
 10
101.9985975222434
 20
-162.2488389351323
 30
0.0
 10
101.9985975222434
 20
-162.2488389351323
 30
0.0
 10
102.0726670751763
 20
-162.2471163873896
 30
0.0
 10
102.3072780777218
 20
-162.2378146295794
 30
0.0
 10
102.3072780777218
 20
-161.9873561878018
 30
0.0
 10
102.3072780777218
 20
-161.866088826721
 30
0.0
 10
102.2376871489197
 20
-161.7313855932477
 30
0.0
 10
102.0092773182477
 20
-161.7313855932477
 30
0.0
 10
101.8928330908462
 20
-161.7313855932477
 30
0.0
 10
101.8442572445042
 20
-161.7651475290032
 30
0.0
 10
101.8125623660399
 20
-161.7930528024337
 30
0.0
 10
101.738492813107
 20
-161.8585096166534
 30
0.0
 10
101.7257459598116
 20
-161.9611734621139
 30
0.0
 10
101.7257459598116
 20
-162.0097493084559
 30
0.0
 10
101.7257459598116
 20
-162.0266302763336
 30
0.0
 10
101.7278130171028
 20
-162.0583251547979
 30
0.0
 10
101.7319471316851
 20
-162.0827853327432
 30
0.0
 10
101.7319471316851
 20
-162.0827853327432
 30
0.0
 10
101.5372992367685
 20
-162.0827853327432
 30
0.0
 10
101.5372992367685
 20
-162.0827853327432
 30
0.0
 10
101.5438449181904
 20
-162.0490233969878
 30
0.0
 10
101.5459119754816
 20
-162.0118163657471
 30
0.0
 10
101.5459119754816
 20
-162.0059597034221
 30
0.0
 10
101.5459119754816
 20
-161.9480820992699
 30
0.0
 10
101.524552383473
 20
-161.7727267390707
 30
0.0
 10
101.2878743236364
 20
-161.7727267390707
 30
0.0
 10
101.1101073965975
 20
-161.7727267390707
 30
0.0
 10
101.0549858688335
 20
-161.8884819473751
 30
0.0
 10
101.0549858688335
 20
-161.9856336400591
 30
0.0
 10
101.0549858688335
 20
-162.2192111139591
 30
0.0
 10
101.2878743236364
 20
-162.2264458144781
 30
0.0
 10
101.3595323097296
 20
-162.2302354195119
 30
0.0
 10
101.3595323097296
 20
-162.2302354195119
 30
0.0
 10
101.3595323097296
 20
-162.4097248942934
 30
0.0
 10
101.3595323097296
 20
-162.4097248942934
 30
0.0
 10
101.2348198531635
 20
-162.4021456842259
 30
0.0
 10
100.8582709166257
 20
-162.3776855062806
 30
0.0
 10
100.8582709166257
 20
-161.9742648249578
 30
0.0
 10
100.8582709166257
 20
-161.7765163441045
 30
0.0
 10
100.9853949400314
 20
-161.5632649335675
 30
0.0
 10
101.2813286422144
 20
-161.5632649335675
 30
0.0
 10
101.4677083079664
 20
-161.5632649335675
 30
0.0
 10
101.5500460900639
 20
-161.6473252634076
 30
0.0
 10
101.6113687897013
 20
-161.7351751982815
 30
0.0
 10
101.6389295535833
 20
-161.6810871991631
 30
0.0
 10
101.7192002783896
 20
-161.5205457495504
 30
0.0
 10
101.9965304649523
 20
-161.5205457495504
 30
0.0
 10
102.3348388416038
 20
-161.5205457495504
 30
0.0
 10
102.5019259726384
 20
-161.7389648033153
 30
0.0
 10
102.5019259726384
 20
-161.983566582768
 30
0.0
  0
HATCH
  5
147
330
142
100
AcDbEntity
  8
_U+30EC_U+30A4_U+30E4_U+30FC 1
 62
   179
420
  2234388
100
AcDbHatch
 10
0.0
 20
0.0
 30
0.0
210
0.0
220
0.0
230
1.0
  2
SOLID
 70
     1
 71
     0
 91
        1
 92
        1
 93
        1
 72
     4
 94
        3
 73
     0
 74
     1
 95
       62
 96
       58
 40
0.0
 40
0.0
 40
0.0
 40
0.0
 40
1.0
 40
1.0
 40
1.0
 40
2.0
 40
2.0
 40
2.0
 40
3.0
 40
3.0
 40
3.0
 40
4.0
 40
4.0
 40
4.0
 40
5.0
 40
5.0
 40
5.0
 40
6.0
 40
6.0
 40
6.0
 40
7.0
 40
7.0
 40
7.0
 40
8.0
 40
8.0
 40
8.0
 40
9.0
 40
9.0
 40
9.0
 40
10.0
 40
10.0
 40
10.0
 40
11.0
 40
11.0
 40
11.0
 40
12.0
 40
12.0
 40
12.0
 40
13.0
 40
13.0
 40
13.0
 40
14.0
 40
14.0
 40
14.0
 40
15.0
 40
15.0
 40
15.0
 40
16.0
 40
16.0
 40
16.0
 40
17.0
 40
17.0
 40
17.0
 40
18.0
 40
18.0
 40
18.0
 40
19.0
 40
19.0
 40
19.0
 40
19.0
 10
102.5019259726384
 20
-161.983566582768
 10
102.5019259726384
 20
-162.0676269126081
 10
102.4809108901784
 20
-162.2602077502336
 10
102.2948757339749
 20
-162.3704508057615
 10
102.1825656211557
 20
-162.4355631104328
 10
102.0833468711806
 20
-162.4393527154666
 10
101.9985975222434
 20
-162.4431423205003
 10
101.9985975222434
 20
-162.4431423205003
 10
101.9985975222434
 20
-162.2488389351323
 10
101.9985975222434
 20
-162.2488389351323
 10
102.0726670751763
 20
-162.2471163873896
 10
102.3072780777218
 20
-162.2378146295794
 10
102.3072780777218
 20
-161.9873561878018
 10
102.3072780777218
 20
-161.866088826721
 10
102.2376871489197
 20
-161.7313855932477
 10
102.0092773182477
 20
-161.7313855932477
 10
101.8928330908462
 20
-161.7313855932477
 10
101.8442572445042
 20
-161.7651475290032
 10
101.8125623660399
 20
-161.7930528024337
 10
101.738492813107
 20
-161.8585096166534
 10
101.7257459598116
 20
-161.9611734621139
 10
101.7257459598116
 20
-162.0097493084559
 10
101.7257459598116
 20
-162.0266302763336
 10
101.7278130171028
 20
-162.0583251547979
 10
101.7319471316851
 20
-162.0827853327432
 10
101.7319471316851
 20
-162.0827853327432
 10
101.5372992367685
 20
-162.0827853327432
 10
101.5372992367685
 20
-162.0827853327432
 10
101.5438449181904
 20
-162.0490233969878
 10
101.5459119754816
 20
-162.0118163657471
 10
101.5459119754816
 20
-162.0059597034221
 10
101.5459119754816
 20
-161.9480820992699
 10
101.524552383473
 20
-161.7727267390707
 10
101.2878743236364
 20
-161.7727267390707
 10
101.1101073965975
 20
-161.7727267390707
 10
101.0549858688335
 20
-161.8884819473751
 10
101.0549858688335
 20
-161.9856336400591
 10
101.0549858688335
 20
-162.2192111139591
 10
101.2878743236364
 20
-162.2264458144781
 10
101.3595323097296
 20
-162.2302354195119
 10
101.3595323097296
 20
-162.2302354195119
 10
101.3595323097296
 20
-162.4097248942934
 10
101.3595323097296
 20
-162.4097248942934
 10
101.2348198531635
 20
-162.4021456842259
 10
100.8582709166257
 20
-162.3776855062806
 10
100.8582709166257
 20
-161.9742648249578
 10
100.8582709166257
 20
-161.7765163441045
 10
100.9853949400314
 20
-161.5632649335675
 10
101.2813286422144
 20
-161.5632649335675
 10
101.4677083079664
 20
-161.5632649335675
 10
101.5500460900639
 20
-161.6473252634076
 10
101.6113687897013
 20
-161.7351751982815
 10
101.6389295535833
 20
-161.6810871991631
 10
101.7192002783896
 20
-161.5205457495504
 10
101.9965304649523
 20
-161.5205457495504
 10
102.3348388416038
 20
-161.5205457495504
 10
102.5019259726384
 20
-161.7389648033153
 10
102.5019259726384
 20
-161.983566582768
 97
        0
 97
        0
 75
     2
 76
     1
 98
        0
  0
ENDBLK
  5
145
330
142
100
AcDbEntity
  8
0
100
AcDbBlockEnd
  0
BLOCK
  5
14A
330
148
100
AcDbEntity
  8
0
100
AcDbBlockBegin
  2
block 8
 70
     0
 10
0.0
 20
0.0
 30
0.0
  3
block 8
  1

  0
SPLINE
  5
14C
330
148
100
AcDbEntity
  8
_U+30EC_U+30A4_U+30E4_U+30FC 1
370
     0
100
AcDbSpline
210
0.0
220
0.0
230
1.0
 70
    11
 71
     3
 72
    26
 73
    22
 74
     0
 42
0.0000000001
 43
0.0000000001
 12
1.0
 22
0.0
 32
0.0
 13
1.0
 23
0.0
 33
0.0
 40
0.0
 40
0.0
 40
0.0
 40
0.0
 40
1.0
 40
1.0
 40
1.0
 40
2.0
 40
2.0
 40
2.0
 40
3.0
 40
3.0
 40
3.0
 40
4.0
 40
4.0
 40
4.0
 40
5.0
 40
5.0
 40
5.0
 40
6.0
 40
6.0
 40
6.0
 40
7.0
 40
7.0
 40
7.0
 40
7.0
 10
102.4512830690052
 20
-154.5390597486916
 30
0.0
 10
102.4512830690052
 20
-154.5390597486916
 30
0.0
 10
101.3471299659827
 20
-154.5390597486916
 30
0.0
 10
101.3471299659827
 20
-154.5390597486916
 30
0.0
 10
101.3471299659827
 20
-154.5390597486916
 30
0.0
 10
101.3471299659827
 20
-154.8305148267438
 30
0.0
 10
101.3471299659827
 20
-154.8305148267438
 30
0.0
 10
101.3471299659827
 20
-154.8305148267438
 30
0.0
 10
101.1989908601169
 20
-154.8305148267438
 30
0.0
 10
101.1989908601169
 20
-154.8305148267438
 30
0.0
 10
101.1841769495304
 20
-154.537337200949
 30
0.0
 10
101.021223933078
 20
-154.4963405646745
 30
0.0
 10
100.9068467629677
 20
-154.4701578389866
 30
0.0
 10
100.9068467629677
 20
-154.4701578389866
 30
0.0
 10
100.9068467629677
 20
-154.3413112678383
 30
0.0
 10
100.9068467629677
 20
-154.3413112678383
 30
0.0
 10
100.9068467629677
 20
-154.3413112678383
 30
0.0
 10
102.4512830690052
 20
-154.3413112678383
 30
0.0
 10
102.4512830690052
 20
-154.3413112678383
 30
0.0
 10
102.4512830690052
 20
-154.3413112678383
 30
0.0
 10
102.4512830690052
 20
-154.5390597486916
 30
0.0
 10
102.4512830690052
 20
-154.5390597486916
 30
0.0
  0
HATCH
  5
14D
330
148
100
AcDbEntity
  8
_U+30EC_U+30A4_U+30E4_U+30FC 1
 62
   179
420
  2234388
100
AcDbHatch
 10
0.0
 20
0.0
 30
0.0
210
0.0
220
0.0
230
1.0
  2
SOLID
 70
     1
 71
     0
 91
        1
 92
        1
 93
        1
 72
     4
 94
        3
 73
     0
 74
     1
 95
       26
 96
       22
 40
0.0
 40
0.0
 40
0.0
 40
0.0
 40
1.0
 40
1.0
 40
1.0
 40
2.0
 40
2.0
 40
2.0
 40
3.0
 40
3.0
 40
3.0
 40
4.0
 40
4.0
 40
4.0
 40
5.0
 40
5.0
 40
5.0
 40
6.0
 40
6.0
 40
6.0
 40
7.0
 40
7.0
 40
7.0
 40
7.0
 10
102.4512830690052
 20
-154.5390597486916
 10
102.4512830690052
 20
-154.5390597486916
 10
101.3471299659827
 20
-154.5390597486916
 10
101.3471299659827
 20
-154.5390597486916
 10
101.3471299659827
 20
-154.5390597486916
 10
101.3471299659827
 20
-154.8305148267438
 10
101.3471299659827
 20
-154.8305148267438
 10
101.3471299659827
 20
-154.8305148267438
 10
101.1989908601169
 20
-154.8305148267438
 10
101.1989908601169
 20
-154.8305148267438
 10
101.1841769495304
 20
-154.537337200949
 10
101.021223933078
 20
-154.4963405646745
 10
100.9068467629677
 20
-154.4701578389866
 10
100.9068467629677
 20
-154.4701578389866
 10
100.9068467629677
 20
-154.3413112678383
 10
100.9068467629677
 20
-154.3413112678383
 10
100.9068467629677
 20
-154.3413112678383
 10
102.4512830690052
 20
-154.3413112678383
 10
102.4512830690052
 20
-154.3413112678383
 10
102.4512830690052
 20
-154.3413112678383
 10
102.4512830690052
 20
-154.5390597486916
 10
102.4512830690052
 20
-154.5390597486916
 97
        0
 97
        0
 75
     2
 76
     1
 98
        0
  0
SPLINE
  5
14E
330
148
100
AcDbEntity
  8
_U+30EC_U+30A4_U+30E4_U+30FC 1
370
     0
100
AcDbSpline
210
0.0
220
0.0
230
1.0
 70
    11
 71
     3
 72
    62
 73
    58
 74
     0
 42
0.0000000001
 43
0.0000000001
 12
1.0
 22
0.0
 32
0.0
 13
1.0
 23
0.0
 33
0.0
 40
0.0
 40
0.0
 40
0.0
 40
0.0
 40
1.0
 40
1.0
 40
1.0
 40
2.0
 40
2.0
 40
2.0
 40
3.0
 40
3.0
 40
3.0
 40
4.0
 40
4.0
 40
4.0
 40
5.0
 40
5.0
 40
5.0
 40
6.0
 40
6.0
 40
6.0
 40
7.0
 40
7.0
 40
7.0
 40
8.0
 40
8.0
 40
8.0
 40
9.0
 40
9.0
 40
9.0
 40
10.0
 40
10.0
 40
10.0
 40
11.0
 40
11.0
 40
11.0
 40
12.0
 40
12.0
 40
12.0
 40
13.0
 40
13.0
 40
13.0
 40
14.0
 40
14.0
 40
14.0
 40
15.0
 40
15.0
 40
15.0
 40
16.0
 40
16.0
 40
16.0
 40
17.0
 40
17.0
 40
17.0
 40
18.0
 40
18.0
 40
18.0
 40
19.0
 40
19.0
 40
19.0
 40
19.0
 10
102.5019259726384
 20
-153.4638454477451
 30
0.0
 10
102.5019259726384
 20
-153.5479057775852
 30
0.0
 10
102.4809108901784
 20
-153.7404866152107
 30
0.0
 10
102.2948757339749
 20
-153.8507296707387
 30
0.0
 10
102.1825656211557
 20
-153.9158419754099
 30
0.0
 10
102.0833468711806
 20
-153.9196315804437
 30
0.0
 10
101.9985975222434
 20
-153.9234211854775
 30
0.0
 10
101.9985975222434
 20
-153.9234211854775
 30
0.0
 10
101.9985975222434
 20
-153.7291178001094
 30
0.0
 10
101.9985975222434
 20
-153.7291178001094
 30
0.0
 10
102.0726670751763
 20
-153.7273952523668
 30
0.0
 10
102.3072780777218
 20
-153.7180934945566
 30
0.0
 10
102.3072780777218
 20
-153.4676350527789
 30
0.0
 10
102.3072780777218
 20
-153.3463676916981
 30
0.0
 10
102.2376871489197
 20
-153.2116644582249
 30
0.0
 10
102.0092773182477
 20
-153.2116644582249
 30
0.0
 10
101.8928330908462
 20
-153.2116644582249
 30
0.0
 10
101.8442572445042
 20
-153.2454263939803
 30
0.0
 10
101.8125623660399
 20
-153.2733316674108
 30
0.0
 10
101.738492813107
 20
-153.3387884816306
 30
0.0
 10
101.7257459598116
 20
-153.441452327091
 30
0.0
 10
101.7257459598116
 20
-153.490028173433
 30
0.0
 10
101.7257459598116
 20
-153.5069091413108
 30
0.0
 10
101.7278130171028
 20
-153.5386040197751
 30
0.0
 10
101.7319471316851
 20
-153.5630641977204
 30
0.0
 10
101.7319471316851
 20
-153.5630641977204
 30
0.0
 10
101.5372992367685
 20
-153.5630641977204
 30
0.0
 10
101.5372992367685
 20
-153.5630641977204
 30
0.0
 10
101.5438449181904
 20
-153.5293022619649
 30
0.0
 10
101.5459119754816
 20
-153.4920952307242
 30
0.0
 10
101.5459119754816
 20
-153.4862385683993
 30
0.0
 10
101.5459119754816
 20
-153.4283609642471
 30
0.0
 10
101.524552383473
 20
-153.2530056040479
 30
0.0
 10
101.2878743236364
 20
-153.2530056040479
 30
0.0
 10
101.1101073965975
 20
-153.2530056040479
 30
0.0
 10
101.0549858688335
 20
-153.3687608123523
 30
0.0
 10
101.0549858688335
 20
-153.4659125050363
 30
0.0
 10
101.0549858688335
 20
-153.6994899789362
 30
0.0
 10
101.2878743236364
 20
-153.7067246794553
 30
0.0
 10
101.3595323097296
 20
-153.7105142844891
 30
0.0
 10
101.3595323097296
 20
-153.7105142844891
 30
0.0
 10
101.3595323097296
 20
-153.8900037592706
 30
0.0
 10
101.3595323097296
 20
-153.8900037592706
 30
0.0
 10
101.2348198531635
 20
-153.882424549203
 30
0.0
 10
100.8582709166257
 20
-153.8579643712577
 30
0.0
 10
100.8582709166257
 20
-153.454543689935
 30
0.0
 10
100.8582709166257
 20
-153.2567952090816
 30
0.0
 10
100.9853949400314
 20
-153.0435437985447
 30
0.0
 10
101.2813286422144
 20
-153.0435437985447
 30
0.0
 10
101.4677083079664
 20
-153.0435437985447
 30
0.0
 10
101.5500460900639
 20
-153.1276041283848
 30
0.0
 10
101.6113687897013
 20
-153.2154540632586
 30
0.0
 10
101.6389295535833
 20
-153.1613660641402
 30
0.0
 10
101.7192002783896
 20
-153.0008246145276
 30
0.0
 10
101.9965304649523
 20
-153.0008246145276
 30
0.0
 10
102.3348388416038
 20
-153.0008246145276
 30
0.0
 10
102.5019259726384
 20
-153.2192436682924
 30
0.0
 10
102.5019259726384
 20
-153.4638454477451
 30
0.0
  0
HATCH
  5
14F
330
148
100
AcDbEntity
  8
_U+30EC_U+30A4_U+30E4_U+30FC 1
 62
   179
420
  2234388
100
AcDbHatch
 10
0.0
 20
0.0
 30
0.0
210
0.0
220
0.0
230
1.0
  2
SOLID
 70
     1
 71
     0
 91
        1
 92
        1
 93
        1
 72
     4
 94
        3
 73
     0
 74
     1
 95
       62
 96
       58
 40
0.0
 40
0.0
 40
0.0
 40
0.0
 40
1.0
 40
1.0
 40
1.0
 40
2.0
 40
2.0
 40
2.0
 40
3.0
 40
3.0
 40
3.0
 40
4.0
 40
4.0
 40
4.0
 40
5.0
 40
5.0
 40
5.0
 40
6.0
 40
6.0
 40
6.0
 40
7.0
 40
7.0
 40
7.0
 40
8.0
 40
8.0
 40
8.0
 40
9.0
 40
9.0
 40
9.0
 40
10.0
 40
10.0
 40
10.0
 40
11.0
 40
11.0
 40
11.0
 40
12.0
 40
12.0
 40
12.0
 40
13.0
 40
13.0
 40
13.0
 40
14.0
 40
14.0
 40
14.0
 40
15.0
 40
15.0
 40
15.0
 40
16.0
 40
16.0
 40
16.0
 40
17.0
 40
17.0
 40
17.0
 40
18.0
 40
18.0
 40
18.0
 40
19.0
 40
19.0
 40
19.0
 40
19.0
 10
102.5019259726384
 20
-153.4638454477451
 10
102.5019259726384
 20
-153.5479057775852
 10
102.4809108901784
 20
-153.7404866152107
 10
102.2948757339749
 20
-153.8507296707387
 10
102.1825656211557
 20
-153.9158419754099
 10
102.0833468711806
 20
-153.9196315804437
 10
101.9985975222434
 20
-153.9234211854775
 10
101.9985975222434
 20
-153.9234211854775
 10
101.9985975222434
 20
-153.7291178001094
 10
101.9985975222434
 20
-153.7291178001094
 10
102.0726670751763
 20
-153.7273952523668
 10
102.3072780777218
 20
-153.7180934945566
 10
102.3072780777218
 20
-153.4676350527789
 10
102.3072780777218
 20
-153.3463676916981
 10
102.2376871489197
 20
-153.2116644582249
 10
102.0092773182477
 20
-153.2116644582249
 10
101.8928330908462
 20
-153.2116644582249
 10
101.8442572445042
 20
-153.2454263939803
 10
101.8125623660399
 20
-153.2733316674108
 10
101.738492813107
 20
-153.3387884816306
 10
101.7257459598116
 20
-153.441452327091
 10
101.7257459598116
 20
-153.490028173433
 10
101.7257459598116
 20
-153.5069091413108
 10
101.7278130171028
 20
-153.5386040197751
 10
101.7319471316851
 20
-153.5630641977204
 10
101.7319471316851
 20
-153.5630641977204
 10
101.5372992367685
 20
-153.5630641977204
 10
101.5372992367685
 20
-153.5630641977204
 10
101.5438449181904
 20
-153.5293022619649
 10
101.5459119754816
 20
-153.4920952307242
 10
101.5459119754816
 20
-153.4862385683993
 10
101.5459119754816
 20
-153.4283609642471
 10
101.524552383473
 20
-153.2530056040479
 10
101.2878743236364
 20
-153.2530056040479
 10
101.1101073965975
 20
-153.2530056040479
 10
101.0549858688335
 20
-153.3687608123523
 10
101.0549858688335
 20
-153.4659125050363
 10
101.0549858688335
 20
-153.6994899789362
 10
101.2878743236364
 20
-153.7067246794553
 10
101.3595323097296
 20
-153.7105142844891
 10
101.3595323097296
 20
-153.7105142844891
 10
101.3595323097296
 20
-153.8900037592706
 10
101.3595323097296
 20
-153.8900037592706
 10
101.2348198531635
 20
-153.882424549203
 10
100.8582709166257
 20
-153.8579643712577
 10
100.8582709166257
 20
-153.454543689935
 10
100.8582709166257
 20
-153.2567952090816
 10
100.9853949400314
 20
-153.0435437985447
 10
101.2813286422144
 20
-153.0435437985447
 10
101.4677083079664
 20
-153.0435437985447
 10
101.5500460900639
 20
-153.1276041283848
 10
101.6113687897013
 20
-153.2154540632586
 10
101.6389295535833
 20
-153.1613660641402
 10
101.7192002783896
 20
-153.0008246145276
 10
101.9965304649523
 20
-153.0008246145276
 10
102.3348388416038
 20
-153.0008246145276
 10
102.5019259726384
 20
-153.2192436682924
 10
102.5019259726384
 20
-153.4638454477451
 97
        0
 97
        0
 75
     2
 76
     1
 98
        0
  0
ENDBLK
  5
14B
330
148
100
AcDbEntity
  8
0
100
AcDbBlockEnd
  0
BLOCK
  5
152
330
150
100
AcDbEntity
  8
0
100
AcDbBlockBegin
  2
block 9
 70
     0
 10
0.0
 20
0.0
 30
0.0
  3
block 9
  1

  0
SPLINE
  5
154
330
150
100
AcDbEntity
  8
_U+30EC_U+30A4_U+30E4_U+30FC 1
370
     0
100
AcDbSpline
210
0.0
220
0.0
230
1.0
 70
    11
 71
     3
 72
    53
 73
    49
 74
     0
 42
0.0000000001
 43
0.0000000001
 12
1.0
 22
0.0
 32
0.0
 13
1.0
 23
0.0
 33
0.0
 40
0.0
 40
0.0
 40
0.0
 40
0.0
 40
1.0
 40
1.0
 40
1.0
 40
2.0
 40
2.0
 40
2.0
 40
3.0
 40
3.0
 40
3.0
 40
4.0
 40
4.0
 40
4.0
 40
5.0
 40
5.0
 40
5.0
 40
6.0
 40
6.0
 40
6.0
 40
7.0
 40
7.0
 40
7.0
 40
8.0
 40
8.0
 40
8.0
 40
9.0
 40
9.0
 40
9.0
 40
10.0
 40
10.0
 40
10.0
 40
11.0
 40
11.0
 40
11.0
 40
12.0
 40
12.0
 40
12.0
 40
13.0
 40
13.0
 40
13.0
 40
14.0
 40
14.0
 40
14.0
 40
15.0
 40
15.0
 40
15.0
 40
16.0
 40
16.0
 40
16.0
 40
16.0
 10
102.5019259726384
 20
-123.0129909631704
 30
0.0
 10
102.5019259726384
 20
-123.0818928728754
 30
0.0
 10
102.4850450047607
 20
-123.1714653554919
 30
0.0
 10
102.4216552478321
 20
-123.2613823476569
 30
0.0
 10
102.3117567018526
 20
-123.414344587202
 30
0.0
 10
102.1804985638646
 20
-123.4329481028223
 30
0.0
 10
102.0726670751763
 20
-123.4498290707
 30
0.0
 10
102.0726670751763
 20
-123.4498290707
 30
0.0
 10
102.0726670751763
 20
-123.2538031375893
 30
0.0
 10
102.0726670751763
 20
-123.2538031375893
 30
0.0
 10
102.2714490846752
 20
-123.2052272912473
 30
0.0
 10
102.3010769058483
 20
-123.0932616879767
 30
0.0
 10
102.3010769058483
 20
-123.0109239058792
 30
0.0
 10
102.3010769058483
 20
-122.8875894875073
 30
0.0
 10
102.2015136463246
 20
-122.7532307635825
 30
0.0
 10
101.9689697010703
 20
-122.7532307635825
 30
0.0
 10
101.7129991065162
 20
-122.7532307635825
 30
0.0
 10
101.6430636681656
 20
-122.9120496654525
 30
0.0
 10
101.6430636681656
 20
-123.0185031159468
 30
0.0
 10
101.6430636681656
 20
-123.0464083893773
 30
0.0
 10
101.6430636681656
 20
-123.1714653554919
 30
0.0
 10
101.7722547488625
 20
-123.2500135325556
 30
0.0
 10
101.7722547488625
 20
-123.2500135325556
 30
0.0
 10
101.7533067236936
 20
-123.4050428293918
 30
0.0
 10
101.7533067236936
 20
-123.4050428293918
 30
0.0
 10
101.7533067236936
 20
-123.4050428293918
 30
0.0
 10
100.9068467629677
 20
-123.2985893788976
 30
0.0
 10
100.9068467629677
 20
-123.2985893788976
 30
0.0
 10
100.9068467629677
 20
-123.2985893788976
 30
0.0
 10
100.9068467629677
 20
-122.6112928295902
 30
0.0
 10
100.9068467629677
 20
-122.6112928295902
 30
0.0
 10
100.9068467629677
 20
-122.6112928295902
 30
0.0
 10
101.1014946578844
 20
-122.6112928295902
 30
0.0
 10
101.1014946578844
 20
-122.6112928295902
 30
0.0
 10
101.1014946578844
 20
-122.6112928295902
 30
0.0
 10
101.1014946578844
 20
-123.1549288971627
 30
0.0
 10
101.1014946578844
 20
-123.1549288971627
 30
0.0
 10
101.1014946578844
 20
-123.1549288971627
 30
0.0
 10
101.524552383473
 20
-123.2128065013149
 30
0.0
 10
101.524552383473
 20
-123.2128065013149
 30
0.0
 10
101.4907904477176
 20
-123.1583739926479
 30
0.0
 10
101.4504828305402
 20
-123.0856824779091
 30
0.0
 10
101.4504828305402
 20
-122.9809515751575
 30
0.0
 10
101.4504828305402
 20
-122.7570203686163
 30
0.0
 10
101.6368624962922
 20
-122.5475585631131
 30
0.0
 10
101.9500216759014
 20
-122.5475585631131
 30
0.0
 10
102.2673149700929
 20
-122.5475585631131
 30
0.0
 10
102.5019259726384
 20
-122.745651553515
 30
0.0
 10
102.5019259726384
 20
-123.0129909631704
 30
0.0
  0
HATCH
  5
155
330
150
100
AcDbEntity
  8
_U+30EC_U+30A4_U+30E4_U+30FC 1
 62
   179
420
  2234388
100
AcDbHatch
 10
0.0
 20
0.0
 30
0.0
210
0.0
220
0.0
230
1.0
  2
SOLID
 70
     1
 71
     0
 91
        1
 92
        1
 93
        1
 72
     4
 94
        3
 73
     0
 74
     1
 95
       53
 96
       49
 40
0.0
 40
0.0
 40
0.0
 40
0.0
 40
1.0
 40
1.0
 40
1.0
 40
2.0
 40
2.0
 40
2.0
 40
3.0
 40
3.0
 40
3.0
 40
4.0
 40
4.0
 40
4.0
 40
5.0
 40
5.0
 40
5.0
 40
6.0
 40
6.0
 40
6.0
 40
7.0
 40
7.0
 40
7.0
 40
8.0
 40
8.0
 40
8.0
 40
9.0
 40
9.0
 40
9.0
 40
10.0
 40
10.0
 40
10.0
 40
11.0
 40
11.0
 40
11.0
 40
12.0
 40
12.0
 40
12.0
 40
13.0
 40
13.0
 40
13.0
 40
14.0
 40
14.0
 40
14.0
 40
15.0
 40
15.0
 40
15.0
 40
16.0
 40
16.0
 40
16.0
 40
16.0
 10
102.5019259726384
 20
-123.0129909631704
 10
102.5019259726384
 20
-123.0818928728754
 10
102.4850450047607
 20
-123.1714653554919
 10
102.4216552478321
 20
-123.2613823476569
 10
102.3117567018526
 20
-123.414344587202
 10
102.1804985638646
 20
-123.4329481028223
 10
102.0726670751763
 20
-123.4498290707
 10
102.0726670751763
 20
-123.4498290707
 10
102.0726670751763
 20
-123.2538031375893
 10
102.0726670751763
 20
-123.2538031375893
 10
102.2714490846752
 20
-123.2052272912473
 10
102.3010769058483
 20
-123.0932616879767
 10
102.3010769058483
 20
-123.0109239058792
 10
102.3010769058483
 20
-122.8875894875073
 10
102.2015136463246
 20
-122.7532307635825
 10
101.9689697010703
 20
-122.7532307635825
 10
101.7129991065162
 20
-122.7532307635825
 10
101.6430636681656
 20
-122.9120496654525
 10
101.6430636681656
 20
-123.0185031159468
 10
101.6430636681656
 20
-123.0464083893773
 10
101.6430636681656
 20
-123.1714653554919
 10
101.7722547488625
 20
-123.2500135325556
 10
101.7722547488625
 20
-123.2500135325556
 10
101.7533067236936
 20
-123.4050428293918
 10
101.7533067236936
 20
-123.4050428293918
 10
101.7533067236936
 20
-123.4050428293918
 10
100.9068467629677
 20
-123.2985893788976
 10
100.9068467629677
 20
-123.2985893788976
 10
100.9068467629677
 20
-123.2985893788976
 10
100.9068467629677
 20
-122.6112928295902
 10
100.9068467629677
 20
-122.6112928295902
 10
100.9068467629677
 20
-122.6112928295902
 10
101.1014946578844
 20
-122.6112928295902
 10
101.1014946578844
 20
-122.6112928295902
 10
101.1014946578844
 20
-122.6112928295902
 10
101.1014946578844
 20
-123.1549288971627
 10
101.1014946578844
 20
-123.1549288971627
 10
101.1014946578844
 20
-123.1549288971627
 10
101.524552383473
 20
-123.2128065013149
 10
101.524552383473
 20
-123.2128065013149
 10
101.4907904477176
 20
-123.1583739926479
 10
101.4504828305402
 20
-123.0856824779091
 10
101.4504828305402
 20
-122.9809515751575
 10
101.4504828305402
 20
-122.7570203686163
 10
101.6368624962922
 20
-122.5475585631131
 10
101.9500216759014
 20
-122.5475585631131
 10
102.2673149700929
 20
-122.5475585631131
 10
102.5019259726384
 20
-122.745651553515
 10
102.5019259726384
 20
-123.0129909631704
 97
        0
 97
        0
 75
     2
 76
     1
 98
        0
  0
SPLINE
  5
156
330
150
100
AcDbEntity
  8
_U+30EC_U+30A4_U+30E4_U+30FC 1
370
     0
100
AcDbSpline
210
0.0
220
0.0
230
1.0
 70
    11
 71
     3
 72
    29
 73
    25
 74
     0
 42
0.0000000001
 43
0.0000000001
 12
1.0
 22
0.0
 32
0.0
 13
1.0
 23
0.0
 33
0.0
 40
0.0
 40
0.0
 40
0.0
 40
0.0
 40
1.0
 40
1.0
 40
1.0
 40
2.0
 40
2.0
 40
2.0
 40
3.0
 40
3.0
 40
3.0
 40
4.0
 40
4.0
 40
4.0
 40
5.0
 40
5.0
 40
5.0
 40
6.0
 40
6.0
 40
6.0
 40
7.0
 40
7.0
 40
7.0
 40
8.0
 40
8.0
 40
8.0
 40
8.0
 10
102.2735161419664
 20
-121.6049804383488
 30
0.0
 10
102.4829779474695
 20
-121.7004095832902
 30
0.0
 10
102.5019259726384
 20
-121.8537163323838
 30
0.0
 10
102.5019259726384
 20
-121.9563801778442
 30
0.0
 10
102.5019259726384
 20
-122.0983181118365
 30
0.0
 10
102.4554171835875
 20
-122.2233750779511
 30
0.0
 10
102.2735161419664
 20
-122.3074354077912
 30
0.0
 10
102.0788682470497
 20
-122.3990749476988
 30
0.0
 10
101.8418456776645
 20
-122.4159559155766
 30
0.0
 10
101.6792371707608
 20
-122.4159559155766
 30
0.0
 10
101.5352321794773
 20
-122.4159559155766
 30
0.0
 10
101.2833956995055
 20
-122.4007974954415
 30
0.0
 10
101.0846136900066
 20
-122.3074354077912
 30
0.0
 10
100.8816975659254
 20
-122.2123507723983
 30
0.0
 10
100.8582709166257
 20
-122.0700683288575
 30
0.0
 10
100.8582709166257
 20
-121.9563801778442
 30
0.0
 10
100.8582709166257
 20
-121.8161647915946
 30
0.0
 10
100.9027126483854
 20
-121.6890407681889
 30
0.0
 10
101.0846136900066
 20
-121.6049804383488
 30
0.0
 10
101.2771945276321
 20
-121.5174750130234
 30
0.0
 10
101.5056043583042
 20
-121.4968044401119
 30
0.0
 10
101.6792371707608
 20
-121.4968044401119
 30
0.0
 10
101.8504584163777
 20
-121.4968044401119
 30
0.0
 10
102.0809353043409
 20
-121.5154079557323
 30
0.0
 10
102.2735161419664
 20
-121.6049804383488
 30
0.0
  0
SPLINE
  5
157
330
150
100
AcDbEntity
  8
_U+30EC_U+30A4_U+30E4_U+30FC 1
370
     0
100
AcDbSpline
210
0.0
220
0.0
230
1.0
 70
    11
 71
     3
 72
    17
 73
    13
 74
     0
 42
0.0000000001
 43
0.0000000001
 12
1.0
 22
0.0
 32
0.0
 13
1.0
 23
0.0
 33
0.0
 40
0.0
 40
0.0
 40
0.0
 40
0.0
 40
1.0
 40
1.0
 40
1.0
 40
2.0
 40
2.0
 40
2.0
 40
3.0
 40
3.0
 40
3.0
 40
4.0
 40
4.0
 40
4.0
 40
4.0
 10
101.0508517542512
 20
-121.9563801778442
 30
0.0
 10
101.0508517542512
 20
-122.1768662889002
 30
0.0
 10
101.3343831126872
 20
-122.2178629251747
 30
0.0
 10
101.6792371707608
 20
-122.2178629251747
 30
0.0
 10
101.9985975222434
 20
-122.2178629251747
 30
0.0
 10
102.3072780777218
 20
-122.1861680467104
 30
0.0
 10
102.3072780777218
 20
-121.9563801778442
 30
0.0
 10
102.3072780777218
 20
-121.7376166145309
 30
0.0
 10
102.0261582861254
 20
-121.6948974305138
 30
0.0
 10
101.6792371707608
 20
-121.6948974305138
 30
0.0
 10
101.3595323097296
 20
-121.6948974305138
 30
0.0
 10
101.0508517542512
 20
-121.7283148567207
 30
0.0
 10
101.0508517542512
 20
-121.9563801778442
 30
0.0
  0
HATCH
  5
158
330
150
100
AcDbEntity
  8
_U+30EC_U+30A4_U+30E4_U+30FC 1
 62
   179
420
  2234388
100
AcDbHatch
 10
0.0
 20
0.0
 30
0.0
210
0.0
220
0.0
230
1.0
  2
SOLID
 70
     1
 71
     0
 91
        2
 92
        1
 93
        1
 72
     4
 94
        3
 73
     0
 74
     1
 95
       29
 96
       25
 40
0.0
 40
0.0
 40
0.0
 40
0.0
 40
1.0
 40
1.0
 40
1.0
 40
2.0
 40
2.0
 40
2.0
 40
3.0
 40
3.0
 40
3.0
 40
4.0
 40
4.0
 40
4.0
 40
5.0
 40
5.0
 40
5.0
 40
6.0
 40
6.0
 40
6.0
 40
7.0
 40
7.0
 40
7.0
 40
8.0
 40
8.0
 40
8.0
 40
8.0
 10
102.2735161419664
 20
-121.6049804383488
 10
102.4829779474695
 20
-121.7004095832902
 10
102.5019259726384
 20
-121.8537163323838
 10
102.5019259726384
 20
-121.9563801778442
 10
102.5019259726384
 20
-122.0983181118365
 10
102.4554171835875
 20
-122.2233750779511
 10
102.2735161419664
 20
-122.3074354077912
 10
102.0788682470497
 20
-122.3990749476988
 10
101.8418456776645
 20
-122.4159559155766
 10
101.6792371707608
 20
-122.4159559155766
 10
101.5352321794773
 20
-122.4159559155766
 10
101.2833956995055
 20
-122.4007974954415
 10
101.0846136900066
 20
-122.3074354077912
 10
100.8816975659254
 20
-122.2123507723983
 10
100.8582709166257
 20
-122.0700683288575
 10
100.8582709166257
 20
-121.9563801778442
 10
100.8582709166257
 20
-121.8161647915946
 10
100.9027126483854
 20
-121.6890407681889
 10
101.0846136900066
 20
-121.6049804383488
 10
101.2771945276321
 20
-121.5174750130234
 10
101.5056043583042
 20
-121.4968044401119
 10
101.6792371707608
 20
-121.4968044401119
 10
101.8504584163777
 20
-121.4968044401119
 10
102.0809353043409
 20
-121.5154079557323
 10
102.2735161419664
 20
-121.6049804383488
 97
        0
 97
        0
 92
        1
 93
        1
 72
     4
 94
        3
 73
     0
 74
     1
 95
       17
 96
       13
 40
0.0
 40
0.0
 40
0.0
 40
0.0
 40
1.0
 40
1.0
 40
1.0
 40
2.0
 40
2.0
 40
2.0
 40
3.0
 40
3.0
 40
3.0
 40
4.0
 40
4.0
 40
4.0
 40
4.0
 10
101.0508517542512
 20
-121.9563801778442
 10
101.0508517542512
 20
-122.1768662889002
 10
101.3343831126872
 20
-122.2178629251747
 10
101.6792371707608
 20
-122.2178629251747
 10
101.9985975222434
 20
-122.2178629251747
 10
102.3072780777218
 20
-122.1861680467104
 10
102.3072780777218
 20
-121.9563801778442
 10
102.3072780777218
 20
-121.7376166145309
 10
102.0261582861254
 20
-121.6948974305138
 10
101.6792371707608
 20
-121.6948974305138
 10
101.3595323097296
 20
-121.6948974305138
 10
101.0508517542512
 20
-121.7283148567207
 10
101.0508517542512
 20
-121.9563801778442
 97
        0
 97
        0
 75
     2
 76
     1
 98
        0
  0
ENDBLK
  5
153
330
150
100
AcDbEntity
  8
0
100
AcDbBlockEnd
  0
ENDSEC
  0
SECTION
  2
ENTITIES
  0
POLYLINE
  5
41
330
1F
100
AcDbEntity
  8
_U+30EC_U+30A4_U+30E4_U+30FC 1
370
     0
100
AcDb2dPolyline
 66
     1
 10
0.0
 20
0.0
 30
0.0
  0
VERTEX
  5
42
330
41
100
AcDbEntity
  8
_U+30EC_U+30A4_U+30E4_U+30FC 1
370
     0
100
AcDbVertex
100
AcDb2dVertex
 10
88.24661802641899
 20
-139.4753863540204
 30
0.0
  0
VERTEX
  5
43
330
41
100
AcDbEntity
  8
_U+30EC_U+30A4_U+30E4_U+30FC 1
370
     0
100
AcDbVertex
100
AcDb2dVertex
 10
86.24640553399398
 20
-139.4753863540204
 30
0.0
  0
VERTEX
  5
44
330
41
100
AcDbEntity
  8
_U+30EC_U+30A4_U+30E4_U+30FC 1
370
     0
100
AcDbVertex
100
AcDb2dVertex
 10
86.24640553399398
 20
-146.475132463381
 30
0.0
  0
VERTEX
  5
45
330
41
100
AcDbEntity
  8
_U+30EC_U+30A4_U+30E4_U+30FC 1
370
     0
100
AcDbVertex
100
AcDb2dVertex
 10
98.04671388750883
 20
-146.475132463381
 30
0.0
  0
VERTEX
  5
46
330
41
100
AcDbEntity
  8
_U+30EC_U+30A4_U+30E4_U+30FC 1
370
     0
100
AcDbVertex
100
AcDb2dVertex
 10
98.04671388750883
 20
-97.47500469785348
 30
0.0
  0
VERTEX
  5
47
330
41
100
AcDbEntity
  8
_U+30EC_U+30A4_U+30E4_U+30FC 1
370
     0
100
AcDbVertex
100
AcDb2dVertex
 10
99.2462994124604
 20
-97.47500469785348
 30
0.0
  0
VERTEX
  5
48
330
41
100
AcDbEntity
  8
_U+30EC_U+30A4_U+30E4_U+30FC 1
370
     0
100
AcDbVertex
100
AcDb2dVertex
 10
99.2462994124604
 20
-147.4749046853535
 30
0.0
  0
VERTEX
  5
49
330
41
100
AcDbEntity
  8
_U+30EC_U+30A4_U+30E4_U+30FC 1
370
     0
100
AcDbVertex
100
AcDb2dVertex
 10
86.24640553399398
 20
-147.4749046853535
 30
0.0
  0
VERTEX
  5
4A
330
41
100
AcDbEntity
  8
_U+30EC_U+30A4_U+30E4_U+30FC 1
370
     0
100
AcDbVertex
100
AcDb2dVertex
 10
86.24640553399398
 20
-162.4748394038259
 30
0.0
  0
VERTEX
  5
4B
330
41
100
AcDbEntity
  8
_U+30EC_U+30A4_U+30E4_U+30FC 1
370
     0
100
AcDbVertex
100
AcDb2dVertex
 10
98.24652721574449
 20
-162.4748394038259
 30
0.0
  0
VERTEX
  5
4C
330
41
100
AcDbEntity
  8
_U+30EC_U+30A4_U+30E4_U+30FC 1
370
     0
100
AcDbVertex
100
AcDb2dVertex
 10
98.24652721574449
 20
-160.4752949598814
 30
0.0
  0
VERTEX
  5
4D
330
41
100
AcDbEntity
  8
_U+30EC_U+30A4_U+30E4_U+30FC 1
370
     0
100
AcDbVertex
100
AcDb2dVertex
 10
99.2462994124604
 20
-160.4752949598814
 30
0.0
  0
VERTEX
  5
4E
330
41
100
AcDbEntity
  8
_U+30EC_U+30A4_U+30E4_U+30FC 1
370
     0
100
AcDbVertex
100
AcDb2dVertex
 10
99.2462994124604
 20
-163.4752819035758
 30
0.0
  0
VERTEX
  5
4F
330
41
100
AcDbEntity
  8
_U+30EC_U+30A4_U+30E4_U+30FC 1
370
     0
100
AcDbVertex
100
AcDb2dVertex
 10
85.24663331202176
 20
-163.4752819035758
 30
0.0
  0
VERTEX
  5
50
330
41
100
AcDbEntity
  8
_U+30EC_U+30A4_U+30E4_U+30FC 1
370
     0
100
AcDbVertex
100
AcDb2dVertex
 10
85.24663331202176
 20
-138.4749085764923
 30
0.0
  0
VERTEX
  5
51
330
41
100
AcDbEntity
  8
_U+30EC_U+30A4_U+30E4_U+30FC 1
370
     0
100
AcDbVertex
100
AcDb2dVertex
 10
88.24661802641899
 20
-138.4749085764923
 30
0.0
  0
VERTEX
  5
52
330
41
100
AcDbEntity
  8
_U+30EC_U+30A4_U+30E4_U+30FC 1
370
     0
100
AcDbVertex
100
AcDb2dVertex
 10
88.24661802641899
 20
-139.4753863540204
 30
0.0
  0
SEQEND
  5
54
330
41
100
AcDbEntity
  8
_U+30EC_U+30A4_U+30E4_U+30FC 1
370
     0
  0
HATCH
  5
53
330
1F
100
AcDbEntity
  8
_U+30EC_U+30A4_U+30E4_U+30FC 1
 62
   253
420
 11711154
100
AcDbHatch
 10
0.0
 20
0.0
 30
0.0
210
0.0
220
0.0
230
1.0
  2
SOLID
 70
     1
 71
     0
 91
        1
 92
        1
 93
       16
 72
     1
 10
88.24661802641899
 20
-139.4753863540204
 11
86.24640553399398
 21
-139.4753863540204
 72
     1
 10
86.24640553399398
 20
-139.4753863540204
 11
86.24640553399398
 21
-146.475132463381
 72
     1
 10
86.24640553399398
 20
-146.475132463381
 11
98.04671388750883
 21
-146.475132463381
 72
     1
 10
98.04671388750883
 20
-146.475132463381
 11
98.04671388750883
 21
-97.47500469785348
 72
     1
 10
98.04671388750883
 20
-97.47500469785348
 11
99.2462994124604
 21
-97.47500469785348
 72
     1
 10
99.2462994124604
 20
-97.47500469785348
 11
99.2462994124604
 21
-147.4749046853535
 72
     1
 10
99.2462994124604
 20
-147.4749046853535
 11
86.24640553399398
 21
-147.4749046853535
 72
     1
 10
86.24640553399398
 20
-147.4749046853535
 11
86.24640553399398
 21
-162.4748394038259
 72
     1
 10
86.24640553399398
 20
-162.4748394038259
 11
98.24652721574449
 21
-162.4748394038259
 72
     1
 10
98.24652721574449
 20
-162.4748394038259
 11
98.24652721574449
 21
-160.4752949598814
 72
     1
 10
98.24652721574449
 20
-160.4752949598814
 11
99.2462994124604
 21
-160.4752949598814
 72
     1
 10
99.2462994124604
 20
-160.4752949598814
 11
99.2462994124604
 21
-163.4752819035758
 72
     1
 10
99.2462994124604
 20
-163.4752819035758
 11
85.24663331202176
 21
-163.4752819035758
 72
     1
 10
85.24663331202176
 20
-163.4752819035758
 11
85.24663331202176
 21
-138.4749085764923
 72
     1
 10
85.24663331202176
 20
-138.4749085764923
 11
88.24661802641899
 21
-138.4749085764923
 72
     1
 10
88.24661802641899
 20
-138.4749085764923
 11
88.24661802641899
 21
-139.4753863540204
 97
        0
 75
     2
 76
     1
 98
        0
  0
POLYLINE
  5
55
330
1F
100
AcDbEntity
  8
_U+30EC_U+30A4_U+30E4_U+30FC 1
 62
   179
420
  2234388
370
    25
100
AcDb2dPolyline
 66
     1
 10
0.0
 20
0.0
 30
0.0
  0
VERTEX
  5
56
330
55
100
AcDbEntity
  8
_U+30EC_U+30A4_U+30E4_U+30FC 1
 62
   179
420
  2234388
370
    25
100
AcDbVertex
100
AcDb2dVertex
 10
98.04671388750883
 20
-97.47500469785348
 30
0.0
  0
VERTEX
  5
57
330
55
100
AcDbEntity
  8
_U+30EC_U+30A4_U+30E4_U+30FC 1
 62
   179
420
  2234388
370
    25
100
AcDbVertex
100
AcDb2dVertex
 10
98.04671388750883
 20
-146.475132463381
 30
0.0
  0
SEQEND
  5
58
330
55
100
AcDbEntity
  8
_U+30EC_U+30A4_U+30E4_U+30FC 1
 62
   179
420
  2234388
370
    25
  0
POLYLINE
  5
59
330
1F
100
AcDbEntity
  8
_U+30EC_U+30A4_U+30E4_U+30FC 1
 62
   179
420
  2234388
370
    25
100
AcDb2dPolyline
 66
     1
 10
0.0
 20
0.0
 30
0.0
  0
VERTEX
  5
5A
330
59
100
AcDbEntity
  8
_U+30EC_U+30A4_U+30E4_U+30FC 1
 62
   179
420
  2234388
370
    25
100
AcDbVertex
100
AcDb2dVertex
 10
99.2462994124604
 20
-97.47500469785348
 30
0.0
  0
VERTEX
  5
5B
330
59
100
AcDbEntity
  8
_U+30EC_U+30A4_U+30E4_U+30FC 1
 62
   179
420
  2234388
370
    25
100
AcDbVertex
100
AcDb2dVertex
 10
98.04671388750883
 20
-97.47500469785348
 30
0.0
  0
SEQEND
  5
5C
330
59
100
AcDbEntity
  8
_U+30EC_U+30A4_U+30E4_U+30FC 1
 62
   179
420
  2234388
370
    25
  0
POLYLINE
  5
5D
330
1F
100
AcDbEntity
  8
_U+30EC_U+30A4_U+30E4_U+30FC 1
 62
   179
420
  2234388
370
    25
100
AcDb2dPolyline
 66
     1
 10
0.0
 20
0.0
 30
0.0
  0
VERTEX
  5
5E
330
5D
100
AcDbEntity
  8
_U+30EC_U+30A4_U+30E4_U+30FC 1
 62
   179
420
  2234388
370
    25
100
AcDbVertex
100
AcDb2dVertex
 10
99.2462994124604
 20
-97.47500469785348
 30
0.0
  0
VERTEX
  5
5F
330
5D
100
AcDbEntity
  8
_U+30EC_U+30A4_U+30E4_U+30FC 1
 62
   179
420
  2234388
370
    25
100
AcDbVertex
100
AcDb2dVertex
 10
99.2462994124604
 20
-147.4749046853535
 30
0.0
  0
SEQEND
  5
60
330
5D
100
AcDbEntity
  8
_U+30EC_U+30A4_U+30E4_U+30FC 1
 62
   179
420
  2234388
370
    25
  0
POLYLINE
  5
61
330
1F
100
AcDbEntity
  8
_U+30EC_U+30A4_U+30E4_U+30FC 1
 62
   179
420
  2234388
370
    25
100
AcDb2dPolyline
 66
     1
 10
0.0
 20
0.0
 30
0.0
  0
VERTEX
  5
62
330
61
100
AcDbEntity
  8
_U+30EC_U+30A4_U+30E4_U+30FC 1
 62
   179
420
  2234388
370
    25
100
AcDbVertex
100
AcDb2dVertex
 10
99.2462994124604
 20
-147.4749046853535
 30
0.0
  0
VERTEX
  5
63
330
61
100
AcDbEntity
  8
_U+30EC_U+30A4_U+30E4_U+30FC 1
 62
   179
420
  2234388
370
    25
100
AcDbVertex
100
AcDb2dVertex
 10
86.24640553399398
 20
-147.4749046853535
 30
0.0
  0
SEQEND
  5
64
330
61
100
AcDbEntity
  8
_U+30EC_U+30A4_U+30E4_U+30FC 1
 62
   179
420
  2234388
370
    25
  0
POLYLINE
  5
65
330
1F
100
AcDbEntity
  8
_U+30EC_U+30A4_U+30E4_U+30FC 1
 62
   179
420
  2234388
370
    25
100
AcDb2dPolyline
 66
     1
 10
0.0
 20
0.0
 30
0.0
  0
VERTEX
  5
66
330
65
100
AcDbEntity
  8
_U+30EC_U+30A4_U+30E4_U+30FC 1
 62
   179
420
  2234388
370
    25
100
AcDbVertex
100
AcDb2dVertex
 10
99.2462994124604
 20
-160.4752949598814
 30
0.0
  0
VERTEX
  5
67
330
65
100
AcDbEntity
  8
_U+30EC_U+30A4_U+30E4_U+30FC 1
 62
   179
420
  2234388
370
    25
100
AcDbVertex
100
AcDb2dVertex
 10
98.24652721574449
 20
-160.4752949598814
 30
0.0
  0
SEQEND
  5
68
330
65
100
AcDbEntity
  8
_U+30EC_U+30A4_U+30E4_U+30FC 1
 62
   179
420
  2234388
370
    25
  0
POLYLINE
  5
69
330
1F
100
AcDbEntity
  8
_U+30EC_U+30A4_U+30E4_U+30FC 1
 62
   179
420
  2234388
370
    25
100
AcDb2dPolyline
 66
     1
 10
0.0
 20
0.0
 30
0.0
  0
VERTEX
  5
6A
330
69
100
AcDbEntity
  8
_U+30EC_U+30A4_U+30E4_U+30FC 1
 62
   179
420
  2234388
370
    25
100
AcDbVertex
100
AcDb2dVertex
 10
99.2462994124604
 20
-163.4752819035758
 30
0.0
  0
VERTEX
  5
6B
330
69
100
AcDbEntity
  8
_U+30EC_U+30A4_U+30E4_U+30FC 1
 62
   179
420
  2234388
370
    25
100
AcDbVertex
100
AcDb2dVertex
 10
85.24663331202176
 20
-163.4752819035758
 30
0.0
  0
SEQEND
  5
6C
330
69
100
AcDbEntity
  8
_U+30EC_U+30A4_U+30E4_U+30FC 1
 62
   179
420
  2234388
370
    25
  0
POLYLINE
  5
6D
330
1F
100
AcDbEntity
  8
_U+30EC_U+30A4_U+30E4_U+30FC 1
 62
   179
420
  2234388
370
    25
100
AcDb2dPolyline
 66
     1
 10
0.0
 20
0.0
 30
0.0
  0
VERTEX
  5
6E
330
6D
100
AcDbEntity
  8
_U+30EC_U+30A4_U+30E4_U+30FC 1
 62
   179
420
  2234388
370
    25
100
AcDbVertex
100
AcDb2dVertex
 10
88.24661802641899
 20
-138.4749085764923
 30
0.0
  0
VERTEX
  5
6F
330
6D
100
AcDbEntity
  8
_U+30EC_U+30A4_U+30E4_U+30FC 1
 62
   179
420
  2234388
370
    25
100
AcDbVertex
100
AcDb2dVertex
 10
88.24661802641899
 20
-139.4753863540204
 30
0.0
  0
SEQEND
  5
70
330
6D
100
AcDbEntity
  8
_U+30EC_U+30A4_U+30E4_U+30FC 1
 62
   179
420
  2234388
370
    25
  0
POLYLINE
  5
71
330
1F
100
AcDbEntity
  8
_U+30EC_U+30A4_U+30E4_U+30FC 1
 62
   179
420
  2234388
370
    25
100
AcDb2dPolyline
 66
     1
 10
0.0
 20
0.0
 30
0.0
  0
VERTEX
  5
72
330
71
100
AcDbEntity
  8
_U+30EC_U+30A4_U+30E4_U+30FC 1
 62
   179
420
  2234388
370
    25
100
AcDbVertex
100
AcDb2dVertex
 10
85.24663331202176
 20
-138.4749085764923
 30
0.0
  0
VERTEX
  5
73
330
71
100
AcDbEntity
  8
_U+30EC_U+30A4_U+30E4_U+30FC 1
 62
   179
420
  2234388
370
    25
100
AcDbVertex
100
AcDb2dVertex
 10
85.24663331202176
 20
-163.4752819035758
 30
0.0
  0
SEQEND
  5
74
330
71
100
AcDbEntity
  8
_U+30EC_U+30A4_U+30E4_U+30FC 1
 62
   179
420
  2234388
370
    25
  0
POLYLINE
  5
75
330
1F
100
AcDbEntity
  8
_U+30EC_U+30A4_U+30E4_U+30FC 1
 62
   179
420
  2234388
370
    25
100
AcDb2dPolyline
 66
     1
 10
0.0
 20
0.0
 30
0.0
  0
VERTEX
  5
76
330
75
100
AcDbEntity
  8
_U+30EC_U+30A4_U+30E4_U+30FC 1
 62
   179
420
  2234388
370
    25
100
AcDbVertex
100
AcDb2dVertex
 10
88.24661802641899
 20
-138.4749085764923
 30
0.0
  0
VERTEX
  5
77
330
75
100
AcDbEntity
  8
_U+30EC_U+30A4_U+30E4_U+30FC 1
 62
   179
420
  2234388
370
    25
100
AcDbVertex
100
AcDb2dVertex
 10
85.24663331202176
 20
-138.4749085764923
 30
0.0
  0
SEQEND
  5
78
330
75
100
AcDbEntity
  8
_U+30EC_U+30A4_U+30E4_U+30FC 1
 62
   179
420
  2234388
370
    25
  0
POLYLINE
  5
79
330
1F
100
AcDbEntity
  8
_U+30EC_U+30A4_U+30E4_U+30FC 1
 62
   179
420
  2234388
370
    25
100
AcDb2dPolyline
 66
     1
 10
0.0
 20
0.0
 30
0.0
  0
VERTEX
  5
7A
330
79
100
AcDbEntity
  8
_U+30EC_U+30A4_U+30E4_U+30FC 1
 62
   179
420
  2234388
370
    25
100
AcDbVertex
100
AcDb2dVertex
 10
99.2462994124604
 20
-160.4752949598814
 30
0.0
  0
VERTEX
  5
7B
330
79
100
AcDbEntity
  8
_U+30EC_U+30A4_U+30E4_U+30FC 1
 62
   179
420
  2234388
370
    25
100
AcDbVertex
100
AcDb2dVertex
 10
99.2462994124604
 20
-163.4752819035758
 30
0.0
  0
SEQEND
  5
7C
330
79
100
AcDbEntity
  8
_U+30EC_U+30A4_U+30E4_U+30FC 1
 62
   179
420
  2234388
370
    25
  0
POLYLINE
  5
7D
330
1F
100
AcDbEntity
  8
_U+30EC_U+30A4_U+30E4_U+30FC 1
 62
   179
420
  2234388
370
    25
100
AcDb2dPolyline
 66
     1
 10
0.0
 20
0.0
 30
0.0
  0
VERTEX
  5
7E
330
7D
100
AcDbEntity
  8
_U+30EC_U+30A4_U+30E4_U+30FC 1
 62
   179
420
  2234388
370
    25
100
AcDbVertex
100
AcDb2dVertex
 10
86.24640553399398
 20
-139.4753863540204
 30
0.0
  0
VERTEX
  5
7F
330
7D
100
AcDbEntity
  8
_U+30EC_U+30A4_U+30E4_U+30FC 1
 62
   179
420
  2234388
370
    25
100
AcDbVertex
100
AcDb2dVertex
 10
86.24640553399398
 20
-146.475132463381
 30
0.0
  0
SEQEND
  5
80
330
7D
100
AcDbEntity
  8
_U+30EC_U+30A4_U+30E4_U+30FC 1
 62
   179
420
  2234388
370
    25
  0
POLYLINE
  5
81
330
1F
100
AcDbEntity
  8
_U+30EC_U+30A4_U+30E4_U+30FC 1
 62
   179
420
  2234388
370
    25
100
AcDb2dPolyline
 66
     1
 10
0.0
 20
0.0
 30
0.0
  0
VERTEX
  5
82
330
81
100
AcDbEntity
  8
_U+30EC_U+30A4_U+30E4_U+30FC 1
 62
   179
420
  2234388
370
    25
100
AcDbVertex
100
AcDb2dVertex
 10
98.04671388750883
 20
-146.475132463381
 30
0.0
  0
VERTEX
  5
83
330
81
100
AcDbEntity
  8
_U+30EC_U+30A4_U+30E4_U+30FC 1
 62
   179
420
  2234388
370
    25
100
AcDbVertex
100
AcDb2dVertex
 10
86.24640553399398
 20
-146.475132463381
 30
0.0
  0
SEQEND
  5
84
330
81
100
AcDbEntity
  8
_U+30EC_U+30A4_U+30E4_U+30FC 1
 62
   179
420
  2234388
370
    25
  0
POLYLINE
  5
85
330
1F
100
AcDbEntity
  8
_U+30EC_U+30A4_U+30E4_U+30FC 1
 62
   179
420
  2234388
370
    25
100
AcDb2dPolyline
 66
     1
 10
0.0
 20
0.0
 30
0.0
  0
VERTEX
  5
86
330
85
100
AcDbEntity
  8
_U+30EC_U+30A4_U+30E4_U+30FC 1
 62
   179
420
  2234388
370
    25
100
AcDbVertex
100
AcDb2dVertex
 10
88.24661802641899
 20
-139.4753863540204
 30
0.0
  0
VERTEX
  5
87
330
85
100
AcDbEntity
  8
_U+30EC_U+30A4_U+30E4_U+30FC 1
 62
   179
420
  2234388
370
    25
100
AcDbVertex
100
AcDb2dVertex
 10
86.24640553399398
 20
-139.4753863540204
 30
0.0
  0
SEQEND
  5
88
330
85
100
AcDbEntity
  8
_U+30EC_U+30A4_U+30E4_U+30FC 1
 62
   179
420
  2234388
370
    25
  0
POLYLINE
  5
89
330
1F
100
AcDbEntity
  8
_U+30EC_U+30A4_U+30E4_U+30FC 1
 62
   179
420
  2234388
370
    25
100
AcDb2dPolyline
 66
     1
 10
0.0
 20
0.0
 30
0.0
  0
VERTEX
  5
8A
330
89
100
AcDbEntity
  8
_U+30EC_U+30A4_U+30E4_U+30FC 1
 62
   179
420
  2234388
370
    25
100
AcDbVertex
100
AcDb2dVertex
 10
98.24652721574449
 20
-160.4752949598814
 30
0.0
  0
VERTEX
  5
8B
330
89
100
AcDbEntity
  8
_U+30EC_U+30A4_U+30E4_U+30FC 1
 62
   179
420
  2234388
370
    25
100
AcDbVertex
100
AcDb2dVertex
 10
98.24652721574449
 20
-162.4748394038259
 30
0.0
  0
SEQEND
  5
8C
330
89
100
AcDbEntity
  8
_U+30EC_U+30A4_U+30E4_U+30FC 1
 62
   179
420
  2234388
370
    25
  0
POLYLINE
  5
8D
330
1F
100
AcDbEntity
  8
_U+30EC_U+30A4_U+30E4_U+30FC 1
 62
   179
420
  2234388
370
    25
100
AcDb2dPolyline
 66
     1
 10
0.0
 20
0.0
 30
0.0
  0
VERTEX
  5
8E
330
8D
100
AcDbEntity
  8
_U+30EC_U+30A4_U+30E4_U+30FC 1
 62
   179
420
  2234388
370
    25
100
AcDbVertex
100
AcDb2dVertex
 10
98.24652721574449
 20
-162.4748394038259
 30
0.0
  0
VERTEX
  5
8F
330
8D
100
AcDbEntity
  8
_U+30EC_U+30A4_U+30E4_U+30FC 1
 62
   179
420
  2234388
370
    25
100
AcDbVertex
100
AcDb2dVertex
 10
86.24640553399398
 20
-162.4748394038259
 30
0.0
  0
SEQEND
  5
90
330
8D
100
AcDbEntity
  8
_U+30EC_U+30A4_U+30E4_U+30FC 1
 62
   179
420
  2234388
370
    25
  0
POLYLINE
  5
91
330
1F
100
AcDbEntity
  8
_U+30EC_U+30A4_U+30E4_U+30FC 1
 62
   179
420
  2234388
370
    25
100
AcDb2dPolyline
 66
     1
 10
0.0
 20
0.0
 30
0.0
  0
VERTEX
  5
92
330
91
100
AcDbEntity
  8
_U+30EC_U+30A4_U+30E4_U+30FC 1
 62
   179
420
  2234388
370
    25
100
AcDbVertex
100
AcDb2dVertex
 10
86.24640553399398
 20
-147.4749046853535
 30
0.0
  0
VERTEX
  5
93
330
91
100
AcDbEntity
  8
_U+30EC_U+30A4_U+30E4_U+30FC 1
 62
   179
420
  2234388
370
    25
100
AcDbVertex
100
AcDb2dVertex
 10
86.24640553399398
 20
-162.4748394038259
 30
0.0
  0
SEQEND
  5
94
330
91
100
AcDbEntity
  8
_U+30EC_U+30A4_U+30E4_U+30FC 1
 62
   179
420
  2234388
370
    25
  0
SPLINE
  5
95
330
1F
100
AcDbEntity
  8
_U+30EC_U+30A4_U+30E4_U+30FC 1
 62
   179
420
  2234388
370
     9
100
AcDbSpline
210
0.0
220
0.0
230
1.0
 70
    11
 71
     3
 72
    17
 73
    13
 74
     0
 42
0.0000000001
 43
0.0000000001
 12
1.0
 22
0.0
 32
0.0
 13
1.0
 23
0.0
 33
0.0
 40
0.0
 40
0.0
 40
0.0
 40
0.0
 40
1.0
 40
1.0
 40
1.0
 40
2.0
 40
2.0
 40
2.0
 40
3.0
 40
3.0
 40
3.0
 40
4.0
 40
4.0
 40
4.0
 40
4.0
 10
97.94613694563031
 20
-93.47524553218659
 30
0.0
 10
97.94613694563031
 20
-93.42014164331167
 30
0.0
 10
97.9909044444882
 20
-93.37533886554495
 30
0.0
 10
98.04671388750883
 20
-93.37533886554495
 30
0.0
 10
98.10185553103035
 20
-93.37533886554495
 30
0.0
 10
98.14662055162665
 20
-93.42014164331167
 30
0.0
 10
98.14662055162665
 20
-93.47524553218659
 30
0.0
 10
98.14662055162665
 20
-93.53038469883967
 30
0.0
 10
98.10185553103035
 20
-93.57515219882855
 30
0.0
 10
98.04671388750883
 20
-93.57515219882855
 30
0.0
 10
97.9909044444882
 20
-93.57515219882855
 30
0.0
 10
97.94613694563031
 20
-93.53038469883967
 30
0.0
 10
97.94613694563031
 20
-93.47524553218659
 30
0.0
  0
SPLINE
  5
96
330
1F
100
AcDbEntity
  8
_U+30EC_U+30A4_U+30E4_U+30FC 1
 62
   179
420
  2234388
370
     9
100
AcDbSpline
210
0.0
220
0.0
230
1.0
 70
    11
 71
     3
 72
    17
 73
    13
 74
     0
 42
0.0000000001
 43
0.0000000001
 12
1.0
 22
0.0
 32
0.0
 13
1.0
 23
0.0
 33
0.0
 40
0.0
 40
0.0
 40
0.0
 40
0.0
 40
1.0
 40
1.0
 40
1.0
 40
2.0
 40
2.0
 40
2.0
 40
3.0
 40
3.0
 40
3.0
 40
4.0
 40
4.0
 40
4.0
 40
4.0
 10
99.14639274834256
 20
-93.47524553218659
 30
0.0
 10
99.14639274834256
 20
-93.42014164331167
 30
0.0
 10
99.19119552497733
 20
-93.37533886554495
 30
0.0
 10
99.2462994124604
 20
-93.37533886554495
 30
0.0
 10
99.30143857772035
 20
-93.37533886554495
 30
0.0
 10
99.34620607657824
 20
-93.42014164331167
 30
0.0
 10
99.34620607657824
 20
-93.47524553218659
 30
0.0
 10
99.34620607657824
 20
-93.53038469883967
 30
0.0
 10
99.30143857772035
 20
-93.57515219882855
 30
0.0
 10
99.2462994124604
 20
-93.57515219882855
 30
0.0
 10
99.19119552497733
 20
-93.57515219882855
 30
0.0
 10
99.14639274834256
 20
-93.53038469883967
 30
0.0
 10
99.14639274834256
 20
-93.47524553218659
 30
0.0
  0
SPLINE
  5
97
330
1F
100
AcDbEntity
  8
_U+30EC_U+30A4_U+30E4_U+30FC 1
 62
   179
420
  2234388
370
     9
100
AcDbSpline
210
0.0
220
0.0
230
1.0
 70
    11
 71
     3
 72
    17
 73
    13
 74
     0
 42
0.0000000001
 43
0.0000000001
 12
1.0
 22
0.0
 32
0.0
 13
1.0
 23
0.0
 33
0.0
 40
0.0
 40
0.0
 40
0.0
 40
0.0
 40
1.0
 40
1.0
 40
1.0
 40
2.0
 40
2.0
 40
2.0
 40
3.0
 40
3.0
 40
3.0
 40
4.0
 40
4.0
 40
4.0
 40
4.0
 10
103.1461518129669
 20
-97.47500469785348
 30
0.0
 10
103.1461518129669
 20
-97.41990080897824
 30
0.0
 10
103.1909545896016
 20
-97.37509803121183
 30
0.0
 10
103.2460610852993
 20
-97.37509803121183
 30
0.0
 10
103.3011976423447
 20
-97.37509803121183
 30
0.0
 10
103.3459651412026
 20
-97.41990080897824
 30
0.0
 10
103.3459651412026
 20
-97.47500469785348
 30
0.0
 10
103.3459651412026
 20
-97.53081414228392
 30
0.0
 10
103.3011976423447
 20
-97.57561692005063
 30
0.0
 10
103.2460610852993
 20
-97.57561692005063
 30
0.0
 10
103.1909545896016
 20
-97.57561692005063
 30
0.0
 10
103.1461518129669
 20
-97.53081414228392
 30
0.0
 10
103.1461518129669
 20
-97.47500469785348
 30
0.0
  0
SPLINE
  5
98
330
1F
100
AcDbEntity
  8
_U+30EC_U+30A4_U+30E4_U+30FC 1
 62
   179
420
  2234388
370
     9
100
AcDbSpline
210
0.0
220
0.0
230
1.0
 70
    11
 71
     3
 72
    17
 73
    13
 74
     0
 42
0.0000000001
 43
0.0000000001
 12
1.0
 22
0.0
 32
0.0
 13
1.0
 23
0.0
 33
0.0
 40
0.0
 40
0.0
 40
0.0
 40
0.0
 40
1.0
 40
1.0
 40
1.0
 40
2.0
 40
2.0
 40
2.0
 40
3.0
 40
3.0
 40
3.0
 40
4.0
 40
4.0
 40
4.0
 40
4.0
 10
81.14629720193555
 20
-138.4749085764923
 30
0.0
 10
81.14629720193555
 20
-138.4198046876174
 30
0.0
 10
81.19106265086565
 20
-138.3750019098507
 30
0.0
 10
81.24620181612559
 20
-138.3750019098507
 30
0.0
 10
81.30130570360866
 20
-138.3750019098507
 30
0.0
 10
81.34610848024343
 20
-138.4198046876174
 30
0.0
 10
81.34610848024343
 20
-138.4749085764923
 30
0.0
 10
81.34610848024343
 20
-138.5300477431454
 30
0.0
 10
81.30130570360866
 20
-138.5748152431339
 30
0.0
 10
81.24620181612559
 20
-138.5748152431339
 30
0.0
 10
81.19106265086565
 20
-138.5748152431339
 30
0.0
 10
81.14629720193555
 20
-138.5300477431454
 30
0.0
 10
81.14629720193555
 20
-138.4749085764923
 30
0.0
  0
SPLINE
  5
99
330
1F
100
AcDbEntity
  8
_U+30EC_U+30A4_U+30E4_U+30FC 1
 62
   179
420
  2234388
370
     9
100
AcDbSpline
210
0.0
220
0.0
230
1.0
 70
    11
 71
     3
 72
    17
 73
    13
 74
     0
 42
0.0000000001
 43
0.0000000001
 12
1.0
 22
0.0
 32
0.0
 13
1.0
 23
0.0
 33
0.0
 40
0.0
 40
0.0
 40
0.0
 40
0.0
 40
1.0
 40
1.0
 40
1.0
 40
2.0
 40
2.0
 40
2.0
 40
3.0
 40
3.0
 40
3.0
 40
4.0
 40
4.0
 40
4.0
 40
4.0
 10
85.14605421663207
 20
-134.4751846886036
 30
0.0
 10
85.14605421663207
 20
-134.4200455219505
 30
0.0
 10
85.19082171548996
 20
-134.3752780219619
 30
0.0
 10
85.24663331202176
 20
-134.3752780219619
 30
0.0
 10
85.30177032377054
 20
-134.3752780219619
 30
0.0
 10
85.34653782262842
 20
-134.4200455219505
 30
0.0
 10
85.34653782262842
 20
-134.4751846886036
 30
0.0
 10
85.34653782262842
 20
-134.5302885774785
 30
0.0
 10
85.30177032377054
 20
-134.5750913552452
 30
0.0
 10
85.24663331202176
 20
-134.5750913552452
 30
0.0
 10
85.19082171548996
 20
-134.5750913552452
 30
0.0
 10
85.14605421663207
 20
-134.5302885774785
 30
0.0
 10
85.14605421663207
 20
-134.4751846886036
 30
0.0
  0
SPLINE
  5
9A
330
1F
100
AcDbEntity
  8
_U+30EC_U+30A4_U+30E4_U+30FC 1
 62
   179
420
  2234388
370
     9
100
AcDbSpline
210
0.0
220
0.0
230
1.0
 70
    11
 71
     3
 72
    17
 73
    13
 74
     0
 42
0.0000000001
 43
0.0000000001
 12
1.0
 22
0.0
 32
0.0
 13
1.0
 23
0.0
 33
0.0
 40
0.0
 40
0.0
 40
0.0
 40
0.0
 40
1.0
 40
1.0
 40
1.0
 40
2.0
 40
2.0
 40
2.0
 40
3.0
 40
3.0
 40
3.0
 40
4.0
 40
4.0
 40
4.0
 40
4.0
 10
88.14639386230925
 20
-134.4751846886036
 30
0.0
 10
88.14639386230925
 20
-134.4200455219505
 30
0.0
 10
88.19116136116715
 20
-134.3752780219619
 30
0.0
 10
88.24661802641899
 20
-134.3752780219619
 30
0.0
 10
88.30175719167894
 20
-134.3752780219619
 30
0.0
 10
88.3465599683137
 20
-134.4200455219505
 30
0.0
 10
88.3465599683137
 20
-134.4751846886036
 30
0.0
 10
88.3465599683137
 20
-134.5302885774785
 30
0.0
 10
88.30175719167894
 20
-134.5750913552452
 30
0.0
 10
88.24661802641899
 20
-134.5750913552452
 30
0.0
 10
88.19116136116715
 20
-134.5750913552452
 30
0.0
 10
88.14639386230925
 20
-134.5302885774785
 30
0.0
 10
88.14639386230925
 20
-134.4751846886036
 30
0.0
  0
SPLINE
  5
9B
330
1F
100
AcDbEntity
  8
_U+30EC_U+30A4_U+30E4_U+30FC 1
 62
   179
420
  2234388
370
     9
100
AcDbSpline
210
0.0
220
0.0
230
1.0
 70
    11
 71
     3
 72
    17
 73
    13
 74
     0
 42
0.0000000001
 43
0.0000000001
 12
1.0
 22
0.0
 32
0.0
 13
1.0
 23
0.0
 33
0.0
 40
0.0
 40
0.0
 40
0.0
 40
0.0
 40
1.0
 40
1.0
 40
1.0
 40
2.0
 40
2.0
 40
2.0
 40
3.0
 40
3.0
 40
3.0
 40
4.0
 40
4.0
 40
4.0
 40
4.0
 10
97.94613694563031
 20
-134.4751846886036
 30
0.0
 10
97.94613694563031
 20
-134.4200455219505
 30
0.0
 10
97.9909044444882
 20
-134.3752780219619
 30
0.0
 10
98.04671388750883
 20
-134.3752780219619
 30
0.0
 10
98.10185553103035
 20
-134.3752780219619
 30
0.0
 10
98.14662055162665
 20
-134.4200455219505
 30
0.0
 10
98.14662055162665
 20
-134.4751846886036
 30
0.0
 10
98.14662055162665
 20
-134.5302885774785
 30
0.0
 10
98.10185553103035
 20
-134.5750913552452
 30
0.0
 10
98.04671388750883
 20
-134.5750913552452
 30
0.0
 10
97.9909044444882
 20
-134.5750913552452
 30
0.0
 10
97.94613694563031
 20
-134.5302885774785
 30
0.0
 10
97.94613694563031
 20
-134.4751846886036
 30
0.0
  0
SPLINE
  5
9C
330
1F
100
AcDbEntity
  8
_U+30EC_U+30A4_U+30E4_U+30FC 1
 62
   179
420
  2234388
370
     9
100
AcDbSpline
210
0.0
220
0.0
230
1.0
 70
    11
 71
     3
 72
    17
 73
    13
 74
     0
 42
0.0000000001
 43
0.0000000001
 12
1.0
 22
0.0
 32
0.0
 13
1.0
 23
0.0
 33
0.0
 40
0.0
 40
0.0
 40
0.0
 40
0.0
 40
1.0
 40
1.0
 40
1.0
 40
2.0
 40
2.0
 40
2.0
 40
3.0
 40
3.0
 40
3.0
 40
4.0
 40
4.0
 40
4.0
 40
4.0
 10
103.1461518129669
 20
-147.4749046853535
 30
0.0
 10
103.1461518129669
 20
-147.4197655187004
 30
0.0
 10
103.1909545896016
 20
-147.3749980187119
 30
0.0
 10
103.2460610852993
 20
-147.3749980187119
 30
0.0
 10
103.3011976423447
 20
-147.3749980187119
 30
0.0
 10
103.3459651412026
 20
-147.4197655187004
 30
0.0
 10
103.3459651412026
 20
-147.4749046853535
 30
0.0
 10
103.3459651412026
 20
-147.5307141297839
 30
0.0
 10
103.3011976423447
 20
-147.5748113519951
 30
0.0
 10
103.2460610852993
 20
-147.5748113519951
 30
0.0
 10
103.1909545896016
 20
-147.5748113519951
 30
0.0
 10
103.1461518129669
 20
-147.5307141297839
 30
0.0
 10
103.1461518129669
 20
-147.4749046853535
 30
0.0
  0
SPLINE
  5
9D
330
1F
100
AcDbEntity
  8
_U+30EC_U+30A4_U+30E4_U+30FC 1
 62
   179
420
  2234388
370
     9
100
AcDbSpline
210
0.0
220
0.0
230
1.0
 70
    11
 71
     3
 72
    17
 73
    13
 74
     0
 42
0.0000000001
 43
0.0000000001
 12
1.0
 22
0.0
 32
0.0
 13
1.0
 23
0.0
 33
0.0
 40
0.0
 40
0.0
 40
0.0
 40
0.0
 40
1.0
 40
1.0
 40
1.0
 40
2.0
 40
2.0
 40
2.0
 40
3.0
 40
3.0
 40
3.0
 40
4.0
 40
4.0
 40
4.0
 40
4.0
 10
99.14639274834256
 20
-167.4750410692426
 30
0.0
 10
99.14639274834256
 20
-167.4199371803671
 30
0.0
 10
99.19119552497733
 20
-167.3751344026004
 30
0.0
 10
99.2462994124604
 20
-167.3751344026004
 30
0.0
 10
99.30143857772035
 20
-167.3751344026004
 30
0.0
 10
99.34620607657824
 20
-167.4199371803671
 30
0.0
 10
99.34620607657824
 20
-167.4750410692426
 30
0.0
 10
99.34620607657824
 20
-167.5301802358951
 30
0.0
 10
99.30143857772035
 20
-167.5749477358843
 30
0.0
 10
99.2462994124604
 20
-167.5749477358843
 30
0.0
 10
99.19119552497733
 20
-167.5749477358843
 30
0.0
 10
99.14639274834256
 20
-167.5301802358951
 30
0.0
 10
99.14639274834256
 20
-167.4750410692426
 30
0.0
  0
SPLINE
  5
9E
330
1F
100
AcDbEntity
  8
_U+30EC_U+30A4_U+30E4_U+30FC 1
 62
   179
420
  2234388
370
     9
100
AcDbSpline
210
0.0
220
0.0
230
1.0
 70
    11
 71
     3
 72
    17
 73
    13
 74
     0
 42
0.0000000001
 43
0.0000000001
 12
1.0
 22
0.0
 32
0.0
 13
1.0
 23
0.0
 33
0.0
 40
0.0
 40
0.0
 40
0.0
 40
0.0
 40
1.0
 40
1.0
 40
1.0
 40
2.0
 40
2.0
 40
2.0
 40
3.0
 40
3.0
 40
3.0
 40
4.0
 40
4.0
 40
4.0
 40
4.0
 10
103.1461518129669
 20
-163.4752819035758
 30
0.0
 10
103.1461518129669
 20
-163.4194724591453
 30
0.0
 10
103.1909545896016
 20
-163.3753752369341
 30
0.0
 10
103.2460610852993
 20
-163.3753752369341
 30
0.0
 10
103.3011976423447
 20
-163.3753752369341
 30
0.0
 10
103.3459651412026
 20
-163.4194724591453
 30
0.0
 10
103.3459651412026
 20
-163.4752819035758
 30
0.0
 10
103.3459651412026
 20
-163.5304210702288
 30
0.0
 10
103.3011976423447
 20
-163.5751885702174
 30
0.0
 10
103.2460610852993
 20
-163.5751885702174
 30
0.0
 10
103.1909545896016
 20
-163.5751885702174
 30
0.0
 10
103.1461518129669
 20
-163.5304210702288
 30
0.0
 10
103.1461518129669
 20
-163.4752819035758
 30
0.0
  0
SPLINE
  5
9F
330
1F
100
AcDbEntity
  8
_U+30EC_U+30A4_U+30E4_U+30FC 1
 62
   179
420
  2234388
370
     9
100
AcDbSpline
210
0.0
220
0.0
230
1.0
 70
    11
 71
     3
 72
    17
 73
    13
 74
     0
 42
0.0000000001
 43
0.0000000001
 12
1.0
 22
0.0
 32
0.0
 13
1.0
 23
0.0
 33
0.0
 40
0.0
 40
0.0
 40
0.0
 40
0.0
 40
1.0
 40
1.0
 40
1.0
 40
2.0
 40
2.0
 40
2.0
 40
3.0
 40
3.0
 40
3.0
 40
4.0
 40
4.0
 40
4.0
 40
4.0
 10
103.1461518129669
 20
-160.4752949598814
 30
0.0
 10
103.1461518129669
 20
-160.419485515451
 30
0.0
 10
103.1909545896016
 20
-160.3747180154618
 30
0.0
 10
103.2460610852993
 20
-160.3747180154618
 30
0.0
 10
103.3011976423447
 20
-160.3747180154618
 30
0.0
 10
103.3459651412026
 20
-160.419485515451
 30
0.0
 10
103.3459651412026
 20
-160.4752949598814
 30
0.0
 10
103.3459651412026
 20
-160.5304341265338
 30
0.0
 10
103.3011976423447
 20
-160.575201626523
 30
0.0
 10
103.2460610852993
 20
-160.575201626523
 30
0.0
 10
103.1909545896016
 20
-160.575201626523
 30
0.0
 10
103.1461518129669
 20
-160.5304341265338
 30
0.0
 10
103.1461518129669
 20
-160.4752949598814
 30
0.0
  0
SPLINE
  5
A0
330
1F
100
AcDbEntity
  8
_U+30EC_U+30A4_U+30E4_U+30FC 1
 62
   179
420
  2234388
370
     9
100
AcDbSpline
210
0.0
220
0.0
230
1.0
 70
    11
 71
     3
 72
    17
 73
    13
 74
     0
 42
0.0000000001
 43
0.0000000001
 12
1.0
 22
0.0
 32
0.0
 13
1.0
 23
0.0
 33
0.0
 40
0.0
 40
0.0
 40
0.0
 40
0.0
 40
1.0
 40
1.0
 40
1.0
 40
2.0
 40
2.0
 40
2.0
 40
3.0
 40
3.0
 40
3.0
 40
4.0
 40
4.0
 40
4.0
 40
4.0
 10
81.14629720193555
 20
-163.4752819035758
 30
0.0
 10
81.14629720193555
 20
-163.4194724591453
 30
0.0
 10
81.19106265086565
 20
-163.3753752369341
 30
0.0
 10
81.24620181612559
 20
-163.3753752369341
 30
0.0
 10
81.30130570360866
 20
-163.3753752369341
 30
0.0
 10
81.34610848024343
 20
-163.4194724591453
 30
0.0
 10
81.34610848024343
 20
-163.4752819035758
 30
0.0
 10
81.34610848024343
 20
-163.5304210702288
 30
0.0
 10
81.30130570360866
 20
-163.5751885702174
 30
0.0
 10
81.24620181612559
 20
-163.5751885702174
 30
0.0
 10
81.19106265086565
 20
-163.5751885702174
 30
0.0
 10
81.14629720193555
 20
-163.5304210702288
 30
0.0
 10
81.14629720193555
 20
-163.4752819035758
 30
0.0
  0
SPLINE
  5
A1
330
1F
100
AcDbEntity
  8
_U+30EC_U+30A4_U+30E4_U+30FC 1
 62
   179
420
  2234388
370
     9
100
AcDbSpline
210
0.0
220
0.0
230
1.0
 70
    11
 71
     3
 72
    17
 73
    13
 74
     0
 42
0.0000000001
 43
0.0000000001
 12
1.0
 22
0.0
 32
0.0
 13
1.0
 23
0.0
 33
0.0
 40
0.0
 40
0.0
 40
0.0
 40
0.0
 40
1.0
 40
1.0
 40
1.0
 40
2.0
 40
2.0
 40
2.0
 40
3.0
 40
3.0
 40
3.0
 40
4.0
 40
4.0
 40
4.0
 40
4.0
 10
85.14605421663207
 20
-167.4750410692426
 30
0.0
 10
85.14605421663207
 20
-167.4199371803671
 30
0.0
 10
85.19082171548996
 20
-167.3751344026004
 30
0.0
 10
85.24663331202176
 20
-167.3751344026004
 30
0.0
 10
85.30177032377054
 20
-167.3751344026004
 30
0.0
 10
85.34653782262842
 20
-167.4199371803671
 30
0.0
 10
85.34653782262842
 20
-167.4750410692426
 30
0.0
 10
85.34653782262842
 20
-167.5301802358951
 30
0.0
 10
85.30177032377054
 20
-167.5749477358843
 30
0.0
 10
85.24663331202176
 20
-167.5749477358843
 30
0.0
 10
85.19082171548996
 20
-167.5749477358843
 30
0.0
 10
85.14605421663207
 20
-167.5301802358951
 30
0.0
 10
85.14605421663207
 20
-167.4750410692426
 30
0.0
  0
POLYLINE
  5
A2
330
1F
100
AcDbEntity
  8
_U+30EC_U+30A4_U+30E4_U+30FC 1
 62
   179
420
  2234388
370
     9
100
AcDb2dPolyline
 66
     1
 10
0.0
 20
0.0
 30
0.0
  0
VERTEX
  5
A3
330
A2
100
AcDbEntity
  8
_U+30EC_U+30A4_U+30E4_U+30FC 1
 62
   179
420
  2234388
370
     9
100
AcDbVertex
100
AcDb2dVertex
 10
99.2462994124604
 20
-93.47524553218659
 30
0.0
  0
VERTEX
  5
A4
330
A2
100
AcDbEntity
  8
_U+30EC_U+30A4_U+30E4_U+30FC 1
 62
   179
420
  2234388
370
     9
100
AcDbVertex
100
AcDb2dVertex
 10
104.5042051116534
 20
-93.47524553218659
 30
0.0
  0
SEQEND
  5
A5
330
A2
100
AcDbEntity
  8
_U+30EC_U+30A4_U+30E4_U+30FC 1
 62
   179
420
  2234388
370
     9
  0
POLYLINE
  5
A6
330
1F
100
AcDbEntity
  8
_U+30EC_U+30A4_U+30E4_U+30FC 1
 62
   179
420
  2234388
370
     9
100
AcDb2dPolyline
 66
     1
 10
0.0
 20
0.0
 30
0.0
  0
VERTEX
  5
A7
330
A6
100
AcDbEntity
  8
_U+30EC_U+30A4_U+30E4_U+30FC 1
 62
   179
420
  2234388
370
     9
100
AcDbVertex
100
AcDb2dVertex
 10
99.2462994124604
 20
-93.47524553218659
 30
0.0
  0
VERTEX
  5
A8
330
A6
100
AcDbEntity
  8
_U+30EC_U+30A4_U+30E4_U+30FC 1
 62
   179
420
  2234388
370
     9
100
AcDbVertex
100
AcDb2dVertex
 10
97.04627141303224
 20
-93.47524553218659
 30
0.0
  0
SEQEND
  5
A9
330
A6
100
AcDbEntity
  8
_U+30EC_U+30A4_U+30E4_U+30FC 1
 62
   179
420
  2234388
370
     9
  0
POLYLINE
  5
AA
330
1F
100
AcDbEntity
  8
_U+30EC_U+30A4_U+30E4_U+30FC 1
 62
   179
420
  2234388
370
     9
100
AcDb2dPolyline
 66
     1
 10
0.0
 20
0.0
 30
0.0
  0
VERTEX
  5
AB
330
AA
100
AcDbEntity
  8
_U+30EC_U+30A4_U+30E4_U+30FC 1
 62
   179
420
  2234388
370
     9
100
AcDbVertex
100
AcDb2dVertex
 10
99.2462994124604
 20
-94.93528692071062
 30
0.0
  0
VERTEX
  5
AC
330
AA
100
AcDbEntity
  8
_U+30EC_U+30A4_U+30E4_U+30FC 1
 62
   179
420
  2234388
370
     9
100
AcDbVertex
100
AcDb2dVertex
 10
99.2462994124604
 20
-92.47550858799221
 30
0.0
  0
SEQEND
  5
AD
330
AA
100
AcDbEntity
  8
_U+30EC_U+30A4_U+30E4_U+30FC 1
 62
   179
420
  2234388
370
     9
  0
POLYLINE
  5
AE
330
1F
100
AcDbEntity
  8
_U+30EC_U+30A4_U+30E4_U+30FC 1
 62
   179
420
  2234388
370
     9
100
AcDb2dPolyline
 66
     1
 10
0.0
 20
0.0
 30
0.0
  0
VERTEX
  5
AF
330
AE
100
AcDbEntity
  8
_U+30EC_U+30A4_U+30E4_U+30FC 1
 62
   179
420
  2234388
370
     9
100
AcDbVertex
100
AcDb2dVertex
 10
98.04671388750883
 20
-94.93528692071062
 30
0.0
  0
VERTEX
  5
B0
330
AE
100
AcDbEntity
  8
_U+30EC_U+30A4_U+30E4_U+30FC 1
 62
   179
420
  2234388
370
     9
100
AcDbVertex
100
AcDb2dVertex
 10
98.04671388750883
 20
-92.47550858799221
 30
0.0
  0
SEQEND
  5
B1
330
AE
100
AcDbEntity
  8
_U+30EC_U+30A4_U+30E4_U+30FC 1
 62
   179
420
  2234388
370
     9
  0
POLYLINE
  5
B2
330
1F
100
AcDbEntity
  8
_U+30EC_U+30A4_U+30E4_U+30FC 1
 62
   179
420
  2234388
370
     9
100
AcDb2dPolyline
 66
     1
 10
0.0
 20
0.0
 30
0.0
  0
VERTEX
  5
B3
330
B2
100
AcDbEntity
  8
_U+30EC_U+30A4_U+30E4_U+30FC 1
 62
   179
420
  2234388
370
     9
100
AcDbVertex
100
AcDb2dVertex
 10
88.24661802641899
 20
-134.4751846886036
 30
0.0
  0
VERTEX
  5
B4
330
B2
100
AcDbEntity
  8
_U+30EC_U+30A4_U+30E4_U+30FC 1
 62
   179
420
  2234388
370
     9
100
AcDbVertex
100
AcDb2dVertex
 10
85.24663331202176
 20
-134.4751846886036
 30
0.0
  0
SEQEND
  5
B5
330
B2
100
AcDbEntity
  8
_U+30EC_U+30A4_U+30E4_U+30FC 1
 62
   179
420
  2234388
370
     9
  0
POLYLINE
  5
B6
330
1F
100
AcDbEntity
  8
_U+30EC_U+30A4_U+30E4_U+30FC 1
 62
   179
420
  2234388
370
     9
100
AcDb2dPolyline
 66
     1
 10
0.0
 20
0.0
 30
0.0
  0
VERTEX
  5
B7
330
B6
100
AcDbEntity
  8
_U+30EC_U+30A4_U+30E4_U+30FC 1
 62
   179
420
  2234388
370
     9
100
AcDbVertex
100
AcDb2dVertex
 10
88.24661802641899
 20
-135.9351907993498
 30
0.0
  0
VERTEX
  5
B8
330
B6
100
AcDbEntity
  8
_U+30EC_U+30A4_U+30E4_U+30FC 1
 62
   179
420
  2234388
370
     9
100
AcDbVertex
100
AcDb2dVertex
 10
88.24661802641899
 20
-133.475412466631
 30
0.0
  0
SEQEND
  5
B9
330
B6
100
AcDbEntity
  8
_U+30EC_U+30A4_U+30E4_U+30FC 1
 62
   179
420
  2234388
370
     9
  0
POLYLINE
  5
BA
330
1F
100
AcDbEntity
  8
_U+30EC_U+30A4_U+30E4_U+30FC 1
 62
   179
420
  2234388
370
     9
100
AcDb2dPolyline
 66
     1
 10
0.0
 20
0.0
 30
0.0
  0
VERTEX
  5
BB
330
BA
100
AcDbEntity
  8
_U+30EC_U+30A4_U+30E4_U+30FC 1
 62
   179
420
  2234388
370
     9
100
AcDbVertex
100
AcDb2dVertex
 10
85.24663331202176
 20
-135.9351907993498
 30
0.0
  0
VERTEX
  5
BC
330
BA
100
AcDbEntity
  8
_U+30EC_U+30A4_U+30E4_U+30FC 1
 62
   179
420
  2234388
370
     9
100
AcDbVertex
100
AcDb2dVertex
 10
85.24663331202176
 20
-133.475412466631
 30
0.0
  0
SEQEND
  5
BD
330
BA
100
AcDbEntity
  8
_U+30EC_U+30A4_U+30E4_U+30FC 1
 62
   179
420
  2234388
370
     9
  0
POLYLINE
  5
BE
330
1F
100
AcDbEntity
  8
_U+30EC_U+30A4_U+30E4_U+30FC 1
 62
   179
420
  2234388
370
     9
100
AcDb2dPolyline
 66
     1
 10
0.0
 20
0.0
 30
0.0
  0
VERTEX
  5
BF
330
BE
100
AcDbEntity
  8
_U+30EC_U+30A4_U+30E4_U+30FC 1
 62
   179
420
  2234388
370
     9
100
AcDbVertex
100
AcDb2dVertex
 10
88.24661802641899
 20
-134.4751846886036
 30
0.0
  0
VERTEX
  5
C0
330
BE
100
AcDbEntity
  8
_U+30EC_U+30A4_U+30E4_U+30FC 1
 62
   179
420
  2234388
370
     9
100
AcDbVertex
100
AcDb2dVertex
 10
98.04671388750883
 20
-134.4751846886036
 30
0.0
  0
SEQEND
  5
C1
330
BE
100
AcDbEntity
  8
_U+30EC_U+30A4_U+30E4_U+30FC 1
 62
   179
420
  2234388
370
     9
  0
POLYLINE
  5
C2
330
1F
100
AcDbEntity
  8
_U+30EC_U+30A4_U+30E4_U+30FC 1
 62
   179
420
  2234388
370
     9
100
AcDb2dPolyline
 66
     1
 10
0.0
 20
0.0
 30
0.0
  0
VERTEX
  5
C3
330
C2
100
AcDbEntity
  8
_U+30EC_U+30A4_U+30E4_U+30FC 1
 62
   179
420
  2234388
370
     9
100
AcDbVertex
100
AcDb2dVertex
 10
99.2462994124604
 20
-167.4750410692426
 30
0.0
  0
VERTEX
  5
C4
330
C2
100
AcDbEntity
  8
_U+30EC_U+30A4_U+30E4_U+30FC 1
 62
   179
420
  2234388
370
     9
100
AcDbVertex
100
AcDb2dVertex
 10
85.24663331202176
 20
-167.4750410692426
 30
0.0
  0
SEQEND
  5
C5
330
C2
100
AcDbEntity
  8
_U+30EC_U+30A4_U+30E4_U+30FC 1
 62
   179
420
  2234388
370
     9
  0
POLYLINE
  5
C6
330
1F
100
AcDbEntity
  8
_U+30EC_U+30A4_U+30E4_U+30FC 1
 62
   179
420
  2234388
370
     9
100
AcDb2dPolyline
 66
     1
 10
0.0
 20
0.0
 30
0.0
  0
VERTEX
  5
C7
330
C6
100
AcDbEntity
  8
_U+30EC_U+30A4_U+30E4_U+30FC 1
 62
   179
420
  2234388
370
     9
100
AcDbVertex
100
AcDb2dVertex
 10
99.2462994124604
 20
-166.0150349584964
 30
0.0
  0
VERTEX
  5
C8
330
C6
100
AcDbEntity
  8
_U+30EC_U+30A4_U+30E4_U+30FC 1
 62
   179
420
  2234388
370
     9
100
AcDbVertex
100
AcDb2dVertex
 10
99.2462994124604
 20
-168.4748132912145
 30
0.0
  0
SEQEND
  5
C9
330
C6
100
AcDbEntity
  8
_U+30EC_U+30A4_U+30E4_U+30FC 1
 62
   179
420
  2234388
370
     9
  0
POLYLINE
  5
CA
330
1F
100
AcDbEntity
  8
_U+30EC_U+30A4_U+30E4_U+30FC 1
 62
   179
420
  2234388
370
     9
100
AcDb2dPolyline
 66
     1
 10
0.0
 20
0.0
 30
0.0
  0
VERTEX
  5
CB
330
CA
100
AcDbEntity
  8
_U+30EC_U+30A4_U+30E4_U+30FC 1
 62
   179
420
  2234388
370
     9
100
AcDbVertex
100
AcDb2dVertex
 10
85.24663331202176
 20
-166.0150349584964
 30
0.0
  0
VERTEX
  5
CC
330
CA
100
AcDbEntity
  8
_U+30EC_U+30A4_U+30E4_U+30FC 1
 62
   179
420
  2234388
370
     9
100
AcDbVertex
100
AcDb2dVertex
 10
85.24663331202176
 20
-168.4748132912145
 30
0.0
  0
SEQEND
  5
CD
330
CA
100
AcDbEntity
  8
_U+30EC_U+30A4_U+30E4_U+30FC 1
 62
   179
420
  2234388
370
     9
  0
POLYLINE
  5
CE
330
1F
100
AcDbEntity
  8
_U+30EC_U+30A4_U+30E4_U+30FC 1
 62
   179
420
  2234388
370
     9
100
AcDb2dPolyline
 66
     1
 10
0.0
 20
0.0
 30
0.0
  0
VERTEX
  5
CF
330
CE
100
AcDbEntity
  8
_U+30EC_U+30A4_U+30E4_U+30FC 1
 62
   179
420
  2234388
370
     9
100
AcDbVertex
100
AcDb2dVertex
 10
81.24620181612559
 20
-163.4752819035758
 30
0.0
  0
VERTEX
  5
D0
330
CE
100
AcDbEntity
  8
_U+30EC_U+30A4_U+30E4_U+30FC 1
 62
   179
420
  2234388
370
     9
100
AcDbVertex
100
AcDb2dVertex
 10
81.24620181612559
 20
-138.4749085764923
 30
0.0
  0
SEQEND
  5
D1
330
CE
100
AcDbEntity
  8
_U+30EC_U+30A4_U+30E4_U+30FC 1
 62
   179
420
  2234388
370
     9
  0
POLYLINE
  5
D2
330
1F
100
AcDbEntity
  8
_U+30EC_U+30A4_U+30E4_U+30FC 1
 62
   179
420
  2234388
370
     9
100
AcDb2dPolyline
 66
     1
 10
0.0
 20
0.0
 30
0.0
  0
VERTEX
  5
D3
330
D2
100
AcDbEntity
  8
_U+30EC_U+30A4_U+30E4_U+30FC 1
 62
   179
420
  2234388
370
     9
100
AcDbVertex
100
AcDb2dVertex
 10
82.70624316776573
 20
-163.4752819035758
 30
0.0
  0
VERTEX
  5
D4
330
D2
100
AcDbEntity
  8
_U+30EC_U+30A4_U+30E4_U+30FC 1
 62
   179
420
  2234388
370
     9
100
AcDbVertex
100
AcDb2dVertex
 10
80.24642961940968
 20
-163.4752819035758
 30
0.0
  0
SEQEND
  5
D5
330
D2
100
AcDbEntity
  8
_U+30EC_U+30A4_U+30E4_U+30FC 1
 62
   179
420
  2234388
370
     9
  0
POLYLINE
  5
D6
330
1F
100
AcDbEntity
  8
_U+30EC_U+30A4_U+30E4_U+30FC 1
 62
   179
420
  2234388
370
     9
100
AcDb2dPolyline
 66
     1
 10
0.0
 20
0.0
 30
0.0
  0
VERTEX
  5
D7
330
D6
100
AcDbEntity
  8
_U+30EC_U+30A4_U+30E4_U+30FC 1
 62
   179
420
  2234388
370
     9
100
AcDbVertex
100
AcDb2dVertex
 10
82.70624316776573
 20
-138.4749085764923
 30
0.0
  0
VERTEX
  5
D8
330
D6
100
AcDbEntity
  8
_U+30EC_U+30A4_U+30E4_U+30FC 1
 62
   179
420
  2234388
370
     9
100
AcDbVertex
100
AcDb2dVertex
 10
80.24642961940968
 20
-138.4749085764923
 30
0.0
  0
SEQEND
  5
D9
330
D6
100
AcDbEntity
  8
_U+30EC_U+30A4_U+30E4_U+30FC 1
 62
   179
420
  2234388
370
     9
  0
POLYLINE
  5
DA
330
1F
100
AcDbEntity
  8
_U+30EC_U+30A4_U+30E4_U+30FC 1
 62
   179
420
  2234388
370
     9
100
AcDb2dPolyline
 66
     1
 10
0.0
 20
0.0
 30
0.0
  0
VERTEX
  5
DB
330
DA
100
AcDbEntity
  8
_U+30EC_U+30A4_U+30E4_U+30FC 1
 62
   179
420
  2234388
370
     9
100
AcDbVertex
100
AcDb2dVertex
 10
103.2460610852993
 20
-160.4752949598814
 30
0.0
  0
VERTEX
  5
DC
330
DA
100
AcDbEntity
  8
_U+30EC_U+30A4_U+30E4_U+30FC 1
 62
   179
420
  2234388
370
     9
100
AcDbVertex
100
AcDb2dVertex
 10
103.2460610852993
 20
-163.4752819035758
 30
0.0
  0
SEQEND
  5
DD
330
DA
100
AcDbEntity
  8
_U+30EC_U+30A4_U+30E4_U+30FC 1
 62
   179
420
  2234388
370
     9
  0
POLYLINE
  5
DE
330
1F
100
AcDbEntity
  8
_U+30EC_U+30A4_U+30E4_U+30FC 1
 62
   179
420
  2234388
370
     9
100
AcDb2dPolyline
 66
     1
 10
0.0
 20
0.0
 30
0.0
  0
VERTEX
  5
DF
330
DE
100
AcDbEntity
  8
_U+30EC_U+30A4_U+30E4_U+30FC 1
 62
   179
420
  2234388
370
     9
100
AcDbVertex
100
AcDb2dVertex
 10
101.7860171254446
 20
-160.4752949598814
 30
0.0
  0
VERTEX
  5
E0
330
DE
100
AcDbEntity
  8
_U+30EC_U+30A4_U+30E4_U+30FC 1
 62
   179
420
  2234388
370
     9
100
AcDbVertex
100
AcDb2dVertex
 10
104.2465388628274
 20
-160.4752949598814
 30
0.0
  0
SEQEND
  5
E1
330
DE
100
AcDbEntity
  8
_U+30EC_U+30A4_U+30E4_U+30FC 1
 62
   179
420
  2234388
370
     9
  0
POLYLINE
  5
E2
330
1F
100
AcDbEntity
  8
_U+30EC_U+30A4_U+30E4_U+30FC 1
 62
   179
420
  2234388
370
     9
100
AcDb2dPolyline
 66
     1
 10
0.0
 20
0.0
 30
0.0
  0
VERTEX
  5
E3
330
E2
100
AcDbEntity
  8
_U+30EC_U+30A4_U+30E4_U+30FC 1
 62
   179
420
  2234388
370
     9
100
AcDbVertex
100
AcDb2dVertex
 10
101.7860171254446
 20
-163.4752819035758
 30
0.0
  0
VERTEX
  5
E4
330
E2
100
AcDbEntity
  8
_U+30EC_U+30A4_U+30E4_U+30FC 1
 62
   179
420
  2234388
370
     9
100
AcDbVertex
100
AcDb2dVertex
 10
104.2465388628274
 20
-163.4752819035758
 30
0.0
  0
SEQEND
  5
E5
330
E2
100
AcDbEntity
  8
_U+30EC_U+30A4_U+30E4_U+30FC 1
 62
   179
420
  2234388
370
     9
  0
POLYLINE
  5
E6
330
1F
100
AcDbEntity
  8
_U+30EC_U+30A4_U+30E4_U+30FC 1
 62
   179
420
  2234388
370
     9
100
AcDb2dPolyline
 66
     1
 10
0.0
 20
0.0
 30
0.0
  0
VERTEX
  5
E7
330
E6
100
AcDbEntity
  8
_U+30EC_U+30A4_U+30E4_U+30FC 1
 62
   179
420
  2234388
370
     9
100
AcDbVertex
100
AcDb2dVertex
 10
103.2460610852993
 20
-160.4752949598814
 30
0.0
  0
VERTEX
  5
E8
330
E6
100
AcDbEntity
  8
_U+30EC_U+30A4_U+30E4_U+30FC 1
 62
   179
420
  2234388
370
     9
100
AcDbVertex
100
AcDb2dVertex
 10
103.2460610852993
 20
-147.4749046853535
 30
0.0
  0
SEQEND
  5
E9
330
E6
100
AcDbEntity
  8
_U+30EC_U+30A4_U+30E4_U+30FC 1
 62
   179
420
  2234388
370
     9
  0
POLYLINE
  5
EA
330
1F
100
AcDbEntity
  8
_U+30EC_U+30A4_U+30E4_U+30FC 1
 62
   179
420
  2234388
370
     9
100
AcDb2dPolyline
 66
     1
 10
0.0
 20
0.0
 30
0.0
  0
VERTEX
  5
EB
330
EA
100
AcDbEntity
  8
_U+30EC_U+30A4_U+30E4_U+30FC 1
 62
   179
420
  2234388
370
     9
100
AcDbVertex
100
AcDb2dVertex
 10
101.7860171254446
 20
-147.4749046853535
 30
0.0
  0
VERTEX
  5
EC
330
EA
100
AcDbEntity
  8
_U+30EC_U+30A4_U+30E4_U+30FC 1
 62
   179
420
  2234388
370
     9
100
AcDbVertex
100
AcDb2dVertex
 10
104.2465388628274
 20
-147.4749046853535
 30
0.0
  0
SEQEND
  5
ED
330
EA
100
AcDbEntity
  8
_U+30EC_U+30A4_U+30E4_U+30FC 1
 62
   179
420
  2234388
370
     9
  0
POLYLINE
  5
EE
330
1F
100
AcDbEntity
  8
_U+30EC_U+30A4_U+30E4_U+30FC 1
 62
   179
420
  2234388
370
     9
100
AcDb2dPolyline
 66
     1
 10
0.0
 20
0.0
 30
0.0
  0
VERTEX
  5
EF
330
EE
100
AcDbEntity
  8
_U+30EC_U+30A4_U+30E4_U+30FC 1
 62
   179
420
  2234388
370
     9
100
AcDbVertex
100
AcDb2dVertex
 10
103.2460610852993
 20
-147.4749046853535
 30
0.0
  0
VERTEX
  5
F0
330
EE
100
AcDbEntity
  8
_U+30EC_U+30A4_U+30E4_U+30FC 1
 62
   179
420
  2234388
370
     9
100
AcDbVertex
100
AcDb2dVertex
 10
103.2460610852993
 20
-97.47500469785348
 30
0.0
  0
SEQEND
  5
F1
330
EE
100
AcDbEntity
  8
_U+30EC_U+30A4_U+30E4_U+30FC 1
 62
   179
420
  2234388
370
     9
  0
POLYLINE
  5
F2
330
1F
100
AcDbEntity
  8
_U+30EC_U+30A4_U+30E4_U+30FC 1
 62
   179
420
  2234388
370
     9
100
AcDb2dPolyline
 66
     1
 10
0.0
 20
0.0
 30
0.0
  0
VERTEX
  5
F3
330
F2
100
AcDbEntity
  8
_U+30EC_U+30A4_U+30E4_U+30FC 1
 62
   179
420
  2234388
370
     9
100
AcDbVertex
100
AcDb2dVertex
 10
101.7860171254446
 20
-97.47500469785348
 30
0.0
  0
VERTEX
  5
F4
330
F2
100
AcDbEntity
  8
_U+30EC_U+30A4_U+30E4_U+30FC 1
 62
   179
420
  2234388
370
     9
100
AcDbVertex
100
AcDb2dVertex
 10
104.2465388628274
 20
-97.47500469785348
 30
0.0
  0
SEQEND
  5
F5
330
F2
100
AcDbEntity
  8
_U+30EC_U+30A4_U+30E4_U+30FC 1
 62
   179
420
  2234388
370
     9
  0
INSERT
  5
F7
330
1F
100
AcDbEntity
  8
_U+30EC_U+30A4_U+30E4_U+30FC 1
100
AcDbBlockReference
  2
block 2
 10
0.0
 20
0.0
 30
0.0
  0
INSERT
  5
107
330
1F
100
AcDbEntity
  8
_U+30EC_U+30A4_U+30E4_U+30FC 1
100
AcDbBlockReference
  2
block 3
 10
0.0
 20
0.0
 30
0.0
  0
INSERT
  5
10D
330
1F
100
AcDbEntity
  8
_U+30EC_U+30A4_U+30E4_U+30FC 1
100
AcDbBlockReference
  2
block 4
 10
0.0
 20
0.0
 30
0.0
  0
INSERT
  5
120
330
1F
100
AcDbEntity
  8
_U+30EC_U+30A4_U+30E4_U+30FC 1
100
AcDbBlockReference
  2
block 5
 10
0.0
 20
0.0
 30
0.0
  0
INSERT
  5
13B
330
1F
100
AcDbEntity
  8
_U+30EC_U+30A4_U+30E4_U+30FC 1
100
AcDbBlockReference
  2
block 6
 10
0.0
 20
0.0
 30
0.0
  0
INSERT
  5
143
330
1F
100
AcDbEntity
  8
_U+30EC_U+30A4_U+30E4_U+30FC 1
100
AcDbBlockReference
  2
block 7
 10
0.0
 20
0.0
 30
0.0
  0
INSERT
  5
149
330
1F
100
AcDbEntity
  8
_U+30EC_U+30A4_U+30E4_U+30FC 1
100
AcDbBlockReference
  2
block 8
 10
0.0
 20
0.0
 30
0.0
  0
INSERT
  5
151
330
1F
100
AcDbEntity
  8
_U+30EC_U+30A4_U+30E4_U+30FC 1
100
AcDbBlockReference
  2
block 9
 10
0.0
 20
0.0
 30
0.0
  0
ENDSEC
  0
SECTION
  2
OBJECTS
  0
DICTIONARY
  5
C
330
0
100
AcDbDictionary
281
     1
  3
ACAD_GROUP
350
D
  3
ACAD_LAYOUT
350
1A
  3
ACAD_MATERIAL
350
3B
  3
ACAD_MLEADERSTYLE
350
15A
  3
ACAD_MLINESTYLE
350
17
  3
ACAD_PLOTSETTINGS
350
19
  3
ACAD_PLOTSTYLENAME
350
E
  3
ACAD_TABLESTYLE
350
159
  3
ACAD_VISUALSTYLE
350
2A
  0
SUN
  5
3F
330
29
100
AcDbSun
 90
        1
290
     0
 63
     7
421
 16777215
 40
1.0
291
     1
 91
  2455826
 92
 54000000
292
     0
 70
     2
 71
   256
280
     1
  0
DICTIONARY
  5
D
102
{ACAD_REACTORS
330
C
102
}
330
C
100
AcDbDictionary
281
     1
  0
DICTIONARY
  5
1A
102
{ACAD_REACTORS
330
C
102
}
330
C
100
AcDbDictionary
281
     1
  3
Layout1
350
1E
  3
Layout2
350
26
  3
Model
350
22
  0
DICTIONARY
  5
3B
102
{ACAD_REACTORS
330
C
102
}
330
C
100
AcDbDictionary
281
     1
  3
ByBlock
350
3D
  3
ByLayer
350
3C
  3
Global
350
3E
  0
DICTIONARY
  5
15A
102
{ACAD_REACTORS
330
C
102
}
330
C
100
AcDbDictionary
281
     1
  0
DICTIONARY
  5
17
102
{ACAD_REACTORS
330
C
102
}
330
C
100
AcDbDictionary
281
     1
  3
Standard
350
18
  0
DICTIONARY
  5
19
102
{ACAD_REACTORS
330
C
102
}
330
C
100
AcDbDictionary
281
     1
  0
ACDBDICTIONARYWDFLT
  5
E
102
{ACAD_REACTORS
330
C
102
}
330
C
100
AcDbDictionary
281
     1
  3
Normal
350
F
100
AcDbDictionaryWithDefault
340
F
  0
DICTIONARY
  5
159
102
{ACAD_REACTORS
330
C
102
}
330
C
100
AcDbDictionary
281
     1
  0
DICTIONARY
  5
2A
102
{ACAD_REACTORS
330
C
102
}
330
C
100
AcDbDictionary
281
     1
  3
2dWireframe
350
2F
  3
3D Hidden
350
31
  3
3dWireframe
350
30
  3
Basic
350
32
  3
Brighten
350
36
  3
ColorChange
350
3A
  3
Conceptual
350
34
  3
Dim
350
35
  3
Facepattern
350
39
  3
Flat
350
2B
  3
FlatWithEdges
350
2C
  3
Gouraud
350
2D
  3
GouraudWithEdges
350
2E
  3
Linepattern
350
38
  3
Realistic
350
33
  3
Thicken
350
37
  0
LAYOUT
  5
1E
102
{ACAD_REACTORS
330
1A
102
}
330
1A
100
AcDbPlotSettings
  1

  2
none_device
  4

  6

 40
0.0
 41
0.0
 42
0.0
 43
0.0
 44
0.0
 45
0.0
 46
0.0
 47
0.0
 48
0.0
 49
0.0
140
0.0
141
0.0
142
1.0
143
1.0
 70
   688
 72
     0
 73
     0
 74
     5
  7

 75
    16
 76
     0
 77
     2
 78
   300
147
1.0
148
0.0
149
0.0
100
AcDbLayout
  1
Layout1
 70
     1
 71
     1
 10
0.0
 20
0.0
 11
12.0
 21
9.0
 12
0.0
 22
0.0
 32
0.0
 14
1.000000000000000E+20
 24
1.000000000000000E+20
 34
1.000000000000000E+20
 15
-1.000000000000000E+20
 25
-1.000000000000000E+20
 35
-1.000000000000000E+20
146
0.0
 13
0.0
 23
0.0
 33
0.0
 16
1.0
 26
0.0
 36
0.0
 17
0.0
 27
1.0
 37
0.0
 76
     0
330
1B
  0
LAYOUT
  5
26
102
{ACAD_REACTORS
330
1A
102
}
330
1A
100
AcDbPlotSettings
  1

  2
none_device
  4

  6

 40
0.0
 41
0.0
 42
0.0
 43
0.0
 44
0.0
 45
0.0
 46
0.0
 47
0.0
 48
0.0
 49
0.0
140
0.0
141
0.0
142
1.0
143
1.0
 70
   688
 72
     0
 73
     0
 74
     5
  7

 75
    16
 76
     0
 77
     2
 78
   300
147
1.0
148
0.0
149
0.0
100
AcDbLayout
  1
Layout2
 70
     1
 71
     2
 10
0.0
 20
0.0
 11
0.0
 21
0.0
 12
0.0
 22
0.0
 32
0.0
 14
0.0
 24
0.0
 34
0.0
 15
0.0
 25
0.0
 35
0.0
146
0.0
 13
0.0
 23
0.0
 33
0.0
 16
1.0
 26
0.0
 36
0.0
 17
0.0
 27
1.0
 37
0.0
 76
     0
330
23
  0
LAYOUT
  5
22
102
{ACAD_REACTORS
330
1A
102
}
330
1A
100
AcDbPlotSettings
  1

  2
none_device
  4

  6

 40
0.0
 41
0.0
 42
0.0
 43
0.0
 44
0.0
 45
0.0
 46
0.0
 47
0.0
 48
0.0
 49
0.0
140
0.0
141
0.0
142
1.0
143
1.0
 70
  1712
 72
     0
 73
     0
 74
     0
  7

 75
     0
 76
     0
 77
     2
 78
   300
147
1.0
148
0.0
149
0.0
100
AcDbLayout
  1
Model
 70
     1
 71
     0
 10
0.0
 20
0.0
 11
12.0
 21
9.0
 12
0.0
 22
0.0
 32
0.0
 14
1.000000000000000E+20
 24
1.000000000000000E+20
 34
1.000000000000000E+20
 15
-1.000000000000000E+20
 25
-1.000000000000000E+20
 35
-1.000000000000000E+20
146
0.0
 13
0.0
 23
0.0
 33
0.0
 16
1.0
 26
0.0
 36
0.0
 17
0.0
 27
1.0
 37
0.0
 76
     0
330
1F
331
29
  0
MATERIAL
  5
3D
102
{ACAD_REACTORS
330
3B
102
}
330
3B
100
AcDbMaterial
  1
ByBlock
 72
     1
 94
      127
  0
MATERIAL
  5
3C
102
{ACAD_REACTORS
330
3B
102
}
330
3B
100
AcDbMaterial
  1
ByLayer
 72
     1
 94
      127
  0
MATERIAL
  5
3E
102
{ACAD_REACTORS
330
3B
102
}
330
3B
100
AcDbMaterial
  1
Global
 72
     1
 94
      127
  0
MLINESTYLE
  5
18
102
{ACAD_REACTORS
330
17
102
}
330
17
100
AcDbMlineStyle
  2
Standard
 70
     0
  3

 62
   256
 51
90.0
 52
90.0
 71
     2
 49
0.5
 62
   256
  6
BYLAYER
 49
-0.5
 62
   256
  6
BYLAYER
  0
ACDBPLACEHOLDER
  5
F
102
{ACAD_REACTORS
330
E
102
}
330
E
  0
VISUALSTYLE
  5
2F
102
{ACAD_REACTORS
330
2A
102
}
330
2A
100
AcDbVisualStyle
  2
2dWireframe
 70
     4
177
     2
291
     0
 71
     0
176
     1
 72
     2
176
     1
 73
     0
176
     1
 90
        0
176
     1
 40
-0.6
176
     1
 41
-30.0
176
     1
 62
     5
 63
     7
421
 16777215
176
     1
 74
     1
176
     1
 91
        4
176
     1
 64
     7
176
     1
 65
   257
176
     1
 75
     1
176
     1
175
     1
176
     1
 42
1.0
176
     1
 92
        0
176
     1
 66
   257
176
     1
 43
1.0
176
     1
 76
     1
176
     1
 77
     6
176
     1
 78
     2
176
     1
 67
     7
176
     1
 79
     5
176
     1
170
     0
176
     1
171
     0
176
     1
290
     0
176
     1
 93
        1
176
     1
 44
0.0
176
     1
173
     0
176
     1
  0
VISUALSTYLE
  5
31
102
{ACAD_REACTORS
330
2A
102
}
330
2A
100
AcDbVisualStyle
  2
3D Hidden
 70
     6
177
     2
291
     0
 71
     1
176
     1
 72
     2
176
     1
 73
     2
176
     1
 90
        0
176
     1
 40
-0.6
176
     1
 41
-30.0
176
     1
 62
     5
 63
     7
421
 16777215
176
     1
 74
     2
176
     1
 91
        2
176
     1
 64
     7
176
     1
 65
   257
176
     1
 75
     2
176
     1
175
     1
176
     1
 42
40.0
176
     1
 92
        0
176
     1
 66
   257
176
     1
 43
1.0
176
     1
 76
     1
176
     1
 77
     6
176
     1
 78
     2
176
     1
 67
     7
176
     1
 79
     3
176
     1
170
     0
176
     1
171
     0
176
     1
290
     0
176
     1
 93
        1
176
     1
 44
0.0
176
     1
173
     0
176
     1
  0
VISUALSTYLE
  5
30
102
{ACAD_REACTORS
330
2A
102
}
330
2A
100
AcDbVisualStyle
  2
3dWireframe
 70
     5
177
     2
291
     0
 71
     0
176
     1
 72
     2
176
     1
 73
     0
176
     1
 90
        0
176
     1
 40
-0.6
176
     1
 41
-30.0
176
     1
 62
     5
 63
     7
421
 16777215
176
     1
 74
     1
176
     1
 91
        4
176
     1
 64
     7
176
     1
 65
   257
176
     1
 75
     1
176
     1
175
     1
176
     1
 42
1.0
176
     1
 92
        0
176
     1
 66
   257
176
     1
 43
1.0
176
     1
 76
     1
176
     1
 77
     6
176
     1
 78
     2
176
     1
 67
     7
176
     1
 79
     5
176
     1
170
     0
176
     1
171
     0
176
     1
290
     0
176
     1
 93
        1
176
     1
 44
0.0
176
     1
173
     0
176
     1
  0
VISUALSTYLE
  5
32
102
{ACAD_REACTORS
330
2A
102
}
330
2A
100
AcDbVisualStyle
  2
Basic
 70
     7
177
     2
291
     1
 71
     1
176
     1
 72
     0
176
     1
 73
     1
176
     1
 90
        0
176
     1
 40
-0.6
176
     1
 41
-30.0
176
     1
 62
     5
 63
     7
421
 16777215
176
     1
 74
     0
176
     1
 91
        4
176
     1
 64
     7
176
     1
 65
   257
176
     1
 75
     1
176
     1
175
     1
176
     1
 42
1.0
176
     1
 92
        8
176
     1
 66
     7
176
     1
 43
1.0
176
     1
 76
     1
176
     1
 77
     6
176
     1
 78
     2
176
     1
 67
     7
176
     1
 79
     5
176
     1
170
     0
176
     1
171
     0
176
     1
290
     0
176
     1
 93
        1
176
     1
 44
0.0
176
     1
173
     0
176
     1
  0
VISUALSTYLE
  5
36
102
{ACAD_REACTORS
330
2A
102
}
330
2A
100
AcDbVisualStyle
  2
Brighten
 70
    12
177
     2
291
     1
 71
     2
176
     1
 72
     2
176
     1
 73
     0
176
     1
 90
        0
176
     1
 40
-0.6
176
     1
 41
-30.0
176
     1
 62
     5
 63
     7
421
 16777215
176
     1
 74
     1
176
     1
 91
        4
176
     1
 64
     7
176
     1
 65
   257
176
     1
 75
     1
176
     1
175
     1
176
     1
 42
1.0
176
     1
 92
        8
176
     1
 66
     7
176
     1
 43
1.0
176
     1
 76
     1
176
     1
 77
     6
176
     1
 78
     2
176
     1
 67
     7
176
     1
 79
     5
176
     1
170
     0
176
     1
171
     0
176
     1
290
     0
176
     1
 93
        1
176
     1
 44
50.0
176
     1
173
     0
176
     1
  0
VISUALSTYLE
  5
3A
102
{ACAD_REACTORS
330
2A
102
}
330
2A
100
AcDbVisualStyle
  2
ColorChange
 70
    16
177
     2
291
     1
 71
     2
176
     1
 72
     2
176
     1
 73
     3
176
     1
 90
        0
176
     1
 40
-0.6
176
     1
 41
-30.0
176
     1
 62
     5
 63
     8
421
  8421504
176
     1
 74
     1
176
     1
 91
        4
176
     1
 64
     7
176
     1
 65
   257
176
     1
 75
     1
176
     1
175
     1
176
     1
 42
1.0
176
     1
 92
        8
176
     1
 66
     8
424
  8421504
176
     1
 43
1.0
176
     1
 76
     1
176
     1
 77
     6
176
     1
 78
     2
176
     1
 67
     7
176
     1
 79
     5
176
     1
170
     0
176
     1
171
     0
176
     1
290
     0
176
     1
 93
        1
176
     1
 44
0.0
176
     1
173
     0
176
     1
  0
VISUALSTYLE
  5
34
102
{ACAD_REACTORS
330
2A
102
}
330
2A
100
AcDbVisualStyle
  2
Conceptual
 70
     9
177
     2
291
     0
 71
     3
176
     1
 72
     2
176
     1
 73
     0
176
     1
 90
        0
176
     1
 40
-0.6
176
     1
 41
-30.0
176
     1
 62
     5
 63
     7
421
 16777215
176
     1
 74
     2
176
     1
 91
        2
176
     1
 64
     7
176
     1
 65
   257
176
     1
 75
     1
176
     1
175
     1
176
     1
 42
40.0
176
     1
 92
        8
176
     1
 66
     7
176
     1
 43
1.0
176
     1
 76
     1
176
     1
 77
     6
176
     1
 78
     2
176
     1
 67
     7
176
     1
 79
     3
176
     1
170
     0
176
     1
171
     0
176
     1
290
     0
176
     1
 93
        1
176
     1
 44
0.0
176
     1
173
     0
176
     1
  0
VISUALSTYLE
  5
35
102
{ACAD_REACTORS
330
2A
102
}
330
2A
100
AcDbVisualStyle
  2
Dim
 70
    11
177
     2
291
     1
 71
     2
176
     1
 72
     2
176
     1
 73
     0
176
     1
 90
        0
176
     1
 40
-0.6
176
     1
 41
-30.0
176
     1
 62
     5
 63
     7
421
 16777215
176
     1
 74
     1
176
     1
 91
        4
176
     1
 64
     7
176
     1
 65
   257
176
     1
 75
     1
176
     1
175
     1
176
     1
 42
1.0
176
     1
 92
        8
176
     1
 66
     7
176
     1
 43
1.0
176
     1
 76
     1
176
     1
 77
     6
176
     1
 78
     2
176
     1
 67
     7
176
     1
 79
     5
176
     1
170
     0
176
     1
171
     0
176
     1
290
     0
176
     1
 93
        1
176
     1
 44
-50.0
176
     1
173
     0
176
     1
  0
VISUALSTYLE
  5
39
102
{ACAD_REACTORS
330
2A
102
}
330
2A
100
AcDbVisualStyle
  2
Facepattern
 70
    15
177
     2
291
     1
 71
     2
176
     1
 72
     2
176
     1
 73
     0
176
     1
 90
        0
176
     1
 40
-0.6
176
     1
 41
-30.0
176
     1
 62
     5
 63
     7
421
 16777215
176
     1
 74
     1
176
     1
 91
        4
176
     1
 64
     7
176
     1
 65
   257
176
     1
 75
     1
176
     1
175
     1
176
     1
 42
1.0
176
     1
 92
        8
176
     1
 66
     7
176
     1
 43
1.0
176
     1
 76
     1
176
     1
 77
     6
176
     1
 78
     2
176
     1
 67
     7
176
     1
 79
     5
176
     1
170
     0
176
     1
171
     0
176
     1
290
     0
176
     1
 93
        1
176
     1
 44
0.0
176
     1
173
     0
176
     1
  0
VISUALSTYLE
  5
2B
102
{ACAD_REACTORS
330
2A
102
}
330
2A
100
AcDbVisualStyle
  2
Flat
 70
     0
177
     2
291
     1
 71
     2
176
     1
 72
     1
176
     1
 73
     1
176
     1
 90
        2
176
     1
 40
-0.6
176
     1
 41
30.0
176
     1
 62
     5
 63
     7
421
 16777215
176
     1
 74
     0
176
     1
 91
        4
176
     1
 64
     7
176
     1
 65
   257
176
     1
 75
     1
176
     1
175
     1
176
     1
 42
1.0
176
     1
 92
        8
176
     1
 66
     7
176
     1
 43
1.0
176
     1
 76
     1
176
     1
 77
     6
176
     1
 78
     2
176
     1
 67
     7
176
     1
 79
     5
176
     1
170
     0
176
     1
171
     0
176
     1
290
     0
176
     1
 93
       13
176
     1
 44
0.0
176
     1
173
     0
176
     1
  0
VISUALSTYLE
  5
2C
102
{ACAD_REACTORS
330
2A
102
}
330
2A
100
AcDbVisualStyle
  2
FlatWithEdges
 70
     1
177
     2
291
     1
 71
     2
176
     1
 72
     1
176
     1
 73
     1
176
     1
 90
        2
176
     1
 40
-0.6
176
     1
 41
30.0
176
     1
 62
     5
 63
     7
421
 16777215
176
     1
 74
     1
176
     1
 91
        4
176
     1
 64
     7
176
     1
 65
   257
176
     1
 75
     1
176
     1
175
     1
176
     1
 42
1.0
176
     1
 92
        0
176
     1
 66
   257
176
     1
 43
1.0
176
     1
 76
     1
176
     1
 77
     6
176
     1
 78
     2
176
     1
 67
     7
176
     1
 79
     5
176
     1
170
     0
176
     1
171
     0
176
     1
290
     0
176
     1
 93
       13
176
     1
 44
0.0
176
     1
173
     0
176
     1
  0
VISUALSTYLE
  5
2D
102
{ACAD_REACTORS
330
2A
102
}
330
2A
100
AcDbVisualStyle
  2
Gouraud
 70
     2
177
     2
291
     1
 71
     2
176
     1
 72
     2
176
     1
 73
     1
176
     1
 90
        2
176
     1
 40
-0.6
176
     1
 41
30.0
176
     1
 62
     5
 63
     7
421
 16777215
176
     1
 74
     0
176
     1
 91
        4
176
     1
 64
     7
176
     1
 65
   257
176
     1
 75
     1
176
     1
175
     1
176
     1
 42
1.0
176
     1
 92
        0
176
     1
 66
     7
176
     1
 43
1.0
176
     1
 76
     1
176
     1
 77
     6
176
     1
 78
     2
176
     1
 67
     7
176
     1
 79
     5
176
     1
170
     0
176
     1
171
     0
176
     1
290
     0
176
     1
 93
       13
176
     1
 44
0.0
176
     1
173
     0
176
     1
  0
VISUALSTYLE
  5
2E
102
{ACAD_REACTORS
330
2A
102
}
330
2A
100
AcDbVisualStyle
  2
GouraudWithEdges
 70
     3
177
     2
291
     1
 71
     2
176
     1
 72
     2
176
     1
 73
     1
176
     1
 90
        2
176
     1
 40
-0.6
176
     1
 41
30.0
176
     1
 62
     5
 63
     7
421
 16777215
176
     1
 74
     1
176
     1
 91
        4
176
     1
 64
     7
176
     1
 65
   257
176
     1
 75
     1
176
     1
175
     1
176
     1
 42
1.0
176
     1
 92
        0
176
     1
 66
   257
176
     1
 43
1.0
176
     1
 76
     1
176
     1
 77
     6
176
     1
 78
     2
176
     1
 67
     7
176
     1
 79
     5
176
     1
170
     0
176
     1
171
     0
176
     1
290
     0
176
     1
 93
       13
176
     1
 44
0.0
176
     1
173
     0
176
     1
  0
VISUALSTYLE
  5
38
102
{ACAD_REACTORS
330
2A
102
}
330
2A
100
AcDbVisualStyle
  2
Linepattern
 70
    14
177
     2
291
     1
 71
     2
176
     1
 72
     2
176
     1
 73
     0
176
     1
 90
        0
176
     1
 40
-0.6
176
     1
 41
-30.0
176
     1
 62
     5
 63
     7
421
 16777215
176
     1
 74
     1
176
     1
 91
        4
176
     1
 64
     7
176
     1
 65
   257
176
     1
 75
     7
176
     1
175
     7
176
     1
 42
1.0
176
     1
 92
        8
176
     1
 66
     7
176
     1
 43
1.0
176
     1
 76
     1
176
     1
 77
     6
176
     1
 78
     2
176
     1
 67
     7
176
     1
 79
     5
176
     1
170
     0
176
     1
171
     0
176
     1
290
     0
176
     1
 93
        1
176
     1
 44
0.0
176
     1
173
     0
176
     1
  0
VISUALSTYLE
  5
33
102
{ACAD_REACTORS
330
2A
102
}
330
2A
100
AcDbVisualStyle
  2
Realistic
 70
     8
177
     2
291
     0
 71
     2
176
     1
 72
     2
176
     1
 73
     0
176
     1
 90
        0
176
     1
 40
-0.6
176
     1
 41
-30.0
176
     1
 62
     5
 63
     7
421
 16777215
176
     1
 74
     1
176
     1
 91
        0
176
     1
 64
     7
176
     1
 65
   257
176
     1
 75
     1
176
     1
175
     1
176
     1
 42
1.0
176
     1
 92
        8
176
     1
 66
     8
424
  7895160
176
     1
 43
1.0
176
     1
 76
     1
176
     1
 77
     6
176
     1
 78
     2
176
     1
 67
     7
176
     1
 79
     5
176
     1
170
     0
176
     1
171
     0
176
     1
290
     0
176
     1
 93
       13
176
     1
 44
0.0
176
     1
173
     0
176
     1
  0
VISUALSTYLE
  5
37
102
{ACAD_REACTORS
330
2A
102
}
330
2A
100
AcDbVisualStyle
  2
Thicken
 70
    13
177
     2
291
     1
 71
     2
176
     1
 72
     2
176
     1
 73
     0
176
     1
 90
        0
176
     1
 40
-0.6
176
     1
 41
-30.0
176
     1
 62
     5
 63
     7
421
 16777215
176
     1
 74
     1
176
     1
 91
        4
176
     1
 64
     7
176
     1
 65
   257
176
     1
 75
     1
176
     1
175
     1
176
     1
 42
1.0
176
     1
 92
       12
176
     1
 66
     7
176
     1
 43
1.0
176
     1
 76
     1
176
     1
 77
     6
176
     1
 78
     2
176
     1
 67
     7
176
     1
 79
     5
176
     1
170
     0
176
     1
171
     0
176
     1
290
     0
176
     1
 93
        1
176
     1
 44
0.0
176
     1
173
     0
176
     1
  0
ENDSEC
  0
EOF
