  0
SECTION
  2
HEADER
  9
$ACADVER
  1
AC1024
  9
$ACADMAINTVER
 70
     6
  9
$DWGCODEPAGE
  3
UNDEFINED
  9
$INSBASE
 10
0.0
 20
0.0
 30
0.0
  9
$EXTMIN
 10
1.000000000000000E+20
 20
1.000000000000000E+20
 30
1.000000000000000E+20
  9
$EXTMAX
 10
-1.000000000000000E+20
 20
-1.000000000000000E+20
 30
-1.000000000000000E+20
  9
$LIMMIN
 10
0.0
 20
0.0
  9
$LIMMAX
 10
12.0
 20
9.0
  9
$ORTHOMODE
 70
     0
  9
$REGENMODE
 70
     1
  9
$FILLMODE
 70
     1
  9
$QTEXTMODE
 70
     0
  9
$MIRRTEXT
 70
     1
  9
$LTSCALE
 40
1.0
  9
$ATTMODE
 70
     1
  9
$TEXTSIZE
 40
0.2
  9
$TRACEWID
 40
0.05
  9
$TEXTSTYLE
  7
Standard
  9
$CLAYER
  8
0
  9
$CELTYPE
  6
ByLayer
  9
$CECOLOR
 62
   256
  9
$CELTSCALE
 40
1.0
  9
$DISPSILH
 70
     0
  9
$DIMSCALE
 40
1.0
  9
$DIMASZ
 40
0.18
  9
$DIMEXO
 40
0.0625
  9
$DIMDLI
 40
0.38
  9
$DIMRND
 40
0.0
  9
$DIMDLE
 40
0.0
  9
$DIMEXE
 40
0.18
  9
$DIMTP
 40
0.0
  9
$DIMTM
 40
0.0
  9
$DIMTXT
 40
0.18
  9
$DIMCEN
 40
0.09
  9
$DIMTSZ
 40
0.0
  9
$DIMTOL
 70
     0
  9
$DIMLIM
 70
     0
  9
$DIMTIH
 70
     1
  9
$DIMTOH
 70
     1
  9
$DIMSE1
 70
     0
  9
$DIMSE2
 70
     0
  9
$DIMTAD
 70
     0
  9
$DIMZIN
 70
     0
  9
$DIMBLK
  1

  9
$DIMASO
 70
     1
  9
$DIMSHO
 70
     1
  9
$DIMPOST
  1

  9
$DIMAPOST
  1

  9
$DIMALT
 70
     0
  9
$DIMALTD
 70
     2
  9
$DIMALTF
 40
25.4
  9
$DIMLFAC
 40
1.0
  9
$DIMTOFL
 70
     0
  9
$DIMTVP
 40
0.0
  9
$DIMTIX
 70
     0
  9
$DIMSOXD
 70
     0
  9
$DIMSAH
 70
     0
  9
$DIMBLK1
  1

  9
$DIMBLK2
  1

  9
$DIMSTYLE
  2
Standard
  9
$DIMCLRD
 70
     0
  9
$DIMCLRE
 70
     0
  9
$DIMCLRT
 70
     0
  9
$DIMTFAC
 40
1.0
  9
$DIMGAP
 40
0.09
  9
$DIMJUST
 70
     0
  9
$DIMSD1
 70
     0
  9
$DIMSD2
 70
     0
  9
$DIMTOLJ
 70
     1
  9
$DIMTZIN
 70
     0
  9
$DIMALTZ
 70
     0
  9
$DIMALTTZ
 70
     0
  9
$DIMUPT
 70
     0
  9
$DIMDEC
 70
     4
  9
$DIMTDEC
 70
     4
  9
$DIMALTU
 70
     2
  9
$DIMALTTD
 70
     2
  9
$DIMTXSTY
  7
Standard
  9
$DIMAUNIT
 70
     0
  9
$DIMADEC
 70
     0
  9
$DIMALTRND
 40
0.0
  9
$DIMAZIN
 70
     0
  9
$DIMDSEP
 70
    46
  9
$DIMATFIT
 70
     3
  9
$DIMFRAC
 70
     0
  9
$DIMLDRBLK
  1

  9
$DIMLUNIT
 70
     2
  9
$DIMLWD
 70
    -2
  9
$DIMLWE
 70
    -2
  9
$DIMTMOVE
 70
     0
  9
$DIMFXL
 40
1.0
  9
$DIMFXLON
 70
     0
  9
$DIMJOGANG
 40
0.7853981633974483
  9
$DIMTFILL
 70
     0
  9
$DIMTFILLCLR
 70
     0
  9
$DIMARCSYM
 70
     0
  9
$DIMLTYPE
  6

  9
$DIMLTEX1
  6

  9
$DIMLTEX2
  6

  9
$DIMTXTDIRECTION
 70
     0
  9
$LUNITS
 70
     2
  9
$LUPREC
 70
     4
  9
$SKETCHINC
 40
0.1
  9
$FILLETRAD
 40
0.5
  9
$AUNITS
 70
     0
  9
$AUPREC
 70
     0
  9
$MENU
  1
.
  9
$ELEVATION
 40
0.0
  9
$PELEVATION
 40
0.0
  9
$THICKNESS
 40
0.0
  9
$LIMCHECK
 70
     0
  9
$CHAMFERA
 40
0.5
  9
$CHAMFERB
 40
0.5
  9
$CHAMFERC
 40
1.0
  9
$CHAMFERD
 40
0.0
  9
$SKPOLY
 70
     0
  9
$TDCREATE
 40
2457917.613587951
  9
$TDUCREATE
 40
2457917.238587963
  9
$TDUPDATE
 40
2457917.613599525
  9
$TDUUPDATE
 40
2457917.238599537
  9
$TDINDWG
 40
0.0000000116
  9
$TDUSRTIMER
 40
0.0000000116
  9
$USRTIMER
 70
     1
  9
$ANGBASE
 50
0.0
  9
$ANGDIR
 70
     0
  9
$PDMODE
 70
     0
  9
$PDSIZE
 40
0.0
  9
$PLINEWID
 40
0.0
  9
$SPLFRAME
 70
     0
  9
$SPLINETYPE
 70
     6
  9
$SPLINESEGS
 70
     8
  9
$HANDSEED
  5
15B
  9
$SURFTAB1
 70
     6
  9
$SURFTAB2
 70
     6
  9
$SURFTYPE
 70
     6
  9
$SURFU
 70
     6
  9
$SURFV
 70
     6
  9
$UCSBASE
  2

  9
$UCSNAME
  2

  9
$UCSORG
 10
0.0
 20
0.0
 30
0.0
  9
$UCSXDIR
 10
1.0
 20
0.0
 30
0.0
  9
$UCSYDIR
 10
0.0
 20
1.0
 30
0.0
  9
$UCSORTHOREF
  2

  9
$UCSORTHOVIEW
 70
     0
  9
$UCSORGTOP
 10
0.0
 20
0.0
 30
0.0
  9
$UCSORGBOTTOM
 10
0.0
 20
0.0
 30
0.0
  9
$UCSORGLEFT
 10
0.0
 20
0.0
 30
0.0
  9
$UCSORGRIGHT
 10
0.0
 20
0.0
 30
0.0
  9
$UCSORGFRONT
 10
0.0
 20
0.0
 30
0.0
  9
$UCSORGBACK
 10
0.0
 20
0.0
 30
0.0
  9
$PUCSBASE
  2

  9
$PUCSNAME
  2

  9
$PUCSORG
 10
0.0
 20
0.0
 30
0.0
  9
$PUCSXDIR
 10
1.0
 20
0.0
 30
0.0
  9
$PUCSYDIR
 10
0.0
 20
1.0
 30
0.0
  9
$PUCSORTHOREF
  2

  9
$PUCSORTHOVIEW
 70
     0
  9
$PUCSORGTOP
 10
0.0
 20
0.0
 30
0.0
  9
$PUCSORGBOTTOM
 10
0.0
 20
0.0
 30
0.0
  9
$PUCSORGLEFT
 10
0.0
 20
0.0
 30
0.0
  9
$PUCSORGRIGHT
 10
0.0
 20
0.0
 30
0.0
  9
$PUCSORGFRONT
 10
0.0
 20
0.0
 30
0.0
  9
$PUCSORGBACK
 10
0.0
 20
0.0
 30
0.0
  9
$USERI1
 70
     0
  9
$USERI2
 70
     0
  9
$USERI3
 70
     0
  9
$USERI4
 70
     0
  9
$USERI5
 70
     0
  9
$USERR1
 40
0.0
  9
$USERR2
 40
0.0
  9
$USERR3
 40
0.0
  9
$USERR4
 40
0.0
  9
$USERR5
 40
0.0
  9
$WORLDVIEW
 70
     1
  9
$SHADEDGE
 70
     3
  9
$SHADEDIF
 70
    70
  9
$TILEMODE
 70
     1
  9
$MAXACTVP
 70
    64
  9
$PINSBASE
 10
0.0
 20
0.0
 30
0.0
  9
$PLIMCHECK
 70
     0
  9
$PEXTMIN
 10
1.000000000000000E+20
 20
1.000000000000000E+20
 30
1.000000000000000E+20
  9
$PEXTMAX
 10
-1.000000000000000E+20
 20
-1.000000000000000E+20
 30
-1.000000000000000E+20
  9
$PLIMMIN
 10
0.0
 20
0.0
  9
$PLIMMAX
 10
12.0
 20
9.0
  9
$UNITMODE
 70
     0
  9
$VISRETAIN
 70
     1
  9
$PLINEGEN
 70
     0
  9
$PSLTSCALE
 70
     1
  9
$TREEDEPTH
 70
  3020
  9
$CMLSTYLE
  2
Standard
  9
$CMLJUST
 70
     0
  9
$CMLSCALE
 40
1.0
  9
$PROXYGRAPHICS
 70
     1
  9
$MEASUREMENT
 70
     0
  9
$CELWEIGHT
370
    -1
  9
$ENDCAPS
280
     0
  9
$JOINSTYLE
280
     0
  9
$LWDISPLAY
290
     1
  9
$INSUNITS
 70
     1
  9
$HYPERLINKBASE
  1

  9
$STYLESHEET
  1

  9
$XEDIT
290
     1
  9
$CEPSNTYPE
380
     0
  9
$PSTYLEMODE
290
     1
  9
$FINGERPRINTGUID
  2
{266936D2-A713-6263-3098-5202F2ACC8B8}
  9
$VERSIONGUID
  2
{FAEB1C32-E019-11D5-929B-00C0DF256EC4}
  9
$EXTNAMES
290
     1
  9
$PSVPSCALE
 40
0.0
  9
$OLESTARTUP
290
     0
  9
$SORTENTS
280
   127
  9
$INDEXCTL
280
     0
  9
$HIDETEXT
280
     1
  9
$XCLIPFRAME
280
     2
  9
$HALOGAP
280
     0
  9
$OBSCOLOR
 70
   257
  9
$OBSLTYPE
280
     0
  9
$INTERSECTIONDISPLAY
280
     0
  9
$INTERSECTIONCOLOR
 70
   257
  9
$DIMASSOC
280
     2
  9
$PROJECTNAME
  1

  9
$CAMERADISPLAY
290
     0
  9
$LENSLENGTH
 40
50.0
  9
$CAMERAHEIGHT
 40
0.0
  9
$STEPSPERSEC
 40
2.0
  9
$STEPSIZE
 40
6.0
  9
$3DDWFPREC
 40
2.0
  9
$PSOLWIDTH
 40
0.25
  9
$PSOLHEIGHT
 40
4.0
  9
$LOFTANG1
 40
1.570796326794897
  9
$LOFTANG2
 40
1.570796326794897
  9
$LOFTMAG1
 40
0.0
  9
$LOFTMAG2
 40
0.0
  9
$LOFTPARAM
 70
     7
  9
$LOFTNORMALS
280
     1
  9
$LATITUDE
 40
37.795
  9
$LONGITUDE
 40
-122.394
  9
$NORTHDIRECTION
 40
0.0
  9
$TIMEZONE
 70
 -8000
  9
$LIGHTGLYPHDISPLAY
280
     1
  9
$TILEMODELIGHTSYNCH
280
     1
  9
$CMATERIAL
347
3C
  9
$SOLIDHIST
280
     1
  9
$SHOWHIST
280
     1
  9
$DWFFRAME
280
     2
  9
$DGNFRAME
280
     2
  9
$REALWORLDSCALE
290
     1
  9
$INTERFERECOLOR
 62
   256
  9
$CSHADOW
280
     0
  9
$SHADOWPLANELOCATION
 40
0.0
  0
ENDSEC
  0
SECTION
  2
CLASSES
  0
CLASS
  1
ACDBDICTIONARYWDFLT
  2
AcDbDictionaryWithDefault
  3
ObjectDBX Classes
 90
        0
 91
        4
280
     0
281
     0
  0
CLASS
  1
VISUALSTYLE
  2
AcDbVisualStyle
  3
ObjectDBX Classes
 90
     4095
 91
        4
280
     0
281
     0
  0
CLASS
  1
MATERIAL
  2
AcDbMaterial
  3
ObjectDBX Classes
 90
     1153
 91
        4
280
     0
281
     0
  0
CLASS
  1
SUN
  2
AcDbSun
  3
SCENEOE
 90
     1024
 91
        4
280
     0
281
     0
  0
ENDSEC
  0
SECTION
  2
TABLES
  0
TABLE
  2
VPORT
  5
8
330
0
100
AcDbSymbolTable
 70
     1
  0
VPORT
  5
29
330
8
100
AcDbSymbolTableRecord
100
AcDbViewportTableRecord
  2
*Active
 70
     0
 10
0.0
 20
0.0
 11
1.0
 21
1.0
 12
0.0
 22
0.0
 13
0.0
 23
0.0
 14
0.5
 24
0.5
 15
0.5
 25
0.5
 16
0.0
 26
0.0
 36
1.0
 17
91.00082462281999
 27
-128.4993055234307
 37
0.0
 40
256.9986110468615
 41
0.7081814508812795
 42
50.0
 43
0.0
 44
0.0
 50
0.0
 51
0.0
 71
     0
 72
   100
 73
     1
 74
     3
 75
     0
 76
     0
 77
     0
 78
     0
281
     0
 65
     1
110
0.0
120
0.0
130
0.0
111
1.0
121
0.0
131
0.0
112
0.0
122
1.0
132
0.0
 79
     0
146
0.0
 60
     3
 61
     5
292
     1
282
     1
141
0.0
142
0.0
 63
   250
361
3F
  0
ENDTAB
  0
TABLE
  2
LTYPE
  5
5
330
0
100
AcDbSymbolTable
 70
     1
  0
LTYPE
  5
14
330
5
100
AcDbSymbolTableRecord
100
AcDbLinetypeTableRecord
  2
ByBlock
 70
     0
  3

 72
    65
 73
     0
 40
0.0
  0
LTYPE
  5
15
330
5
100
AcDbSymbolTableRecord
100
AcDbLinetypeTableRecord
  2
ByLayer
 70
     0
  3

 72
    65
 73
     0
 40
0.0
  0
LTYPE
  5
16
330
5
100
AcDbSymbolTableRecord
100
AcDbLinetypeTableRecord
  2
Continuous
 70
     0
  3
Solid line
 72
    65
 73
     0
 40
0.0
  0
ENDTAB
  0
TABLE
  2
LAYER
  5
2
330
0
100
AcDbSymbolTable
 70
     2
  0
LAYER
  5
10
330
2
100
AcDbSymbolTableRecord
100
AcDbLayerTableRecord
  2
0
 70
     0
 62
     7
  6
Continuous
370
    -3
390
F
347
3E
  0
LAYER
  5
40
330
2
100
AcDbSymbolTableRecord
100
AcDbLayerTableRecord
  2
_U+30EC_U+30A4_U+30E4_U+30FC 1
 70
     0
 62
     7
  6
Continuous
370
    -3
390
F
347
3E
  0
ENDTAB
  0
TABLE
  2
STYLE
  5
3
330
0
100
AcDbSymbolTable
 70
     1
  0
STYLE
  5
11
330
3
100
AcDbSymbolTableRecord
100
AcDbTextStyleTableRecord
  2
Standard
 70
     0
 40
0.0
 41
1.0
 50
0.0
 71
     0
 42
0.2
  3
txt
  4

  0
ENDTAB
  0
TABLE
  2
VIEW
  5
6
330
0
100
AcDbSymbolTable
 70
     0
  0
ENDTAB
  0
TABLE
  2
UCS
  5
7
330
0
100
AcDbSymbolTable
 70
     0
  0
ENDTAB
  0
TABLE
  2
APPID
  5
9
330
0
100
AcDbSymbolTable
 70
     1
  0
APPID
  5
12
330
9
100
AcDbSymbolTableRecord
100
AcDbRegAppTableRecord
  2
ACAD
 70
     0
  0
ENDTAB
  0
TABLE
  2
DIMSTYLE
  5
A
330
0
100
AcDbSymbolTable
 70
     1
100
AcDbDimStyleTable
  0
DIMSTYLE
105
27
330
A
100
AcDbSymbolTableRecord
100
AcDbDimStyleTableRecord
  2
Standard
 70
     0
178
     0
340
11
  0
ENDTAB
  0
TABLE
  2
BLOCK_RECORD
  5
1
330
0
100
AcDbSymbolTable
 70
     9
  0
BLOCK_RECORD
  5
1F
330
1
100
AcDbSymbolTableRecord
100
AcDbBlockTableRecord
  2
*Model_Space
340
22
 70
     0
280
     1
281
     0
  0
BLOCK_RECORD
  5
1B
330
1
100
AcDbSymbolTableRecord
100
AcDbBlockTableRecord
  2
*Paper_Space
340
1E
 70
     0
280
     1
281
     0
  0
BLOCK_RECORD
  5
23
330
1
100
AcDbSymbolTableRecord
100
AcDbBlockTableRecord
  2
*Paper_Space0
340
26
 70
     0
280
     1
281
     0
  0
BLOCK_RECORD
  5
F6
330
1
100
AcDbSymbolTableRecord
100
AcDbBlockTableRecord
  2
block 2
340
0
102
{BLKREFS
331
F7
102
}
 70
     0
280
     1
281
     0
  0
BLOCK_RECORD
  5
106
330
1
100
AcDbSymbolTableRecord
100
AcDbBlockTableRecord
  2
block 3
340
0
102
{BLKREFS
331
107
102
}
 70
     0
280
     1
281
     0
  0
BLOCK_RECORD
  5
11A
330
1
100
AcDbSymbolTableRecord
100
AcDbBlockTableRecord
  2
block 4
340
0
102
{BLKREFS
331
11B
102
}
 70
     0
280
     1
281
     0
  0
BLOCK_RECORD
  5
122
330
1
100
AcDbSymbolTableRecord
100
AcDbBlockTableRecord
  2
block 5
340
0
102
{BLKREFS
331
123
102
}
 70
     0
280
     1
281
     0
  0
BLOCK_RECORD
  5
128
330
1
100
AcDbSymbolTableRecord
100
AcDbBlockTableRecord
  2
block 6
340
0
102
{BLKREFS
331
129
102
}
 70
     0
280
     1
281
     0
  0
BLOCK_RECORD
  5
130
330
1
100
AcDbSymbolTableRecord
100
AcDbBlockTableRecord
  2
block 7
340
0
102
{BLKREFS
331
131
102
}
 70
     0
280
     1
281
     0
  0
BLOCK_RECORD
  5
149
330
1
100
AcDbSymbolTableRecord
100
AcDbBlockTableRecord
  2
block 8
340
0
102
{BLKREFS
331
14A
102
}
 70
     0
280
     1
281
     0
  0
BLOCK_RECORD
  5
151
330
1
100
AcDbSymbolTableRecord
100
AcDbBlockTableRecord
  2
block 9
340
0
102
{BLKREFS
331
152
102
}
 70
     0
280
     1
281
     0
  0
ENDTAB
  0
ENDSEC
  0
SECTION
  2
BLOCKS
  0
BLOCK
  5
20
330
1F
100
AcDbEntity
  8
0
100
AcDbBlockBegin
  2
*Model_Space
 70
     0
 10
0.0
 20
0.0
 30
0.0
  3
*Model_Space
  1

  0
ENDBLK
  5
21
330
1F
100
AcDbEntity
  8
0
100
AcDbBlockEnd
  0
BLOCK
  5
1C
330
1B
100
AcDbEntity
 67
     1
  8
0
100
AcDbBlockBegin
  2
*Paper_Space
 70
     0
 10
0.0
 20
0.0
 30
0.0
  3
*Paper_Space
  1

  0
ENDBLK
  5
1D
330
1B
100
AcDbEntity
 67
     1
  8
0
100
AcDbBlockEnd
  0
BLOCK
  5
24
330
23
100
AcDbEntity
  8
0
100
AcDbBlockBegin
  2
*Paper_Space0
 70
     0
 10
0.0
 20
0.0
 30
0.0
  3
*Paper_Space0
  1

  0
ENDBLK
  5
25
330
23
100
AcDbEntity
  8
0
100
AcDbBlockEnd
  0
BLOCK
  5
F8
330
F6
100
AcDbEntity
  8
0
100
AcDbBlockBegin
  2
block 2
 70
     0
 10
0.0
 20
0.0
 30
0.0
  3
block 2
  1

  0
SPLINE
  5
FA
330
F6
100
AcDbEntity
  8
_U+30EC_U+30A4_U+30E4_U+30FC 1
370
     0
100
AcDbSpline
210
0.0
220
0.0
230
1.0
 70
    11
 71
     3
 72
    26
 73
    22
 74
     0
 42
0.0000000001
 43
0.0000000001
 12
1.0
 22
0.0
 32
0.0
 13
1.0
 23
0.0
 33
0.0
 40
0.0
 40
0.0
 40
0.0
 40
0.0
 40
1.0
 40
1.0
 40
1.0
 40
2.0
 40
2.0
 40
2.0
 40
3.0
 40
3.0
 40
3.0
 40
4.0
 40
4.0
 40
4.0
 40
5.0
 40
5.0
 40
5.0
 40
6.0
 40
6.0
 40
6.0
 40
7.0
 40
7.0
 40
7.0
 40
7.0
 10
96.4123751929108
 20
-85.47919241569618
 30
0.0
 10
96.4123751929108
 20
-85.47919241569618
 30
0.0
 10
96.4123751929108
 20
-84.37486705789934
 30
0.0
 10
96.4123751929108
 20
-84.37486705789934
 30
0.0
 10
96.4123751929108
 20
-84.37486705789934
 30
0.0
 10
96.12092011485866
 20
-84.37486705789934
 30
0.0
 10
96.12092011485866
 20
-84.37486705789934
 30
0.0
 10
96.12092011485866
 20
-84.37486705789934
 30
0.0
 10
96.12092011485866
 20
-84.22690020680787
 30
0.0
 10
96.12092011485866
 20
-84.22690020680787
 30
0.0
 10
96.41409774065342
 20
-84.21208629622129
 30
0.0
 10
96.4550943769279
 20
-84.04913327976897
 30
0.0
 10
96.48127710261579
 20
-83.93492836443293
 30
0.0
 10
96.48127710261579
 20
-83.93492836443293
 30
0.0
 10
96.61012367376414
 20
-83.93492836443293
 30
0.0
 10
96.61012367376414
 20
-83.93492836443293
 30
0.0
 10
96.61012367376414
 20
-83.93492836443293
 30
0.0
 10
96.61012367376414
 20
-85.47919241569618
 30
0.0
 10
96.61012367376414
 20
-85.47919241569618
 30
0.0
 10
96.61012367376414
 20
-85.47919241569618
 30
0.0
 10
96.4123751929108
 20
-85.47919241569618
 30
0.0
 10
96.4123751929108
 20
-85.47919241569618
 30
0.0
  0
HATCH
  5
FB
330
F6
100
AcDbEntity
  8
_U+30EC_U+30A4_U+30E4_U+30FC 1
 62
   179
420
  2234388
100
AcDbHatch
 10
0.0
 20
0.0
 30
0.0
210
0.0
220
0.0
230
1.0
  2
SOLID
 70
     1
 71
     0
 91
        1
 92
        1
 93
        1
 72
     4
 94
        3
 73
     0
 74
     1
 95
       26
 96
       22
 40
0.0
 40
0.0
 40
0.0
 40
0.0
 40
1.0
 40
1.0
 40
1.0
 40
2.0
 40
2.0
 40
2.0
 40
3.0
 40
3.0
 40
3.0
 40
4.0
 40
4.0
 40
4.0
 40
5.0
 40
5.0
 40
5.0
 40
6.0
 40
6.0
 40
6.0
 40
7.0
 40
7.0
 40
7.0
 40
7.0
 10
96.4123751929108
 20
-85.47919241569618
 10
96.4123751929108
 20
-85.47919241569618
 10
96.4123751929108
 20
-84.37486705789934
 10
96.4123751929108
 20
-84.37486705789934
 10
96.4123751929108
 20
-84.37486705789934
 10
96.12092011485866
 20
-84.37486705789934
 10
96.12092011485866
 20
-84.37486705789934
 10
96.12092011485866
 20
-84.37486705789934
 10
96.12092011485866
 20
-84.22690020680787
 10
96.12092011485866
 20
-84.22690020680787
 10
96.41409774065342
 20
-84.21208629622129
 10
96.4550943769279
 20
-84.04913327976897
 10
96.48127710261579
 20
-83.93492836443293
 10
96.48127710261579
 20
-83.93492836443293
 10
96.61012367376414
 20
-83.93492836443293
 10
96.61012367376414
 20
-83.93492836443293
 10
96.61012367376414
 20
-83.93492836443293
 10
96.61012367376414
 20
-85.47919241569618
 10
96.61012367376414
 20
-85.47919241569618
 10
96.61012367376414
 20
-85.47919241569618
 10
96.4123751929108
 20
-85.47919241569618
 10
96.4123751929108
 20
-85.47919241569618
 97
        0
 97
        0
 75
     2
 76
     1
 98
        0
  0
POLYLINE
  5
FC
330
F6
100
AcDbEntity
  8
_U+30EC_U+30A4_U+30E4_U+30FC 1
370
     0
100
AcDb2dPolyline
 66
     1
 10
0.0
 20
0.0
 30
0.0
  0
VERTEX
  5
FD
330
FC
100
AcDbEntity
  8
_U+30EC_U+30A4_U+30E4_U+30FC 1
370
     0
100
AcDbVertex
100
AcDb2dVertex
 10
97.10621742364012
 20
-85.47919241569618
 30
0.0
  0
VERTEX
  5
FE
330
FC
100
AcDbEntity
  8
_U+30EC_U+30A4_U+30E4_U+30FC 1
370
     0
100
AcDbVertex
100
AcDb2dVertex
 10
97.10621742364012
 20
-85.22752819049867
 30
0.0
  0
VERTEX
  5
FF
330
FC
100
AcDbEntity
  8
_U+30EC_U+30A4_U+30E4_U+30FC 1
370
     0
100
AcDbVertex
100
AcDb2dVertex
 10
97.32877059198725
 20
-85.22752819049867
 30
0.0
  0
VERTEX
  5
100
330
FC
100
AcDbEntity
  8
_U+30EC_U+30A4_U+30E4_U+30FC 1
370
     0
100
AcDbVertex
100
AcDb2dVertex
 10
97.32877059198725
 20
-85.47919241569618
 30
0.0
  0
VERTEX
  5
101
330
FC
100
AcDbEntity
  8
_U+30EC_U+30A4_U+30E4_U+30FC 1
370
     0
100
AcDbVertex
100
AcDb2dVertex
 10
97.10621742364012
 20
-85.47919241569618
 30
0.0
  0
SEQEND
  5
102
330
FC
100
AcDbEntity
  8
_U+30EC_U+30A4_U+30E4_U+30FC 1
370
     0
  0
HATCH
  5
103
330
F6
100
AcDbEntity
  8
_U+30EC_U+30A4_U+30E4_U+30FC 1
 62
   179
420
  2234388
100
AcDbHatch
 10
0.0
 20
0.0
 30
0.0
210
0.0
220
0.0
230
1.0
  2
SOLID
 70
     1
 71
     0
 91
        1
 92
        1
 93
        4
 72
     1
 10
97.10621742364012
 20
-85.47919241569618
 11
97.10621742364012
 21
-85.22752819049867
 72
     1
 10
97.10621742364012
 20
-85.22752819049867
 11
97.32877059198725
 21
-85.22752819049867
 72
     1
 10
97.32877059198725
 20
-85.22752819049867
 11
97.32877059198725
 21
-85.47919241569618
 72
     1
 10
97.32877059198725
 20
-85.47919241569618
 11
97.10621742364012
 21
-85.47919241569618
 97
        0
 75
     2
 76
     1
 98
        0
  0
SPLINE
  5
104
330
F6
100
AcDbEntity
  8
_U+30EC_U+30A4_U+30E4_U+30FC 1
370
     0
100
AcDbSpline
210
0.0
220
0.0
230
1.0
 70
    11
 71
     3
 72
    44
 73
    40
 74
     0
 42
0.0000000001
 43
0.0000000001
 12
1.0
 22
0.0
 32
0.0
 13
1.0
 23
0.0
 33
0.0
 40
0.0
 40
0.0
 40
0.0
 40
0.0
 40
1.0
 40
1.0
 40
1.0
 40
2.0
 40
2.0
 40
2.0
 40
3.0
 40
3.0
 40
3.0
 40
4.0
 40
4.0
 40
4.0
 40
5.0
 40
5.0
 40
5.0
 40
6.0
 40
6.0
 40
6.0
 40
7.0
 40
7.0
 40
7.0
 40
8.0
 40
8.0
 40
8.0
 40
9.0
 40
9.0
 40
9.0
 40
10.0
 40
10.0
 40
10.0
 40
11.0
 40
11.0
 40
11.0
 40
12.0
 40
12.0
 40
12.0
 40
13.0
 40
13.0
 40
13.0
 40
13.0
 10
98.0615424016999
 20
-84.89748804301175
 30
0.0
 10
97.86896156407443
 20
-85.0561346901075
 30
0.0
 10
97.78696829152548
 20
-85.13020424304037
 30
0.0
 10
97.74390459795985
 20
-85.27403697954955
 30
0.0
 10
97.74390459795985
 20
-85.27403697954955
 30
0.0
 10
98.4312011472672
 20
-85.27403697954955
 30
0.0
 10
98.4312011472672
 20
-85.27403697954955
 30
0.0
 10
98.4312011472672
 20
-85.27403697954955
 30
0.0
 10
98.4312011472672
 20
-85.47919241569618
 30
0.0
 10
98.4312011472672
 20
-85.47919241569618
 30
0.0
 10
98.4312011472672
 20
-85.47919241569618
 30
0.0
 10
97.52376299645239
 20
-85.47919241569618
 30
0.0
 10
97.52376299645239
 20
-85.47919241569618
 30
0.0
 10
97.5513237603344
 20
-85.12159150432724
 30
0.0
 10
97.60954587403512
 20
-85.04338783681207
 30
0.0
 10
97.94957679842928
 20
-84.74504256778944
 30
0.0
 10
98.17557506226167
 20
-84.54626055829053
 30
0.0
 10
98.23345266641387
 20
-84.47856443200536
 30
0.0
 10
98.23345266641387
 20
-84.3411051221439
 30
0.0
 10
98.23345266641387
 20
-84.2225938374513
 30
0.0
 10
98.17006290948527
 20
-84.09150795423754
 30
0.0
 10
97.99608558748015
 20
-84.09150795423754
 30
0.0
 10
97.76629771861398
 20
-84.09150795423754
 30
0.0
 10
97.75871850854644
 20
-84.32198484220076
 30
0.0
 10
97.75527341306119
 20
-84.43842906960221
 30
0.0
 10
97.75527341306119
 20
-84.43842906960221
 30
0.0
 10
97.55718042265931
 20
-84.43842906960221
 30
0.0
 10
97.55718042265931
 20
-84.43842906960221
 30
0.0
 10
97.56441512317835
 20
-84.31147730097075
 30
0.0
 10
97.57406139053704
 20
-84.19933944292586
 30
0.0
 10
97.64503035753319
 20
-84.08082815823327
 30
0.0
 10
97.74218205021724
 20
-83.92011445384637
 30
0.0
 10
97.90651310486365
 20
-83.88618026331665
 30
0.0
 10
98.0091769503241
 20
-83.88618026331665
 30
0.0
 10
98.25412323932537
 20
-83.88618026331665
 30
0.0
 10
98.4367133000436
 20
-84.07032061700326
 30
0.0
 10
98.4367133000436
 20
-84.34317217943504
 30
0.0
 10
98.4367133000436
 20
-84.57158201010711
 30
0.0
 10
98.33404945458315
 20
-84.67114526963083
 30
0.0
 10
98.0615424016999
 20
-84.89748804301175
 30
0.0
  0
HATCH
  5
105
330
F6
100
AcDbEntity
  8
_U+30EC_U+30A4_U+30E4_U+30FC 1
 62
   179
420
  2234388
100
AcDbHatch
 10
0.0
 20
0.0
 30
0.0
210
0.0
220
0.0
230
1.0
  2
SOLID
 70
     1
 71
     0
 91
        1
 92
        1
 93
        1
 72
     4
 94
        3
 73
     0
 74
     1
 95
       44
 96
       40
 40
0.0
 40
0.0
 40
0.0
 40
0.0
 40
1.0
 40
1.0
 40
1.0
 40
2.0
 40
2.0
 40
2.0
 40
3.0
 40
3.0
 40
3.0
 40
4.0
 40
4.0
 40
4.0
 40
5.0
 40
5.0
 40
5.0
 40
6.0
 40
6.0
 40
6.0
 40
7.0
 40
7.0
 40
7.0
 40
8.0
 40
8.0
 40
8.0
 40
9.0
 40
9.0
 40
9.0
 40
10.0
 40
10.0
 40
10.0
 40
11.0
 40
11.0
 40
11.0
 40
12.0
 40
12.0
 40
12.0
 40
13.0
 40
13.0
 40
13.0
 40
13.0
 10
98.0615424016999
 20
-84.89748804301175
 10
97.86896156407443
 20
-85.0561346901075
 10
97.78696829152548
 20
-85.13020424304037
 10
97.74390459795985
 20
-85.27403697954955
 10
97.74390459795985
 20
-85.27403697954955
 10
98.4312011472672
 20
-85.27403697954955
 10
98.4312011472672
 20
-85.27403697954955
 10
98.4312011472672
 20
-85.27403697954955
 10
98.4312011472672
 20
-85.47919241569618
 10
98.4312011472672
 20
-85.47919241569618
 10
98.4312011472672
 20
-85.47919241569618
 10
97.52376299645239
 20
-85.47919241569618
 10
97.52376299645239
 20
-85.47919241569618
 10
97.5513237603344
 20
-85.12159150432724
 10
97.60954587403512
 20
-85.04338783681207
 10
97.94957679842928
 20
-84.74504256778944
 10
98.17557506226167
 20
-84.54626055829053
 10
98.23345266641387
 20
-84.47856443200536
 10
98.23345266641387
 20
-84.3411051221439
 10
98.23345266641387
 20
-84.2225938374513
 10
98.17006290948527
 20
-84.09150795423754
 10
97.99608558748015
 20
-84.09150795423754
 10
97.76629771861398
 20
-84.09150795423754
 10
97.75871850854644
 20
-84.32198484220076
 10
97.75527341306119
 20
-84.43842906960221
 10
97.75527341306119
 20
-84.43842906960221
 10
97.55718042265931
 20
-84.43842906960221
 10
97.55718042265931
 20
-84.43842906960221
 10
97.56441512317835
 20
-84.31147730097075
 10
97.57406139053704
 20
-84.19933944292586
 10
97.64503035753319
 20
-84.08082815823327
 10
97.74218205021724
 20
-83.92011445384637
 10
97.90651310486365
 20
-83.88618026331665
 10
98.0091769503241
 20
-83.88618026331665
 10
98.25412323932537
 20
-83.88618026331665
 10
98.4367133000436
 20
-84.07032061700326
 10
98.4367133000436
 20
-84.34317217943504
 10
98.4367133000436
 20
-84.57158201010711
 10
98.33404945458315
 20
-84.67114526963083
 10
98.0615424016999
 20
-84.89748804301175
 97
        0
 97
        0
 75
     2
 76
     1
 98
        0
  0
ENDBLK
  5
F9
330
F6
100
AcDbEntity
  8
0
100
AcDbBlockEnd
  0
BLOCK
  5
108
330
106
100
AcDbEntity
  8
0
100
AcDbBlockBegin
  2
block 3
 70
     0
 10
0.0
 20
0.0
 30
0.0
  3
block 3
  1

  0
SPLINE
  5
10A
330
106
100
AcDbEntity
  8
_U+30EC_U+30A4_U+30E4_U+30FC 1
370
     0
100
AcDbSpline
210
0.0
220
0.0
230
1.0
 70
    11
 71
     3
 72
    32
 73
    28
 74
     0
 42
0.0000000001
 43
0.0000000001
 12
1.0
 22
0.0
 32
0.0
 13
1.0
 23
0.0
 33
0.0
 40
0.0
 40
0.0
 40
0.0
 40
0.0
 40
1.0
 40
1.0
 40
1.0
 40
2.0
 40
2.0
 40
2.0
 40
3.0
 40
3.0
 40
3.0
 40
4.0
 40
4.0
 40
4.0
 40
5.0
 40
5.0
 40
5.0
 40
6.0
 40
6.0
 40
6.0
 40
7.0
 40
7.0
 40
7.0
 40
8.0
 40
8.0
 40
8.0
 40
9.0
 40
9.0
 40
9.0
 40
9.0
 10
108.0333712837556
 20
-122.8114528772833
 30
0.0
 10
108.0333712837556
 20
-123.2672390099818
 30
0.0
 10
107.4793999297274
 20
-123.2744737105008
 30
0.0
 10
107.2654595000934
 20
-123.2744737105008
 30
0.0
 10
107.0349826121302
 20
-123.2744737105008
 30
0.0
 10
106.3876491704517
 20
-123.2579372521716
 30
0.0
 10
106.3876491704517
 20
-122.7776909415278
 30
0.0
 10
106.3876491704517
 20
-122.6247287019827
 30
0.0
 10
106.4575846088023
 20
-122.4080321959605
 30
0.0
 10
106.7896918135804
 20
-122.3742702602051
 30
0.0
 10
106.7896918135804
 20
-122.3742702602051
 30
0.0
 10
106.7896918135804
 20
-122.5630614927967
 30
0.0
 10
106.7896918135804
 20
-122.5630614927967
 30
0.0
 10
106.7325032285252
 20
-122.5723632506069
 30
0.0
 10
106.5843641226595
 20
-122.6002685240374
 30
0.0
 10
106.5843641226595
 20
-122.779757998819
 30
0.0
 10
106.5843641226595
 20
-123.0374511411156
 30
0.0
 10
106.9123372128552
 20
-123.0729356246137
 30
0.0
 10
107.1173203942276
 20
-123.0839599301665
 30
0.0
 10
107.0391167267125
 20
-123.0019666576176
 30
0.0
 10
106.9798610843661
 20
-122.9420219961742
 30
0.0
 10
106.9798610843661
 20
-122.7814805465616
 30
0.0
 10
106.9798610843661
 20
-122.6226616446916
 30
0.0
 10
107.088037082603
 20
-122.3556667445847
 30
0.0
 10
107.4942138403139
 20
-122.3556667445847
 30
0.0
 10
107.8135741917966
 20
-122.3556667445847
 30
0.0
 10
108.0333712837556
 20
-122.5313666143324
 30
0.0
 10
108.0333712837556
 20
-122.8114528772833
 30
0.0
  0
SPLINE
  5
10B
330
106
100
AcDbEntity
  8
_U+30EC_U+30A4_U+30E4_U+30FC 1
370
     0
100
AcDbSpline
210
0.0
220
0.0
230
1.0
 70
    11
 71
     3
 72
    17
 73
    13
 74
     0
 42
0.0000000001
 43
0.0000000001
 12
1.0
 22
0.0
 32
0.0
 13
1.0
 23
0.0
 33
0.0
 40
0.0
 40
0.0
 40
0.0
 40
0.0
 40
1.0
 40
1.0
 40
1.0
 40
2.0
 40
2.0
 40
2.0
 40
3.0
 40
3.0
 40
3.0
 40
4.0
 40
4.0
 40
4.0
 40
4.0
 10
107.1745089792828
 20
-122.7962944571482
 30
0.0
 10
107.1745089792828
 20
-123.0281493833055
 30
0.0
 10
107.3860378420771
 20
-123.0615668095124
 30
0.0
 10
107.5024820694785
 20
-123.0615668095124
 30
0.0
 10
107.6781819392263
 20
-123.0615668095124
 30
0.0
 10
107.8411349556786
 20
-122.9775064796723
 30
0.0
 10
107.8411349556786
 20
-122.815242482317
 30
0.0
 10
107.8411349556786
 20
-122.7087890318228
 30
0.0
 10
107.7818793133323
 20
-122.5537597349866
 30
0.0
 10
107.4962808976051
 20
-122.5537597349866
 30
0.0
 10
107.2720051815153
 20
-122.5537597349866
 30
0.0
 10
107.1745089792828
 20
-122.6770941533585
 30
0.0
 10
107.1745089792828
 20
-122.7962944571482
 30
0.0
  0
HATCH
  5
10C
330
106
100
AcDbEntity
  8
_U+30EC_U+30A4_U+30E4_U+30FC 1
 62
   179
420
  2234388
100
AcDbHatch
 10
0.0
 20
0.0
 30
0.0
210
0.0
220
0.0
230
1.0
  2
SOLID
 70
     1
 71
     0
 91
        2
 92
        1
 93
        1
 72
     4
 94
        3
 73
     0
 74
     1
 95
       32
 96
       28
 40
0.0
 40
0.0
 40
0.0
 40
0.0
 40
1.0
 40
1.0
 40
1.0
 40
2.0
 40
2.0
 40
2.0
 40
3.0
 40
3.0
 40
3.0
 40
4.0
 40
4.0
 40
4.0
 40
5.0
 40
5.0
 40
5.0
 40
6.0
 40
6.0
 40
6.0
 40
7.0
 40
7.0
 40
7.0
 40
8.0
 40
8.0
 40
8.0
 40
9.0
 40
9.0
 40
9.0
 40
9.0
 10
108.0333712837556
 20
-122.8114528772833
 10
108.0333712837556
 20
-123.2672390099818
 10
107.4793999297274
 20
-123.2744737105008
 10
107.2654595000934
 20
-123.2744737105008
 10
107.0349826121302
 20
-123.2744737105008
 10
106.3876491704517
 20
-123.2579372521716
 10
106.3876491704517
 20
-122.7776909415278
 10
106.3876491704517
 20
-122.6247287019827
 10
106.4575846088023
 20
-122.4080321959605
 10
106.7896918135804
 20
-122.3742702602051
 10
106.7896918135804
 20
-122.3742702602051
 10
106.7896918135804
 20
-122.5630614927967
 10
106.7896918135804
 20
-122.5630614927967
 10
106.7325032285252
 20
-122.5723632506069
 10
106.5843641226595
 20
-122.6002685240374
 10
106.5843641226595
 20
-122.779757998819
 10
106.5843641226595
 20
-123.0374511411156
 10
106.9123372128552
 20
-123.0729356246137
 10
107.1173203942276
 20
-123.0839599301665
 10
107.0391167267125
 20
-123.0019666576176
 10
106.9798610843661
 20
-122.9420219961742
 10
106.9798610843661
 20
-122.7814805465616
 10
106.9798610843661
 20
-122.6226616446916
 10
107.088037082603
 20
-122.3556667445847
 10
107.4942138403139
 20
-122.3556667445847
 10
107.8135741917966
 20
-122.3556667445847
 10
108.0333712837556
 20
-122.5313666143324
 10
108.0333712837556
 20
-122.8114528772833
 97
        0
 97
        0
 92
        1
 93
        1
 72
     4
 94
        3
 73
     0
 74
     1
 95
       17
 96
       13
 40
0.0
 40
0.0
 40
0.0
 40
0.0
 40
1.0
 40
1.0
 40
1.0
 40
2.0
 40
2.0
 40
2.0
 40
3.0
 40
3.0
 40
3.0
 40
4.0
 40
4.0
 40
4.0
 40
4.0
 10
107.1745089792828
 20
-122.7962944571482
 10
107.1745089792828
 20
-123.0281493833055
 10
107.3860378420771
 20
-123.0615668095124
 10
107.5024820694785
 20
-123.0615668095124
 10
107.6781819392263
 20
-123.0615668095124
 10
107.8411349556786
 20
-122.9775064796723
 10
107.8411349556786
 20
-122.815242482317
 10
107.8411349556786
 20
-122.7087890318228
 10
107.7818793133323
 20
-122.5537597349866
 10
107.4962808976051
 20
-122.5537597349866
 10
107.2720051815153
 20
-122.5537597349866
 10
107.1745089792828
 20
-122.6770941533585
 10
107.1745089792828
 20
-122.7962944571482
 97
        0
 97
        0
 75
     2
 76
     1
 98
        0
  0
SPLINE
  5
10D
330
106
100
AcDbEntity
  8
_U+30EC_U+30A4_U+30E4_U+30FC 1
370
     0
100
AcDbSpline
210
0.0
220
0.0
230
1.0
 70
    11
 71
     3
 72
    29
 73
    25
 74
     0
 42
0.0000000001
 43
0.0000000001
 12
1.0
 22
0.0
 32
0.0
 13
1.0
 23
0.0
 33
0.0
 40
0.0
 40
0.0
 40
0.0
 40
0.0
 40
1.0
 40
1.0
 40
1.0
 40
2.0
 40
2.0
 40
2.0
 40
3.0
 40
3.0
 40
3.0
 40
4.0
 40
4.0
 40
4.0
 40
5.0
 40
5.0
 40
5.0
 40
6.0
 40
6.0
 40
6.0
 40
7.0
 40
7.0
 40
7.0
 40
8.0
 40
8.0
 40
8.0
 40
8.0
 10
107.8049614530835
 20
-121.4241129253731
 30
0.0
 10
108.0144232585867
 20
-121.5195420703146
 30
0.0
 10
108.0333712837556
 20
-121.6728488194082
 30
0.0
 10
108.0333712837556
 20
-121.7755126648686
 30
0.0
 10
108.0333712837556
 20
-121.9174505988609
 30
0.0
 10
107.9868624947047
 20
-122.0425075649755
 30
0.0
 10
107.8049614530835
 20
-122.1265678948156
 30
0.0
 10
107.6103135581669
 20
-122.2182074347232
 30
0.0
 10
107.3732909887817
 20
-122.2347438930524
 30
0.0
 10
107.2106824818779
 20
-122.2347438930524
 30
0.0
 10
107.0666774905944
 20
-122.2347438930524
 30
0.0
 10
106.8148410106227
 20
-122.2199299824659
 30
0.0
 10
106.6160590011238
 20
-122.1265678948156
 30
0.0
 10
106.4131428770425
 20
-122.0314832594227
 30
0.0
 10
106.3897162277429
 20
-121.8892008158819
 30
0.0
 10
106.3897162277429
 20
-121.7755126648686
 30
0.0
 10
106.3897162277429
 20
-121.635297278619
 30
0.0
 10
106.4341579595026
 20
-121.5081732552132
 30
0.0
 10
106.6160590011238
 20
-121.4241129253731
 30
0.0
 10
106.8086398387492
 20
-121.3366075000478
 30
0.0
 10
107.0370496694213
 20
-121.3159369271363
 30
0.0
 10
107.2106824818779
 20
-121.3159369271363
 30
0.0
 10
107.3819037274948
 20
-121.3159369271363
 30
0.0
 10
107.612380615458
 20
-121.3345404427566
 30
0.0
 10
107.8049614530835
 20
-121.4241129253731
 30
0.0
  0
SPLINE
  5
10E
330
106
100
AcDbEntity
  8
_U+30EC_U+30A4_U+30E4_U+30FC 1
370
     0
100
AcDbSpline
210
0.0
220
0.0
230
1.0
 70
    11
 71
     3
 72
    17
 73
    13
 74
     0
 42
0.0000000001
 43
0.0000000001
 12
1.0
 22
0.0
 32
0.0
 13
1.0
 23
0.0
 33
0.0
 40
0.0
 40
0.0
 40
0.0
 40
0.0
 40
1.0
 40
1.0
 40
1.0
 40
2.0
 40
2.0
 40
2.0
 40
3.0
 40
3.0
 40
3.0
 40
4.0
 40
4.0
 40
4.0
 40
4.0
 10
106.5822970653683
 20
-121.7755126648686
 30
0.0
 10
106.5822970653683
 20
-121.9956542663761
 30
0.0
 10
106.8658284238044
 20
-122.0369954121991
 30
0.0
 10
107.2106824818779
 20
-122.0369954121991
 30
0.0
 10
107.5300428333606
 20
-122.0369954121991
 30
0.0
 10
107.8387233888389
 20
-122.0053005337348
 30
0.0
 10
107.8387233888389
 20
-121.7755126648686
 30
0.0
 10
107.8387233888389
 20
-121.5567491015553
 30
0.0
 10
107.5576035972425
 20
-121.5140299175382
 30
0.0
 10
107.2106824818779
 20
-121.5140299175382
 30
0.0
 10
106.8909776208467
 20
-121.5140299175382
 30
0.0
 10
106.5822970653683
 20
-121.5474473437451
 30
0.0
 10
106.5822970653683
 20
-121.7755126648686
 30
0.0
  0
HATCH
  5
10F
330
106
100
AcDbEntity
  8
_U+30EC_U+30A4_U+30E4_U+30FC 1
 62
   179
420
  2234388
100
AcDbHatch
 10
0.0
 20
0.0
 30
0.0
210
0.0
220
0.0
230
1.0
  2
SOLID
 70
     1
 71
     0
 91
        2
 92
        1
 93
        1
 72
     4
 94
        3
 73
     0
 74
     1
 95
       29
 96
       25
 40
0.0
 40
0.0
 40
0.0
 40
0.0
 40
1.0
 40
1.0
 40
1.0
 40
2.0
 40
2.0
 40
2.0
 40
3.0
 40
3.0
 40
3.0
 40
4.0
 40
4.0
 40
4.0
 40
5.0
 40
5.0
 40
5.0
 40
6.0
 40
6.0
 40
6.0
 40
7.0
 40
7.0
 40
7.0
 40
8.0
 40
8.0
 40
8.0
 40
8.0
 10
107.8049614530835
 20
-121.4241129253731
 10
108.0144232585867
 20
-121.5195420703146
 10
108.0333712837556
 20
-121.6728488194082
 10
108.0333712837556
 20
-121.7755126648686
 10
108.0333712837556
 20
-121.9174505988609
 10
107.9868624947047
 20
-122.0425075649755
 10
107.8049614530835
 20
-122.1265678948156
 10
107.6103135581669
 20
-122.2182074347232
 10
107.3732909887817
 20
-122.2347438930524
 10
107.2106824818779
 20
-122.2347438930524
 10
107.0666774905944
 20
-122.2347438930524
 10
106.8148410106227
 20
-122.2199299824659
 10
106.6160590011238
 20
-122.1265678948156
 10
106.4131428770425
 20
-122.0314832594227
 10
106.3897162277429
 20
-121.8892008158819
 10
106.3897162277429
 20
-121.7755126648686
 10
106.3897162277429
 20
-121.635297278619
 10
106.4341579595026
 20
-121.5081732552132
 10
106.6160590011238
 20
-121.4241129253731
 10
106.8086398387492
 20
-121.3366075000478
 10
107.0370496694213
 20
-121.3159369271363
 10
107.2106824818779
 20
-121.3159369271363
 10
107.3819037274948
 20
-121.3159369271363
 10
107.612380615458
 20
-121.3345404427566
 10
107.8049614530835
 20
-121.4241129253731
 97
        0
 97
        0
 92
        1
 93
        1
 72
     4
 94
        3
 73
     0
 74
     1
 95
       17
 96
       13
 40
0.0
 40
0.0
 40
0.0
 40
0.0
 40
1.0
 40
1.0
 40
1.0
 40
2.0
 40
2.0
 40
2.0
 40
3.0
 40
3.0
 40
3.0
 40
4.0
 40
4.0
 40
4.0
 40
4.0
 10
106.5822970653683
 20
-121.7755126648686
 10
106.5822970653683
 20
-121.9956542663761
 10
106.8658284238044
 20
-122.0369954121991
 10
107.2106824818779
 20
-122.0369954121991
 10
107.5300428333606
 20
-122.0369954121991
 10
107.8387233888389
 20
-122.0053005337348
 10
107.8387233888389
 20
-121.7755126648686
 10
107.8387233888389
 20
-121.5567491015553
 10
107.5576035972425
 20
-121.5140299175382
 10
107.2106824818779
 20
-121.5140299175382
 10
106.8909776208467
 20
-121.5140299175382
 10
106.5822970653683
 20
-121.5474473437451
 10
106.5822970653683
 20
-121.7755126648686
 97
        0
 97
        0
 75
     2
 76
     1
 98
        0
  0
POLYLINE
  5
110
330
106
100
AcDbEntity
  8
_U+30EC_U+30A4_U+30E4_U+30FC 1
370
     0
100
AcDb2dPolyline
 66
     1
 10
0.0
 20
0.0
 30
0.0
  0
VERTEX
  5
111
330
110
100
AcDbEntity
  8
_U+30EC_U+30A4_U+30E4_U+30FC 1
370
     0
100
AcDbVertex
100
AcDb2dVertex
 10
107.9827283801224
 20
-121.1240451086079
 30
0.0
  0
VERTEX
  5
112
330
110
100
AcDbEntity
  8
_U+30EC_U+30A4_U+30E4_U+30FC 1
370
     0
100
AcDbVertex
100
AcDb2dVertex
 10
107.7308919001506
 20
-121.1240451086079
 30
0.0
  0
VERTEX
  5
113
330
110
100
AcDbEntity
  8
_U+30EC_U+30A4_U+30E4_U+30FC 1
370
     0
100
AcDbVertex
100
AcDb2dVertex
 10
107.7308919001506
 20
-120.9018364498093
 30
0.0
  0
VERTEX
  5
114
330
110
100
AcDbEntity
  8
_U+30EC_U+30A4_U+30E4_U+30FC 1
370
     0
100
AcDbVertex
100
AcDb2dVertex
 10
107.9827283801224
 20
-120.9018364498093
 30
0.0
  0
VERTEX
  5
115
330
110
100
AcDbEntity
  8
_U+30EC_U+30A4_U+30E4_U+30FC 1
370
     0
100
AcDbVertex
100
AcDb2dVertex
 10
107.9827283801224
 20
-121.1240451086079
 30
0.0
  0
SEQEND
  5
116
330
110
100
AcDbEntity
  8
_U+30EC_U+30A4_U+30E4_U+30FC 1
370
     0
  0
HATCH
  5
117
330
106
100
AcDbEntity
  8
_U+30EC_U+30A4_U+30E4_U+30FC 1
 62
   179
420
  2234388
100
AcDbHatch
 10
0.0
 20
0.0
 30
0.0
210
0.0
220
0.0
230
1.0
  2
SOLID
 70
     1
 71
     0
 91
        1
 92
        1
 93
        4
 72
     1
 10
107.9827283801224
 20
-121.1240451086079
 11
107.7308919001506
 21
-121.1240451086079
 72
     1
 10
107.7308919001506
 20
-121.1240451086079
 11
107.7308919001506
 21
-120.9018364498093
 72
     1
 10
107.7308919001506
 20
-120.9018364498093
 11
107.9827283801224
 21
-120.9018364498093
 72
     1
 10
107.9827283801224
 20
-120.9018364498093
 11
107.9827283801224
 21
-121.1240451086079
 97
        0
 75
     2
 76
     1
 98
        0
  0
SPLINE
  5
118
330
106
100
AcDbEntity
  8
_U+30EC_U+30A4_U+30E4_U+30FC 1
370
     0
100
AcDbSpline
210
0.0
220
0.0
230
1.0
 70
    11
 71
     3
 72
    26
 73
    22
 74
     0
 42
0.0000000001
 43
0.0000000001
 12
1.0
 22
0.0
 32
0.0
 13
1.0
 23
0.0
 33
0.0
 40
0.0
 40
0.0
 40
0.0
 40
0.0
 40
1.0
 40
1.0
 40
1.0
 40
2.0
 40
2.0
 40
2.0
 40
3.0
 40
3.0
 40
3.0
 40
4.0
 40
4.0
 40
4.0
 40
5.0
 40
5.0
 40
5.0
 40
6.0
 40
6.0
 40
6.0
 40
7.0
 40
7.0
 40
7.0
 40
7.0
 10
107.9827283801224
 20
-120.3296060897093
 30
0.0
 10
107.9827283801224
 20
-120.3296060897093
 30
0.0
 10
107.9827283801224
 20
-120.5390678952125
 30
0.0
 10
107.9827283801224
 20
-120.5390678952125
 30
0.0
 10
107.6737033150955
 20
-120.5166747745583
 30
0.0
 10
107.1555609541139
 20
-120.346487057587
 30
0.0
 10
106.6498209368792
 20
-119.9878526175725
 30
0.0
 10
106.6498209368792
 20
-119.9878526175725
 30
0.0
 10
106.6498209368792
 20
-120.7275146182556
 30
0.0
 10
106.6498209368792
 20
-120.7275146182556
 30
0.0
 10
106.6498209368792
 20
-120.7275146182556
 30
0.0
 10
106.4382920740849
 20
-120.7275146182556
 30
0.0
 10
106.4382920740849
 20
-120.7275146182556
 30
0.0
 10
106.4382920740849
 20
-120.7275146182556
 30
0.0
 10
106.4382920740849
 20
-119.7787353216178
 30
0.0
 10
106.4382920740849
 20
-119.7787353216178
 30
0.0
 10
106.4382920740849
 20
-119.7787353216178
 30
0.0
 10
106.6498209368792
 20
-119.7787353216178
 30
0.0
 10
106.6498209368792
 20
-119.7787353216178
 30
0.0
 10
106.9398979767373
 20
-120.0646782468936
 30
0.0
 10
107.5321098906517
 20
-120.2999782685361
 30
0.0
 10
107.9827283801224
 20
-120.3296060897093
 30
0.0
  0
HATCH
  5
119
330
106
100
AcDbEntity
  8
_U+30EC_U+30A4_U+30E4_U+30FC 1
 62
   179
420
  2234388
100
AcDbHatch
 10
0.0
 20
0.0
 30
0.0
210
0.0
220
0.0
230
1.0
  2
SOLID
 70
     1
 71
     0
 91
        1
 92
        1
 93
        1
 72
     4
 94
        3
 73
     0
 74
     1
 95
       26
 96
       22
 40
0.0
 40
0.0
 40
0.0
 40
0.0
 40
1.0
 40
1.0
 40
1.0
 40
2.0
 40
2.0
 40
2.0
 40
3.0
 40
3.0
 40
3.0
 40
4.0
 40
4.0
 40
4.0
 40
5.0
 40
5.0
 40
5.0
 40
6.0
 40
6.0
 40
6.0
 40
7.0
 40
7.0
 40
7.0
 40
7.0
 10
107.9827283801224
 20
-120.3296060897093
 10
107.9827283801224
 20
-120.3296060897093
 10
107.9827283801224
 20
-120.5390678952125
 10
107.9827283801224
 20
-120.5390678952125
 10
107.6737033150955
 20
-120.5166747745583
 10
107.1555609541139
 20
-120.346487057587
 10
106.6498209368792
 20
-119.9878526175725
 10
106.6498209368792
 20
-119.9878526175725
 10
106.6498209368792
 20
-120.7275146182556
 10
106.6498209368792
 20
-120.7275146182556
 10
106.6498209368792
 20
-120.7275146182556
 10
106.4382920740849
 20
-120.7275146182556
 10
106.4382920740849
 20
-120.7275146182556
 10
106.4382920740849
 20
-120.7275146182556
 10
106.4382920740849
 20
-119.7787353216178
 10
106.4382920740849
 20
-119.7787353216178
 10
106.4382920740849
 20
-119.7787353216178
 10
106.6498209368792
 20
-119.7787353216178
 10
106.6498209368792
 20
-119.7787353216178
 10
106.9398979767373
 20
-120.0646782468936
 10
107.5321098906517
 20
-120.2999782685361
 10
107.9827283801224
 20
-120.3296060897093
 97
        0
 97
        0
 75
     2
 76
     1
 98
        0
  0
ENDBLK
  5
109
330
106
100
AcDbEntity
  8
0
100
AcDbBlockEnd
  0
BLOCK
  5
11C
330
11A
100
AcDbEntity
  8
0
100
AcDbBlockBegin
  2
block 4
 70
     0
 10
0.0
 20
0.0
 30
0.0
  3
block 4
  1

  0
SPLINE
  5
11E
330
11A
100
AcDbEntity
  8
_U+30EC_U+30A4_U+30E4_U+30FC 1
370
     0
100
AcDbSpline
210
0.0
220
0.0
230
1.0
 70
    11
 71
     3
 72
    26
 73
    22
 74
     0
 42
0.0000000001
 43
0.0000000001
 12
1.0
 22
0.0
 32
0.0
 13
1.0
 23
0.0
 33
0.0
 40
0.0
 40
0.0
 40
0.0
 40
0.0
 40
1.0
 40
1.0
 40
1.0
 40
2.0
 40
2.0
 40
2.0
 40
3.0
 40
3.0
 40
3.0
 40
4.0
 40
4.0
 40
4.0
 40
5.0
 40
5.0
 40
5.0
 40
6.0
 40
6.0
 40
6.0
 40
7.0
 40
7.0
 40
7.0
 40
7.0
 10
107.9827283801224
 20
-158.5932481157336
 30
0.0
 10
107.9827283801224
 20
-158.5932481157336
 30
0.0
 10
106.8785752770998
 20
-158.5932481157336
 30
0.0
 10
106.8785752770998
 20
-158.5932481157336
 30
0.0
 10
106.8785752770998
 20
-158.5932481157336
 30
0.0
 10
106.8785752770998
 20
-158.8847031937858
 30
0.0
 10
106.8785752770998
 20
-158.8847031937858
 30
0.0
 10
106.8785752770998
 20
-158.8847031937858
 30
0.0
 10
106.7304361712341
 20
-158.8847031937858
 30
0.0
 10
106.7304361712341
 20
-158.8847031937858
 30
0.0
 10
106.7156222606475
 20
-158.591525567991
 30
0.0
 10
106.5526692441952
 20
-158.5505289317165
 30
0.0
 10
106.4382920740849
 20
-158.5243462060286
 30
0.0
 10
106.4382920740849
 20
-158.5243462060286
 30
0.0
 10
106.4382920740849
 20
-158.3954996348803
 30
0.0
 10
106.4382920740849
 20
-158.3954996348803
 30
0.0
 10
106.4382920740849
 20
-158.3954996348803
 30
0.0
 10
107.9827283801224
 20
-158.3954996348803
 30
0.0
 10
107.9827283801224
 20
-158.3954996348803
 30
0.0
 10
107.9827283801224
 20
-158.3954996348803
 30
0.0
 10
107.9827283801224
 20
-158.5932481157336
 30
0.0
 10
107.9827283801224
 20
-158.5932481157336
 30
0.0
  0
HATCH
  5
11F
330
11A
100
AcDbEntity
  8
_U+30EC_U+30A4_U+30E4_U+30FC 1
 62
   179
420
  2234388
100
AcDbHatch
 10
0.0
 20
0.0
 30
0.0
210
0.0
220
0.0
230
1.0
  2
SOLID
 70
     1
 71
     0
 91
        1
 92
        1
 93
        1
 72
     4
 94
        3
 73
     0
 74
     1
 95
       26
 96
       22
 40
0.0
 40
0.0
 40
0.0
 40
0.0
 40
1.0
 40
1.0
 40
1.0
 40
2.0
 40
2.0
 40
2.0
 40
3.0
 40
3.0
 40
3.0
 40
4.0
 40
4.0
 40
4.0
 40
5.0
 40
5.0
 40
5.0
 40
6.0
 40
6.0
 40
6.0
 40
7.0
 40
7.0
 40
7.0
 40
7.0
 10
107.9827283801224
 20
-158.5932481157336
 10
107.9827283801224
 20
-158.5932481157336
 10
106.8785752770998
 20
-158.5932481157336
 10
106.8785752770998
 20
-158.5932481157336
 10
106.8785752770998
 20
-158.5932481157336
 10
106.8785752770998
 20
-158.8847031937858
 10
106.8785752770998
 20
-158.8847031937858
 10
106.8785752770998
 20
-158.8847031937858
 10
106.7304361712341
 20
-158.8847031937858
 10
106.7304361712341
 20
-158.8847031937858
 10
106.7156222606475
 20
-158.591525567991
 10
106.5526692441952
 20
-158.5505289317165
 10
106.4382920740849
 20
-158.5243462060286
 10
106.4382920740849
 20
-158.5243462060286
 10
106.4382920740849
 20
-158.3954996348803
 10
106.4382920740849
 20
-158.3954996348803
 10
106.4382920740849
 20
-158.3954996348803
 10
107.9827283801224
 20
-158.3954996348803
 10
107.9827283801224
 20
-158.3954996348803
 10
107.9827283801224
 20
-158.3954996348803
 10
107.9827283801224
 20
-158.5932481157336
 10
107.9827283801224
 20
-158.5932481157336
 97
        0
 97
        0
 75
     2
 76
     1
 98
        0
  0
SPLINE
  5
120
330
11A
100
AcDbEntity
  8
_U+30EC_U+30A4_U+30E4_U+30FC 1
370
     0
100
AcDbSpline
210
0.0
220
0.0
230
1.0
 70
    11
 71
     3
 72
    62
 73
    58
 74
     0
 42
0.0000000001
 43
0.0000000001
 12
1.0
 22
0.0
 32
0.0
 13
1.0
 23
0.0
 33
0.0
 40
0.0
 40
0.0
 40
0.0
 40
0.0
 40
1.0
 40
1.0
 40
1.0
 40
2.0
 40
2.0
 40
2.0
 40
3.0
 40
3.0
 40
3.0
 40
4.0
 40
4.0
 40
4.0
 40
5.0
 40
5.0
 40
5.0
 40
6.0
 40
6.0
 40
6.0
 40
7.0
 40
7.0
 40
7.0
 40
8.0
 40
8.0
 40
8.0
 40
9.0
 40
9.0
 40
9.0
 40
10.0
 40
10.0
 40
10.0
 40
11.0
 40
11.0
 40
11.0
 40
12.0
 40
12.0
 40
12.0
 40
13.0
 40
13.0
 40
13.0
 40
14.0
 40
14.0
 40
14.0
 40
15.0
 40
15.0
 40
15.0
 40
16.0
 40
16.0
 40
16.0
 40
17.0
 40
17.0
 40
17.0
 40
18.0
 40
18.0
 40
18.0
 40
19.0
 40
19.0
 40
19.0
 40
19.0
 10
108.0333712837556
 20
-157.5180338147872
 30
0.0
 10
108.0333712837556
 20
-157.6020941446273
 30
0.0
 10
108.0123562012955
 20
-157.7946749822527
 30
0.0
 10
107.826321045092
 20
-157.9049180377807
 30
0.0
 10
107.7140109322729
 20
-157.9700303424519
 30
0.0
 10
107.6147921822977
 20
-157.9738199474857
 30
0.0
 10
107.5300428333606
 20
-157.9776095525195
 30
0.0
 10
107.5300428333606
 20
-157.9776095525195
 30
0.0
 10
107.5300428333606
 20
-157.7833061671514
 30
0.0
 10
107.5300428333606
 20
-157.7833061671514
 30
0.0
 10
107.6041123862934
 20
-157.7815836194088
 30
0.0
 10
107.8387233888389
 20
-157.7722818615986
 30
0.0
 10
107.8387233888389
 20
-157.5218234198209
 30
0.0
 10
107.8387233888389
 20
-157.4005560587401
 30
0.0
 10
107.7691324600369
 20
-157.2658528252669
 30
0.0
 10
107.5407226293648
 20
-157.2658528252669
 30
0.0
 10
107.4242784019634
 20
-157.2658528252669
 30
0.0
 10
107.3757025556214
 20
-157.2996147610223
 30
0.0
 10
107.3440076771571
 20
-157.3275200344528
 30
0.0
 10
107.2699381242242
 20
-157.3929768486726
 30
0.0
 10
107.2571912709288
 20
-157.495640694133
 30
0.0
 10
107.2571912709288
 20
-157.5442165404751
 30
0.0
 10
107.2571912709288
 20
-157.5610975083528
 30
0.0
 10
107.2592583282199
 20
-157.5927923868171
 30
0.0
 10
107.2633924428022
 20
-157.6172525647624
 30
0.0
 10
107.2633924428022
 20
-157.6172525647624
 30
0.0
 10
107.0687445478856
 20
-157.6172525647624
 30
0.0
 10
107.0687445478856
 20
-157.6172525647624
 30
0.0
 10
107.0752902293076
 20
-157.5834906290069
 30
0.0
 10
107.0773572865987
 20
-157.5462835977662
 30
0.0
 10
107.0773572865987
 20
-157.5404269354413
 30
0.0
 10
107.0773572865987
 20
-157.4825493312891
 30
0.0
 10
107.0559976945902
 20
-157.3071939710899
 30
0.0
 10
106.8193196347535
 20
-157.3071939710899
 30
0.0
 10
106.6415527077146
 20
-157.3071939710899
 30
0.0
 10
106.5864311799506
 20
-157.4229491793943
 30
0.0
 10
106.5864311799506
 20
-157.5201008720783
 30
0.0
 10
106.5864311799506
 20
-157.7536783459782
 30
0.0
 10
106.8193196347535
 20
-157.7609130464973
 30
0.0
 10
106.8909776208467
 20
-157.7647026515311
 30
0.0
 10
106.8909776208467
 20
-157.7647026515311
 30
0.0
 10
106.8909776208467
 20
-157.9441921263126
 30
0.0
 10
106.8909776208467
 20
-157.9441921263126
 30
0.0
 10
106.7662651642807
 20
-157.936612916245
 30
0.0
 10
106.3897162277429
 20
-157.9121527382997
 30
0.0
 10
106.3897162277429
 20
-157.508732056977
 30
0.0
 10
106.3897162277429
 20
-157.3109835761236
 30
0.0
 10
106.5168402511486
 20
-157.0977321655867
 30
0.0
 10
106.8127739533315
 20
-157.0977321655867
 30
0.0
 10
106.9991536190835
 20
-157.0977321655867
 30
0.0
 10
107.081491401181
 20
-157.1817924954268
 30
0.0
 10
107.1428141008185
 20
-157.2696424303006
 30
0.0
 10
107.1703748647005
 20
-157.2155544311822
 30
0.0
 10
107.2506455895068
 20
-157.0550129815696
 30
0.0
 10
107.5279757760694
 20
-157.0550129815696
 30
0.0
 10
107.8662841527209
 20
-157.0550129815696
 30
0.0
 10
108.0333712837556
 20
-157.2734320353344
 30
0.0
 10
108.0333712837556
 20
-157.5180338147872
 30
0.0
  0
HATCH
  5
121
330
11A
100
AcDbEntity
  8
_U+30EC_U+30A4_U+30E4_U+30FC 1
 62
   179
420
  2234388
100
AcDbHatch
 10
0.0
 20
0.0
 30
0.0
210
0.0
220
0.0
230
1.0
  2
SOLID
 70
     1
 71
     0
 91
        1
 92
        1
 93
        1
 72
     4
 94
        3
 73
     0
 74
     1
 95
       62
 96
       58
 40
0.0
 40
0.0
 40
0.0
 40
0.0
 40
1.0
 40
1.0
 40
1.0
 40
2.0
 40
2.0
 40
2.0
 40
3.0
 40
3.0
 40
3.0
 40
4.0
 40
4.0
 40
4.0
 40
5.0
 40
5.0
 40
5.0
 40
6.0
 40
6.0
 40
6.0
 40
7.0
 40
7.0
 40
7.0
 40
8.0
 40
8.0
 40
8.0
 40
9.0
 40
9.0
 40
9.0
 40
10.0
 40
10.0
 40
10.0
 40
11.0
 40
11.0
 40
11.0
 40
12.0
 40
12.0
 40
12.0
 40
13.0
 40
13.0
 40
13.0
 40
14.0
 40
14.0
 40
14.0
 40
15.0
 40
15.0
 40
15.0
 40
16.0
 40
16.0
 40
16.0
 40
17.0
 40
17.0
 40
17.0
 40
18.0
 40
18.0
 40
18.0
 40
19.0
 40
19.0
 40
19.0
 40
19.0
 10
108.0333712837556
 20
-157.5180338147872
 10
108.0333712837556
 20
-157.6020941446273
 10
108.0123562012955
 20
-157.7946749822527
 10
107.826321045092
 20
-157.9049180377807
 10
107.7140109322729
 20
-157.9700303424519
 10
107.6147921822977
 20
-157.9738199474857
 10
107.5300428333606
 20
-157.9776095525195
 10
107.5300428333606
 20
-157.9776095525195
 10
107.5300428333606
 20
-157.7833061671514
 10
107.5300428333606
 20
-157.7833061671514
 10
107.6041123862934
 20
-157.7815836194088
 10
107.8387233888389
 20
-157.7722818615986
 10
107.8387233888389
 20
-157.5218234198209
 10
107.8387233888389
 20
-157.4005560587401
 10
107.7691324600369
 20
-157.2658528252669
 10
107.5407226293648
 20
-157.2658528252669
 10
107.4242784019634
 20
-157.2658528252669
 10
107.3757025556214
 20
-157.2996147610223
 10
107.3440076771571
 20
-157.3275200344528
 10
107.2699381242242
 20
-157.3929768486726
 10
107.2571912709288
 20
-157.495640694133
 10
107.2571912709288
 20
-157.5442165404751
 10
107.2571912709288
 20
-157.5610975083528
 10
107.2592583282199
 20
-157.5927923868171
 10
107.2633924428022
 20
-157.6172525647624
 10
107.2633924428022
 20
-157.6172525647624
 10
107.0687445478856
 20
-157.6172525647624
 10
107.0687445478856
 20
-157.6172525647624
 10
107.0752902293076
 20
-157.5834906290069
 10
107.0773572865987
 20
-157.5462835977662
 10
107.0773572865987
 20
-157.5404269354413
 10
107.0773572865987
 20
-157.4825493312891
 10
107.0559976945902
 20
-157.3071939710899
 10
106.8193196347535
 20
-157.3071939710899
 10
106.6415527077146
 20
-157.3071939710899
 10
106.5864311799506
 20
-157.4229491793943
 10
106.5864311799506
 20
-157.5201008720783
 10
106.5864311799506
 20
-157.7536783459782
 10
106.8193196347535
 20
-157.7609130464973
 10
106.8909776208467
 20
-157.7647026515311
 10
106.8909776208467
 20
-157.7647026515311
 10
106.8909776208467
 20
-157.9441921263126
 10
106.8909776208467
 20
-157.9441921263126
 10
106.7662651642807
 20
-157.936612916245
 10
106.3897162277429
 20
-157.9121527382997
 10
106.3897162277429
 20
-157.508732056977
 10
106.3897162277429
 20
-157.3109835761236
 10
106.5168402511486
 20
-157.0977321655867
 10
106.8127739533315
 20
-157.0977321655867
 10
106.9991536190835
 20
-157.0977321655867
 10
107.081491401181
 20
-157.1817924954268
 10
107.1428141008185
 20
-157.2696424303006
 10
107.1703748647005
 20
-157.2155544311822
 10
107.2506455895068
 20
-157.0550129815696
 10
107.5279757760694
 20
-157.0550129815696
 10
107.8662841527209
 20
-157.0550129815696
 10
108.0333712837556
 20
-157.2734320353344
 10
108.0333712837556
 20
-157.5180338147872
 97
        0
 97
        0
 75
     2
 76
     1
 98
        0
  0
ENDBLK
  5
11D
330
11A
100
AcDbEntity
  8
0
100
AcDbBlockEnd
  0
BLOCK
  5
124
330
122
100
AcDbEntity
  8
0
100
AcDbBlockBegin
  2
block 5
 70
     0
 10
0.0
 20
0.0
 30
0.0
  3
block 5
  1

  0
SPLINE
  5
126
330
122
100
AcDbEntity
  8
_U+30EC_U+30A4_U+30E4_U+30FC 1
370
     0
100
AcDbSpline
210
0.0
220
0.0
230
1.0
 70
    11
 71
     3
 72
    53
 73
    49
 74
     0
 42
0.0000000001
 43
0.0000000001
 12
1.0
 22
0.0
 32
0.0
 13
1.0
 23
0.0
 33
0.0
 40
0.0
 40
0.0
 40
0.0
 40
0.0
 40
1.0
 40
1.0
 40
1.0
 40
2.0
 40
2.0
 40
2.0
 40
3.0
 40
3.0
 40
3.0
 40
4.0
 40
4.0
 40
4.0
 40
5.0
 40
5.0
 40
5.0
 40
6.0
 40
6.0
 40
6.0
 40
7.0
 40
7.0
 40
7.0
 40
8.0
 40
8.0
 40
8.0
 40
9.0
 40
9.0
 40
9.0
 40
10.0
 40
10.0
 40
10.0
 40
11.0
 40
11.0
 40
11.0
 40
12.0
 40
12.0
 40
12.0
 40
13.0
 40
13.0
 40
13.0
 40
14.0
 40
14.0
 40
14.0
 40
15.0
 40
15.0
 40
15.0
 40
16.0
 40
16.0
 40
16.0
 40
16.0
 10
108.0333712837556
 20
-167.0478569460853
 30
0.0
 10
108.0333712837556
 20
-167.1167588557903
 30
0.0
 10
108.0164903158778
 20
-167.2063313384068
 30
0.0
 10
107.9531005589492
 20
-167.2962483305718
 30
0.0
 10
107.8432020129698
 20
-167.4492105701169
 30
0.0
 10
107.7119438749817
 20
-167.4678140857372
 30
0.0
 10
107.6041123862934
 20
-167.484695053615
 30
0.0
 10
107.6041123862934
 20
-167.484695053615
 30
0.0
 10
107.6041123862934
 20
-167.2886691205042
 30
0.0
 10
107.6041123862934
 20
-167.2886691205042
 30
0.0
 10
107.8028943957923
 20
-167.2400932741622
 30
0.0
 10
107.8325222169655
 20
-167.1281276708916
 30
0.0
 10
107.8325222169655
 20
-167.0457898887941
 30
0.0
 10
107.8325222169655
 20
-166.9224554704222
 30
0.0
 10
107.7329589574418
 20
-166.7880967464974
 30
0.0
 10
107.5004150121874
 20
-166.7880967464974
 30
0.0
 10
107.2444444176333
 20
-166.7880967464974
 30
0.0
 10
107.1745089792828
 20
-166.9469156483675
 30
0.0
 10
107.1745089792828
 20
-167.0533690988617
 30
0.0
 10
107.1745089792828
 20
-167.0812743722922
 30
0.0
 10
107.1745089792828
 20
-167.2063313384068
 30
0.0
 10
107.3037000599796
 20
-167.2848795154705
 30
0.0
 10
107.3037000599796
 20
-167.2848795154705
 30
0.0
 10
107.2847520348108
 20
-167.4399088123067
 30
0.0
 10
107.2847520348108
 20
-167.4399088123067
 30
0.0
 10
107.2847520348108
 20
-167.4399088123067
 30
0.0
 10
106.4382920740849
 20
-167.3334553618125
 30
0.0
 10
106.4382920740849
 20
-167.3334553618125
 30
0.0
 10
106.4382920740849
 20
-167.3334553618125
 30
0.0
 10
106.4382920740849
 20
-166.6461588125051
 30
0.0
 10
106.4382920740849
 20
-166.6461588125051
 30
0.0
 10
106.4382920740849
 20
-166.6461588125051
 30
0.0
 10
106.6329399690015
 20
-166.6461588125051
 30
0.0
 10
106.6329399690015
 20
-166.6461588125051
 30
0.0
 10
106.6329399690015
 20
-166.6461588125051
 30
0.0
 10
106.6329399690015
 20
-167.1897948800776
 30
0.0
 10
106.6329399690015
 20
-167.1897948800776
 30
0.0
 10
106.6329399690015
 20
-167.1897948800776
 30
0.0
 10
107.0559976945902
 20
-167.2476724842298
 30
0.0
 10
107.0559976945902
 20
-167.2476724842298
 30
0.0
 10
107.0222357588347
 20
-167.1932399755628
 30
0.0
 10
106.9819281416573
 20
-167.120548460824
 30
0.0
 10
106.9819281416573
 20
-167.0158175580725
 30
0.0
 10
106.9819281416573
 20
-166.7918863515312
 30
0.0
 10
107.1683078074093
 20
-166.582424546028
 30
0.0
 10
107.4814669870185
 20
-166.582424546028
 30
0.0
 10
107.79876028121
 20
-166.582424546028
 30
0.0
 10
108.0333712837556
 20
-166.7805175364299
 30
0.0
 10
108.0333712837556
 20
-167.0478569460853
 30
0.0
  0
HATCH
  5
127
330
122
100
AcDbEntity
  8
_U+30EC_U+30A4_U+30E4_U+30FC 1
 62
   179
420
  2234388
100
AcDbHatch
 10
0.0
 20
0.0
 30
0.0
210
0.0
220
0.0
230
1.0
  2
SOLID
 70
     1
 71
     0
 91
        1
 92
        1
 93
        1
 72
     4
 94
        3
 73
     0
 74
     1
 95
       53
 96
       49
 40
0.0
 40
0.0
 40
0.0
 40
0.0
 40
1.0
 40
1.0
 40
1.0
 40
2.0
 40
2.0
 40
2.0
 40
3.0
 40
3.0
 40
3.0
 40
4.0
 40
4.0
 40
4.0
 40
5.0
 40
5.0
 40
5.0
 40
6.0
 40
6.0
 40
6.0
 40
7.0
 40
7.0
 40
7.0
 40
8.0
 40
8.0
 40
8.0
 40
9.0
 40
9.0
 40
9.0
 40
10.0
 40
10.0
 40
10.0
 40
11.0
 40
11.0
 40
11.0
 40
12.0
 40
12.0
 40
12.0
 40
13.0
 40
13.0
 40
13.0
 40
14.0
 40
14.0
 40
14.0
 40
15.0
 40
15.0
 40
15.0
 40
16.0
 40
16.0
 40
16.0
 40
16.0
 10
108.0333712837556
 20
-167.0478569460853
 10
108.0333712837556
 20
-167.1167588557903
 10
108.0164903158778
 20
-167.2063313384068
 10
107.9531005589492
 20
-167.2962483305718
 10
107.8432020129698
 20
-167.4492105701169
 10
107.7119438749817
 20
-167.4678140857372
 10
107.6041123862934
 20
-167.484695053615
 10
107.6041123862934
 20
-167.484695053615
 10
107.6041123862934
 20
-167.2886691205042
 10
107.6041123862934
 20
-167.2886691205042
 10
107.8028943957923
 20
-167.2400932741622
 10
107.8325222169655
 20
-167.1281276708916
 10
107.8325222169655
 20
-167.0457898887941
 10
107.8325222169655
 20
-166.9224554704222
 10
107.7329589574418
 20
-166.7880967464974
 10
107.5004150121874
 20
-166.7880967464974
 10
107.2444444176333
 20
-166.7880967464974
 10
107.1745089792828
 20
-166.9469156483675
 10
107.1745089792828
 20
-167.0533690988617
 10
107.1745089792828
 20
-167.0812743722922
 10
107.1745089792828
 20
-167.2063313384068
 10
107.3037000599796
 20
-167.2848795154705
 10
107.3037000599796
 20
-167.2848795154705
 10
107.2847520348108
 20
-167.4399088123067
 10
107.2847520348108
 20
-167.4399088123067
 10
107.2847520348108
 20
-167.4399088123067
 10
106.4382920740849
 20
-167.3334553618125
 10
106.4382920740849
 20
-167.3334553618125
 10
106.4382920740849
 20
-167.3334553618125
 10
106.4382920740849
 20
-166.6461588125051
 10
106.4382920740849
 20
-166.6461588125051
 10
106.4382920740849
 20
-166.6461588125051
 10
106.6329399690015
 20
-166.6461588125051
 10
106.6329399690015
 20
-166.6461588125051
 10
106.6329399690015
 20
-166.6461588125051
 10
106.6329399690015
 20
-167.1897948800776
 10
106.6329399690015
 20
-167.1897948800776
 10
106.6329399690015
 20
-167.1897948800776
 10
107.0559976945902
 20
-167.2476724842298
 10
107.0559976945902
 20
-167.2476724842298
 10
107.0222357588347
 20
-167.1932399755628
 10
106.9819281416573
 20
-167.120548460824
 10
106.9819281416573
 20
-167.0158175580725
 10
106.9819281416573
 20
-166.7918863515312
 10
107.1683078074093
 20
-166.582424546028
 10
107.4814669870185
 20
-166.582424546028
 10
107.79876028121
 20
-166.582424546028
 10
108.0333712837556
 20
-166.7805175364299
 10
108.0333712837556
 20
-167.0478569460853
 97
        0
 97
        0
 75
     2
 76
     1
 98
        0
  0
ENDBLK
  5
125
330
122
100
AcDbEntity
  8
0
100
AcDbBlockEnd
  0
BLOCK
  5
12A
330
128
100
AcDbEntity
  8
0
100
AcDbBlockBegin
  2
block 6
 70
     0
 10
0.0
 20
0.0
 30
0.0
  3
block 6
  1

  0
SPLINE
  5
12C
330
128
100
AcDbEntity
  8
_U+30EC_U+30A4_U+30E4_U+30FC 1
370
     0
100
AcDbSpline
210
0.0
220
0.0
230
1.0
 70
    11
 71
     3
 72
    44
 73
    40
 74
     0
 42
0.0000000001
 43
0.0000000001
 12
1.0
 22
0.0
 32
0.0
 13
1.0
 23
0.0
 33
0.0
 40
0.0
 40
0.0
 40
0.0
 40
0.0
 40
1.0
 40
1.0
 40
1.0
 40
2.0
 40
2.0
 40
2.0
 40
3.0
 40
3.0
 40
3.0
 40
4.0
 40
4.0
 40
4.0
 40
5.0
 40
5.0
 40
5.0
 40
6.0
 40
6.0
 40
6.0
 40
7.0
 40
7.0
 40
7.0
 40
8.0
 40
8.0
 40
8.0
 40
9.0
 40
9.0
 40
9.0
 40
10.0
 40
10.0
 40
10.0
 40
11.0
 40
11.0
 40
11.0
 40
12.0
 40
12.0
 40
12.0
 40
13.0
 40
13.0
 40
13.0
 40
13.0
 10
74.54842120532123
 20
-157.4684244397996
 30
0.0
 10
74.70724010719125
 20
-157.661005277425
 30
0.0
 10
74.78130966012412
 20
-157.742998549974
 30
0.0
 10
74.92497014185903
 20
-157.7860622435396
 30
0.0
 10
74.92497014185903
 20
-157.7860622435396
 30
0.0
 10
74.92497014185903
 20
-157.0987656942323
 30
0.0
 10
74.92497014185903
 20
-157.0987656942323
 30
0.0
 10
74.92497014185903
 20
-157.0987656942323
 30
0.0
 10
75.13029783277993
 20
-157.0987656942323
 30
0.0
 10
75.13029783277993
 20
-157.0987656942323
 30
0.0
 10
75.13029783277993
 20
-157.0987656942323
 30
0.0
 10
75.13029783277993
 20
-158.0065483545956
 30
0.0
 10
75.13029783277993
 20
-158.0065483545956
 30
0.0
 10
74.772696921411
 20
-157.9782985716165
 30
0.0
 10
74.69449325389583
 20
-157.9204209674643
 30
0.0
 10
74.3961479848732
 20
-157.5803900430702
 30
0.0
 10
74.19736597537427
 20
-157.3543917792378
 30
0.0
 10
74.12949759431486
 20
-157.2965141750856
 30
0.0
 10
73.99203828445339
 20
-157.2965141750856
 30
0.0
 10
73.87352699976078
 20
-157.2965141750856
 30
0.0
 10
73.7426133713213
 20
-157.3602484415627
 30
0.0
 10
73.7426133713213
 20
-157.5338812540193
 30
0.0
 10
73.7426133713213
 20
-157.7636691228855
 30
0.0
 10
73.9730902592845
 20
-157.7709038234045
 30
0.0
 10
74.08953448668595
 20
-157.7746934284383
 30
0.0
 10
74.08953448668595
 20
-157.7746934284383
 30
0.0
 10
74.08953448668595
 20
-157.9727864188401
 30
0.0
 10
74.08953448668595
 20
-157.9727864188401
 30
0.0
 10
73.96241046328024
 20
-157.9652072087726
 30
0.0
 10
73.85044486000962
 20
-157.9559054509624
 30
0.0
 10
73.73193357531702
 20
-157.8849364839663
 30
0.0
 10
73.57104761615585
 20
-157.7877847912822
 30
0.0
 10
73.5372856804004
 20
-157.6234537366358
 30
0.0
 10
73.5372856804004
 20
-157.5207898911754
 30
0.0
 10
73.5372856804004
 20
-157.2761881117226
 30
0.0
 10
73.72125377931275
 20
-157.0929090319073
 30
0.0
 10
73.99410534174453
 20
-157.0929090319073
 30
0.0
 10
74.22285968196512
 20
-157.0929090319073
 30
0.0
 10
74.32207843194031
 20
-157.1959173869163
 30
0.0
 10
74.54842120532123
 20
-157.4684244397996
 30
0.0
  0
HATCH
  5
12D
330
128
100
AcDbEntity
  8
_U+30EC_U+30A4_U+30E4_U+30FC 1
 62
   179
420
  2234388
100
AcDbHatch
 10
0.0
 20
0.0
 30
0.0
210
0.0
220
0.0
230
1.0
  2
SOLID
 70
     1
 71
     0
 91
        1
 92
        1
 93
        1
 72
     4
 94
        3
 73
     0
 74
     1
 95
       44
 96
       40
 40
0.0
 40
0.0
 40
0.0
 40
0.0
 40
1.0
 40
1.0
 40
1.0
 40
2.0
 40
2.0
 40
2.0
 40
3.0
 40
3.0
 40
3.0
 40
4.0
 40
4.0
 40
4.0
 40
5.0
 40
5.0
 40
5.0
 40
6.0
 40
6.0
 40
6.0
 40
7.0
 40
7.0
 40
7.0
 40
8.0
 40
8.0
 40
8.0
 40
9.0
 40
9.0
 40
9.0
 40
10.0
 40
10.0
 40
10.0
 40
11.0
 40
11.0
 40
11.0
 40
12.0
 40
12.0
 40
12.0
 40
13.0
 40
13.0
 40
13.0
 40
13.0
 10
74.54842120532123
 20
-157.4684244397996
 10
74.70724010719125
 20
-157.661005277425
 10
74.78130966012412
 20
-157.742998549974
 10
74.92497014185903
 20
-157.7860622435396
 10
74.92497014185903
 20
-157.7860622435396
 10
74.92497014185903
 20
-157.0987656942323
 10
74.92497014185903
 20
-157.0987656942323
 10
74.92497014185903
 20
-157.0987656942323
 10
75.13029783277993
 20
-157.0987656942323
 10
75.13029783277993
 20
-157.0987656942323
 10
75.13029783277993
 20
-157.0987656942323
 10
75.13029783277993
 20
-158.0065483545956
 10
75.13029783277993
 20
-158.0065483545956
 10
74.772696921411
 20
-157.9782985716165
 10
74.69449325389583
 20
-157.9204209674643
 10
74.3961479848732
 20
-157.5803900430702
 10
74.19736597537427
 20
-157.3543917792378
 10
74.12949759431486
 20
-157.2965141750856
 10
73.99203828445339
 20
-157.2965141750856
 10
73.87352699976078
 20
-157.2965141750856
 10
73.7426133713213
 20
-157.3602484415627
 10
73.7426133713213
 20
-157.5338812540193
 10
73.7426133713213
 20
-157.7636691228855
 10
73.9730902592845
 20
-157.7709038234045
 10
74.08953448668595
 20
-157.7746934284383
 10
74.08953448668595
 20
-157.7746934284383
 10
74.08953448668595
 20
-157.9727864188401
 10
74.08953448668595
 20
-157.9727864188401
 10
73.96241046328024
 20
-157.9652072087726
 10
73.85044486000962
 20
-157.9559054509624
 10
73.73193357531702
 20
-157.8849364839663
 10
73.57104761615585
 20
-157.7877847912822
 10
73.5372856804004
 20
-157.6234537366358
 10
73.5372856804004
 20
-157.5207898911754
 10
73.5372856804004
 20
-157.2761881117226
 10
73.72125377931275
 20
-157.0929090319073
 10
73.99410534174453
 20
-157.0929090319073
 10
74.22285968196512
 20
-157.0929090319073
 10
74.32207843194031
 20
-157.1959173869163
 10
74.54842120532123
 20
-157.4684244397996
 97
        0
 97
        0
 75
     2
 76
     1
 98
        0
  0
SPLINE
  5
12E
330
128
100
AcDbEntity
  8
_U+30EC_U+30A4_U+30E4_U+30FC 1
370
     0
100
AcDbSpline
210
0.0
220
0.0
230
1.0
 70
    11
 71
     3
 72
    53
 73
    49
 74
     0
 42
0.0000000001
 43
0.0000000001
 12
1.0
 22
0.0
 32
0.0
 13
1.0
 23
0.0
 33
0.0
 40
0.0
 40
0.0
 40
0.0
 40
0.0
 40
1.0
 40
1.0
 40
1.0
 40
2.0
 40
2.0
 40
2.0
 40
3.0
 40
3.0
 40
3.0
 40
4.0
 40
4.0
 40
4.0
 40
5.0
 40
5.0
 40
5.0
 40
6.0
 40
6.0
 40
6.0
 40
7.0
 40
7.0
 40
7.0
 40
8.0
 40
8.0
 40
8.0
 40
9.0
 40
9.0
 40
9.0
 40
10.0
 40
10.0
 40
10.0
 40
11.0
 40
11.0
 40
11.0
 40
12.0
 40
12.0
 40
12.0
 40
13.0
 40
13.0
 40
13.0
 40
14.0
 40
14.0
 40
14.0
 40
15.0
 40
15.0
 40
15.0
 40
16.0
 40
16.0
 40
16.0
 40
16.0
 10
75.1809407364131
 20
-156.5279133723264
 30
0.0
 10
75.1809407364131
 20
-156.5968152820314
 30
0.0
 10
75.16405976853538
 20
-156.6863877646479
 30
0.0
 10
75.10067001160678
 20
-156.7763047568129
 30
0.0
 10
74.9907714656273
 20
-156.929266996358
 30
0.0
 10
74.85951332763929
 20
-156.9478705119783
 30
0.0
 10
74.75168183895097
 20
-156.964751479856
 30
0.0
 10
74.75168183895097
 20
-156.964751479856
 30
0.0
 10
74.75168183895097
 20
-156.7687255467453
 30
0.0
 10
74.75168183895097
 20
-156.7687255467453
 30
0.0
 10
74.95046384844989
 20
-156.7201497004033
 30
0.0
 10
74.98009166962304
 20
-156.6081840971327
 30
0.0
 10
74.98009166962304
 20
-156.5258463150352
 30
0.0
 10
74.98009166962304
 20
-156.4025118966633
 30
0.0
 10
74.88052841009932
 20
-156.2681531727385
 30
0.0
 10
74.64798446484495
 20
-156.2681531727385
 30
0.0
 10
74.3920138702909
 20
-156.2681531727385
 30
0.0
 10
74.32207843194031
 20
-156.4269720746085
 30
0.0
 10
74.32207843194031
 20
-156.5334255251028
 30
0.0
 10
74.32207843194031
 20
-156.5613307985333
 30
0.0
 10
74.32207843194031
 20
-156.6863877646479
 30
0.0
 10
74.45126951263718
 20
-156.7649359417115
 30
0.0
 10
74.45126951263718
 20
-156.7649359417115
 30
0.0
 10
74.43232148746831
 20
-156.9199652385478
 30
0.0
 10
74.43232148746831
 20
-156.9199652385478
 30
0.0
 10
74.43232148746831
 20
-156.9199652385478
 30
0.0
 10
73.58586152674242
 20
-156.8135117880536
 30
0.0
 10
73.58586152674242
 20
-156.8135117880536
 30
0.0
 10
73.58586152674242
 20
-156.8135117880536
 30
0.0
 10
73.58586152674242
 20
-156.1262152387462
 30
0.0
 10
73.58586152674242
 20
-156.1262152387462
 30
0.0
 10
73.58586152674242
 20
-156.1262152387462
 30
0.0
 10
73.78050942165905
 20
-156.1262152387462
 30
0.0
 10
73.78050942165905
 20
-156.1262152387462
 30
0.0
 10
73.78050942165905
 20
-156.1262152387462
 30
0.0
 10
73.78050942165905
 20
-156.6698513063187
 30
0.0
 10
73.78050942165905
 20
-156.6698513063187
 30
0.0
 10
73.78050942165905
 20
-156.6698513063187
 30
0.0
 10
74.20356714724772
 20
-156.7277289104709
 30
0.0
 10
74.20356714724772
 20
-156.7277289104709
 30
0.0
 10
74.16980521149227
 20
-156.6732964018039
 30
0.0
 10
74.12949759431486
 20
-156.6006048870651
 30
0.0
 10
74.12949759431486
 20
-156.4958739843135
 30
0.0
 10
74.12949759431486
 20
-156.2719427777723
 30
0.0
 10
74.31587726006687
 20
-156.0624809722691
 30
0.0
 10
74.62903643967607
 20
-156.0624809722691
 30
0.0
 10
74.94632973386759
 20
-156.0624809722691
 30
0.0
 10
75.1809407364131
 20
-156.260573962671
 30
0.0
 10
75.1809407364131
 20
-156.5279133723264
 30
0.0
  0
HATCH
  5
12F
330
128
100
AcDbEntity
  8
_U+30EC_U+30A4_U+30E4_U+30FC 1
 62
   179
420
  2234388
100
AcDbHatch
 10
0.0
 20
0.0
 30
0.0
210
0.0
220
0.0
230
1.0
  2
SOLID
 70
     1
 71
     0
 91
        1
 92
        1
 93
        1
 72
     4
 94
        3
 73
     0
 74
     1
 95
       53
 96
       49
 40
0.0
 40
0.0
 40
0.0
 40
0.0
 40
1.0
 40
1.0
 40
1.0
 40
2.0
 40
2.0
 40
2.0
 40
3.0
 40
3.0
 40
3.0
 40
4.0
 40
4.0
 40
4.0
 40
5.0
 40
5.0
 40
5.0
 40
6.0
 40
6.0
 40
6.0
 40
7.0
 40
7.0
 40
7.0
 40
8.0
 40
8.0
 40
8.0
 40
9.0
 40
9.0
 40
9.0
 40
10.0
 40
10.0
 40
10.0
 40
11.0
 40
11.0
 40
11.0
 40
12.0
 40
12.0
 40
12.0
 40
13.0
 40
13.0
 40
13.0
 40
14.0
 40
14.0
 40
14.0
 40
15.0
 40
15.0
 40
15.0
 40
16.0
 40
16.0
 40
16.0
 40
16.0
 10
75.1809407364131
 20
-156.5279133723264
 10
75.1809407364131
 20
-156.5968152820314
 10
75.16405976853538
 20
-156.6863877646479
 10
75.10067001160678
 20
-156.7763047568129
 10
74.9907714656273
 20
-156.929266996358
 10
74.85951332763929
 20
-156.9478705119783
 10
74.75168183895097
 20
-156.964751479856
 10
74.75168183895097
 20
-156.964751479856
 10
74.75168183895097
 20
-156.7687255467453
 10
74.75168183895097
 20
-156.7687255467453
 10
74.95046384844989
 20
-156.7201497004033
 10
74.98009166962304
 20
-156.6081840971327
 10
74.98009166962304
 20
-156.5258463150352
 10
74.98009166962304
 20
-156.4025118966633
 10
74.88052841009932
 20
-156.2681531727385
 10
74.64798446484495
 20
-156.2681531727385
 10
74.3920138702909
 20
-156.2681531727385
 10
74.32207843194031
 20
-156.4269720746085
 10
74.32207843194031
 20
-156.5334255251028
 10
74.32207843194031
 20
-156.5613307985333
 10
74.32207843194031
 20
-156.6863877646479
 10
74.45126951263718
 20
-156.7649359417115
 10
74.45126951263718
 20
-156.7649359417115
 10
74.43232148746831
 20
-156.9199652385478
 10
74.43232148746831
 20
-156.9199652385478
 10
74.43232148746831
 20
-156.9199652385478
 10
73.58586152674242
 20
-156.8135117880536
 10
73.58586152674242
 20
-156.8135117880536
 10
73.58586152674242
 20
-156.8135117880536
 10
73.58586152674242
 20
-156.1262152387462
 10
73.58586152674242
 20
-156.1262152387462
 10
73.58586152674242
 20
-156.1262152387462
 10
73.78050942165905
 20
-156.1262152387462
 10
73.78050942165905
 20
-156.1262152387462
 10
73.78050942165905
 20
-156.1262152387462
 10
73.78050942165905
 20
-156.6698513063187
 10
73.78050942165905
 20
-156.6698513063187
 10
73.78050942165905
 20
-156.6698513063187
 10
74.20356714724772
 20
-156.7277289104709
 10
74.20356714724772
 20
-156.7277289104709
 10
74.16980521149227
 20
-156.6732964018039
 10
74.12949759431486
 20
-156.6006048870651
 10
74.12949759431486
 20
-156.4958739843135
 10
74.12949759431486
 20
-156.2719427777723
 10
74.31587726006687
 20
-156.0624809722691
 10
74.62903643967607
 20
-156.0624809722691
 10
74.94632973386759
 20
-156.0624809722691
 10
75.1809407364131
 20
-156.260573962671
 10
75.1809407364131
 20
-156.5279133723264
 97
        0
 97
        0
 75
     2
 76
     1
 98
        0
  0
ENDBLK
  5
12B
330
128
100
AcDbEntity
  8
0
100
AcDbBlockEnd
  0
BLOCK
  5
132
330
130
100
AcDbEntity
  8
0
100
AcDbBlockBegin
  2
block 7
 70
     0
 10
0.0
 20
0.0
 30
0.0
  3
block 7
  1

  0
POLYLINE
  5
134
330
130
100
AcDbEntity
  8
_U+30EC_U+30A4_U+30E4_U+30FC 1
370
     0
100
AcDb2dPolyline
 66
     1
 10
0.0
 20
0.0
 30
0.0
  0
VERTEX
  5
135
330
134
100
AcDbEntity
  8
_U+30EC_U+30A4_U+30E4_U+30FC 1
370
     0
100
AcDbVertex
100
AcDb2dVertex
 10
82.0733710189782
 20
-139.8908582549578
 30
0.0
  0
VERTEX
  5
136
330
134
100
AcDbEntity
  8
_U+30EC_U+30A4_U+30E4_U+30FC 1
370
     0
100
AcDbVertex
100
AcDb2dVertex
 10
82.0733710189782
 20
-140.2377793703225
 30
0.0
  0
VERTEX
  5
137
330
134
100
AcDbEntity
  8
_U+30EC_U+30A4_U+30E4_U+30FC 1
370
     0
100
AcDbVertex
100
AcDb2dVertex
 10
81.88079018135272
 20
-140.2377793703225
 30
0.0
  0
VERTEX
  5
138
330
134
100
AcDbEntity
  8
_U+30EC_U+30A4_U+30E4_U+30FC 1
370
     0
100
AcDbVertex
100
AcDb2dVertex
 10
81.88079018135272
 20
-139.8908582549578
 30
0.0
  0
VERTEX
  5
139
330
134
100
AcDbEntity
  8
_U+30EC_U+30A4_U+30E4_U+30FC 1
370
     0
100
AcDbVertex
100
AcDb2dVertex
 10
81.30166963028222
 20
-139.8908582549578
 30
0.0
  0
VERTEX
  5
13A
330
134
100
AcDbEntity
  8
_U+30EC_U+30A4_U+30E4_U+30FC 1
370
     0
100
AcDbVertex
100
AcDb2dVertex
 10
81.30166963028222
 20
-139.6665825388681
 30
0.0
  0
VERTEX
  5
13B
330
134
100
AcDbEntity
  8
_U+30EC_U+30A4_U+30E4_U+30FC 1
370
     0
100
AcDbVertex
100
AcDb2dVertex
 10
81.90146075426422
 20
-138.693343064285
 30
0.0
  0
VERTEX
  5
13C
330
134
100
AcDbEntity
  8
_U+30EC_U+30A4_U+30E4_U+30FC 1
370
     0
100
AcDbVertex
100
AcDb2dVertex
 10
82.0733710189782
 20
-138.693343064285
 30
0.0
  0
VERTEX
  5
13D
330
134
100
AcDbEntity
  8
_U+30EC_U+30A4_U+30E4_U+30FC 1
370
     0
100
AcDbVertex
100
AcDb2dVertex
 10
82.0733710189782
 20
-139.6917317359104
 30
0.0
  0
VERTEX
  5
13E
330
134
100
AcDbEntity
  8
_U+30EC_U+30A4_U+30E4_U+30FC 1
370
     0
100
AcDbVertex
100
AcDb2dVertex
 10
82.25630558924496
 20
-139.6917317359104
 30
0.0
  0
VERTEX
  5
13F
330
134
100
AcDbEntity
  8
_U+30EC_U+30A4_U+30E4_U+30FC 1
370
     0
100
AcDbVertex
100
AcDb2dVertex
 10
82.25630558924496
 20
-139.8908582549578
 30
0.0
  0
VERTEX
  5
140
330
134
100
AcDbEntity
  8
_U+30EC_U+30A4_U+30E4_U+30FC 1
370
     0
100
AcDbVertex
100
AcDb2dVertex
 10
82.0733710189782
 20
-139.8908582549578
 30
0.0
  0
SEQEND
  5
141
330
134
100
AcDbEntity
  8
_U+30EC_U+30A4_U+30E4_U+30FC 1
370
     0
  0
POLYLINE
  5
142
330
130
100
AcDbEntity
  8
_U+30EC_U+30A4_U+30E4_U+30FC 1
370
     0
100
AcDb2dPolyline
 66
     1
 10
0.0
 20
0.0
 30
0.0
  0
VERTEX
  5
143
330
142
100
AcDbEntity
  8
_U+30EC_U+30A4_U+30E4_U+30FC 1
370
     0
100
AcDbVertex
100
AcDb2dVertex
 10
81.88079018135272
 20
-139.0361300650674
 30
0.0
  0
VERTEX
  5
144
330
142
100
AcDbEntity
  8
_U+30EC_U+30A4_U+30E4_U+30FC 1
370
     0
100
AcDbVertex
100
AcDb2dVertex
 10
81.47736950002997
 20
-139.6917317359104
 30
0.0
  0
VERTEX
  5
145
330
142
100
AcDbEntity
  8
_U+30EC_U+30A4_U+30E4_U+30FC 1
370
     0
100
AcDbVertex
100
AcDb2dVertex
 10
81.88079018135272
 20
-139.6917317359104
 30
0.0
  0
VERTEX
  5
146
330
142
100
AcDbEntity
  8
_U+30EC_U+30A4_U+30E4_U+30FC 1
370
     0
100
AcDbVertex
100
AcDb2dVertex
 10
81.88079018135272
 20
-139.0361300650674
 30
0.0
  0
SEQEND
  5
147
330
142
100
AcDbEntity
  8
_U+30EC_U+30A4_U+30E4_U+30FC 1
370
     0
  0
HATCH
  5
148
330
130
100
AcDbEntity
  8
_U+30EC_U+30A4_U+30E4_U+30FC 1
 62
   179
420
  2234388
100
AcDbHatch
 10
0.0
 20
0.0
 30
0.0
210
0.0
220
0.0
230
1.0
  2
SOLID
 70
     1
 71
     0
 91
        2
 92
        1
 93
       11
 72
     1
 10
82.0733710189782
 20
-139.8908582549578
 11
82.0733710189782
 21
-140.2377793703225
 72
     1
 10
82.0733710189782
 20
-140.2377793703225
 11
81.88079018135272
 21
-140.2377793703225
 72
     1
 10
81.88079018135272
 20
-140.2377793703225
 11
81.88079018135272
 21
-139.8908582549578
 72
     1
 10
81.88079018135272
 20
-139.8908582549578
 11
81.30166963028222
 21
-139.8908582549578
 72
     1
 10
81.30166963028222
 20
-139.8908582549578
 11
81.30166963028222
 21
-139.6665825388681
 72
     1
 10
81.30166963028222
 20
-139.6665825388681
 11
81.90146075426422
 21
-138.693343064285
 72
     1
 10
81.90146075426422
 20
-138.693343064285
 11
82.0733710189782
 21
-138.693343064285
 72
     1
 10
82.0733710189782
 20
-138.693343064285
 11
82.0733710189782
 21
-139.6917317359104
 72
     1
 10
82.0733710189782
 20
-139.6917317359104
 11
82.25630558924496
 21
-139.6917317359104
 72
     1
 10
82.25630558924496
 20
-139.6917317359104
 11
82.25630558924496
 21
-139.8908582549578
 72
     1
 10
82.25630558924496
 20
-139.8908582549578
 11
82.0733710189782
 21
-139.8908582549578
 97
        0
 92
        1
 93
        3
 72
     1
 10
81.88079018135272
 20
-139.0361300650674
 11
81.47736950002997
 21
-139.6917317359104
 72
     1
 10
81.47736950002997
 20
-139.6917317359104
 11
81.88079018135272
 21
-139.6917317359104
 72
     1
 10
81.88079018135272
 20
-139.6917317359104
 11
81.88079018135272
 21
-139.0361300650674
 97
        0
 75
     2
 76
     1
 98
        0
  0
ENDBLK
  5
133
330
130
100
AcDbEntity
  8
0
100
AcDbBlockEnd
  0
BLOCK
  5
14B
330
149
100
AcDbEntity
  8
0
100
AcDbBlockBegin
  2
block 8
 70
     0
 10
0.0
 20
0.0
 30
0.0
  3
block 8
  1

  0
SPLINE
  5
14D
330
149
100
AcDbEntity
  8
_U+30EC_U+30A4_U+30E4_U+30FC 1
370
     0
100
AcDbSpline
210
0.0
220
0.0
230
1.0
 70
    11
 71
     3
 72
    26
 73
    22
 74
     0
 42
0.0000000001
 43
0.0000000001
 12
1.0
 22
0.0
 32
0.0
 13
1.0
 23
0.0
 33
0.0
 40
0.0
 40
0.0
 40
0.0
 40
0.0
 40
1.0
 40
1.0
 40
1.0
 40
2.0
 40
2.0
 40
2.0
 40
3.0
 40
3.0
 40
3.0
 40
4.0
 40
4.0
 40
4.0
 40
5.0
 40
5.0
 40
5.0
 40
6.0
 40
6.0
 40
6.0
 40
7.0
 40
7.0
 40
7.0
 40
7.0
 10
89.71734888165052
 20
-140.2377793703225
 30
0.0
 10
89.71734888165052
 20
-140.2377793703225
 30
0.0
 10
89.71734888165052
 20
-139.1332817577514
 30
0.0
 10
89.71734888165052
 20
-139.1332817577514
 30
0.0
 10
89.71734888165052
 20
-139.1332817577514
 30
0.0
 10
89.4258938035984
 20
-139.1332817577514
 30
0.0
 10
89.4258938035984
 20
-139.1332817577514
 30
0.0
 10
89.4258938035984
 20
-139.1332817577514
 30
0.0
 10
89.4258938035984
 20
-138.9854871614342
 30
0.0
 10
89.4258938035984
 20
-138.9854871614342
 30
0.0
 10
89.71907142939315
 20
-138.9706732508476
 30
0.0
 10
89.76006806566762
 20
-138.8077202343953
 30
0.0
 10
89.78625079135553
 20
-138.693343064285
 30
0.0
 10
89.78625079135553
 20
-138.693343064285
 30
0.0
 10
89.91509736250387
 20
-138.693343064285
 30
0.0
 10
89.91509736250387
 20
-138.693343064285
 30
0.0
 10
89.91509736250387
 20
-138.693343064285
 30
0.0
 10
89.91509736250387
 20
-140.2377793703225
 30
0.0
 10
89.91509736250387
 20
-140.2377793703225
 30
0.0
 10
89.91509736250387
 20
-140.2377793703225
 30
0.0
 10
89.71734888165052
 20
-140.2377793703225
 30
0.0
 10
89.71734888165052
 20
-140.2377793703225
 30
0.0
  0
HATCH
  5
14E
330
149
100
AcDbEntity
  8
_U+30EC_U+30A4_U+30E4_U+30FC 1
 62
   179
420
  2234388
100
AcDbHatch
 10
0.0
 20
0.0
 30
0.0
210
0.0
220
0.0
230
1.0
  2
SOLID
 70
     1
 71
     0
 91
        1
 92
        1
 93
        1
 72
     4
 94
        3
 73
     0
 74
     1
 95
       26
 96
       22
 40
0.0
 40
0.0
 40
0.0
 40
0.0
 40
1.0
 40
1.0
 40
1.0
 40
2.0
 40
2.0
 40
2.0
 40
3.0
 40
3.0
 40
3.0
 40
4.0
 40
4.0
 40
4.0
 40
5.0
 40
5.0
 40
5.0
 40
6.0
 40
6.0
 40
6.0
 40
7.0
 40
7.0
 40
7.0
 40
7.0
 10
89.71734888165052
 20
-140.2377793703225
 10
89.71734888165052
 20
-140.2377793703225
 10
89.71734888165052
 20
-139.1332817577514
 10
89.71734888165052
 20
-139.1332817577514
 10
89.71734888165052
 20
-139.1332817577514
 10
89.4258938035984
 20
-139.1332817577514
 10
89.4258938035984
 20
-139.1332817577514
 10
89.4258938035984
 20
-139.1332817577514
 10
89.4258938035984
 20
-138.9854871614342
 10
89.4258938035984
 20
-138.9854871614342
 10
89.71907142939315
 20
-138.9706732508476
 10
89.76006806566762
 20
-138.8077202343953
 10
89.78625079135553
 20
-138.693343064285
 10
89.78625079135553
 20
-138.693343064285
 10
89.91509736250387
 20
-138.693343064285
 10
89.91509736250387
 20
-138.693343064285
 10
89.91509736250387
 20
-138.693343064285
 10
89.91509736250387
 20
-140.2377793703225
 10
89.91509736250387
 20
-140.2377793703225
 10
89.91509736250387
 20
-140.2377793703225
 10
89.71734888165052
 20
-140.2377793703225
 10
89.71734888165052
 20
-140.2377793703225
 97
        0
 97
        0
 75
     2
 76
     1
 98
        0
  0
SPLINE
  5
14F
330
149
100
AcDbEntity
  8
_U+30EC_U+30A4_U+30E4_U+30FC 1
370
     0
100
AcDbSpline
210
0.0
220
0.0
230
1.0
 70
    11
 71
     3
 72
    62
 73
    58
 74
     0
 42
0.0000000001
 43
0.0000000001
 12
1.0
 22
0.0
 32
0.0
 13
1.0
 23
0.0
 33
0.0
 40
0.0
 40
0.0
 40
0.0
 40
0.0
 40
1.0
 40
1.0
 40
1.0
 40
2.0
 40
2.0
 40
2.0
 40
3.0
 40
3.0
 40
3.0
 40
4.0
 40
4.0
 40
4.0
 40
5.0
 40
5.0
 40
5.0
 40
6.0
 40
6.0
 40
6.0
 40
7.0
 40
7.0
 40
7.0
 40
8.0
 40
8.0
 40
8.0
 40
9.0
 40
9.0
 40
9.0
 40
10.0
 40
10.0
 40
10.0
 40
11.0
 40
11.0
 40
11.0
 40
12.0
 40
12.0
 40
12.0
 40
13.0
 40
13.0
 40
13.0
 40
14.0
 40
14.0
 40
14.0
 40
15.0
 40
15.0
 40
15.0
 40
16.0
 40
16.0
 40
16.0
 40
17.0
 40
17.0
 40
17.0
 40
18.0
 40
18.0
 40
18.0
 40
19.0
 40
19.0
 40
19.0
 40
19.0
 10
90.79256318259701
 20
-140.2884222739557
 30
0.0
 10
90.70850285275691
 20
-140.2884222739557
 30
0.0
 10
90.51592201513144
 20
-140.2674071914957
 30
0.0
 10
90.40567895960345
 20
-140.0810275257437
 30
0.0
 10
90.34056665493222
 20
-139.969061922473
 30
0.0
 10
90.33677704989844
 20
-139.8694986629493
 30
0.0
 10
90.33298744486467
 20
-139.7850938235607
 30
0.0
 10
90.33298744486467
 20
-139.7850938235607
 30
0.0
 10
90.52729083023276
 20
-139.7850938235607
 30
0.0
 10
90.52729083023276
 20
-139.7850938235607
 30
0.0
 10
90.52901337797539
 20
-139.8591633764935
 30
0.0
 10
90.53831513578557
 20
-140.0937743790391
 30
0.0
 10
90.78877357756323
 20
-140.0937743790391
 30
0.0
 10
90.91004093864402
 20
-140.0937743790391
 30
0.0
 10
91.04474417211729
 20
-140.024183450237
 30
0.0
 10
91.04474417211729
 20
-139.7954291100164
 30
0.0
 10
91.04474417211729
 20
-139.6793293921635
 30
0.0
 10
91.01098223636184
 20
-139.630409036273
 30
0.0
 10
90.98307696293132
 20
-139.5987141578087
 30
0.0
 10
90.91762014871158
 20
-139.5246446048758
 30
0.0
 10
90.81495630325112
 20
-139.5122422611289
 30
0.0
 10
90.7663804569091
 20
-139.5122422611289
 30
0.0
 10
90.74949948903138
 20
-139.5122422611289
 30
0.0
 10
90.71780461056709
 20
-139.51430931842
 30
0.0
 10
90.69334443262181
 20
-139.5184434330023
 30
0.0
 10
90.69334443262181
 20
-139.5184434330023
 30
0.0
 10
90.69334443262181
 20
-139.3237955380857
 30
0.0
 10
90.69334443262181
 20
-139.3237955380857
 30
0.0
 10
90.72710636837725
 20
-139.3299967099592
 30
0.0
 10
90.76431339961795
 20
-139.3324082767988
 30
0.0
 10
90.77017006194288
 20
-139.3324082767988
 30
0.0
 10
90.82804766609507
 20
-139.3324082767988
 30
0.0
 10
91.0034030262943
 20
-139.3110486847903
 30
0.0
 10
91.0034030262943
 20
-139.0740261154051
 30
0.0
 10
91.0034030262943
 20
-138.8966036979147
 30
0.0
 10
90.8876478179899
 20
-138.8414821701508
 30
0.0
 10
90.79049612530585
 20
-138.8414821701508
 30
0.0
 10
90.55691865140591
 20
-138.8414821701508
 30
0.0
 10
90.54968395088689
 20
-139.0740261154051
 30
0.0
 10
90.54589434585311
 20
-139.1460286110468
 30
0.0
 10
90.54589434585311
 20
-139.1460286110468
 30
0.0
 10
90.3664048710716
 20
-139.1460286110468
 30
0.0
 10
90.3664048710716
 20
-139.1460286110468
 30
0.0
 10
90.37398408113914
 20
-139.0213161544808
 30
0.0
 10
90.39844425908441
 20
-138.644767217943
 30
0.0
 10
90.80186494040717
 20
-138.644767217943
 30
0.0
 10
90.99961342126052
 20
-138.644767217943
 30
0.0
 10
91.21286483179749
 20
-138.7715467318002
 30
0.0
 10
91.21286483179749
 20
-139.0678249435317
 30
0.0
 10
91.21286483179749
 20
-139.2538600997352
 30
0.0
 10
91.12880450195739
 20
-139.3365423913812
 30
0.0
 10
91.04095456708352
 20
-139.3978650910186
 30
0.0
 10
91.09504256620194
 20
-139.4254258549006
 30
0.0
 10
91.25558401581458
 20
-139.5056965797069
 30
0.0
 10
91.25558401581458
 20
-139.7830267662695
 30
0.0
 10
91.25558401581458
 20
-140.1213351429211
 30
0.0
 10
91.03716496204974
 20
-140.2884222739557
 30
0.0
 10
90.79256318259701
 20
-140.2884222739557
 30
0.0
  0
HATCH
  5
150
330
149
100
AcDbEntity
  8
_U+30EC_U+30A4_U+30E4_U+30FC 1
 62
   179
420
  2234388
100
AcDbHatch
 10
0.0
 20
0.0
 30
0.0
210
0.0
220
0.0
230
1.0
  2
SOLID
 70
     1
 71
     0
 91
        1
 92
        1
 93
        1
 72
     4
 94
        3
 73
     0
 74
     1
 95
       62
 96
       58
 40
0.0
 40
0.0
 40
0.0
 40
0.0
 40
1.0
 40
1.0
 40
1.0
 40
2.0
 40
2.0
 40
2.0
 40
3.0
 40
3.0
 40
3.0
 40
4.0
 40
4.0
 40
4.0
 40
5.0
 40
5.0
 40
5.0
 40
6.0
 40
6.0
 40
6.0
 40
7.0
 40
7.0
 40
7.0
 40
8.0
 40
8.0
 40
8.0
 40
9.0
 40
9.0
 40
9.0
 40
10.0
 40
10.0
 40
10.0
 40
11.0
 40
11.0
 40
11.0
 40
12.0
 40
12.0
 40
12.0
 40
13.0
 40
13.0
 40
13.0
 40
14.0
 40
14.0
 40
14.0
 40
15.0
 40
15.0
 40
15.0
 40
16.0
 40
16.0
 40
16.0
 40
17.0
 40
17.0
 40
17.0
 40
18.0
 40
18.0
 40
18.0
 40
19.0
 40
19.0
 40
19.0
 40
19.0
 10
90.79256318259701
 20
-140.2884222739557
 10
90.70850285275691
 20
-140.2884222739557
 10
90.51592201513144
 20
-140.2674071914957
 10
90.40567895960345
 20
-140.0810275257437
 10
90.34056665493222
 20
-139.969061922473
 10
90.33677704989844
 20
-139.8694986629493
 10
90.33298744486467
 20
-139.7850938235607
 10
90.33298744486467
 20
-139.7850938235607
 10
90.52729083023276
 20
-139.7850938235607
 10
90.52729083023276
 20
-139.7850938235607
 10
90.52901337797539
 20
-139.8591633764935
 10
90.53831513578557
 20
-140.0937743790391
 10
90.78877357756323
 20
-140.0937743790391
 10
90.91004093864402
 20
-140.0937743790391
 10
91.04474417211729
 20
-140.024183450237
 10
91.04474417211729
 20
-139.7954291100164
 10
91.04474417211729
 20
-139.6793293921635
 10
91.01098223636184
 20
-139.630409036273
 10
90.98307696293132
 20
-139.5987141578087
 10
90.91762014871158
 20
-139.5246446048758
 10
90.81495630325112
 20
-139.5122422611289
 10
90.7663804569091
 20
-139.5122422611289
 10
90.74949948903138
 20
-139.5122422611289
 10
90.71780461056709
 20
-139.51430931842
 10
90.69334443262181
 20
-139.5184434330023
 10
90.69334443262181
 20
-139.5184434330023
 10
90.69334443262181
 20
-139.3237955380857
 10
90.69334443262181
 20
-139.3237955380857
 10
90.72710636837725
 20
-139.3299967099592
 10
90.76431339961795
 20
-139.3324082767988
 10
90.77017006194288
 20
-139.3324082767988
 10
90.82804766609507
 20
-139.3324082767988
 10
91.0034030262943
 20
-139.3110486847903
 10
91.0034030262943
 20
-139.0740261154051
 10
91.0034030262943
 20
-138.8966036979147
 10
90.8876478179899
 20
-138.8414821701508
 10
90.79049612530585
 20
-138.8414821701508
 10
90.55691865140591
 20
-138.8414821701508
 10
90.54968395088689
 20
-139.0740261154051
 10
90.54589434585311
 20
-139.1460286110468
 10
90.54589434585311
 20
-139.1460286110468
 10
90.3664048710716
 20
-139.1460286110468
 10
90.3664048710716
 20
-139.1460286110468
 10
90.37398408113914
 20
-139.0213161544808
 10
90.39844425908441
 20
-138.644767217943
 10
90.80186494040717
 20
-138.644767217943
 10
90.99961342126052
 20
-138.644767217943
 10
91.21286483179749
 20
-138.7715467318002
 10
91.21286483179749
 20
-139.0678249435317
 10
91.21286483179749
 20
-139.2538600997352
 10
91.12880450195739
 20
-139.3365423913812
 10
91.04095456708352
 20
-139.3978650910186
 10
91.09504256620194
 20
-139.4254258549006
 10
91.25558401581458
 20
-139.5056965797069
 10
91.25558401581458
 20
-139.7830267662695
 10
91.25558401581458
 20
-140.1213351429211
 10
91.03716496204974
 20
-140.2884222739557
 10
90.79256318259701
 20
-140.2884222739557
 97
        0
 97
        0
 75
     2
 76
     1
 98
        0
  0
ENDBLK
  5
14C
330
149
100
AcDbEntity
  8
0
100
AcDbBlockEnd
  0
BLOCK
  5
153
330
151
100
AcDbEntity
  8
0
100
AcDbBlockBegin
  2
block 9
 70
     0
 10
0.0
 20
0.0
 30
0.0
  3
block 9
  1

  0
SPLINE
  5
155
330
151
100
AcDbEntity
  8
_U+30EC_U+30A4_U+30E4_U+30FC 1
370
     0
100
AcDbSpline
210
0.0
220
0.0
230
1.0
 70
    11
 71
     3
 72
    44
 73
    40
 74
     0
 42
0.0000000001
 43
0.0000000001
 12
1.0
 22
0.0
 32
0.0
 13
1.0
 23
0.0
 33
0.0
 40
0.0
 40
0.0
 40
0.0
 40
0.0
 40
1.0
 40
1.0
 40
1.0
 40
2.0
 40
2.0
 40
2.0
 40
3.0
 40
3.0
 40
3.0
 40
4.0
 40
4.0
 40
4.0
 40
5.0
 40
5.0
 40
5.0
 40
6.0
 40
6.0
 40
6.0
 40
7.0
 40
7.0
 40
7.0
 40
8.0
 40
8.0
 40
8.0
 40
9.0
 40
9.0
 40
9.0
 40
10.0
 40
10.0
 40
10.0
 40
11.0
 40
11.0
 40
11.0
 40
12.0
 40
12.0
 40
12.0
 40
13.0
 40
13.0
 40
13.0
 40
13.0
 10
91.84280054127541
 20
-172.3033501088339
 30
0.0
 10
91.65021970364995
 20
-172.4621690107039
 30
0.0
 10
91.56822643110101
 20
-172.5362385636368
 30
0.0
 10
91.52516273753538
 20
-172.6798990453717
 30
0.0
 10
91.52516273753538
 20
-172.6798990453717
 30
0.0
 10
92.21245928684272
 20
-172.6798990453717
 30
0.0
 10
92.21245928684272
 20
-172.6798990453717
 30
0.0
 10
92.21245928684272
 20
-172.6798990453717
 30
0.0
 10
92.21245928684272
 20
-172.8852267362926
 30
0.0
 10
92.21245928684272
 20
-172.8852267362926
 30
0.0
 10
92.21245928684272
 20
-172.8852267362926
 30
0.0
 10
91.30450437170512
 20
-172.8852267362926
 30
0.0
 10
91.30450437170512
 20
-172.8852267362926
 30
0.0
 10
91.33275415468418
 20
-172.5276258249237
 30
0.0
 10
91.39080401361063
 20
-172.4494221574085
 30
0.0
 10
91.73083493800479
 20
-172.1510768883859
 30
0.0
 10
91.95683320183718
 20
-171.9522948788869
 30
0.0
 10
92.01471080598938
 20
-171.8844264978275
 30
0.0
 10
92.01471080598938
 20
-171.746967187966
 30
0.0
 10
92.01471080598938
 20
-171.6284559032734
 30
0.0
 10
91.95097653951225
 20
-171.497542274834
 30
0.0
 10
91.77734372705567
 20
-171.497542274834
 30
0.0
 10
91.5475558581895
 20
-171.497542274834
 30
0.0
 10
91.53997664812195
 20
-171.7280191627972
 30
0.0
 10
91.5365315526367
 20
-171.8444633901986
 30
0.0
 10
91.5365315526367
 20
-171.8444633901986
 30
0.0
 10
91.33826630746057
 20
-171.8444633901986
 30
0.0
 10
91.33826630746057
 20
-171.8444633901986
 30
0.0
 10
91.34584551752813
 20
-171.7173393667929
 30
0.0
 10
91.3551472753383
 20
-171.6053737635223
 30
0.0
 10
91.42628849710871
 20
-171.4868624788297
 30
0.0
 10
91.52344018979275
 20
-171.3259765196685
 30
0.0
 10
91.68777124443918
 20
-171.2922145839131
 30
0.0
 10
91.79043508989962
 20
-171.2922145839131
 30
0.0
 10
92.03503686935235
 20
-171.2922145839131
 30
0.0
 10
92.21831594916765
 20
-171.4761826828254
 30
0.0
 10
92.21831594916765
 20
-171.7490342452572
 30
0.0
 10
92.21831594916765
 20
-171.9777885854778
 30
0.0
 10
92.11530759415868
 20
-172.077007335453
 30
0.0
 10
91.84280054127541
 20
-172.3033501088339
 30
0.0
  0
HATCH
  5
156
330
151
100
AcDbEntity
  8
_U+30EC_U+30A4_U+30E4_U+30FC 1
 62
   179
420
  2234388
100
AcDbHatch
 10
0.0
 20
0.0
 30
0.0
210
0.0
220
0.0
230
1.0
  2
SOLID
 70
     1
 71
     0
 91
        1
 92
        1
 93
        1
 72
     4
 94
        3
 73
     0
 74
     1
 95
       44
 96
       40
 40
0.0
 40
0.0
 40
0.0
 40
0.0
 40
1.0
 40
1.0
 40
1.0
 40
2.0
 40
2.0
 40
2.0
 40
3.0
 40
3.0
 40
3.0
 40
4.0
 40
4.0
 40
4.0
 40
5.0
 40
5.0
 40
5.0
 40
6.0
 40
6.0
 40
6.0
 40
7.0
 40
7.0
 40
7.0
 40
8.0
 40
8.0
 40
8.0
 40
9.0
 40
9.0
 40
9.0
 40
10.0
 40
10.0
 40
10.0
 40
11.0
 40
11.0
 40
11.0
 40
12.0
 40
12.0
 40
12.0
 40
13.0
 40
13.0
 40
13.0
 40
13.0
 10
91.84280054127541
 20
-172.3033501088339
 10
91.65021970364995
 20
-172.4621690107039
 10
91.56822643110101
 20
-172.5362385636368
 10
91.52516273753538
 20
-172.6798990453717
 10
91.52516273753538
 20
-172.6798990453717
 10
92.21245928684272
 20
-172.6798990453717
 10
92.21245928684272
 20
-172.6798990453717
 10
92.21245928684272
 20
-172.6798990453717
 10
92.21245928684272
 20
-172.8852267362926
 10
92.21245928684272
 20
-172.8852267362926
 10
92.21245928684272
 20
-172.8852267362926
 10
91.30450437170512
 20
-172.8852267362926
 10
91.30450437170512
 20
-172.8852267362926
 10
91.33275415468418
 20
-172.5276258249237
 10
91.39080401361063
 20
-172.4494221574085
 10
91.73083493800479
 20
-172.1510768883859
 10
91.95683320183718
 20
-171.9522948788869
 10
92.01471080598938
 20
-171.8844264978275
 10
92.01471080598938
 20
-171.746967187966
 10
92.01471080598938
 20
-171.6284559032734
 10
91.95097653951225
 20
-171.497542274834
 10
91.77734372705567
 20
-171.497542274834
 10
91.5475558581895
 20
-171.497542274834
 10
91.53997664812195
 20
-171.7280191627972
 10
91.5365315526367
 20
-171.8444633901986
 10
91.5365315526367
 20
-171.8444633901986
 10
91.33826630746057
 20
-171.8444633901986
 10
91.33826630746057
 20
-171.8444633901986
 10
91.34584551752813
 20
-171.7173393667929
 10
91.3551472753383
 20
-171.6053737635223
 10
91.42628849710871
 20
-171.4868624788297
 10
91.52344018979275
 20
-171.3259765196685
 10
91.68777124443918
 20
-171.2922145839131
 10
91.79043508989962
 20
-171.2922145839131
 10
92.03503686935235
 20
-171.2922145839131
 10
92.21831594916765
 20
-171.4761826828254
 10
92.21831594916765
 20
-171.7490342452572
 10
92.21831594916765
 20
-171.9777885854778
 10
92.11530759415868
 20
-172.077007335453
 10
91.84280054127541
 20
-172.3033501088339
 97
        0
 97
        0
 75
     2
 76
     1
 98
        0
  0
SPLINE
  5
157
330
151
100
AcDbEntity
  8
_U+30EC_U+30A4_U+30E4_U+30FC 1
370
     0
100
AcDbSpline
210
0.0
220
0.0
230
1.0
 70
    11
 71
     3
 72
    53
 73
    49
 74
     0
 42
0.0000000001
 43
0.0000000001
 12
1.0
 22
0.0
 32
0.0
 13
1.0
 23
0.0
 33
0.0
 40
0.0
 40
0.0
 40
0.0
 40
0.0
 40
1.0
 40
1.0
 40
1.0
 40
2.0
 40
2.0
 40
2.0
 40
3.0
 40
3.0
 40
3.0
 40
4.0
 40
4.0
 40
4.0
 40
5.0
 40
5.0
 40
5.0
 40
6.0
 40
6.0
 40
6.0
 40
7.0
 40
7.0
 40
7.0
 40
8.0
 40
8.0
 40
8.0
 40
9.0
 40
9.0
 40
9.0
 40
10.0
 40
10.0
 40
10.0
 40
11.0
 40
11.0
 40
11.0
 40
12.0
 40
12.0
 40
12.0
 40
13.0
 40
13.0
 40
13.0
 40
14.0
 40
14.0
 40
14.0
 40
15.0
 40
15.0
 40
15.0
 40
16.0
 40
16.0
 40
16.0
 40
16.0
 10
92.78331160874862
 20
-172.9358696399258
 30
0.0
 10
92.71440969904363
 20
-172.9358696399258
 30
0.0
 10
92.62483721642712
 20
-172.918988672048
 30
0.0
 10
92.53492022426211
 20
-172.8555989151194
 30
0.0
 10
92.38195798471702
 20
-172.74570036914
 30
0.0
 10
92.36335446909666
 20
-172.6144422311519
 30
0.0
 10
92.34647350121894
 20
-172.5066107424636
 30
0.0
 10
92.34647350121894
 20
-172.5066107424636
 30
0.0
 10
92.54249943432966
 20
-172.5066107424636
 30
0.0
 10
92.54249943432966
 20
-172.5066107424636
 30
0.0
 10
92.59107528067167
 20
-172.7053927519625
 30
0.0
 10
92.7030408839423
 20
-172.7350205731357
 30
0.0
 10
92.78537866603978
 20
-172.7350205731357
 30
0.0
 10
92.90871308441172
 20
-172.7350205731357
 30
0.0
 10
93.04307180833646
 20
-172.635457313612
 30
0.0
 10
93.04307180833646
 20
-172.4029133683576
 30
0.0
 10
93.04307180833646
 20
-172.1469427738035
 30
0.0
 10
92.88425290646644
 20
-172.077007335453
 30
0.0
 10
92.77779945597221
 20
-172.077007335453
 30
0.0
 10
92.7498941825417
 20
-172.077007335453
 30
0.0
 10
92.62483721642712
 20
-172.077007335453
 30
0.0
 10
92.54628903936343
 20
-172.2061984161498
 30
0.0
 10
92.54628903936343
 20
-172.2061984161498
 30
0.0
 10
92.39125974252718
 20
-172.187250390981
 30
0.0
 10
92.39125974252718
 20
-172.187250390981
 30
0.0
 10
92.39125974252718
 20
-172.187250390981
 30
0.0
 10
92.49771319302141
 20
-171.3407904302551
 30
0.0
 10
92.49771319302141
 20
-171.3407904302551
 30
0.0
 10
92.49771319302141
 20
-171.3407904302551
 30
0.0
 10
93.18500974232875
 20
-171.3407904302551
 30
0.0
 10
93.18500974232875
 20
-171.3407904302551
 30
0.0
 10
93.18500974232875
 20
-171.3407904302551
 30
0.0
 10
93.18500974232875
 20
-171.5354383251717
 30
0.0
 10
93.18500974232875
 20
-171.5354383251717
 30
0.0
 10
93.18500974232875
 20
-171.5354383251717
 30
0.0
 10
92.64137367475632
 20
-171.5354383251717
 30
0.0
 10
92.64137367475632
 20
-171.5354383251717
 30
0.0
 10
92.64137367475632
 20
-171.5354383251717
 30
0.0
 10
92.58349607060413
 20
-171.9584960507604
 30
0.0
 10
92.58349607060413
 20
-171.9584960507604
 30
0.0
 10
92.63792857927108
 20
-171.9247341150049
 30
0.0
 10
92.71062009400985
 20
-171.8844264978275
 30
0.0
 10
92.81535099676144
 20
-171.8844264978275
 30
0.0
 10
93.03928220330269
 20
-171.8844264978275
 30
0.0
 10
93.24874400880587
 20
-172.0708061635795
 30
0.0
 10
93.24874400880587
 20
-172.3839653431887
 30
0.0
 10
93.24874400880587
 20
-172.7012586373802
 30
0.0
 10
93.05065101840401
 20
-172.9358696399258
 30
0.0
 10
92.78331160874862
 20
-172.9358696399258
 30
0.0
  0
HATCH
  5
158
330
151
100
AcDbEntity
  8
_U+30EC_U+30A4_U+30E4_U+30FC 1
 62
   179
420
  2234388
100
AcDbHatch
 10
0.0
 20
0.0
 30
0.0
210
0.0
220
0.0
230
1.0
  2
SOLID
 70
     1
 71
     0
 91
        1
 92
        1
 93
        1
 72
     4
 94
        3
 73
     0
 74
     1
 95
       53
 96
       49
 40
0.0
 40
0.0
 40
0.0
 40
0.0
 40
1.0
 40
1.0
 40
1.0
 40
2.0
 40
2.0
 40
2.0
 40
3.0
 40
3.0
 40
3.0
 40
4.0
 40
4.0
 40
4.0
 40
5.0
 40
5.0
 40
5.0
 40
6.0
 40
6.0
 40
6.0
 40
7.0
 40
7.0
 40
7.0
 40
8.0
 40
8.0
 40
8.0
 40
9.0
 40
9.0
 40
9.0
 40
10.0
 40
10.0
 40
10.0
 40
11.0
 40
11.0
 40
11.0
 40
12.0
 40
12.0
 40
12.0
 40
13.0
 40
13.0
 40
13.0
 40
14.0
 40
14.0
 40
14.0
 40
15.0
 40
15.0
 40
15.0
 40
16.0
 40
16.0
 40
16.0
 40
16.0
 10
92.78331160874862
 20
-172.9358696399258
 10
92.71440969904363
 20
-172.9358696399258
 10
92.62483721642712
 20
-172.918988672048
 10
92.53492022426211
 20
-172.8555989151194
 10
92.38195798471702
 20
-172.74570036914
 10
92.36335446909666
 20
-172.6144422311519
 10
92.34647350121894
 20
-172.5066107424636
 10
92.34647350121894
 20
-172.5066107424636
 10
92.54249943432966
 20
-172.5066107424636
 10
92.54249943432966
 20
-172.5066107424636
 10
92.59107528067167
 20
-172.7053927519625
 10
92.7030408839423
 20
-172.7350205731357
 10
92.78537866603978
 20
-172.7350205731357
 10
92.90871308441172
 20
-172.7350205731357
 10
93.04307180833646
 20
-172.635457313612
 10
93.04307180833646
 20
-172.4029133683576
 10
93.04307180833646
 20
-172.1469427738035
 10
92.88425290646644
 20
-172.077007335453
 10
92.77779945597221
 20
-172.077007335453
 10
92.7498941825417
 20
-172.077007335453
 10
92.62483721642712
 20
-172.077007335453
 10
92.54628903936343
 20
-172.2061984161498
 10
92.54628903936343
 20
-172.2061984161498
 10
92.39125974252718
 20
-172.187250390981
 10
92.39125974252718
 20
-172.187250390981
 10
92.39125974252718
 20
-172.187250390981
 10
92.49771319302141
 20
-171.3407904302551
 10
92.49771319302141
 20
-171.3407904302551
 10
92.49771319302141
 20
-171.3407904302551
 10
93.18500974232875
 20
-171.3407904302551
 10
93.18500974232875
 20
-171.3407904302551
 10
93.18500974232875
 20
-171.3407904302551
 10
93.18500974232875
 20
-171.5354383251717
 10
93.18500974232875
 20
-171.5354383251717
 10
93.18500974232875
 20
-171.5354383251717
 10
92.64137367475632
 20
-171.5354383251717
 10
92.64137367475632
 20
-171.5354383251717
 10
92.64137367475632
 20
-171.5354383251717
 10
92.58349607060413
 20
-171.9584960507604
 10
92.58349607060413
 20
-171.9584960507604
 10
92.63792857927108
 20
-171.9247341150049
 10
92.71062009400985
 20
-171.8844264978275
 10
92.81535099676144
 20
-171.8844264978275
 10
93.03928220330269
 20
-171.8844264978275
 10
93.24874400880587
 20
-172.0708061635795
 10
93.24874400880587
 20
-172.3839653431887
 10
93.24874400880587
 20
-172.7012586373802
 10
93.05065101840401
 20
-172.9358696399258
 10
92.78331160874862
 20
-172.9358696399258
 97
        0
 97
        0
 75
     2
 76
     1
 98
        0
  0
ENDBLK
  5
154
330
151
100
AcDbEntity
  8
0
100
AcDbBlockEnd
  0
ENDSEC
  0
SECTION
  2
ENTITIES
  0
POLYLINE
  5
41
330
1F
100
AcDbEntity
  8
_U+30EC_U+30A4_U+30E4_U+30FC 1
370
     0
100
AcDb2dPolyline
 66
     1
 10
0.0
 20
0.0
 30
0.0
  0
VERTEX
  5
42
330
41
100
AcDbEntity
  8
_U+30EC_U+30A4_U+30E4_U+30FC 1
370
     0
100
AcDbVertex
100
AcDb2dVertex
 10
83.78041619591684
 20
-145.5308169080617
 30
0.0
  0
VERTEX
  5
43
330
41
100
AcDbEntity
  8
_U+30EC_U+30A4_U+30E4_U+30FC 1
370
     0
100
AcDbVertex
100
AcDb2dVertex
 10
80.78042932800844
 20
-145.5308169080617
 30
0.0
  0
VERTEX
  5
44
330
41
100
AcDbEntity
  8
_U+30EC_U+30A4_U+30E4_U+30FC 1
370
     0
100
AcDbVertex
100
AcDb2dVertex
 10
80.78042932800844
 20
-150.5310185734785
 30
0.0
  0
VERTEX
  5
45
330
41
100
AcDbEntity
  8
_U+30EC_U+30A4_U+30E4_U+30FC 1
370
     0
100
AcDbVertex
100
AcDb2dVertex
 10
96.78098253091143
 20
-150.5310185734785
 30
0.0
  0
VERTEX
  5
46
330
41
100
AcDbEntity
  8
_U+30EC_U+30A4_U+30E4_U+30FC 1
370
     0
100
AcDbVertex
100
AcDb2dVertex
 10
96.78098253091143
 20
-90.83078803284792
 30
0.0
  0
VERTEX
  5
47
330
41
100
AcDbEntity
  8
_U+30EC_U+30A4_U+30E4_U+30FC 1
370
     0
100
AcDbVertex
100
AcDb2dVertex
 10
97.98056805586302
 20
-90.83078803284792
 30
0.0
  0
VERTEX
  5
48
330
41
100
AcDbEntity
  8
_U+30EC_U+30A4_U+30E4_U+30FC 1
370
     0
100
AcDbVertex
100
AcDb2dVertex
 10
97.98056805586302
 20
-151.5307907954504
 30
0.0
  0
VERTEX
  5
49
330
41
100
AcDbEntity
  8
_U+30EC_U+30A4_U+30E4_U+30FC 1
370
     0
100
AcDbVertex
100
AcDb2dVertex
 10
80.78042932800844
 20
-151.5307907954504
 30
0.0
  0
VERTEX
  5
4A
330
41
100
AcDbEntity
  8
_U+30EC_U+30A4_U+30E4_U+30FC 1
370
     0
100
AcDbVertex
100
AcDb2dVertex
 10
80.78042932800844
 20
-168.5309755134227
 30
0.0
  0
VERTEX
  5
4B
330
41
100
AcDbEntity
  8
_U+30EC_U+30A4_U+30E4_U+30FC 1
370
     0
100
AcDbVertex
100
AcDb2dVertex
 10
103.7814340189817
 20
-168.5309755134227
 30
0.0
  0
VERTEX
  5
4C
330
41
100
AcDbEntity
  8
_U+30EC_U+30A4_U+30E4_U+30FC 1
370
     0
100
AcDbVertex
100
AcDb2dVertex
 10
103.7814340189817
 20
-164.530510792201
 30
0.0
  0
VERTEX
  5
4D
330
41
100
AcDbEntity
  8
_U+30EC_U+30A4_U+30E4_U+30FC 1
370
     0
100
AcDbVertex
100
AcDb2dVertex
 10
104.7812062156976
 20
-164.530510792201
 30
0.0
  0
VERTEX
  5
4E
330
41
100
AcDbEntity
  8
_U+30EC_U+30A4_U+30E4_U+30FC 1
370
     0
100
AcDbVertex
100
AcDb2dVertex
 10
104.7812062156976
 20
-169.5307477353953
 30
0.0
  0
VERTEX
  5
4F
330
41
100
AcDbEntity
  8
_U+30EC_U+30A4_U+30E4_U+30FC 1
370
     0
100
AcDbVertex
100
AcDb2dVertex
 10
79.78065713129253
 20
-169.5307477353953
 30
0.0
  0
VERTEX
  5
50
330
41
100
AcDbEntity
  8
_U+30EC_U+30A4_U+30E4_U+30FC 1
370
     0
100
AcDbVertex
100
AcDb2dVertex
 10
79.78065713129253
 20
-144.5310446860892
 30
0.0
  0
VERTEX
  5
51
330
41
100
AcDbEntity
  8
_U+30EC_U+30A4_U+30E4_U+30FC 1
370
     0
100
AcDbVertex
100
AcDb2dVertex
 10
83.78041619591684
 20
-144.5310446860892
 30
0.0
  0
VERTEX
  5
52
330
41
100
AcDbEntity
  8
_U+30EC_U+30A4_U+30E4_U+30FC 1
370
     0
100
AcDbVertex
100
AcDb2dVertex
 10
83.78041619591684
 20
-145.5308169080617
 30
0.0
  0
SEQEND
  5
54
330
41
100
AcDbEntity
  8
_U+30EC_U+30A4_U+30E4_U+30FC 1
370
     0
  0
HATCH
  5
53
330
1F
100
AcDbEntity
  8
_U+30EC_U+30A4_U+30E4_U+30FC 1
 62
   253
420
 11711154
100
AcDbHatch
 10
0.0
 20
0.0
 30
0.0
210
0.0
220
0.0
230
1.0
  2
SOLID
 70
     1
 71
     0
 91
        1
 92
        1
 93
       16
 72
     1
 10
83.78041619591684
 20
-145.5308169080617
 11
80.78042932800844
 21
-145.5308169080617
 72
     1
 10
80.78042932800844
 20
-145.5308169080617
 11
80.78042932800844
 21
-150.5310185734785
 72
     1
 10
80.78042932800844
 20
-150.5310185734785
 11
96.78098253091143
 21
-150.5310185734785
 72
     1
 10
96.78098253091143
 20
-150.5310185734785
 11
96.78098253091143
 21
-90.83078803284792
 72
     1
 10
96.78098253091143
 20
-90.83078803284792
 11
97.98056805586302
 21
-90.83078803284792
 72
     1
 10
97.98056805586302
 20
-90.83078803284792
 11
97.98056805586302
 21
-151.5307907954504
 72
     1
 10
97.98056805586302
 20
-151.5307907954504
 11
80.78042932800844
 21
-151.5307907954504
 72
     1
 10
80.78042932800844
 20
-151.5307907954504
 11
80.78042932800844
 21
-168.5309755134227
 72
     1
 10
80.78042932800844
 20
-168.5309755134227
 11
103.7814340189817
 21
-168.5309755134227
 72
     1
 10
103.7814340189817
 20
-168.5309755134227
 11
103.7814340189817
 21
-164.530510792201
 72
     1
 10
103.7814340189817
 20
-164.530510792201
 11
104.7812062156976
 21
-164.530510792201
 72
     1
 10
104.7812062156976
 20
-164.530510792201
 11
104.7812062156976
 21
-169.5307477353953
 72
     1
 10
104.7812062156976
 20
-169.5307477353953
 11
79.78065713129253
 21
-169.5307477353953
 72
     1
 10
79.78065713129253
 20
-169.5307477353953
 11
79.78065713129253
 21
-144.5310446860892
 72
     1
 10
79.78065713129253
 20
-144.5310446860892
 11
83.78041619591684
 21
-144.5310446860892
 72
     1
 10
83.78041619591684
 20
-144.5310446860892
 11
83.78041619591684
 21
-145.5308169080617
 97
        0
 75
     2
 76
     1
 98
        0
  0
POLYLINE
  5
55
330
1F
100
AcDbEntity
  8
_U+30EC_U+30A4_U+30E4_U+30FC 1
 62
   179
420
  2234388
370
    25
100
AcDb2dPolyline
 66
     1
 10
0.0
 20
0.0
 30
0.0
  0
VERTEX
  5
56
330
55
100
AcDbEntity
  8
_U+30EC_U+30A4_U+30E4_U+30FC 1
 62
   179
420
  2234388
370
    25
100
AcDbVertex
100
AcDb2dVertex
 10
96.78098253091143
 20
-90.83078803284792
 30
0.0
  0
VERTEX
  5
57
330
55
100
AcDbEntity
  8
_U+30EC_U+30A4_U+30E4_U+30FC 1
 62
   179
420
  2234388
370
    25
100
AcDbVertex
100
AcDb2dVertex
 10
96.78098253091143
 20
-150.5310185734785
 30
0.0
  0
SEQEND
  5
58
330
55
100
AcDbEntity
  8
_U+30EC_U+30A4_U+30E4_U+30FC 1
 62
   179
420
  2234388
370
    25
  0
POLYLINE
  5
59
330
1F
100
AcDbEntity
  8
_U+30EC_U+30A4_U+30E4_U+30FC 1
 62
   179
420
  2234388
370
    25
100
AcDb2dPolyline
 66
     1
 10
0.0
 20
0.0
 30
0.0
  0
VERTEX
  5
5A
330
59
100
AcDbEntity
  8
_U+30EC_U+30A4_U+30E4_U+30FC 1
 62
   179
420
  2234388
370
    25
100
AcDbVertex
100
AcDb2dVertex
 10
97.98056805586302
 20
-90.83078803284792
 30
0.0
  0
VERTEX
  5
5B
330
59
100
AcDbEntity
  8
_U+30EC_U+30A4_U+30E4_U+30FC 1
 62
   179
420
  2234388
370
    25
100
AcDbVertex
100
AcDb2dVertex
 10
96.78098253091143
 20
-90.83078803284792
 30
0.0
  0
SEQEND
  5
5C
330
59
100
AcDbEntity
  8
_U+30EC_U+30A4_U+30E4_U+30FC 1
 62
   179
420
  2234388
370
    25
  0
POLYLINE
  5
5D
330
1F
100
AcDbEntity
  8
_U+30EC_U+30A4_U+30E4_U+30FC 1
 62
   179
420
  2234388
370
    25
100
AcDb2dPolyline
 66
     1
 10
0.0
 20
0.0
 30
0.0
  0
VERTEX
  5
5E
330
5D
100
AcDbEntity
  8
_U+30EC_U+30A4_U+30E4_U+30FC 1
 62
   179
420
  2234388
370
    25
100
AcDbVertex
100
AcDb2dVertex
 10
97.98056805586302
 20
-90.83078803284792
 30
0.0
  0
VERTEX
  5
5F
330
5D
100
AcDbEntity
  8
_U+30EC_U+30A4_U+30E4_U+30FC 1
 62
   179
420
  2234388
370
    25
100
AcDbVertex
100
AcDb2dVertex
 10
97.98056805586302
 20
-151.5307907954504
 30
0.0
  0
SEQEND
  5
60
330
5D
100
AcDbEntity
  8
_U+30EC_U+30A4_U+30E4_U+30FC 1
 62
   179
420
  2234388
370
    25
  0
POLYLINE
  5
61
330
1F
100
AcDbEntity
  8
_U+30EC_U+30A4_U+30E4_U+30FC 1
 62
   179
420
  2234388
370
    25
100
AcDb2dPolyline
 66
     1
 10
0.0
 20
0.0
 30
0.0
  0
VERTEX
  5
62
330
61
100
AcDbEntity
  8
_U+30EC_U+30A4_U+30E4_U+30FC 1
 62
   179
420
  2234388
370
    25
100
AcDbVertex
100
AcDb2dVertex
 10
97.98056805586302
 20
-151.5307907954504
 30
0.0
  0
VERTEX
  5
63
330
61
100
AcDbEntity
  8
_U+30EC_U+30A4_U+30E4_U+30FC 1
 62
   179
420
  2234388
370
    25
100
AcDbVertex
100
AcDb2dVertex
 10
80.78042932800844
 20
-151.5307907954504
 30
0.0
  0
SEQEND
  5
64
330
61
100
AcDbEntity
  8
_U+30EC_U+30A4_U+30E4_U+30FC 1
 62
   179
420
  2234388
370
    25
  0
POLYLINE
  5
65
330
1F
100
AcDbEntity
  8
_U+30EC_U+30A4_U+30E4_U+30FC 1
 62
   179
420
  2234388
370
    25
100
AcDb2dPolyline
 66
     1
 10
0.0
 20
0.0
 30
0.0
  0
VERTEX
  5
66
330
65
100
AcDbEntity
  8
_U+30EC_U+30A4_U+30E4_U+30FC 1
 62
   179
420
  2234388
370
    25
100
AcDbVertex
100
AcDb2dVertex
 10
83.78041619591684
 20
-144.5310446860892
 30
0.0
  0
VERTEX
  5
67
330
65
100
AcDbEntity
  8
_U+30EC_U+30A4_U+30E4_U+30FC 1
 62
   179
420
  2234388
370
    25
100
AcDbVertex
100
AcDb2dVertex
 10
83.78041619591684
 20
-145.5308169080617
 30
0.0
  0
SEQEND
  5
68
330
65
100
AcDbEntity
  8
_U+30EC_U+30A4_U+30E4_U+30FC 1
 62
   179
420
  2234388
370
    25
  0
POLYLINE
  5
69
330
1F
100
AcDbEntity
  8
_U+30EC_U+30A4_U+30E4_U+30FC 1
 62
   179
420
  2234388
370
    25
100
AcDb2dPolyline
 66
     1
 10
0.0
 20
0.0
 30
0.0
  0
VERTEX
  5
6A
330
69
100
AcDbEntity
  8
_U+30EC_U+30A4_U+30E4_U+30FC 1
 62
   179
420
  2234388
370
    25
100
AcDbVertex
100
AcDb2dVertex
 10
79.78065713129253
 20
-144.5310446860892
 30
0.0
  0
VERTEX
  5
6B
330
69
100
AcDbEntity
  8
_U+30EC_U+30A4_U+30E4_U+30FC 1
 62
   179
420
  2234388
370
    25
100
AcDbVertex
100
AcDb2dVertex
 10
79.78065713129253
 20
-169.5307477353953
 30
0.0
  0
SEQEND
  5
6C
330
69
100
AcDbEntity
  8
_U+30EC_U+30A4_U+30E4_U+30FC 1
 62
   179
420
  2234388
370
    25
  0
POLYLINE
  5
6D
330
1F
100
AcDbEntity
  8
_U+30EC_U+30A4_U+30E4_U+30FC 1
 62
   179
420
  2234388
370
    25
100
AcDb2dPolyline
 66
     1
 10
0.0
 20
0.0
 30
0.0
  0
VERTEX
  5
6E
330
6D
100
AcDbEntity
  8
_U+30EC_U+30A4_U+30E4_U+30FC 1
 62
   179
420
  2234388
370
    25
100
AcDbVertex
100
AcDb2dVertex
 10
104.7812062156976
 20
-164.530510792201
 30
0.0
  0
VERTEX
  5
6F
330
6D
100
AcDbEntity
  8
_U+30EC_U+30A4_U+30E4_U+30FC 1
 62
   179
420
  2234388
370
    25
100
AcDbVertex
100
AcDb2dVertex
 10
103.7814340189817
 20
-164.530510792201
 30
0.0
  0
SEQEND
  5
70
330
6D
100
AcDbEntity
  8
_U+30EC_U+30A4_U+30E4_U+30FC 1
 62
   179
420
  2234388
370
    25
  0
POLYLINE
  5
71
330
1F
100
AcDbEntity
  8
_U+30EC_U+30A4_U+30E4_U+30FC 1
 62
   179
420
  2234388
370
    25
100
AcDb2dPolyline
 66
     1
 10
0.0
 20
0.0
 30
0.0
  0
VERTEX
  5
72
330
71
100
AcDbEntity
  8
_U+30EC_U+30A4_U+30E4_U+30FC 1
 62
   179
420
  2234388
370
    25
100
AcDbVertex
100
AcDb2dVertex
 10
104.7812062156976
 20
-169.5307477353953
 30
0.0
  0
VERTEX
  5
73
330
71
100
AcDbEntity
  8
_U+30EC_U+30A4_U+30E4_U+30FC 1
 62
   179
420
  2234388
370
    25
100
AcDbVertex
100
AcDb2dVertex
 10
79.78065713129253
 20
-169.5307477353953
 30
0.0
  0
SEQEND
  5
74
330
71
100
AcDbEntity
  8
_U+30EC_U+30A4_U+30E4_U+30FC 1
 62
   179
420
  2234388
370
    25
  0
POLYLINE
  5
75
330
1F
100
AcDbEntity
  8
_U+30EC_U+30A4_U+30E4_U+30FC 1
 62
   179
420
  2234388
370
    25
100
AcDb2dPolyline
 66
     1
 10
0.0
 20
0.0
 30
0.0
  0
VERTEX
  5
76
330
75
100
AcDbEntity
  8
_U+30EC_U+30A4_U+30E4_U+30FC 1
 62
   179
420
  2234388
370
    25
100
AcDbVertex
100
AcDb2dVertex
 10
83.78041619591684
 20
-144.5310446860892
 30
0.0
  0
VERTEX
  5
77
330
75
100
AcDbEntity
  8
_U+30EC_U+30A4_U+30E4_U+30FC 1
 62
   179
420
  2234388
370
    25
100
AcDbVertex
100
AcDb2dVertex
 10
79.78065713129253
 20
-144.5310446860892
 30
0.0
  0
SEQEND
  5
78
330
75
100
AcDbEntity
  8
_U+30EC_U+30A4_U+30E4_U+30FC 1
 62
   179
420
  2234388
370
    25
  0
POLYLINE
  5
79
330
1F
100
AcDbEntity
  8
_U+30EC_U+30A4_U+30E4_U+30FC 1
 62
   179
420
  2234388
370
    25
100
AcDb2dPolyline
 66
     1
 10
0.0
 20
0.0
 30
0.0
  0
VERTEX
  5
7A
330
79
100
AcDbEntity
  8
_U+30EC_U+30A4_U+30E4_U+30FC 1
 62
   179
420
  2234388
370
    25
100
AcDbVertex
100
AcDb2dVertex
 10
104.7812062156976
 20
-164.530510792201
 30
0.0
  0
VERTEX
  5
7B
330
79
100
AcDbEntity
  8
_U+30EC_U+30A4_U+30E4_U+30FC 1
 62
   179
420
  2234388
370
    25
100
AcDbVertex
100
AcDb2dVertex
 10
104.7812062156976
 20
-169.5307477353953
 30
0.0
  0
SEQEND
  5
7C
330
79
100
AcDbEntity
  8
_U+30EC_U+30A4_U+30E4_U+30FC 1
 62
   179
420
  2234388
370
    25
  0
POLYLINE
  5
7D
330
1F
100
AcDbEntity
  8
_U+30EC_U+30A4_U+30E4_U+30FC 1
 62
   179
420
  2234388
370
    25
100
AcDb2dPolyline
 66
     1
 10
0.0
 20
0.0
 30
0.0
  0
VERTEX
  5
7E
330
7D
100
AcDbEntity
  8
_U+30EC_U+30A4_U+30E4_U+30FC 1
 62
   179
420
  2234388
370
    25
100
AcDbVertex
100
AcDb2dVertex
 10
96.78098253091143
 20
-150.5310185734785
 30
0.0
  0
VERTEX
  5
7F
330
7D
100
AcDbEntity
  8
_U+30EC_U+30A4_U+30E4_U+30FC 1
 62
   179
420
  2234388
370
    25
100
AcDbVertex
100
AcDb2dVertex
 10
80.78042932800844
 20
-150.5310185734785
 30
0.0
  0
SEQEND
  5
80
330
7D
100
AcDbEntity
  8
_U+30EC_U+30A4_U+30E4_U+30FC 1
 62
   179
420
  2234388
370
    25
  0
POLYLINE
  5
81
330
1F
100
AcDbEntity
  8
_U+30EC_U+30A4_U+30E4_U+30FC 1
 62
   179
420
  2234388
370
    25
100
AcDb2dPolyline
 66
     1
 10
0.0
 20
0.0
 30
0.0
  0
VERTEX
  5
82
330
81
100
AcDbEntity
  8
_U+30EC_U+30A4_U+30E4_U+30FC 1
 62
   179
420
  2234388
370
    25
100
AcDbVertex
100
AcDb2dVertex
 10
80.78042932800844
 20
-145.5308169080617
 30
0.0
  0
VERTEX
  5
83
330
81
100
AcDbEntity
  8
_U+30EC_U+30A4_U+30E4_U+30FC 1
 62
   179
420
  2234388
370
    25
100
AcDbVertex
100
AcDb2dVertex
 10
80.78042932800844
 20
-150.5310185734785
 30
0.0
  0
SEQEND
  5
84
330
81
100
AcDbEntity
  8
_U+30EC_U+30A4_U+30E4_U+30FC 1
 62
   179
420
  2234388
370
    25
  0
POLYLINE
  5
85
330
1F
100
AcDbEntity
  8
_U+30EC_U+30A4_U+30E4_U+30FC 1
 62
   179
420
  2234388
370
    25
100
AcDb2dPolyline
 66
     1
 10
0.0
 20
0.0
 30
0.0
  0
VERTEX
  5
86
330
85
100
AcDbEntity
  8
_U+30EC_U+30A4_U+30E4_U+30FC 1
 62
   179
420
  2234388
370
    25
100
AcDbVertex
100
AcDb2dVertex
 10
83.78041619591684
 20
-145.5308169080617
 30
0.0
  0
VERTEX
  5
87
330
85
100
AcDbEntity
  8
_U+30EC_U+30A4_U+30E4_U+30FC 1
 62
   179
420
  2234388
370
    25
100
AcDbVertex
100
AcDb2dVertex
 10
80.78042932800844
 20
-145.5308169080617
 30
0.0
  0
SEQEND
  5
88
330
85
100
AcDbEntity
  8
_U+30EC_U+30A4_U+30E4_U+30FC 1
 62
   179
420
  2234388
370
    25
  0
POLYLINE
  5
89
330
1F
100
AcDbEntity
  8
_U+30EC_U+30A4_U+30E4_U+30FC 1
 62
   179
420
  2234388
370
    25
100
AcDb2dPolyline
 66
     1
 10
0.0
 20
0.0
 30
0.0
  0
VERTEX
  5
8A
330
89
100
AcDbEntity
  8
_U+30EC_U+30A4_U+30E4_U+30FC 1
 62
   179
420
  2234388
370
    25
100
AcDbVertex
100
AcDb2dVertex
 10
103.7814340189817
 20
-168.5309755134227
 30
0.0
  0
VERTEX
  5
8B
330
89
100
AcDbEntity
  8
_U+30EC_U+30A4_U+30E4_U+30FC 1
 62
   179
420
  2234388
370
    25
100
AcDbVertex
100
AcDb2dVertex
 10
80.78042932800844
 20
-168.5309755134227
 30
0.0
  0
SEQEND
  5
8C
330
89
100
AcDbEntity
  8
_U+30EC_U+30A4_U+30E4_U+30FC 1
 62
   179
420
  2234388
370
    25
  0
POLYLINE
  5
8D
330
1F
100
AcDbEntity
  8
_U+30EC_U+30A4_U+30E4_U+30FC 1
 62
   179
420
  2234388
370
    25
100
AcDb2dPolyline
 66
     1
 10
0.0
 20
0.0
 30
0.0
  0
VERTEX
  5
8E
330
8D
100
AcDbEntity
  8
_U+30EC_U+30A4_U+30E4_U+30FC 1
 62
   179
420
  2234388
370
    25
100
AcDbVertex
100
AcDb2dVertex
 10
103.7814340189817
 20
-164.530510792201
 30
0.0
  0
VERTEX
  5
8F
330
8D
100
AcDbEntity
  8
_U+30EC_U+30A4_U+30E4_U+30FC 1
 62
   179
420
  2234388
370
    25
100
AcDbVertex
100
AcDb2dVertex
 10
103.7814340189817
 20
-168.5309755134227
 30
0.0
  0
SEQEND
  5
90
330
8D
100
AcDbEntity
  8
_U+30EC_U+30A4_U+30E4_U+30FC 1
 62
   179
420
  2234388
370
    25
  0
POLYLINE
  5
91
330
1F
100
AcDbEntity
  8
_U+30EC_U+30A4_U+30E4_U+30FC 1
 62
   179
420
  2234388
370
    25
100
AcDb2dPolyline
 66
     1
 10
0.0
 20
0.0
 30
0.0
  0
VERTEX
  5
92
330
91
100
AcDbEntity
  8
_U+30EC_U+30A4_U+30E4_U+30FC 1
 62
   179
420
  2234388
370
    25
100
AcDbVertex
100
AcDb2dVertex
 10
80.78042932800844
 20
-151.5307907954504
 30
0.0
  0
VERTEX
  5
93
330
91
100
AcDbEntity
  8
_U+30EC_U+30A4_U+30E4_U+30FC 1
 62
   179
420
  2234388
370
    25
100
AcDbVertex
100
AcDb2dVertex
 10
80.78042932800844
 20
-168.5309755134227
 30
0.0
  0
SEQEND
  5
94
330
91
100
AcDbEntity
  8
_U+30EC_U+30A4_U+30E4_U+30FC 1
 62
   179
420
  2234388
370
    25
  0
SPLINE
  5
95
330
1F
100
AcDbEntity
  8
_U+30EC_U+30A4_U+30E4_U+30FC 1
 62
   179
420
  2234388
370
     9
100
AcDbSpline
210
0.0
220
0.0
230
1.0
 70
    11
 71
     3
 72
    17
 73
    13
 74
     0
 42
0.0000000001
 43
0.0000000001
 12
1.0
 22
0.0
 32
0.0
 13
1.0
 23
0.0
 33
0.0
 40
0.0
 40
0.0
 40
0.0
 40
0.0
 40
1.0
 40
1.0
 40
1.0
 40
2.0
 40
2.0
 40
2.0
 40
3.0
 40
3.0
 40
3.0
 40
4.0
 40
4.0
 40
4.0
 40
4.0
 10
96.68040558903292
 20
-86.83035858940367
 30
0.0
 10
96.68040558903292
 20
-86.77525470052844
 30
0.0
 10
96.72517308789081
 20
-86.73045192276172
 30
0.0
 10
96.78098253091143
 20
-86.73045192276172
 30
0.0
 10
96.83612169617139
 20
-86.73045192276172
 30
0.0
 10
96.8808916424463
 20
-86.77525470052844
 30
0.0
 10
96.8808916424463
 20
-86.83035858940367
 30
0.0
 10
96.8808916424463
 20
-86.88549775605642
 30
0.0
 10
96.83612169617139
 20
-86.93026525604532
 30
0.0
 10
96.78098253091143
 20
-86.93026525604532
 30
0.0
 10
96.72517308789081
 20
-86.93026525604532
 30
0.0
 10
96.68040558903292
 20
-86.88549775605642
 30
0.0
 10
96.68040558903292
 20
-86.83035858940367
 30
0.0
  0
SPLINE
  5
96
330
1F
100
AcDbEntity
  8
_U+30EC_U+30A4_U+30E4_U+30FC 1
 62
   179
420
  2234388
370
     9
100
AcDbSpline
210
0.0
220
0.0
230
1.0
 70
    11
 71
     3
 72
    17
 73
    13
 74
     0
 42
0.0000000001
 43
0.0000000001
 12
1.0
 22
0.0
 32
0.0
 13
1.0
 23
0.0
 33
0.0
 40
0.0
 40
0.0
 40
0.0
 40
0.0
 40
1.0
 40
1.0
 40
1.0
 40
2.0
 40
2.0
 40
2.0
 40
3.0
 40
3.0
 40
3.0
 40
4.0
 40
4.0
 40
4.0
 40
4.0
 10
97.88066386441885
 20
-86.83035858940367
 30
0.0
 10
97.88066386441885
 20
-86.77525470052844
 30
0.0
 10
97.92546664218557
 20
-86.73045192276172
 30
0.0
 10
97.98056805586302
 20
-86.73045192276172
 30
0.0
 10
98.03570722112296
 20
-86.73045192276172
 30
0.0
 10
98.08047471998084
 20
-86.77525470052844
 30
0.0
 10
98.08047471998084
 20
-86.83035858940367
 30
0.0
 10
98.08047471998084
 20
-86.88549775605642
 30
0.0
 10
98.03570722112296
 20
-86.93026525604532
 30
0.0
 10
97.98056805586302
 20
-86.93026525604532
 30
0.0
 10
97.92546664218557
 20
-86.93026525604532
 30
0.0
 10
97.88066386441885
 20
-86.88549775605642
 30
0.0
 10
97.88066386441885
 20
-86.83035858940367
 30
0.0
  0
SPLINE
  5
97
330
1F
100
AcDbEntity
  8
_U+30EC_U+30A4_U+30E4_U+30FC 1
 62
   179
420
  2234388
370
     9
100
AcDbSpline
210
0.0
220
0.0
230
1.0
 70
    11
 71
     3
 72
    17
 73
    13
 74
     0
 42
0.0000000001
 43
0.0000000001
 12
1.0
 22
0.0
 32
0.0
 13
1.0
 23
0.0
 33
0.0
 40
0.0
 40
0.0
 40
0.0
 40
0.0
 40
1.0
 40
1.0
 40
1.0
 40
2.0
 40
2.0
 40
2.0
 40
3.0
 40
3.0
 40
3.0
 40
4.0
 40
4.0
 40
4.0
 40
4.0
 10
79.6807504671747
 20
-140.5306152426449
 30
0.0
 10
79.6807504671747
 20
-140.4754760759925
 30
0.0
 10
79.72555324380946
 20
-140.4307085760033
 30
0.0
 10
79.78065713129253
 20
-140.4307085760033
 30
0.0
 10
79.83579629655249
 20
-140.4307085760033
 30
0.0
 10
79.88056379541037
 20
-140.4754760759925
 30
0.0
 10
79.88056379541037
 20
-140.5306152426449
 30
0.0
 10
79.88056379541037
 20
-140.5857191315205
 30
0.0
 10
79.83579629655249
 20
-140.6305219092866
 30
0.0
 10
79.78065713129253
 20
-140.6305219092866
 30
0.0
 10
79.72555324380946
 20
-140.6305219092866
 30
0.0
 10
79.6807504671747
 20
-140.5857191315205
 30
0.0
 10
79.6807504671747
 20
-140.5306152426449
 30
0.0
  0
SPLINE
  5
98
330
1F
100
AcDbEntity
  8
_U+30EC_U+30A4_U+30E4_U+30FC 1
 62
   179
420
  2234388
370
     9
100
AcDbSpline
210
0.0
220
0.0
230
1.0
 70
    11
 71
     3
 72
    17
 73
    13
 74
     0
 42
0.0000000001
 43
0.0000000001
 12
1.0
 22
0.0
 32
0.0
 13
1.0
 23
0.0
 33
0.0
 40
0.0
 40
0.0
 40
0.0
 40
0.0
 40
1.0
 40
1.0
 40
1.0
 40
2.0
 40
2.0
 40
2.0
 40
3.0
 40
3.0
 40
3.0
 40
4.0
 40
4.0
 40
4.0
 40
4.0
 10
83.68050953179902
 20
-140.5306152426449
 30
0.0
 10
83.68050953179902
 20
-140.4754760759925
 30
0.0
 10
83.7252770306569
 20
-140.4307085760033
 30
0.0
 10
83.78041619591684
 20
-140.4307085760033
 30
0.0
 10
83.83552220126343
 20
-140.4307085760033
 30
0.0
 10
83.88032497902982
 20
-140.4754760759925
 30
0.0
 10
83.88032497902982
 20
-140.5306152426449
 30
0.0
 10
83.88032497902982
 20
-140.5857191315205
 30
0.0
 10
83.83552220126343
 20
-140.6305219092866
 30
0.0
 10
83.78041619591684
 20
-140.6305219092866
 30
0.0
 10
83.7252770306569
 20
-140.6305219092866
 30
0.0
 10
83.68050953179902
 20
-140.5857191315205
 30
0.0
 10
83.68050953179902
 20
-140.5306152426449
 30
0.0
  0
SPLINE
  5
99
330
1F
100
AcDbEntity
  8
_U+30EC_U+30A4_U+30E4_U+30FC 1
 62
   179
420
  2234388
370
     9
100
AcDbSpline
210
0.0
220
0.0
230
1.0
 70
    11
 71
     3
 72
    17
 73
    13
 74
     0
 42
0.0000000001
 43
0.0000000001
 12
1.0
 22
0.0
 32
0.0
 13
1.0
 23
0.0
 33
0.0
 40
0.0
 40
0.0
 40
0.0
 40
0.0
 40
1.0
 40
1.0
 40
1.0
 40
2.0
 40
2.0
 40
2.0
 40
3.0
 40
3.0
 40
3.0
 40
4.0
 40
4.0
 40
4.0
 40
4.0
 10
96.68040558903292
 20
-140.5306152426449
 30
0.0
 10
96.68040558903292
 20
-140.4754760759925
 30
0.0
 10
96.72517308789081
 20
-140.4307085760033
 30
0.0
 10
96.78098253091143
 20
-140.4307085760033
 30
0.0
 10
96.83612169617139
 20
-140.4307085760033
 30
0.0
 10
96.8808916424463
 20
-140.4754760759925
 30
0.0
 10
96.8808916424463
 20
-140.5306152426449
 30
0.0
 10
96.8808916424463
 20
-140.5857191315205
 30
0.0
 10
96.83612169617139
 20
-140.6305219092866
 30
0.0
 10
96.78098253091143
 20
-140.6305219092866
 30
0.0
 10
96.72517308789081
 20
-140.6305219092866
 30
0.0
 10
96.68040558903292
 20
-140.5857191315205
 30
0.0
 10
96.68040558903292
 20
-140.5306152426449
 30
0.0
  0
SPLINE
  5
9A
330
1F
100
AcDbEntity
  8
_U+30EC_U+30A4_U+30E4_U+30FC 1
 62
   179
420
  2234388
370
     9
100
AcDbSpline
210
0.0
220
0.0
230
1.0
 70
    11
 71
     3
 72
    17
 73
    13
 74
     0
 42
0.0000000001
 43
0.0000000001
 12
1.0
 22
0.0
 32
0.0
 13
1.0
 23
0.0
 33
0.0
 40
0.0
 40
0.0
 40
0.0
 40
0.0
 40
1.0
 40
1.0
 40
1.0
 40
2.0
 40
2.0
 40
2.0
 40
3.0
 40
3.0
 40
3.0
 40
4.0
 40
4.0
 40
4.0
 40
4.0
 10
75.68032112478971
 20
-169.5307477353953
 30
0.0
 10
75.68032112478971
 20
-169.4756085687422
 30
0.0
 10
75.7250886236476
 20
-169.4308410687536
 30
0.0
 10
75.78089998105474
 20
-169.4308410687536
 30
0.0
 10
75.83603723192817
 20
-169.4308410687536
 30
0.0
 10
75.88080473078605
 20
-169.4756085687422
 30
0.0
 10
75.88080473078605
 20
-169.5307477353953
 30
0.0
 10
75.88080473078605
 20
-169.5858516242702
 30
0.0
 10
75.83603723192817
 20
-169.6306544020369
 30
0.0
 10
75.78089998105474
 20
-169.6306544020369
 30
0.0
 10
75.7250886236476
 20
-169.6306544020369
 30
0.0
 10
75.68032112478971
 20
-169.5858516242702
 30
0.0
 10
75.68032112478971
 20
-169.5307477353953
 30
0.0
  0
SPLINE
  5
9B
330
1F
100
AcDbEntity
  8
_U+30EC_U+30A4_U+30E4_U+30FC 1
 62
   179
420
  2234388
370
     9
100
AcDbSpline
210
0.0
220
0.0
230
1.0
 70
    11
 71
     3
 72
    17
 73
    13
 74
     0
 42
0.0000000001
 43
0.0000000001
 12
1.0
 22
0.0
 32
0.0
 13
1.0
 23
0.0
 33
0.0
 40
0.0
 40
0.0
 40
0.0
 40
0.0
 40
1.0
 40
1.0
 40
1.0
 40
2.0
 40
2.0
 40
2.0
 40
3.0
 40
3.0
 40
3.0
 40
4.0
 40
4.0
 40
4.0
 40
4.0
 10
75.68032112478971
 20
-144.5310446860892
 30
0.0
 10
75.68032112478971
 20
-144.4759407972143
 30
0.0
 10
75.7250886236476
 20
-144.4311380194476
 30
0.0
 10
75.78089998105474
 20
-144.4311380194476
 30
0.0
 10
75.83603723192817
 20
-144.4311380194476
 30
0.0
 10
75.88080473078605
 20
-144.4759407972143
 30
0.0
 10
75.88080473078605
 20
-144.5310446860892
 30
0.0
 10
75.88080473078605
 20
-144.5861838527423
 30
0.0
 10
75.83603723192817
 20
-144.6309513527315
 30
0.0
 10
75.78089998105474
 20
-144.6309513527315
 30
0.0
 10
75.7250886236476
 20
-144.6309513527315
 30
0.0
 10
75.68032112478971
 20
-144.5861838527423
 30
0.0
 10
75.68032112478971
 20
-144.5310446860892
 30
0.0
  0
SPLINE
  5
9C
330
1F
100
AcDbEntity
  8
_U+30EC_U+30A4_U+30E4_U+30FC 1
 62
   179
420
  2234388
370
     9
100
AcDbSpline
210
0.0
220
0.0
230
1.0
 70
    11
 71
     3
 72
    17
 73
    13
 74
     0
 42
0.0000000001
 43
0.0000000001
 12
1.0
 22
0.0
 32
0.0
 13
1.0
 23
0.0
 33
0.0
 40
0.0
 40
0.0
 40
0.0
 40
0.0
 40
1.0
 40
1.0
 40
1.0
 40
2.0
 40
2.0
 40
2.0
 40
3.0
 40
3.0
 40
3.0
 40
4.0
 40
4.0
 40
4.0
 40
4.0
 10
79.6807504671747
 20
-173.5311771788395
 30
0.0
 10
79.6807504671747
 20
-173.4753677344091
 30
0.0
 10
79.72555324380946
 20
-173.4306002344199
 30
0.0
 10
79.78065713129253
 20
-173.4306002344199
 30
0.0
 10
79.83579629655249
 20
-173.4306002344199
 30
0.0
 10
79.88056379541037
 20
-173.4753677344091
 30
0.0
 10
79.88056379541037
 20
-173.5311771788395
 30
0.0
 10
79.88056379541037
 20
-173.5863163454926
 30
0.0
 10
79.83579629655249
 20
-173.6310838454812
 30
0.0
 10
79.78065713129253
 20
-173.6310838454812
 30
0.0
 10
79.72555324380946
 20
-173.6310838454812
 30
0.0
 10
79.6807504671747
 20
-173.5863163454926
 30
0.0
 10
79.6807504671747
 20
-173.5311771788395
 30
0.0
  0
SPLINE
  5
9D
330
1F
100
AcDbEntity
  8
_U+30EC_U+30A4_U+30E4_U+30FC 1
 62
   179
420
  2234388
370
     9
100
AcDbSpline
210
0.0
220
0.0
230
1.0
 70
    11
 71
     3
 72
    17
 73
    13
 74
     0
 42
0.0000000001
 43
0.0000000001
 12
1.0
 22
0.0
 32
0.0
 13
1.0
 23
0.0
 33
0.0
 40
0.0
 40
0.0
 40
0.0
 40
0.0
 40
1.0
 40
1.0
 40
1.0
 40
2.0
 40
2.0
 40
2.0
 40
3.0
 40
3.0
 40
3.0
 40
4.0
 40
4.0
 40
4.0
 40
4.0
 10
108.6817288939648
 20
-169.5307477353953
 30
0.0
 10
108.6817288939648
 20
-169.4756085687422
 30
0.0
 10
108.725826115062
 20
-169.4308410687536
 30
0.0
 10
108.7816355580826
 20
-169.4308410687536
 30
0.0
 10
108.8367747233426
 20
-169.4308410687536
 30
0.0
 10
108.8815422222004
 20
-169.4756085687422
 30
0.0
 10
108.8815422222004
 20
-169.5307477353953
 30
0.0
 10
108.8815422222004
 20
-169.5858516242702
 30
0.0
 10
108.8367747233426
 20
-169.6306544020369
 30
0.0
 10
108.7816355580826
 20
-169.6306544020369
 30
0.0
 10
108.725826115062
 20
-169.6306544020369
 30
0.0
 10
108.6817288939648
 20
-169.5858516242702
 30
0.0
 10
108.6817288939648
 20
-169.5307477353953
 30
0.0
  0
SPLINE
  5
9E
330
1F
100
AcDbEntity
  8
_U+30EC_U+30A4_U+30E4_U+30FC 1
 62
   179
420
  2234388
370
     9
100
AcDbSpline
210
0.0
220
0.0
230
1.0
 70
    11
 71
     3
 72
    17
 73
    13
 74
     0
 42
0.0000000001
 43
0.0000000001
 12
1.0
 22
0.0
 32
0.0
 13
1.0
 23
0.0
 33
0.0
 40
0.0
 40
0.0
 40
0.0
 40
0.0
 40
1.0
 40
1.0
 40
1.0
 40
2.0
 40
2.0
 40
2.0
 40
3.0
 40
3.0
 40
3.0
 40
4.0
 40
4.0
 40
4.0
 40
4.0
 10
108.6817288939648
 20
-164.530510792201
 30
0.0
 10
108.6817288939648
 20
-164.4754069033254
 30
0.0
 10
108.725826115062
 20
-164.4306041255593
 30
0.0
 10
108.7816355580826
 20
-164.4306041255593
 30
0.0
 10
108.8367747233426
 20
-164.4306041255593
 30
0.0
 10
108.8815422222004
 20
-164.4754069033254
 30
0.0
 10
108.8815422222004
 20
-164.530510792201
 30
0.0
 10
108.8815422222004
 20
-164.5863202366314
 30
0.0
 10
108.8367747233426
 20
-164.6311230143975
 30
0.0
 10
108.7816355580826
 20
-164.6311230143975
 30
0.0
 10
108.725826115062
 20
-164.6311230143975
 30
0.0
 10
108.6817288939648
 20
-164.5863202366314
 30
0.0
 10
108.6817288939648
 20
-164.530510792201
 30
0.0
  0
SPLINE
  5
9F
330
1F
100
AcDbEntity
  8
_U+30EC_U+30A4_U+30E4_U+30FC 1
 62
   179
420
  2234388
370
     9
100
AcDbSpline
210
0.0
220
0.0
230
1.0
 70
    11
 71
     3
 72
    17
 73
    13
 74
     0
 42
0.0000000001
 43
0.0000000001
 12
1.0
 22
0.0
 32
0.0
 13
1.0
 23
0.0
 33
0.0
 40
0.0
 40
0.0
 40
0.0
 40
0.0
 40
1.0
 40
1.0
 40
1.0
 40
2.0
 40
2.0
 40
2.0
 40
3.0
 40
3.0
 40
3.0
 40
4.0
 40
4.0
 40
4.0
 40
4.0
 10
104.6812995515798
 20
-173.5311771788395
 30
0.0
 10
104.6812995515798
 20
-173.4753677344091
 30
0.0
 10
104.7260670504377
 20
-173.4306002344199
 30
0.0
 10
104.7812062156976
 20
-173.4306002344199
 30
0.0
 10
104.8363101031807
 20
-173.4306002344199
 30
0.0
 10
104.8811128798154
 20
-173.4753677344091
 30
0.0
 10
104.8811128798154
 20
-173.5311771788395
 30
0.0
 10
104.8811128798154
 20
-173.5863163454926
 30
0.0
 10
104.8363101031807
 20
-173.6310838454812
 30
0.0
 10
104.7812062156976
 20
-173.6310838454812
 30
0.0
 10
104.7260670504377
 20
-173.6310838454812
 30
0.0
 10
104.6812995515798
 20
-173.5863163454926
 30
0.0
 10
104.6812995515798
 20
-173.5311771788395
 30
0.0
  0
SPLINE
  5
A0
330
1F
100
AcDbEntity
  8
_U+30EC_U+30A4_U+30E4_U+30FC 1
 62
   179
420
  2234388
370
     9
100
AcDbSpline
210
0.0
220
0.0
230
1.0
 70
    11
 71
     3
 72
    17
 73
    13
 74
     0
 42
0.0000000001
 43
0.0000000001
 12
1.0
 22
0.0
 32
0.0
 13
1.0
 23
0.0
 33
0.0
 40
0.0
 40
0.0
 40
0.0
 40
0.0
 40
1.0
 40
1.0
 40
1.0
 40
2.0
 40
2.0
 40
2.0
 40
3.0
 40
3.0
 40
3.0
 40
4.0
 40
4.0
 40
4.0
 40
4.0
 10
108.6817288939648
 20
-151.5307907954504
 30
0.0
 10
108.6817288939648
 20
-151.4756869065755
 30
0.0
 10
108.725826115062
 20
-151.4308841288088
 30
0.0
 10
108.7816355580826
 20
-151.4308841288088
 30
0.0
 10
108.8367747233426
 20
-151.4308841288088
 30
0.0
 10
108.8815422222004
 20
-151.4756869065755
 30
0.0
 10
108.8815422222004
 20
-151.5307907954504
 30
0.0
 10
108.8815422222004
 20
-151.5859299621035
 30
0.0
 10
108.8367747233426
 20
-151.6306974620921
 30
0.0
 10
108.7816355580826
 20
-151.6306974620921
 30
0.0
 10
108.725826115062
 20
-151.6306974620921
 30
0.0
 10
108.6817288939648
 20
-151.5859299621035
 30
0.0
 10
108.6817288939648
 20
-151.5307907954504
 30
0.0
  0
SPLINE
  5
A1
330
1F
100
AcDbEntity
  8
_U+30EC_U+30A4_U+30E4_U+30FC 1
 62
   179
420
  2234388
370
     9
100
AcDbSpline
210
0.0
220
0.0
230
1.0
 70
    11
 71
     3
 72
    17
 73
    13
 74
     0
 42
0.0000000001
 43
0.0000000001
 12
1.0
 22
0.0
 32
0.0
 13
1.0
 23
0.0
 33
0.0
 40
0.0
 40
0.0
 40
0.0
 40
0.0
 40
1.0
 40
1.0
 40
1.0
 40
2.0
 40
2.0
 40
2.0
 40
3.0
 40
3.0
 40
3.0
 40
4.0
 40
4.0
 40
4.0
 40
4.0
 10
108.6817288939648
 20
-90.83078803284792
 30
0.0
 10
108.6817288939648
 20
-90.77568414397268
 30
0.0
 10
108.725826115062
 20
-90.73088136620628
 30
0.0
 10
108.7816355580826
 20
-90.73088136620628
 30
0.0
 10
108.8367747233426
 20
-90.73088136620628
 30
0.0
 10
108.8815422222004
 20
-90.77568414397268
 30
0.0
 10
108.8815422222004
 20
-90.83078803284792
 30
0.0
 10
108.8815422222004
 20
-90.88592719950067
 30
0.0
 10
108.8367747233426
 20
-90.93069469948955
 30
0.0
 10
108.7816355580826
 20
-90.93069469948955
 30
0.0
 10
108.725826115062
 20
-90.93069469948955
 30
0.0
 10
108.6817288939648
 20
-90.88592719950067
 30
0.0
 10
108.6817288939648
 20
-90.83078803284792
 30
0.0
  0
POLYLINE
  5
A2
330
1F
100
AcDbEntity
  8
_U+30EC_U+30A4_U+30E4_U+30FC 1
 62
   179
420
  2234388
370
     9
100
AcDb2dPolyline
 66
     1
 10
0.0
 20
0.0
 30
0.0
  0
VERTEX
  5
A3
330
A2
100
AcDbEntity
  8
_U+30EC_U+30A4_U+30E4_U+30FC 1
 62
   179
420
  2234388
370
     9
100
AcDbVertex
100
AcDb2dVertex
 10
97.98056805586302
 20
-86.83035858940367
 30
0.0
  0
VERTEX
  5
A4
330
A2
100
AcDbEntity
  8
_U+30EC_U+30A4_U+30E4_U+30FC 1
 62
   179
420
  2234388
370
     9
100
AcDbVertex
100
AcDb2dVertex
 10
103.2391793105936
 20
-86.83035858940367
 30
0.0
  0
SEQEND
  5
A5
330
A2
100
AcDbEntity
  8
_U+30EC_U+30A4_U+30E4_U+30FC 1
 62
   179
420
  2234388
370
     9
  0
POLYLINE
  5
A6
330
1F
100
AcDbEntity
  8
_U+30EC_U+30A4_U+30E4_U+30FC 1
 62
   179
420
  2234388
370
     9
100
AcDb2dPolyline
 66
     1
 10
0.0
 20
0.0
 30
0.0
  0
VERTEX
  5
A7
330
A6
100
AcDbEntity
  8
_U+30EC_U+30A4_U+30E4_U+30FC 1
 62
   179
420
  2234388
370
     9
100
AcDbVertex
100
AcDb2dVertex
 10
97.98056805586302
 20
-86.83035858940367
 30
0.0
  0
VERTEX
  5
A8
330
A6
100
AcDbEntity
  8
_U+30EC_U+30A4_U+30E4_U+30FC 1
 62
   179
420
  2234388
370
     9
100
AcDbVertex
100
AcDb2dVertex
 10
95.78054005643484
 20
-86.83035858940367
 30
0.0
  0
SEQEND
  5
A9
330
A6
100
AcDbEntity
  8
_U+30EC_U+30A4_U+30E4_U+30FC 1
 62
   179
420
  2234388
370
     9
  0
POLYLINE
  5
AA
330
1F
100
AcDbEntity
  8
_U+30EC_U+30A4_U+30E4_U+30FC 1
 62
   179
420
  2234388
370
     9
100
AcDb2dPolyline
 66
     1
 10
0.0
 20
0.0
 30
0.0
  0
VERTEX
  5
AB
330
AA
100
AcDbEntity
  8
_U+30EC_U+30A4_U+30E4_U+30FC 1
 62
   179
420
  2234388
370
     9
100
AcDbVertex
100
AcDb2dVertex
 10
97.98056805586302
 20
-88.29039997792738
 30
0.0
  0
VERTEX
  5
AC
330
AA
100
AcDbEntity
  8
_U+30EC_U+30A4_U+30E4_U+30FC 1
 62
   179
420
  2234388
370
     9
100
AcDbVertex
100
AcDb2dVertex
 10
97.98056805586302
 20
-85.83058636743114
 30
0.0
  0
SEQEND
  5
AD
330
AA
100
AcDbEntity
  8
_U+30EC_U+30A4_U+30E4_U+30FC 1
 62
   179
420
  2234388
370
     9
  0
POLYLINE
  5
AE
330
1F
100
AcDbEntity
  8
_U+30EC_U+30A4_U+30E4_U+30FC 1
 62
   179
420
  2234388
370
     9
100
AcDb2dPolyline
 66
     1
 10
0.0
 20
0.0
 30
0.0
  0
VERTEX
  5
AF
330
AE
100
AcDbEntity
  8
_U+30EC_U+30A4_U+30E4_U+30FC 1
 62
   179
420
  2234388
370
     9
100
AcDbVertex
100
AcDb2dVertex
 10
96.78098253091143
 20
-88.29039997792738
 30
0.0
  0
VERTEX
  5
B0
330
AE
100
AcDbEntity
  8
_U+30EC_U+30A4_U+30E4_U+30FC 1
 62
   179
420
  2234388
370
     9
100
AcDbVertex
100
AcDb2dVertex
 10
96.78098253091143
 20
-85.83058636743114
 30
0.0
  0
SEQEND
  5
B1
330
AE
100
AcDbEntity
  8
_U+30EC_U+30A4_U+30E4_U+30FC 1
 62
   179
420
  2234388
370
     9
  0
POLYLINE
  5
B2
330
1F
100
AcDbEntity
  8
_U+30EC_U+30A4_U+30E4_U+30FC 1
 62
   179
420
  2234388
370
     9
100
AcDb2dPolyline
 66
     1
 10
0.0
 20
0.0
 30
0.0
  0
VERTEX
  5
B3
330
B2
100
AcDbEntity
  8
_U+30EC_U+30A4_U+30E4_U+30FC 1
 62
   179
420
  2234388
370
     9
100
AcDbVertex
100
AcDb2dVertex
 10
108.7816355580826
 20
-151.5307907954504
 30
0.0
  0
VERTEX
  5
B4
330
B2
100
AcDbEntity
  8
_U+30EC_U+30A4_U+30E4_U+30FC 1
 62
   179
420
  2234388
370
     9
100
AcDbVertex
100
AcDb2dVertex
 10
108.7816355580826
 20
-90.83078803284792
 30
0.0
  0
SEQEND
  5
B5
330
B2
100
AcDbEntity
  8
_U+30EC_U+30A4_U+30E4_U+30FC 1
 62
   179
420
  2234388
370
     9
  0
POLYLINE
  5
B6
330
1F
100
AcDbEntity
  8
_U+30EC_U+30A4_U+30E4_U+30FC 1
 62
   179
420
  2234388
370
     9
100
AcDb2dPolyline
 66
     1
 10
0.0
 20
0.0
 30
0.0
  0
VERTEX
  5
B7
330
B6
100
AcDbEntity
  8
_U+30EC_U+30A4_U+30E4_U+30FC 1
 62
   179
420
  2234388
370
     9
100
AcDbVertex
100
AcDb2dVertex
 10
100.5209913243848
 20
-151.5307907954504
 30
0.0
  0
VERTEX
  5
B8
330
B6
100
AcDbEntity
  8
_U+30EC_U+30A4_U+30E4_U+30FC 1
 62
   179
420
  2234388
370
     9
100
AcDbVertex
100
AcDb2dVertex
 10
109.7814077547985
 20
-151.5307907954504
 30
0.0
  0
SEQEND
  5
B9
330
B6
100
AcDbEntity
  8
_U+30EC_U+30A4_U+30E4_U+30FC 1
 62
   179
420
  2234388
370
     9
  0
POLYLINE
  5
BA
330
1F
100
AcDbEntity
  8
_U+30EC_U+30A4_U+30E4_U+30FC 1
 62
   179
420
  2234388
370
     9
100
AcDb2dPolyline
 66
     1
 10
0.0
 20
0.0
 30
0.0
  0
VERTEX
  5
BB
330
BA
100
AcDbEntity
  8
_U+30EC_U+30A4_U+30E4_U+30FC 1
 62
   179
420
  2234388
370
     9
100
AcDbVertex
100
AcDb2dVertex
 10
100.5209913243848
 20
-90.83078803284792
 30
0.0
  0
VERTEX
  5
BC
330
BA
100
AcDbEntity
  8
_U+30EC_U+30A4_U+30E4_U+30FC 1
 62
   179
420
  2234388
370
     9
100
AcDbVertex
100
AcDb2dVertex
 10
109.7814077547985
 20
-90.83078803284792
 30
0.0
  0
SEQEND
  5
BD
330
BA
100
AcDbEntity
  8
_U+30EC_U+30A4_U+30E4_U+30FC 1
 62
   179
420
  2234388
370
     9
  0
POLYLINE
  5
BE
330
1F
100
AcDbEntity
  8
_U+30EC_U+30A4_U+30E4_U+30FC 1
 62
   179
420
  2234388
370
     9
100
AcDb2dPolyline
 66
     1
 10
0.0
 20
0.0
 30
0.0
  0
VERTEX
  5
BF
330
BE
100
AcDbEntity
  8
_U+30EC_U+30A4_U+30E4_U+30FC 1
 62
   179
420
  2234388
370
     9
100
AcDbVertex
100
AcDb2dVertex
 10
108.7816355580826
 20
-164.530510792201
 30
0.0
  0
VERTEX
  5
C0
330
BE
100
AcDbEntity
  8
_U+30EC_U+30A4_U+30E4_U+30FC 1
 62
   179
420
  2234388
370
     9
100
AcDbVertex
100
AcDb2dVertex
 10
108.7816355580826
 20
-151.5307907954504
 30
0.0
  0
SEQEND
  5
C1
330
BE
100
AcDbEntity
  8
_U+30EC_U+30A4_U+30E4_U+30FC 1
 62
   179
420
  2234388
370
     9
  0
POLYLINE
  5
C2
330
1F
100
AcDbEntity
  8
_U+30EC_U+30A4_U+30E4_U+30FC 1
 62
   179
420
  2234388
370
     9
100
AcDb2dPolyline
 66
     1
 10
0.0
 20
0.0
 30
0.0
  0
VERTEX
  5
C3
330
C2
100
AcDbEntity
  8
_U+30EC_U+30A4_U+30E4_U+30FC 1
 62
   179
420
  2234388
370
     9
100
AcDbVertex
100
AcDb2dVertex
 10
107.3216294842193
 20
-164.530510792201
 30
0.0
  0
VERTEX
  5
C4
330
C2
100
AcDbEntity
  8
_U+30EC_U+30A4_U+30E4_U+30FC 1
 62
   179
420
  2234388
370
     9
100
AcDbVertex
100
AcDb2dVertex
 10
109.7814077547985
 20
-164.530510792201
 30
0.0
  0
SEQEND
  5
C5
330
C2
100
AcDbEntity
  8
_U+30EC_U+30A4_U+30E4_U+30FC 1
 62
   179
420
  2234388
370
     9
  0
POLYLINE
  5
C6
330
1F
100
AcDbEntity
  8
_U+30EC_U+30A4_U+30E4_U+30FC 1
 62
   179
420
  2234388
370
     9
100
AcDb2dPolyline
 66
     1
 10
0.0
 20
0.0
 30
0.0
  0
VERTEX
  5
C7
330
C6
100
AcDbEntity
  8
_U+30EC_U+30A4_U+30E4_U+30FC 1
 62
   179
420
  2234388
370
     9
100
AcDbVertex
100
AcDb2dVertex
 10
108.7816355580826
 20
-164.530510792201
 30
0.0
  0
VERTEX
  5
C8
330
C6
100
AcDbEntity
  8
_U+30EC_U+30A4_U+30E4_U+30FC 1
 62
   179
420
  2234388
370
     9
100
AcDbVertex
100
AcDb2dVertex
 10
108.7816355580826
 20
-169.5307477353953
 30
0.0
  0
SEQEND
  5
C9
330
C6
100
AcDbEntity
  8
_U+30EC_U+30A4_U+30E4_U+30FC 1
 62
   179
420
  2234388
370
     9
  0
POLYLINE
  5
CA
330
1F
100
AcDbEntity
  8
_U+30EC_U+30A4_U+30E4_U+30FC 1
 62
   179
420
  2234388
370
     9
100
AcDb2dPolyline
 66
     1
 10
0.0
 20
0.0
 30
0.0
  0
VERTEX
  5
CB
330
CA
100
AcDbEntity
  8
_U+30EC_U+30A4_U+30E4_U+30FC 1
 62
   179
420
  2234388
370
     9
100
AcDbVertex
100
AcDb2dVertex
 10
107.3216294842193
 20
-169.5307477353953
 30
0.0
  0
VERTEX
  5
CC
330
CA
100
AcDbEntity
  8
_U+30EC_U+30A4_U+30E4_U+30FC 1
 62
   179
420
  2234388
370
     9
100
AcDbVertex
100
AcDb2dVertex
 10
109.7814077547985
 20
-169.5307477353953
 30
0.0
  0
SEQEND
  5
CD
330
CA
100
AcDbEntity
  8
_U+30EC_U+30A4_U+30E4_U+30FC 1
 62
   179
420
  2234388
370
     9
  0
POLYLINE
  5
CE
330
1F
100
AcDbEntity
  8
_U+30EC_U+30A4_U+30E4_U+30FC 1
 62
   179
420
  2234388
370
     9
100
AcDb2dPolyline
 66
     1
 10
0.0
 20
0.0
 30
0.0
  0
VERTEX
  5
CF
330
CE
100
AcDbEntity
  8
_U+30EC_U+30A4_U+30E4_U+30FC 1
 62
   179
420
  2234388
370
     9
100
AcDbVertex
100
AcDb2dVertex
 10
75.78089998105474
 20
-144.5310446860892
 30
0.0
  0
VERTEX
  5
D0
330
CE
100
AcDbEntity
  8
_U+30EC_U+30A4_U+30E4_U+30FC 1
 62
   179
420
  2234388
370
     9
100
AcDbVertex
100
AcDb2dVertex
 10
75.78089998105474
 20
-169.5307477353953
 30
0.0
  0
SEQEND
  5
D1
330
CE
100
AcDbEntity
  8
_U+30EC_U+30A4_U+30E4_U+30FC 1
 62
   179
420
  2234388
370
     9
  0
POLYLINE
  5
D2
330
1F
100
AcDbEntity
  8
_U+30EC_U+30A4_U+30E4_U+30FC 1
 62
   179
420
  2234388
370
     9
100
AcDb2dPolyline
 66
     1
 10
0.0
 20
0.0
 30
0.0
  0
VERTEX
  5
D3
330
D2
100
AcDbEntity
  8
_U+30EC_U+30A4_U+30E4_U+30FC 1
 62
   179
420
  2234388
370
     9
100
AcDbVertex
100
AcDb2dVertex
 10
77.24093941830836
 20
-144.5310446860892
 30
0.0
  0
VERTEX
  5
D4
330
D2
100
AcDbEntity
  8
_U+30EC_U+30A4_U+30E4_U+30FC 1
 62
   179
420
  2234388
370
     9
100
AcDbVertex
100
AcDb2dVertex
 10
74.78045559219164
 20
-144.5310446860892
 30
0.0
  0
SEQEND
  5
D5
330
D2
100
AcDbEntity
  8
_U+30EC_U+30A4_U+30E4_U+30FC 1
 62
   179
420
  2234388
370
     9
  0
POLYLINE
  5
D6
330
1F
100
AcDbEntity
  8
_U+30EC_U+30A4_U+30E4_U+30FC 1
 62
   179
420
  2234388
370
     9
100
AcDb2dPolyline
 66
     1
 10
0.0
 20
0.0
 30
0.0
  0
VERTEX
  5
D7
330
D6
100
AcDbEntity
  8
_U+30EC_U+30A4_U+30E4_U+30FC 1
 62
   179
420
  2234388
370
     9
100
AcDbVertex
100
AcDb2dVertex
 10
77.24093941830836
 20
-169.5307477353953
 30
0.0
  0
VERTEX
  5
D8
330
D6
100
AcDbEntity
  8
_U+30EC_U+30A4_U+30E4_U+30FC 1
 62
   179
420
  2234388
370
     9
100
AcDbVertex
100
AcDb2dVertex
 10
74.78045559219164
 20
-169.5307477353953
 30
0.0
  0
SEQEND
  5
D9
330
D6
100
AcDbEntity
  8
_U+30EC_U+30A4_U+30E4_U+30FC 1
 62
   179
420
  2234388
370
     9
  0
POLYLINE
  5
DA
330
1F
100
AcDbEntity
  8
_U+30EC_U+30A4_U+30E4_U+30FC 1
 62
   179
420
  2234388
370
     9
100
AcDb2dPolyline
 66
     1
 10
0.0
 20
0.0
 30
0.0
  0
VERTEX
  5
DB
330
DA
100
AcDbEntity
  8
_U+30EC_U+30A4_U+30E4_U+30FC 1
 62
   179
420
  2234388
370
     9
100
AcDbVertex
100
AcDb2dVertex
 10
83.78041619591684
 20
-140.5306152426449
 30
0.0
  0
VERTEX
  5
DC
330
DA
100
AcDbEntity
  8
_U+30EC_U+30A4_U+30E4_U+30FC 1
 62
   179
420
  2234388
370
     9
100
AcDbVertex
100
AcDb2dVertex
 10
79.78065713129253
 20
-140.5306152426449
 30
0.0
  0
SEQEND
  5
DD
330
DA
100
AcDbEntity
  8
_U+30EC_U+30A4_U+30E4_U+30FC 1
 62
   179
420
  2234388
370
     9
  0
POLYLINE
  5
DE
330
1F
100
AcDbEntity
  8
_U+30EC_U+30A4_U+30E4_U+30FC 1
 62
   179
420
  2234388
370
     9
100
AcDb2dPolyline
 66
     1
 10
0.0
 20
0.0
 30
0.0
  0
VERTEX
  5
DF
330
DE
100
AcDbEntity
  8
_U+30EC_U+30A4_U+30E4_U+30FC 1
 62
   179
420
  2234388
370
     9
100
AcDbVertex
100
AcDb2dVertex
 10
83.78041619591684
 20
-141.9906566311693
 30
0.0
  0
VERTEX
  5
E0
330
DE
100
AcDbEntity
  8
_U+30EC_U+30A4_U+30E4_U+30FC 1
 62
   179
420
  2234388
370
     9
100
AcDbVertex
100
AcDb2dVertex
 10
83.78041619591684
 20
-139.530843020673
 30
0.0
  0
SEQEND
  5
E1
330
DE
100
AcDbEntity
  8
_U+30EC_U+30A4_U+30E4_U+30FC 1
 62
   179
420
  2234388
370
     9
  0
POLYLINE
  5
E2
330
1F
100
AcDbEntity
  8
_U+30EC_U+30A4_U+30E4_U+30FC 1
 62
   179
420
  2234388
370
     9
100
AcDb2dPolyline
 66
     1
 10
0.0
 20
0.0
 30
0.0
  0
VERTEX
  5
E3
330
E2
100
AcDbEntity
  8
_U+30EC_U+30A4_U+30E4_U+30FC 1
 62
   179
420
  2234388
370
     9
100
AcDbVertex
100
AcDb2dVertex
 10
79.78065713129253
 20
-141.9906566311693
 30
0.0
  0
VERTEX
  5
E4
330
E2
100
AcDbEntity
  8
_U+30EC_U+30A4_U+30E4_U+30FC 1
 62
   179
420
  2234388
370
     9
100
AcDbVertex
100
AcDb2dVertex
 10
79.78065713129253
 20
-139.530843020673
 30
0.0
  0
SEQEND
  5
E5
330
E2
100
AcDbEntity
  8
_U+30EC_U+30A4_U+30E4_U+30FC 1
 62
   179
420
  2234388
370
     9
  0
POLYLINE
  5
E6
330
1F
100
AcDbEntity
  8
_U+30EC_U+30A4_U+30E4_U+30FC 1
 62
   179
420
  2234388
370
     9
100
AcDb2dPolyline
 66
     1
 10
0.0
 20
0.0
 30
0.0
  0
VERTEX
  5
E7
330
E6
100
AcDbEntity
  8
_U+30EC_U+30A4_U+30E4_U+30FC 1
 62
   179
420
  2234388
370
     9
100
AcDbVertex
100
AcDb2dVertex
 10
83.78041619591684
 20
-140.5306152426449
 30
0.0
  0
VERTEX
  5
E8
330
E6
100
AcDbEntity
  8
_U+30EC_U+30A4_U+30E4_U+30FC 1
 62
   179
420
  2234388
370
     9
100
AcDbVertex
100
AcDb2dVertex
 10
96.78098253091143
 20
-140.5306152426449
 30
0.0
  0
SEQEND
  5
E9
330
E6
100
AcDbEntity
  8
_U+30EC_U+30A4_U+30E4_U+30FC 1
 62
   179
420
  2234388
370
     9
  0
POLYLINE
  5
EA
330
1F
100
AcDbEntity
  8
_U+30EC_U+30A4_U+30E4_U+30FC 1
 62
   179
420
  2234388
370
     9
100
AcDb2dPolyline
 66
     1
 10
0.0
 20
0.0
 30
0.0
  0
VERTEX
  5
EB
330
EA
100
AcDbEntity
  8
_U+30EC_U+30A4_U+30E4_U+30FC 1
 62
   179
420
  2234388
370
     9
100
AcDbVertex
100
AcDb2dVertex
 10
104.7812062156976
 20
-173.5311771788395
 30
0.0
  0
VERTEX
  5
EC
330
EA
100
AcDbEntity
  8
_U+30EC_U+30A4_U+30E4_U+30FC 1
 62
   179
420
  2234388
370
     9
100
AcDbVertex
100
AcDb2dVertex
 10
79.78065713129253
 20
-173.5311771788395
 30
0.0
  0
SEQEND
  5
ED
330
EA
100
AcDbEntity
  8
_U+30EC_U+30A4_U+30E4_U+30FC 1
 62
   179
420
  2234388
370
     9
  0
POLYLINE
  5
EE
330
1F
100
AcDbEntity
  8
_U+30EC_U+30A4_U+30E4_U+30FC 1
 62
   179
420
  2234388
370
     9
100
AcDb2dPolyline
 66
     1
 10
0.0
 20
0.0
 30
0.0
  0
VERTEX
  5
EF
330
EE
100
AcDbEntity
  8
_U+30EC_U+30A4_U+30E4_U+30FC 1
 62
   179
420
  2234388
370
     9
100
AcDbVertex
100
AcDb2dVertex
 10
104.7812062156976
 20
-172.0711357903158
 30
0.0
  0
VERTEX
  5
F0
330
EE
100
AcDbEntity
  8
_U+30EC_U+30A4_U+30E4_U+30FC 1
 62
   179
420
  2234388
370
     9
100
AcDbVertex
100
AcDb2dVertex
 10
104.7812062156976
 20
-174.5309494008114
 30
0.0
  0
SEQEND
  5
F1
330
EE
100
AcDbEntity
  8
_U+30EC_U+30A4_U+30E4_U+30FC 1
 62
   179
420
  2234388
370
     9
  0
POLYLINE
  5
F2
330
1F
100
AcDbEntity
  8
_U+30EC_U+30A4_U+30E4_U+30FC 1
 62
   179
420
  2234388
370
     9
100
AcDb2dPolyline
 66
     1
 10
0.0
 20
0.0
 30
0.0
  0
VERTEX
  5
F3
330
F2
100
AcDbEntity
  8
_U+30EC_U+30A4_U+30E4_U+30FC 1
 62
   179
420
  2234388
370
     9
100
AcDbVertex
100
AcDb2dVertex
 10
79.78065713129253
 20
-172.0711357903158
 30
0.0
  0
VERTEX
  5
F4
330
F2
100
AcDbEntity
  8
_U+30EC_U+30A4_U+30E4_U+30FC 1
 62
   179
420
  2234388
370
     9
100
AcDbVertex
100
AcDb2dVertex
 10
79.78065713129253
 20
-174.5309494008114
 30
0.0
  0
SEQEND
  5
F5
330
F2
100
AcDbEntity
  8
_U+30EC_U+30A4_U+30E4_U+30FC 1
 62
   179
420
  2234388
370
     9
  0
INSERT
  5
F7
330
1F
100
AcDbEntity
  8
_U+30EC_U+30A4_U+30E4_U+30FC 1
100
AcDbBlockReference
  2
block 2
 10
0.0
 20
0.0
 30
0.0
  0
INSERT
  5
107
330
1F
100
AcDbEntity
  8
_U+30EC_U+30A4_U+30E4_U+30FC 1
100
AcDbBlockReference
  2
block 3
 10
0.0
 20
0.0
 30
0.0
  0
INSERT
  5
11B
330
1F
100
AcDbEntity
  8
_U+30EC_U+30A4_U+30E4_U+30FC 1
100
AcDbBlockReference
  2
block 4
 10
0.0
 20
0.0
 30
0.0
  0
INSERT
  5
123
330
1F
100
AcDbEntity
  8
_U+30EC_U+30A4_U+30E4_U+30FC 1
100
AcDbBlockReference
  2
block 5
 10
0.0
 20
0.0
 30
0.0
  0
INSERT
  5
129
330
1F
100
AcDbEntity
  8
_U+30EC_U+30A4_U+30E4_U+30FC 1
100
AcDbBlockReference
  2
block 6
 10
0.0
 20
0.0
 30
0.0
  0
INSERT
  5
131
330
1F
100
AcDbEntity
  8
_U+30EC_U+30A4_U+30E4_U+30FC 1
100
AcDbBlockReference
  2
block 7
 10
0.0
 20
0.0
 30
0.0
  0
INSERT
  5
14A
330
1F
100
AcDbEntity
  8
_U+30EC_U+30A4_U+30E4_U+30FC 1
100
AcDbBlockReference
  2
block 8
 10
0.0
 20
0.0
 30
0.0
  0
INSERT
  5
152
330
1F
100
AcDbEntity
  8
_U+30EC_U+30A4_U+30E4_U+30FC 1
100
AcDbBlockReference
  2
block 9
 10
0.0
 20
0.0
 30
0.0
  0
ENDSEC
  0
SECTION
  2
OBJECTS
  0
DICTIONARY
  5
C
330
0
100
AcDbDictionary
281
     1
  3
ACAD_GROUP
350
D
  3
ACAD_LAYOUT
350
1A
  3
ACAD_MATERIAL
350
3B
  3
ACAD_MLEADERSTYLE
350
15A
  3
ACAD_MLINESTYLE
350
17
  3
ACAD_PLOTSETTINGS
350
19
  3
ACAD_PLOTSTYLENAME
350
E
  3
ACAD_TABLESTYLE
350
159
  3
ACAD_VISUALSTYLE
350
2A
  0
SUN
  5
3F
330
29
100
AcDbSun
 90
        1
290
     0
 63
     7
421
 16777215
 40
1.0
291
     1
 91
  2455826
 92
 54000000
292
     0
 70
     2
 71
   256
280
     1
  0
DICTIONARY
  5
D
102
{ACAD_REACTORS
330
C
102
}
330
C
100
AcDbDictionary
281
     1
  0
DICTIONARY
  5
1A
102
{ACAD_REACTORS
330
C
102
}
330
C
100
AcDbDictionary
281
     1
  3
Layout1
350
1E
  3
Layout2
350
26
  3
Model
350
22
  0
DICTIONARY
  5
3B
102
{ACAD_REACTORS
330
C
102
}
330
C
100
AcDbDictionary
281
     1
  3
ByBlock
350
3D
  3
ByLayer
350
3C
  3
Global
350
3E
  0
DICTIONARY
  5
15A
102
{ACAD_REACTORS
330
C
102
}
330
C
100
AcDbDictionary
281
     1
  0
DICTIONARY
  5
17
102
{ACAD_REACTORS
330
C
102
}
330
C
100
AcDbDictionary
281
     1
  3
Standard
350
18
  0
DICTIONARY
  5
19
102
{ACAD_REACTORS
330
C
102
}
330
C
100
AcDbDictionary
281
     1
  0
ACDBDICTIONARYWDFLT
  5
E
102
{ACAD_REACTORS
330
C
102
}
330
C
100
AcDbDictionary
281
     1
  3
Normal
350
F
100
AcDbDictionaryWithDefault
340
F
  0
DICTIONARY
  5
159
102
{ACAD_REACTORS
330
C
102
}
330
C
100
AcDbDictionary
281
     1
  0
DICTIONARY
  5
2A
102
{ACAD_REACTORS
330
C
102
}
330
C
100
AcDbDictionary
281
     1
  3
2dWireframe
350
2F
  3
3D Hidden
350
31
  3
3dWireframe
350
30
  3
Basic
350
32
  3
Brighten
350
36
  3
ColorChange
350
3A
  3
Conceptual
350
34
  3
Dim
350
35
  3
Facepattern
350
39
  3
Flat
350
2B
  3
FlatWithEdges
350
2C
  3
Gouraud
350
2D
  3
GouraudWithEdges
350
2E
  3
Linepattern
350
38
  3
Realistic
350
33
  3
Thicken
350
37
  0
LAYOUT
  5
1E
102
{ACAD_REACTORS
330
1A
102
}
330
1A
100
AcDbPlotSettings
  1

  2
none_device
  4

  6

 40
0.0
 41
0.0
 42
0.0
 43
0.0
 44
0.0
 45
0.0
 46
0.0
 47
0.0
 48
0.0
 49
0.0
140
0.0
141
0.0
142
1.0
143
1.0
 70
   688
 72
     0
 73
     0
 74
     5
  7

 75
    16
 76
     0
 77
     2
 78
   300
147
1.0
148
0.0
149
0.0
100
AcDbLayout
  1
Layout1
 70
     1
 71
     1
 10
0.0
 20
0.0
 11
12.0
 21
9.0
 12
0.0
 22
0.0
 32
0.0
 14
1.000000000000000E+20
 24
1.000000000000000E+20
 34
1.000000000000000E+20
 15
-1.000000000000000E+20
 25
-1.000000000000000E+20
 35
-1.000000000000000E+20
146
0.0
 13
0.0
 23
0.0
 33
0.0
 16
1.0
 26
0.0
 36
0.0
 17
0.0
 27
1.0
 37
0.0
 76
     0
330
1B
  0
LAYOUT
  5
26
102
{ACAD_REACTORS
330
1A
102
}
330
1A
100
AcDbPlotSettings
  1

  2
none_device
  4

  6

 40
0.0
 41
0.0
 42
0.0
 43
0.0
 44
0.0
 45
0.0
 46
0.0
 47
0.0
 48
0.0
 49
0.0
140
0.0
141
0.0
142
1.0
143
1.0
 70
   688
 72
     0
 73
     0
 74
     5
  7

 75
    16
 76
     0
 77
     2
 78
   300
147
1.0
148
0.0
149
0.0
100
AcDbLayout
  1
Layout2
 70
     1
 71
     2
 10
0.0
 20
0.0
 11
0.0
 21
0.0
 12
0.0
 22
0.0
 32
0.0
 14
0.0
 24
0.0
 34
0.0
 15
0.0
 25
0.0
 35
0.0
146
0.0
 13
0.0
 23
0.0
 33
0.0
 16
1.0
 26
0.0
 36
0.0
 17
0.0
 27
1.0
 37
0.0
 76
     0
330
23
  0
LAYOUT
  5
22
102
{ACAD_REACTORS
330
1A
102
}
330
1A
100
AcDbPlotSettings
  1

  2
none_device
  4

  6

 40
0.0
 41
0.0
 42
0.0
 43
0.0
 44
0.0
 45
0.0
 46
0.0
 47
0.0
 48
0.0
 49
0.0
140
0.0
141
0.0
142
1.0
143
1.0
 70
  1712
 72
     0
 73
     0
 74
     0
  7

 75
     0
 76
     0
 77
     2
 78
   300
147
1.0
148
0.0
149
0.0
100
AcDbLayout
  1
Model
 70
     1
 71
     0
 10
0.0
 20
0.0
 11
12.0
 21
9.0
 12
0.0
 22
0.0
 32
0.0
 14
1.000000000000000E+20
 24
1.000000000000000E+20
 34
1.000000000000000E+20
 15
-1.000000000000000E+20
 25
-1.000000000000000E+20
 35
-1.000000000000000E+20
146
0.0
 13
0.0
 23
0.0
 33
0.0
 16
1.0
 26
0.0
 36
0.0
 17
0.0
 27
1.0
 37
0.0
 76
     0
330
1F
331
29
  0
MATERIAL
  5
3D
102
{ACAD_REACTORS
330
3B
102
}
330
3B
100
AcDbMaterial
  1
ByBlock
 72
     1
 94
      127
  0
MATERIAL
  5
3C
102
{ACAD_REACTORS
330
3B
102
}
330
3B
100
AcDbMaterial
  1
ByLayer
 72
     1
 94
      127
  0
MATERIAL
  5
3E
102
{ACAD_REACTORS
330
3B
102
}
330
3B
100
AcDbMaterial
  1
Global
 72
     1
 94
      127
  0
MLINESTYLE
  5
18
102
{ACAD_REACTORS
330
17
102
}
330
17
100
AcDbMlineStyle
  2
Standard
 70
     0
  3

 62
   256
 51
90.0
 52
90.0
 71
     2
 49
0.5
 62
   256
  6
BYLAYER
 49
-0.5
 62
   256
  6
BYLAYER
  0
ACDBPLACEHOLDER
  5
F
102
{ACAD_REACTORS
330
E
102
}
330
E
  0
VISUALSTYLE
  5
2F
102
{ACAD_REACTORS
330
2A
102
}
330
2A
100
AcDbVisualStyle
  2
2dWireframe
 70
     4
177
     2
291
     0
 71
     0
176
     1
 72
     2
176
     1
 73
     0
176
     1
 90
        0
176
     1
 40
-0.6
176
     1
 41
-30.0
176
     1
 62
     5
 63
     7
421
 16777215
176
     1
 74
     1
176
     1
 91
        4
176
     1
 64
     7
176
     1
 65
   257
176
     1
 75
     1
176
     1
175
     1
176
     1
 42
1.0
176
     1
 92
        0
176
     1
 66
   257
176
     1
 43
1.0
176
     1
 76
     1
176
     1
 77
     6
176
     1
 78
     2
176
     1
 67
     7
176
     1
 79
     5
176
     1
170
     0
176
     1
171
     0
176
     1
290
     0
176
     1
 93
        1
176
     1
 44
0.0
176
     1
173
     0
176
     1
  0
VISUALSTYLE
  5
31
102
{ACAD_REACTORS
330
2A
102
}
330
2A
100
AcDbVisualStyle
  2
3D Hidden
 70
     6
177
     2
291
     0
 71
     1
176
     1
 72
     2
176
     1
 73
     2
176
     1
 90
        0
176
     1
 40
-0.6
176
     1
 41
-30.0
176
     1
 62
     5
 63
     7
421
 16777215
176
     1
 74
     2
176
     1
 91
        2
176
     1
 64
     7
176
     1
 65
   257
176
     1
 75
     2
176
     1
175
     1
176
     1
 42
40.0
176
     1
 92
        0
176
     1
 66
   257
176
     1
 43
1.0
176
     1
 76
     1
176
     1
 77
     6
176
     1
 78
     2
176
     1
 67
     7
176
     1
 79
     3
176
     1
170
     0
176
     1
171
     0
176
     1
290
     0
176
     1
 93
        1
176
     1
 44
0.0
176
     1
173
     0
176
     1
  0
VISUALSTYLE
  5
30
102
{ACAD_REACTORS
330
2A
102
}
330
2A
100
AcDbVisualStyle
  2
3dWireframe
 70
     5
177
     2
291
     0
 71
     0
176
     1
 72
     2
176
     1
 73
     0
176
     1
 90
        0
176
     1
 40
-0.6
176
     1
 41
-30.0
176
     1
 62
     5
 63
     7
421
 16777215
176
     1
 74
     1
176
     1
 91
        4
176
     1
 64
     7
176
     1
 65
   257
176
     1
 75
     1
176
     1
175
     1
176
     1
 42
1.0
176
     1
 92
        0
176
     1
 66
   257
176
     1
 43
1.0
176
     1
 76
     1
176
     1
 77
     6
176
     1
 78
     2
176
     1
 67
     7
176
     1
 79
     5
176
     1
170
     0
176
     1
171
     0
176
     1
290
     0
176
     1
 93
        1
176
     1
 44
0.0
176
     1
173
     0
176
     1
  0
VISUALSTYLE
  5
32
102
{ACAD_REACTORS
330
2A
102
}
330
2A
100
AcDbVisualStyle
  2
Basic
 70
     7
177
     2
291
     1
 71
     1
176
     1
 72
     0
176
     1
 73
     1
176
     1
 90
        0
176
     1
 40
-0.6
176
     1
 41
-30.0
176
     1
 62
     5
 63
     7
421
 16777215
176
     1
 74
     0
176
     1
 91
        4
176
     1
 64
     7
176
     1
 65
   257
176
     1
 75
     1
176
     1
175
     1
176
     1
 42
1.0
176
     1
 92
        8
176
     1
 66
     7
176
     1
 43
1.0
176
     1
 76
     1
176
     1
 77
     6
176
     1
 78
     2
176
     1
 67
     7
176
     1
 79
     5
176
     1
170
     0
176
     1
171
     0
176
     1
290
     0
176
     1
 93
        1
176
     1
 44
0.0
176
     1
173
     0
176
     1
  0
VISUALSTYLE
  5
36
102
{ACAD_REACTORS
330
2A
102
}
330
2A
100
AcDbVisualStyle
  2
Brighten
 70
    12
177
     2
291
     1
 71
     2
176
     1
 72
     2
176
     1
 73
     0
176
     1
 90
        0
176
     1
 40
-0.6
176
     1
 41
-30.0
176
     1
 62
     5
 63
     7
421
 16777215
176
     1
 74
     1
176
     1
 91
        4
176
     1
 64
     7
176
     1
 65
   257
176
     1
 75
     1
176
     1
175
     1
176
     1
 42
1.0
176
     1
 92
        8
176
     1
 66
     7
176
     1
 43
1.0
176
     1
 76
     1
176
     1
 77
     6
176
     1
 78
     2
176
     1
 67
     7
176
     1
 79
     5
176
     1
170
     0
176
     1
171
     0
176
     1
290
     0
176
     1
 93
        1
176
     1
 44
50.0
176
     1
173
     0
176
     1
  0
VISUALSTYLE
  5
3A
102
{ACAD_REACTORS
330
2A
102
}
330
2A
100
AcDbVisualStyle
  2
ColorChange
 70
    16
177
     2
291
     1
 71
     2
176
     1
 72
     2
176
     1
 73
     3
176
     1
 90
        0
176
     1
 40
-0.6
176
     1
 41
-30.0
176
     1
 62
     5
 63
     8
421
  8421504
176
     1
 74
     1
176
     1
 91
        4
176
     1
 64
     7
176
     1
 65
   257
176
     1
 75
     1
176
     1
175
     1
176
     1
 42
1.0
176
     1
 92
        8
176
     1
 66
     8
424
  8421504
176
     1
 43
1.0
176
     1
 76
     1
176
     1
 77
     6
176
     1
 78
     2
176
     1
 67
     7
176
     1
 79
     5
176
     1
170
     0
176
     1
171
     0
176
     1
290
     0
176
     1
 93
        1
176
     1
 44
0.0
176
     1
173
     0
176
     1
  0
VISUALSTYLE
  5
34
102
{ACAD_REACTORS
330
2A
102
}
330
2A
100
AcDbVisualStyle
  2
Conceptual
 70
     9
177
     2
291
     0
 71
     3
176
     1
 72
     2
176
     1
 73
     0
176
     1
 90
        0
176
     1
 40
-0.6
176
     1
 41
-30.0
176
     1
 62
     5
 63
     7
421
 16777215
176
     1
 74
     2
176
     1
 91
        2
176
     1
 64
     7
176
     1
 65
   257
176
     1
 75
     1
176
     1
175
     1
176
     1
 42
40.0
176
     1
 92
        8
176
     1
 66
     7
176
     1
 43
1.0
176
     1
 76
     1
176
     1
 77
     6
176
     1
 78
     2
176
     1
 67
     7
176
     1
 79
     3
176
     1
170
     0
176
     1
171
     0
176
     1
290
     0
176
     1
 93
        1
176
     1
 44
0.0
176
     1
173
     0
176
     1
  0
VISUALSTYLE
  5
35
102
{ACAD_REACTORS
330
2A
102
}
330
2A
100
AcDbVisualStyle
  2
Dim
 70
    11
177
     2
291
     1
 71
     2
176
     1
 72
     2
176
     1
 73
     0
176
     1
 90
        0
176
     1
 40
-0.6
176
     1
 41
-30.0
176
     1
 62
     5
 63
     7
421
 16777215
176
     1
 74
     1
176
     1
 91
        4
176
     1
 64
     7
176
     1
 65
   257
176
     1
 75
     1
176
     1
175
     1
176
     1
 42
1.0
176
     1
 92
        8
176
     1
 66
     7
176
     1
 43
1.0
176
     1
 76
     1
176
     1
 77
     6
176
     1
 78
     2
176
     1
 67
     7
176
     1
 79
     5
176
     1
170
     0
176
     1
171
     0
176
     1
290
     0
176
     1
 93
        1
176
     1
 44
-50.0
176
     1
173
     0
176
     1
  0
VISUALSTYLE
  5
39
102
{ACAD_REACTORS
330
2A
102
}
330
2A
100
AcDbVisualStyle
  2
Facepattern
 70
    15
177
     2
291
     1
 71
     2
176
     1
 72
     2
176
     1
 73
     0
176
     1
 90
        0
176
     1
 40
-0.6
176
     1
 41
-30.0
176
     1
 62
     5
 63
     7
421
 16777215
176
     1
 74
     1
176
     1
 91
        4
176
     1
 64
     7
176
     1
 65
   257
176
     1
 75
     1
176
     1
175
     1
176
     1
 42
1.0
176
     1
 92
        8
176
     1
 66
     7
176
     1
 43
1.0
176
     1
 76
     1
176
     1
 77
     6
176
     1
 78
     2
176
     1
 67
     7
176
     1
 79
     5
176
     1
170
     0
176
     1
171
     0
176
     1
290
     0
176
     1
 93
        1
176
     1
 44
0.0
176
     1
173
     0
176
     1
  0
VISUALSTYLE
  5
2B
102
{ACAD_REACTORS
330
2A
102
}
330
2A
100
AcDbVisualStyle
  2
Flat
 70
     0
177
     2
291
     1
 71
     2
176
     1
 72
     1
176
     1
 73
     1
176
     1
 90
        2
176
     1
 40
-0.6
176
     1
 41
30.0
176
     1
 62
     5
 63
     7
421
 16777215
176
     1
 74
     0
176
     1
 91
        4
176
     1
 64
     7
176
     1
 65
   257
176
     1
 75
     1
176
     1
175
     1
176
     1
 42
1.0
176
     1
 92
        8
176
     1
 66
     7
176
     1
 43
1.0
176
     1
 76
     1
176
     1
 77
     6
176
     1
 78
     2
176
     1
 67
     7
176
     1
 79
     5
176
     1
170
     0
176
     1
171
     0
176
     1
290
     0
176
     1
 93
       13
176
     1
 44
0.0
176
     1
173
     0
176
     1
  0
VISUALSTYLE
  5
2C
102
{ACAD_REACTORS
330
2A
102
}
330
2A
100
AcDbVisualStyle
  2
FlatWithEdges
 70
     1
177
     2
291
     1
 71
     2
176
     1
 72
     1
176
     1
 73
     1
176
     1
 90
        2
176
     1
 40
-0.6
176
     1
 41
30.0
176
     1
 62
     5
 63
     7
421
 16777215
176
     1
 74
     1
176
     1
 91
        4
176
     1
 64
     7
176
     1
 65
   257
176
     1
 75
     1
176
     1
175
     1
176
     1
 42
1.0
176
     1
 92
        0
176
     1
 66
   257
176
     1
 43
1.0
176
     1
 76
     1
176
     1
 77
     6
176
     1
 78
     2
176
     1
 67
     7
176
     1
 79
     5
176
     1
170
     0
176
     1
171
     0
176
     1
290
     0
176
     1
 93
       13
176
     1
 44
0.0
176
     1
173
     0
176
     1
  0
VISUALSTYLE
  5
2D
102
{ACAD_REACTORS
330
2A
102
}
330
2A
100
AcDbVisualStyle
  2
Gouraud
 70
     2
177
     2
291
     1
 71
     2
176
     1
 72
     2
176
     1
 73
     1
176
     1
 90
        2
176
     1
 40
-0.6
176
     1
 41
30.0
176
     1
 62
     5
 63
     7
421
 16777215
176
     1
 74
     0
176
     1
 91
        4
176
     1
 64
     7
176
     1
 65
   257
176
     1
 75
     1
176
     1
175
     1
176
     1
 42
1.0
176
     1
 92
        0
176
     1
 66
     7
176
     1
 43
1.0
176
     1
 76
     1
176
     1
 77
     6
176
     1
 78
     2
176
     1
 67
     7
176
     1
 79
     5
176
     1
170
     0
176
     1
171
     0
176
     1
290
     0
176
     1
 93
       13
176
     1
 44
0.0
176
     1
173
     0
176
     1
  0
VISUALSTYLE
  5
2E
102
{ACAD_REACTORS
330
2A
102
}
330
2A
100
AcDbVisualStyle
  2
GouraudWithEdges
 70
     3
177
     2
291
     1
 71
     2
176
     1
 72
     2
176
     1
 73
     1
176
     1
 90
        2
176
     1
 40
-0.6
176
     1
 41
30.0
176
     1
 62
     5
 63
     7
421
 16777215
176
     1
 74
     1
176
     1
 91
        4
176
     1
 64
     7
176
     1
 65
   257
176
     1
 75
     1
176
     1
175
     1
176
     1
 42
1.0
176
     1
 92
        0
176
     1
 66
   257
176
     1
 43
1.0
176
     1
 76
     1
176
     1
 77
     6
176
     1
 78
     2
176
     1
 67
     7
176
     1
 79
     5
176
     1
170
     0
176
     1
171
     0
176
     1
290
     0
176
     1
 93
       13
176
     1
 44
0.0
176
     1
173
     0
176
     1
  0
VISUALSTYLE
  5
38
102
{ACAD_REACTORS
330
2A
102
}
330
2A
100
AcDbVisualStyle
  2
Linepattern
 70
    14
177
     2
291
     1
 71
     2
176
     1
 72
     2
176
     1
 73
     0
176
     1
 90
        0
176
     1
 40
-0.6
176
     1
 41
-30.0
176
     1
 62
     5
 63
     7
421
 16777215
176
     1
 74
     1
176
     1
 91
        4
176
     1
 64
     7
176
     1
 65
   257
176
     1
 75
     7
176
     1
175
     7
176
     1
 42
1.0
176
     1
 92
        8
176
     1
 66
     7
176
     1
 43
1.0
176
     1
 76
     1
176
     1
 77
     6
176
     1
 78
     2
176
     1
 67
     7
176
     1
 79
     5
176
     1
170
     0
176
     1
171
     0
176
     1
290
     0
176
     1
 93
        1
176
     1
 44
0.0
176
     1
173
     0
176
     1
  0
VISUALSTYLE
  5
33
102
{ACAD_REACTORS
330
2A
102
}
330
2A
100
AcDbVisualStyle
  2
Realistic
 70
     8
177
     2
291
     0
 71
     2
176
     1
 72
     2
176
     1
 73
     0
176
     1
 90
        0
176
     1
 40
-0.6
176
     1
 41
-30.0
176
     1
 62
     5
 63
     7
421
 16777215
176
     1
 74
     1
176
     1
 91
        0
176
     1
 64
     7
176
     1
 65
   257
176
     1
 75
     1
176
     1
175
     1
176
     1
 42
1.0
176
     1
 92
        8
176
     1
 66
     8
424
  7895160
176
     1
 43
1.0
176
     1
 76
     1
176
     1
 77
     6
176
     1
 78
     2
176
     1
 67
     7
176
     1
 79
     5
176
     1
170
     0
176
     1
171
     0
176
     1
290
     0
176
     1
 93
       13
176
     1
 44
0.0
176
     1
173
     0
176
     1
  0
VISUALSTYLE
  5
37
102
{ACAD_REACTORS
330
2A
102
}
330
2A
100
AcDbVisualStyle
  2
Thicken
 70
    13
177
     2
291
     1
 71
     2
176
     1
 72
     2
176
     1
 73
     0
176
     1
 90
        0
176
     1
 40
-0.6
176
     1
 41
-30.0
176
     1
 62
     5
 63
     7
421
 16777215
176
     1
 74
     1
176
     1
 91
        4
176
     1
 64
     7
176
     1
 65
   257
176
     1
 75
     1
176
     1
175
     1
176
     1
 42
1.0
176
     1
 92
       12
176
     1
 66
     7
176
     1
 43
1.0
176
     1
 76
     1
176
     1
 77
     6
176
     1
 78
     2
176
     1
 67
     7
176
     1
 79
     5
176
     1
170
     0
176
     1
171
     0
176
     1
290
     0
176
     1
 93
        1
176
     1
 44
0.0
176
     1
173
     0
176
     1
  0
ENDSEC
  0
EOF
