  0
SECTION
  2
HEADER
  9
$ACADVER
  1
AC1024
  9
$ACADMAINTVER
 70
     6
  9
$DWGCODEPAGE
  3
UNDEFINED
  9
$INSBASE
 10
0.0
 20
0.0
 30
0.0
  9
$EXTMIN
 10
1.000000000000000E+20
 20
1.000000000000000E+20
 30
1.000000000000000E+20
  9
$EXTMAX
 10
-1.000000000000000E+20
 20
-1.000000000000000E+20
 30
-1.000000000000000E+20
  9
$LIMMIN
 10
0.0
 20
0.0
  9
$LIMMAX
 10
12.0
 20
9.0
  9
$ORTHOMODE
 70
     0
  9
$REGENMODE
 70
     1
  9
$FILLMODE
 70
     1
  9
$QTEXTMODE
 70
     0
  9
$MIRRTEXT
 70
     1
  9
$LTSCALE
 40
1.0
  9
$ATTMODE
 70
     1
  9
$TEXTSIZE
 40
0.2
  9
$TRACEWID
 40
0.05
  9
$TEXTSTYLE
  7
Standard
  9
$CLAYER
  8
0
  9
$CELTYPE
  6
ByLayer
  9
$CECOLOR
 62
   256
  9
$CELTSCALE
 40
1.0
  9
$DISPSILH
 70
     0
  9
$DIMSCALE
 40
1.0
  9
$DIMASZ
 40
0.18
  9
$DIMEXO
 40
0.0625
  9
$DIMDLI
 40
0.38
  9
$DIMRND
 40
0.0
  9
$DIMDLE
 40
0.0
  9
$DIMEXE
 40
0.18
  9
$DIMTP
 40
0.0
  9
$DIMTM
 40
0.0
  9
$DIMTXT
 40
0.18
  9
$DIMCEN
 40
0.09
  9
$DIMTSZ
 40
0.0
  9
$DIMTOL
 70
     0
  9
$DIMLIM
 70
     0
  9
$DIMTIH
 70
     1
  9
$DIMTOH
 70
     1
  9
$DIMSE1
 70
     0
  9
$DIMSE2
 70
     0
  9
$DIMTAD
 70
     0
  9
$DIMZIN
 70
     0
  9
$DIMBLK
  1

  9
$DIMASO
 70
     1
  9
$DIMSHO
 70
     1
  9
$DIMPOST
  1

  9
$DIMAPOST
  1

  9
$DIMALT
 70
     0
  9
$DIMALTD
 70
     2
  9
$DIMALTF
 40
25.4
  9
$DIMLFAC
 40
1.0
  9
$DIMTOFL
 70
     0
  9
$DIMTVP
 40
0.0
  9
$DIMTIX
 70
     0
  9
$DIMSOXD
 70
     0
  9
$DIMSAH
 70
     0
  9
$DIMBLK1
  1

  9
$DIMBLK2
  1

  9
$DIMSTYLE
  2
Standard
  9
$DIMCLRD
 70
     0
  9
$DIMCLRE
 70
     0
  9
$DIMCLRT
 70
     0
  9
$DIMTFAC
 40
1.0
  9
$DIMGAP
 40
0.09
  9
$DIMJUST
 70
     0
  9
$DIMSD1
 70
     0
  9
$DIMSD2
 70
     0
  9
$DIMTOLJ
 70
     1
  9
$DIMTZIN
 70
     0
  9
$DIMALTZ
 70
     0
  9
$DIMALTTZ
 70
     0
  9
$DIMUPT
 70
     0
  9
$DIMDEC
 70
     4
  9
$DIMTDEC
 70
     4
  9
$DIMALTU
 70
     2
  9
$DIMALTTD
 70
     2
  9
$DIMTXSTY
  7
Standard
  9
$DIMAUNIT
 70
     0
  9
$DIMADEC
 70
     0
  9
$DIMALTRND
 40
0.0
  9
$DIMAZIN
 70
     0
  9
$DIMDSEP
 70
    46
  9
$DIMATFIT
 70
     3
  9
$DIMFRAC
 70
     0
  9
$DIMLDRBLK
  1

  9
$DIMLUNIT
 70
     2
  9
$DIMLWD
 70
    -2
  9
$DIMLWE
 70
    -2
  9
$DIMTMOVE
 70
     0
  9
$DIMFXL
 40
1.0
  9
$DIMFXLON
 70
     0
  9
$DIMJOGANG
 40
0.7853981633974483
  9
$DIMTFILL
 70
     0
  9
$DIMTFILLCLR
 70
     0
  9
$DIMARCSYM
 70
     0
  9
$DIMLTYPE
  6

  9
$DIMLTEX1
  6

  9
$DIMLTEX2
  6

  9
$DIMTXTDIRECTION
 70
     0
  9
$LUNITS
 70
     2
  9
$LUPREC
 70
     4
  9
$SKETCHINC
 40
0.1
  9
$FILLETRAD
 40
0.5
  9
$AUNITS
 70
     0
  9
$AUPREC
 70
     0
  9
$MENU
  1
.
  9
$ELEVATION
 40
0.0
  9
$PELEVATION
 40
0.0
  9
$THICKNESS
 40
0.0
  9
$LIMCHECK
 70
     0
  9
$CHAMFERA
 40
0.5
  9
$CHAMFERB
 40
0.5
  9
$CHAMFERC
 40
1.0
  9
$CHAMFERD
 40
0.0
  9
$SKPOLY
 70
     0
  9
$TDCREATE
 40
2457917.613576389
  9
$TDUCREATE
 40
2457917.238576389
  9
$TDUPDATE
 40
2457917.613576389
  9
$TDUUPDATE
 40
2457917.238576389
  9
$TDINDWG
 40
0.0000000116
  9
$TDUSRTIMER
 40
0.0000000116
  9
$USRTIMER
 70
     1
  9
$ANGBASE
 50
0.0
  9
$ANGDIR
 70
     0
  9
$PDMODE
 70
     0
  9
$PDSIZE
 40
0.0
  9
$PLINEWID
 40
0.0
  9
$SPLFRAME
 70
     0
  9
$SPLINETYPE
 70
     6
  9
$SPLINESEGS
 70
     8
  9
$HANDSEED
  5
16F
  9
$SURFTAB1
 70
     6
  9
$SURFTAB2
 70
     6
  9
$SURFTYPE
 70
     6
  9
$SURFU
 70
     6
  9
$SURFV
 70
     6
  9
$UCSBASE
  2

  9
$UCSNAME
  2

  9
$UCSORG
 10
0.0
 20
0.0
 30
0.0
  9
$UCSXDIR
 10
1.0
 20
0.0
 30
0.0
  9
$UCSYDIR
 10
0.0
 20
1.0
 30
0.0
  9
$UCSORTHOREF
  2

  9
$UCSORTHOVIEW
 70
     0
  9
$UCSORGTOP
 10
0.0
 20
0.0
 30
0.0
  9
$UCSORGBOTTOM
 10
0.0
 20
0.0
 30
0.0
  9
$UCSORGLEFT
 10
0.0
 20
0.0
 30
0.0
  9
$UCSORGRIGHT
 10
0.0
 20
0.0
 30
0.0
  9
$UCSORGFRONT
 10
0.0
 20
0.0
 30
0.0
  9
$UCSORGBACK
 10
0.0
 20
0.0
 30
0.0
  9
$PUCSBASE
  2

  9
$PUCSNAME
  2

  9
$PUCSORG
 10
0.0
 20
0.0
 30
0.0
  9
$PUCSXDIR
 10
1.0
 20
0.0
 30
0.0
  9
$PUCSYDIR
 10
0.0
 20
1.0
 30
0.0
  9
$PUCSORTHOREF
  2

  9
$PUCSORTHOVIEW
 70
     0
  9
$PUCSORGTOP
 10
0.0
 20
0.0
 30
0.0
  9
$PUCSORGBOTTOM
 10
0.0
 20
0.0
 30
0.0
  9
$PUCSORGLEFT
 10
0.0
 20
0.0
 30
0.0
  9
$PUCSORGRIGHT
 10
0.0
 20
0.0
 30
0.0
  9
$PUCSORGFRONT
 10
0.0
 20
0.0
 30
0.0
  9
$PUCSORGBACK
 10
0.0
 20
0.0
 30
0.0
  9
$USERI1
 70
     0
  9
$USERI2
 70
     0
  9
$USERI3
 70
     0
  9
$USERI4
 70
     0
  9
$USERI5
 70
     0
  9
$USERR1
 40
0.0
  9
$USERR2
 40
0.0
  9
$USERR3
 40
0.0
  9
$USERR4
 40
0.0
  9
$USERR5
 40
0.0
  9
$WORLDVIEW
 70
     1
  9
$SHADEDGE
 70
     3
  9
$SHADEDIF
 70
    70
  9
$TILEMODE
 70
     1
  9
$MAXACTVP
 70
    64
  9
$PINSBASE
 10
0.0
 20
0.0
 30
0.0
  9
$PLIMCHECK
 70
     0
  9
$PEXTMIN
 10
1.000000000000000E+20
 20
1.000000000000000E+20
 30
1.000000000000000E+20
  9
$PEXTMAX
 10
-1.000000000000000E+20
 20
-1.000000000000000E+20
 30
-1.000000000000000E+20
  9
$PLIMMIN
 10
0.0
 20
0.0
  9
$PLIMMAX
 10
12.0
 20
9.0
  9
$UNITMODE
 70
     0
  9
$VISRETAIN
 70
     1
  9
$PLINEGEN
 70
     0
  9
$PSLTSCALE
 70
     1
  9
$TREEDEPTH
 70
  3020
  9
$CMLSTYLE
  2
Standard
  9
$CMLJUST
 70
     0
  9
$CMLSCALE
 40
1.0
  9
$PROXYGRAPHICS
 70
     1
  9
$MEASUREMENT
 70
     0
  9
$CELWEIGHT
370
    -1
  9
$ENDCAPS
280
     0
  9
$JOINSTYLE
280
     0
  9
$LWDISPLAY
290
     1
  9
$INSUNITS
 70
     1
  9
$HYPERLINKBASE
  1

  9
$STYLESHEET
  1

  9
$XEDIT
290
     1
  9
$CEPSNTYPE
380
     0
  9
$PSTYLEMODE
290
     1
  9
$FINGERPRINTGUID
  2
{C12E94A7-4830-CF9C-BAFE-5C2D6906C6AB}
  9
$VERSIONGUID
  2
{FAEB1C32-E019-11D5-929B-00C0DF256EC4}
  9
$EXTNAMES
290
     1
  9
$PSVPSCALE
 40
0.0
  9
$OLESTARTUP
290
     0
  9
$SORTENTS
280
   127
  9
$INDEXCTL
280
     0
  9
$HIDETEXT
280
     1
  9
$XCLIPFRAME
280
     2
  9
$HALOGAP
280
     0
  9
$OBSCOLOR
 70
   257
  9
$OBSLTYPE
280
     0
  9
$INTERSECTIONDISPLAY
280
     0
  9
$INTERSECTIONCOLOR
 70
   257
  9
$DIMASSOC
280
     2
  9
$PROJECTNAME
  1

  9
$CAMERADISPLAY
290
     0
  9
$LENSLENGTH
 40
50.0
  9
$CAMERAHEIGHT
 40
0.0
  9
$STEPSPERSEC
 40
2.0
  9
$STEPSIZE
 40
6.0
  9
$3DDWFPREC
 40
2.0
  9
$PSOLWIDTH
 40
0.25
  9
$PSOLHEIGHT
 40
4.0
  9
$LOFTANG1
 40
1.570796326794897
  9
$LOFTANG2
 40
1.570796326794897
  9
$LOFTMAG1
 40
0.0
  9
$LOFTMAG2
 40
0.0
  9
$LOFTPARAM
 70
     7
  9
$LOFTNORMALS
280
     1
  9
$LATITUDE
 40
37.795
  9
$LONGITUDE
 40
-122.394
  9
$NORTHDIRECTION
 40
0.0
  9
$TIMEZONE
 70
 -8000
  9
$LIGHTGLYPHDISPLAY
280
     1
  9
$TILEMODELIGHTSYNCH
280
     1
  9
$CMATERIAL
347
3C
  9
$SOLIDHIST
280
     1
  9
$SHOWHIST
280
     1
  9
$DWFFRAME
280
     2
  9
$DGNFRAME
280
     2
  9
$REALWORLDSCALE
290
     1
  9
$INTERFERECOLOR
 62
   256
  9
$CSHADOW
280
     0
  9
$SHADOWPLANELOCATION
 40
0.0
  0
ENDSEC
  0
SECTION
  2
CLASSES
  0
CLASS
  1
ACDBDICTIONARYWDFLT
  2
AcDbDictionaryWithDefault
  3
ObjectDBX Classes
 90
        0
 91
        4
280
     0
281
     0
  0
CLASS
  1
VISUALSTYLE
  2
AcDbVisualStyle
  3
ObjectDBX Classes
 90
     4095
 91
        4
280
     0
281
     0
  0
CLASS
  1
MATERIAL
  2
AcDbMaterial
  3
ObjectDBX Classes
 90
     1153
 91
        4
280
     0
281
     0
  0
CLASS
  1
SUN
  2
AcDbSun
  3
SCENEOE
 90
     1024
 91
        4
280
     0
281
     0
  0
ENDSEC
  0
SECTION
  2
TABLES
  0
TABLE
  2
VPORT
  5
8
330
0
100
AcDbSymbolTable
 70
     1
  0
VPORT
  5
29
330
8
100
AcDbSymbolTableRecord
100
AcDbViewportTableRecord
  2
*Active
 70
     0
 10
0.0
 20
0.0
 11
1.0
 21
1.0
 12
0.0
 22
0.0
 13
0.0
 23
0.0
 14
0.5
 24
0.5
 15
0.5
 25
0.5
 16
0.0
 26
0.0
 36
1.0
 17
91.00082462281999
 27
-128.4993055234307
 37
0.0
 40
256.9986110468615
 41
0.7081814508812795
 42
50.0
 43
0.0
 44
0.0
 50
0.0
 51
0.0
 71
     0
 72
   100
 73
     1
 74
     3
 75
     0
 76
     0
 77
     0
 78
     0
281
     0
 65
     1
110
0.0
120
0.0
130
0.0
111
1.0
121
0.0
131
0.0
112
0.0
122
1.0
132
0.0
 79
     0
146
0.0
 60
     3
 61
     5
292
     1
282
     1
141
0.0
142
0.0
 63
   250
361
3F
  0
ENDTAB
  0
TABLE
  2
LTYPE
  5
5
330
0
100
AcDbSymbolTable
 70
     1
  0
LTYPE
  5
14
330
5
100
AcDbSymbolTableRecord
100
AcDbLinetypeTableRecord
  2
ByBlock
 70
     0
  3

 72
    65
 73
     0
 40
0.0
  0
LTYPE
  5
15
330
5
100
AcDbSymbolTableRecord
100
AcDbLinetypeTableRecord
  2
ByLayer
 70
     0
  3

 72
    65
 73
     0
 40
0.0
  0
LTYPE
  5
16
330
5
100
AcDbSymbolTableRecord
100
AcDbLinetypeTableRecord
  2
Continuous
 70
     0
  3
Solid line
 72
    65
 73
     0
 40
0.0
  0
ENDTAB
  0
TABLE
  2
LAYER
  5
2
330
0
100
AcDbSymbolTable
 70
     2
  0
LAYER
  5
10
330
2
100
AcDbSymbolTableRecord
100
AcDbLayerTableRecord
  2
0
 70
     0
 62
     7
  6
Continuous
370
    -3
390
F
347
3E
  0
LAYER
  5
40
330
2
100
AcDbSymbolTableRecord
100
AcDbLayerTableRecord
  2
_U+30EC_U+30A4_U+30E4_U+30FC 1
 70
     0
 62
     7
  6
Continuous
370
    -3
390
F
347
3E
  0
ENDTAB
  0
TABLE
  2
STYLE
  5
3
330
0
100
AcDbSymbolTable
 70
     1
  0
STYLE
  5
11
330
3
100
AcDbSymbolTableRecord
100
AcDbTextStyleTableRecord
  2
Standard
 70
     0
 40
0.0
 41
1.0
 50
0.0
 71
     0
 42
0.2
  3
txt
  4

  0
ENDTAB
  0
TABLE
  2
VIEW
  5
6
330
0
100
AcDbSymbolTable
 70
     0
  0
ENDTAB
  0
TABLE
  2
UCS
  5
7
330
0
100
AcDbSymbolTable
 70
     0
  0
ENDTAB
  0
TABLE
  2
APPID
  5
9
330
0
100
AcDbSymbolTable
 70
     1
  0
APPID
  5
12
330
9
100
AcDbSymbolTableRecord
100
AcDbRegAppTableRecord
  2
ACAD
 70
     0
  0
ENDTAB
  0
TABLE
  2
DIMSTYLE
  5
A
330
0
100
AcDbSymbolTable
 70
     1
100
AcDbDimStyleTable
  0
DIMSTYLE
105
27
330
A
100
AcDbSymbolTableRecord
100
AcDbDimStyleTableRecord
  2
Standard
 70
     0
178
     0
340
11
  0
ENDTAB
  0
TABLE
  2
BLOCK_RECORD
  5
1
330
0
100
AcDbSymbolTable
 70
     9
  0
BLOCK_RECORD
  5
1F
330
1
100
AcDbSymbolTableRecord
100
AcDbBlockTableRecord
  2
*Model_Space
340
22
 70
     0
280
     1
281
     0
  0
BLOCK_RECORD
  5
1B
330
1
100
AcDbSymbolTableRecord
100
AcDbBlockTableRecord
  2
*Paper_Space
340
1E
 70
     0
280
     1
281
     0
  0
BLOCK_RECORD
  5
23
330
1
100
AcDbSymbolTableRecord
100
AcDbBlockTableRecord
  2
*Paper_Space0
340
26
 70
     0
280
     1
281
     0
  0
BLOCK_RECORD
  5
102
330
1
100
AcDbSymbolTableRecord
100
AcDbBlockTableRecord
  2
block 2
340
0
102
{BLKREFS
331
103
102
}
 70
     0
280
     1
281
     0
  0
BLOCK_RECORD
  5
112
330
1
100
AcDbSymbolTableRecord
100
AcDbBlockTableRecord
  2
block 3
340
0
102
{BLKREFS
331
113
102
}
 70
     0
280
     1
281
     0
  0
BLOCK_RECORD
  5
11B
330
1
100
AcDbSymbolTableRecord
100
AcDbBlockTableRecord
  2
block 4
340
0
102
{BLKREFS
331
11C
102
}
 70
     0
280
     1
281
     0
  0
BLOCK_RECORD
  5
123
330
1
100
AcDbSymbolTableRecord
100
AcDbBlockTableRecord
  2
block 5
340
0
102
{BLKREFS
331
124
102
}
 70
     0
280
     1
281
     0
  0
BLOCK_RECORD
  5
13C
330
1
100
AcDbSymbolTableRecord
100
AcDbBlockTableRecord
  2
block 6
340
0
102
{BLKREFS
331
13D
102
}
 70
     0
280
     1
281
     0
  0
BLOCK_RECORD
  5
144
330
1
100
AcDbSymbolTableRecord
100
AcDbBlockTableRecord
  2
block 7
340
0
102
{BLKREFS
331
145
102
}
 70
     0
280
     1
281
     0
  0
BLOCK_RECORD
  5
14D
330
1
100
AcDbSymbolTableRecord
100
AcDbBlockTableRecord
  2
block 8
340
0
102
{BLKREFS
331
14E
102
}
 70
     0
280
     1
281
     0
  0
BLOCK_RECORD
  5
155
330
1
100
AcDbSymbolTableRecord
100
AcDbBlockTableRecord
  2
block 9
340
0
102
{BLKREFS
331
156
102
}
 70
     0
280
     1
281
     0
  0
ENDTAB
  0
ENDSEC
  0
SECTION
  2
BLOCKS
  0
BLOCK
  5
20
330
1F
100
AcDbEntity
  8
0
100
AcDbBlockBegin
  2
*Model_Space
 70
     0
 10
0.0
 20
0.0
 30
0.0
  3
*Model_Space
  1

  0
ENDBLK
  5
21
330
1F
100
AcDbEntity
  8
0
100
AcDbBlockEnd
  0
BLOCK
  5
1C
330
1B
100
AcDbEntity
 67
     1
  8
0
100
AcDbBlockBegin
  2
*Paper_Space
 70
     0
 10
0.0
 20
0.0
 30
0.0
  3
*Paper_Space
  1

  0
ENDBLK
  5
1D
330
1B
100
AcDbEntity
 67
     1
  8
0
100
AcDbBlockEnd
  0
BLOCK
  5
24
330
23
100
AcDbEntity
  8
0
100
AcDbBlockBegin
  2
*Paper_Space0
 70
     0
 10
0.0
 20
0.0
 30
0.0
  3
*Paper_Space0
  1

  0
ENDBLK
  5
25
330
23
100
AcDbEntity
  8
0
100
AcDbBlockEnd
  0
BLOCK
  5
104
330
102
100
AcDbEntity
  8
0
100
AcDbBlockBegin
  2
block 2
 70
     0
 10
0.0
 20
0.0
 30
0.0
  3
block 2
  1

  0
SPLINE
  5
106
330
102
100
AcDbEntity
  8
_U+30EC_U+30A4_U+30E4_U+30FC 1
370
     0
100
AcDbSpline
210
0.0
220
0.0
230
1.0
 70
    11
 71
     3
 72
    26
 73
    22
 74
     0
 42
0.0000000001
 43
0.0000000001
 12
1.0
 22
0.0
 32
0.0
 13
1.0
 23
0.0
 33
0.0
 40
0.0
 40
0.0
 40
0.0
 40
0.0
 40
1.0
 40
1.0
 40
1.0
 40
2.0
 40
2.0
 40
2.0
 40
3.0
 40
3.0
 40
3.0
 40
4.0
 40
4.0
 40
4.0
 40
5.0
 40
5.0
 40
5.0
 40
6.0
 40
6.0
 40
6.0
 40
7.0
 40
7.0
 40
7.0
 40
7.0
 10
93.84543454685115
 20
-103.1046454277829
 30
0.0
 10
93.84543454685115
 20
-103.1046454277829
 30
0.0
 10
93.84543454685115
 20
-102.000320069986
 30
0.0
 10
93.84543454685115
 20
-102.000320069986
 30
0.0
 10
93.84543454685115
 20
-102.000320069986
 30
0.0
 10
93.55432397834754
 20
-102.000320069986
 30
0.0
 10
93.55432397834754
 20
-102.000320069986
 30
0.0
 10
93.55432397834754
 20
-102.000320069986
 30
0.0
 10
93.55432397834754
 20
-101.8523532188945
 30
0.0
 10
93.55432397834754
 20
-101.8523532188945
 30
0.0
 10
93.84715709459377
 20
-101.837539308308
 30
0.0
 10
93.88849824041677
 20
-101.6745862918557
 30
0.0
 10
93.91468096610467
 20
-101.5603813765196
 30
0.0
 10
93.91468096610467
 20
-101.5603813765196
 30
0.0
 10
94.04352753725301
 20
-101.5603813765196
 30
0.0
 10
94.04352753725301
 20
-101.5603813765196
 30
0.0
 10
94.04352753725301
 20
-101.5603813765196
 30
0.0
 10
94.04352753725301
 20
-103.1046454277829
 30
0.0
 10
94.04352753725301
 20
-103.1046454277829
 30
0.0
 10
94.04352753725301
 20
-103.1046454277829
 30
0.0
 10
93.84543454685115
 20
-103.1046454277829
 30
0.0
 10
93.84543454685115
 20
-103.1046454277829
 30
0.0
  0
HATCH
  5
107
330
102
100
AcDbEntity
  8
_U+30EC_U+30A4_U+30E4_U+30FC 1
 62
   179
420
  2234388
100
AcDbHatch
 10
0.0
 20
0.0
 30
0.0
210
0.0
220
0.0
230
1.0
  2
SOLID
 70
     1
 71
     0
 91
        1
 92
        1
 93
        1
 72
     4
 94
        3
 73
     0
 74
     1
 95
       26
 96
       22
 40
0.0
 40
0.0
 40
0.0
 40
0.0
 40
1.0
 40
1.0
 40
1.0
 40
2.0
 40
2.0
 40
2.0
 40
3.0
 40
3.0
 40
3.0
 40
4.0
 40
4.0
 40
4.0
 40
5.0
 40
5.0
 40
5.0
 40
6.0
 40
6.0
 40
6.0
 40
7.0
 40
7.0
 40
7.0
 40
7.0
 10
93.84543454685115
 20
-103.1046454277829
 10
93.84543454685115
 20
-103.1046454277829
 10
93.84543454685115
 20
-102.000320069986
 10
93.84543454685115
 20
-102.000320069986
 10
93.84543454685115
 20
-102.000320069986
 10
93.55432397834754
 20
-102.000320069986
 10
93.55432397834754
 20
-102.000320069986
 10
93.55432397834754
 20
-102.000320069986
 10
93.55432397834754
 20
-101.8523532188945
 10
93.55432397834754
 20
-101.8523532188945
 10
93.84715709459377
 20
-101.837539308308
 10
93.88849824041677
 20
-101.6745862918557
 10
93.91468096610467
 20
-101.5603813765196
 10
93.91468096610467
 20
-101.5603813765196
 10
94.04352753725301
 20
-101.5603813765196
 10
94.04352753725301
 20
-101.5603813765196
 10
94.04352753725301
 20
-101.5603813765196
 10
94.04352753725301
 20
-103.1046454277829
 10
94.04352753725301
 20
-103.1046454277829
 10
94.04352753725301
 20
-103.1046454277829
 10
93.84543454685115
 20
-103.1046454277829
 10
93.84543454685115
 20
-103.1046454277829
 97
        0
 97
        0
 75
     2
 76
     1
 98
        0
  0
POLYLINE
  5
108
330
102
100
AcDbEntity
  8
_U+30EC_U+30A4_U+30E4_U+30FC 1
370
     0
100
AcDb2dPolyline
 66
     1
 10
0.0
 20
0.0
 30
0.0
  0
VERTEX
  5
109
330
108
100
AcDbEntity
  8
_U+30EC_U+30A4_U+30E4_U+30FC 1
370
     0
100
AcDbVertex
100
AcDb2dVertex
 10
94.539621287129
 20
-103.1046454277829
 30
0.0
  0
VERTEX
  5
10A
330
108
100
AcDbEntity
  8
_U+30EC_U+30A4_U+30E4_U+30FC 1
370
     0
100
AcDbVertex
100
AcDb2dVertex
 10
94.539621287129
 20
-102.8529812025854
 30
0.0
  0
VERTEX
  5
10B
330
108
100
AcDbEntity
  8
_U+30EC_U+30A4_U+30E4_U+30FC 1
370
     0
100
AcDbVertex
100
AcDb2dVertex
 10
94.7618299459276
 20
-102.8529812025854
 30
0.0
  0
VERTEX
  5
10C
330
108
100
AcDbEntity
  8
_U+30EC_U+30A4_U+30E4_U+30FC 1
370
     0
100
AcDbVertex
100
AcDb2dVertex
 10
94.7618299459276
 20
-103.1046454277829
 30
0.0
  0
VERTEX
  5
10D
330
108
100
AcDbEntity
  8
_U+30EC_U+30A4_U+30E4_U+30FC 1
370
     0
100
AcDbVertex
100
AcDb2dVertex
 10
94.539621287129
 20
-103.1046454277829
 30
0.0
  0
SEQEND
  5
10E
330
108
100
AcDbEntity
  8
_U+30EC_U+30A4_U+30E4_U+30FC 1
370
     0
  0
HATCH
  5
10F
330
102
100
AcDbEntity
  8
_U+30EC_U+30A4_U+30E4_U+30FC 1
 62
   179
420
  2234388
100
AcDbHatch
 10
0.0
 20
0.0
 30
0.0
210
0.0
220
0.0
230
1.0
  2
SOLID
 70
     1
 71
     0
 91
        1
 92
        1
 93
        4
 72
     1
 10
94.539621287129
 20
-103.1046454277829
 11
94.539621287129
 21
-102.8529812025854
 72
     1
 10
94.539621287129
 20
-102.8529812025854
 11
94.7618299459276
 21
-102.8529812025854
 72
     1
 10
94.7618299459276
 20
-102.8529812025854
 11
94.7618299459276
 21
-103.1046454277829
 72
     1
 10
94.7618299459276
 20
-103.1046454277829
 11
94.539621287129
 21
-103.1046454277829
 97
        0
 75
     2
 76
     1
 98
        0
  0
SPLINE
  5
110
330
102
100
AcDbEntity
  8
_U+30EC_U+30A4_U+30E4_U+30FC 1
370
     0
100
AcDbSpline
210
0.0
220
0.0
230
1.0
 70
    11
 71
     3
 72
    44
 73
    40
 74
     0
 42
0.0000000001
 43
0.0000000001
 12
1.0
 22
0.0
 32
0.0
 13
1.0
 23
0.0
 33
0.0
 40
0.0
 40
0.0
 40
0.0
 40
0.0
 40
1.0
 40
1.0
 40
1.0
 40
2.0
 40
2.0
 40
2.0
 40
3.0
 40
3.0
 40
3.0
 40
4.0
 40
4.0
 40
4.0
 40
5.0
 40
5.0
 40
5.0
 40
6.0
 40
6.0
 40
6.0
 40
7.0
 40
7.0
 40
7.0
 40
8.0
 40
8.0
 40
8.0
 40
9.0
 40
9.0
 40
9.0
 40
10.0
 40
10.0
 40
10.0
 40
11.0
 40
11.0
 40
11.0
 40
12.0
 40
12.0
 40
12.0
 40
13.0
 40
13.0
 40
13.0
 40
13.0
 10
95.49460175564025
 20
-102.5229410550984
 30
0.0
 10
95.3023654275633
 20
-102.6815877021942
 30
0.0
 10
95.22037215501436
 20
-102.7556572551271
 30
0.0
 10
95.1769639519002
 20
-102.8994899916362
 30
0.0
 10
95.1769639519002
 20
-102.8994899916362
 30
0.0
 10
95.86460501075608
 20
-102.8994899916362
 30
0.0
 10
95.86460501075608
 20
-102.8994899916362
 30
0.0
 10
95.86460501075608
 20
-102.8994899916362
 30
0.0
 10
95.86460501075608
 20
-103.1046454277829
 30
0.0
 10
95.86460501075608
 20
-103.1046454277829
 30
0.0
 10
95.86460501075608
 20
-103.1046454277829
 30
0.0
 10
94.95682235039274
 20
-103.1046454277829
 30
0.0
 10
94.95682235039274
 20
-103.1046454277829
 30
0.0
 10
94.98472762382326
 20
-102.7470445164139
 30
0.0
 10
95.04260522797546
 20
-102.6688408488988
 30
0.0
 10
95.38263615236963
 20
-102.3704955798761
 30
0.0
 10
95.60863441620201
 20
-102.1717135703772
 30
0.0
 10
95.6665120203542
 20
-102.1040174440921
 30
0.0
 10
95.6665120203542
 20
-101.9665581342306
 30
0.0
 10
95.6665120203542
 20
-101.848046849538
 30
0.0
 10
95.60312226342562
 20
-101.7169609663242
 30
0.0
 10
95.42914494142049
 20
-101.7169609663242
 30
0.0
 10
95.19970158210286
 20
-101.7169609663242
 30
0.0
 10
95.19212237203531
 20
-101.9474378542875
 30
0.0
 10
95.18833276700153
 20
-102.0638820816889
 30
0.0
 10
95.18833276700153
 20
-102.0638820816889
 30
0.0
 10
94.99023977659967
 20
-102.0638820816889
 30
0.0
 10
94.99023977659967
 20
-102.0638820816889
 30
0.0
 10
94.99781898666721
 20
-101.9369303130574
 30
0.0
 10
95.00712074447739
 20
-101.8247924550126
 30
0.0
 10
95.07843422102206
 20
-101.70628117032
 30
0.0
 10
95.17524140415759
 20
-101.5455674659331
 30
0.0
 10
95.339572458804
 20
-101.5116332754033
 30
0.0
 10
95.44223630426444
 20
-101.5116332754033
 30
0.0
 10
95.6871825932657
 20
-101.5116332754033
 30
0.0
 10
95.87011716353247
 20
-101.69577362909
 30
0.0
 10
95.87011716353247
 20
-101.9686251915217
 30
0.0
 10
95.87011716353247
 20
-102.1970350221938
 30
0.0
 10
95.76745331807203
 20
-102.2965982817175
 30
0.0
 10
95.49460175564025
 20
-102.5229410550984
 30
0.0
  0
HATCH
  5
111
330
102
100
AcDbEntity
  8
_U+30EC_U+30A4_U+30E4_U+30FC 1
 62
   179
420
  2234388
100
AcDbHatch
 10
0.0
 20
0.0
 30
0.0
210
0.0
220
0.0
230
1.0
  2
SOLID
 70
     1
 71
     0
 91
        1
 92
        1
 93
        1
 72
     4
 94
        3
 73
     0
 74
     1
 95
       44
 96
       40
 40
0.0
 40
0.0
 40
0.0
 40
0.0
 40
1.0
 40
1.0
 40
1.0
 40
2.0
 40
2.0
 40
2.0
 40
3.0
 40
3.0
 40
3.0
 40
4.0
 40
4.0
 40
4.0
 40
5.0
 40
5.0
 40
5.0
 40
6.0
 40
6.0
 40
6.0
 40
7.0
 40
7.0
 40
7.0
 40
8.0
 40
8.0
 40
8.0
 40
9.0
 40
9.0
 40
9.0
 40
10.0
 40
10.0
 40
10.0
 40
11.0
 40
11.0
 40
11.0
 40
12.0
 40
12.0
 40
12.0
 40
13.0
 40
13.0
 40
13.0
 40
13.0
 10
95.49460175564025
 20
-102.5229410550984
 10
95.3023654275633
 20
-102.6815877021942
 10
95.22037215501436
 20
-102.7556572551271
 10
95.1769639519002
 20
-102.8994899916362
 10
95.1769639519002
 20
-102.8994899916362
 10
95.86460501075608
 20
-102.8994899916362
 10
95.86460501075608
 20
-102.8994899916362
 10
95.86460501075608
 20
-102.8994899916362
 10
95.86460501075608
 20
-103.1046454277829
 10
95.86460501075608
 20
-103.1046454277829
 10
95.86460501075608
 20
-103.1046454277829
 10
94.95682235039274
 20
-103.1046454277829
 10
94.95682235039274
 20
-103.1046454277829
 10
94.98472762382326
 20
-102.7470445164139
 10
95.04260522797546
 20
-102.6688408488988
 10
95.38263615236963
 20
-102.3704955798761
 10
95.60863441620201
 20
-102.1717135703772
 10
95.6665120203542
 20
-102.1040174440921
 10
95.6665120203542
 20
-101.9665581342306
 10
95.6665120203542
 20
-101.848046849538
 10
95.60312226342562
 20
-101.7169609663242
 10
95.42914494142049
 20
-101.7169609663242
 10
95.19970158210286
 20
-101.7169609663242
 10
95.19212237203531
 20
-101.9474378542875
 10
95.18833276700153
 20
-102.0638820816889
 10
95.18833276700153
 20
-102.0638820816889
 10
94.99023977659967
 20
-102.0638820816889
 10
94.99023977659967
 20
-102.0638820816889
 10
94.99781898666721
 20
-101.9369303130574
 10
95.00712074447739
 20
-101.8247924550126
 10
95.07843422102206
 20
-101.70628117032
 10
95.17524140415759
 20
-101.5455674659331
 10
95.339572458804
 20
-101.5116332754033
 10
95.44223630426444
 20
-101.5116332754033
 10
95.6871825932657
 20
-101.5116332754033
 10
95.87011716353247
 20
-101.69577362909
 10
95.87011716353247
 20
-101.9686251915217
 10
95.87011716353247
 20
-102.1970350221938
 10
95.76745331807203
 20
-102.2965982817175
 10
95.49460175564025
 20
-102.5229410550984
 97
        0
 97
        0
 75
     2
 76
     1
 98
        0
  0
ENDBLK
  5
105
330
102
100
AcDbEntity
  8
0
100
AcDbBlockEnd
  0
BLOCK
  5
114
330
112
100
AcDbEntity
  8
0
100
AcDbBlockBegin
  2
block 3
 70
     0
 10
0.0
 20
0.0
 30
0.0
  3
block 3
  1

  0
SPLINE
  5
116
330
112
100
AcDbEntity
  8
_U+30EC_U+30A4_U+30E4_U+30FC 1
370
     0
100
AcDbSpline
210
0.0
220
0.0
230
1.0
 70
    11
 71
     3
 72
    44
 73
    40
 74
     0
 42
0.0000000001
 43
0.0000000001
 12
1.0
 22
0.0
 32
0.0
 13
1.0
 23
0.0
 33
0.0
 40
0.0
 40
0.0
 40
0.0
 40
0.0
 40
1.0
 40
1.0
 40
1.0
 40
2.0
 40
2.0
 40
2.0
 40
3.0
 40
3.0
 40
3.0
 40
4.0
 40
4.0
 40
4.0
 40
5.0
 40
5.0
 40
5.0
 40
6.0
 40
6.0
 40
6.0
 40
7.0
 40
7.0
 40
7.0
 40
8.0
 40
8.0
 40
8.0
 40
9.0
 40
9.0
 40
9.0
 40
10.0
 40
10.0
 40
10.0
 40
11.0
 40
11.0
 40
11.0
 40
12.0
 40
12.0
 40
12.0
 40
13.0
 40
13.0
 40
13.0
 40
13.0
 10
107.6557888185722
 20
-122.159640811474
 30
0.0
 10
107.8146077204422
 20
-122.3522216490994
 30
0.0
 10
107.8886772733751
 20
-122.4342149216484
 30
0.0
 10
108.03233775511
 20
-122.477278615214
 30
0.0
 10
108.03233775511
 20
-122.477278615214
 30
0.0
 10
108.03233775511
 20
-121.7899820659067
 30
0.0
 10
108.03233775511
 20
-121.7899820659067
 30
0.0
 10
108.03233775511
 20
-121.7899820659067
 30
0.0
 10
108.2376654460309
 20
-121.7899820659067
 30
0.0
 10
108.2376654460309
 20
-121.7899820659067
 30
0.0
 10
108.2376654460309
 20
-121.7899820659067
 30
0.0
 10
108.2376654460309
 20
-122.69776472627
 30
0.0
 10
108.2376654460309
 20
-122.69776472627
 30
0.0
 10
107.8800645346619
 20
-122.669514943291
 30
0.0
 10
107.8018608671468
 20
-122.6116373391388
 30
0.0
 10
107.5035155981241
 20
-122.2716064147446
 30
0.0
 10
107.3047335886252
 20
-122.0456081509122
 30
0.0
 10
107.2368652075658
 20
-121.98773054676
 30
0.0
 10
107.0994058977043
 20
-121.98773054676
 30
0.0
 10
106.9808946130117
 20
-121.98773054676
 30
0.0
 10
106.8499809845722
 20
-122.0514648132371
 30
0.0
 10
106.8499809845722
 20
-122.2250976256937
 30
0.0
 10
106.8499809845722
 20
-122.4548854945599
 30
0.0
 10
107.0804578725354
 20
-122.4621201950789
 30
0.0
 10
107.1969020999369
 20
-122.4659098001127
 30
0.0
 10
107.1969020999369
 20
-122.4659098001127
 30
0.0
 10
107.1969020999369
 20
-122.6640027905146
 30
0.0
 10
107.1969020999369
 20
-122.6640027905146
 30
0.0
 10
107.0697780765312
 20
-122.656423580447
 30
0.0
 10
106.9578124732605
 20
-122.6471218226368
 30
0.0
 10
106.839301188568
 20
-122.5761528556407
 30
0.0
 10
106.6784152294068
 20
-122.4790011629566
 30
0.0
 10
106.6446532936513
 20
-122.3146701083102
 30
0.0
 10
106.6446532936513
 20
-122.2120062628498
 30
0.0
 10
106.6446532936513
 20
-121.967404483397
 30
0.0
 10
106.8286213925637
 20
-121.7841254035818
 30
0.0
 10
107.1014729549955
 20
-121.7841254035818
 30
0.0
 10
107.3302272952161
 20
-121.7841254035818
 30
0.0
 10
107.4294460451913
 20
-121.8871337585907
 30
0.0
 10
107.6557888185722
 20
-122.159640811474
 30
0.0
  0
HATCH
  5
117
330
112
100
AcDbEntity
  8
_U+30EC_U+30A4_U+30E4_U+30FC 1
 62
   179
420
  2234388
100
AcDbHatch
 10
0.0
 20
0.0
 30
0.0
210
0.0
220
0.0
230
1.0
  2
SOLID
 70
     1
 71
     0
 91
        1
 92
        1
 93
        1
 72
     4
 94
        3
 73
     0
 74
     1
 95
       44
 96
       40
 40
0.0
 40
0.0
 40
0.0
 40
0.0
 40
1.0
 40
1.0
 40
1.0
 40
2.0
 40
2.0
 40
2.0
 40
3.0
 40
3.0
 40
3.0
 40
4.0
 40
4.0
 40
4.0
 40
5.0
 40
5.0
 40
5.0
 40
6.0
 40
6.0
 40
6.0
 40
7.0
 40
7.0
 40
7.0
 40
8.0
 40
8.0
 40
8.0
 40
9.0
 40
9.0
 40
9.0
 40
10.0
 40
10.0
 40
10.0
 40
11.0
 40
11.0
 40
11.0
 40
12.0
 40
12.0
 40
12.0
 40
13.0
 40
13.0
 40
13.0
 40
13.0
 10
107.6557888185722
 20
-122.159640811474
 10
107.8146077204422
 20
-122.3522216490994
 10
107.8886772733751
 20
-122.4342149216484
 10
108.03233775511
 20
-122.477278615214
 10
108.03233775511
 20
-122.477278615214
 10
108.03233775511
 20
-121.7899820659067
 10
108.03233775511
 20
-121.7899820659067
 10
108.03233775511
 20
-121.7899820659067
 10
108.2376654460309
 20
-121.7899820659067
 10
108.2376654460309
 20
-121.7899820659067
 10
108.2376654460309
 20
-121.7899820659067
 10
108.2376654460309
 20
-122.69776472627
 10
108.2376654460309
 20
-122.69776472627
 10
107.8800645346619
 20
-122.669514943291
 10
107.8018608671468
 20
-122.6116373391388
 10
107.5035155981241
 20
-122.2716064147446
 10
107.3047335886252
 20
-122.0456081509122
 10
107.2368652075658
 20
-121.98773054676
 10
107.0994058977043
 20
-121.98773054676
 10
106.9808946130117
 20
-121.98773054676
 10
106.8499809845722
 20
-122.0514648132371
 10
106.8499809845722
 20
-122.2250976256937
 10
106.8499809845722
 20
-122.4548854945599
 10
107.0804578725354
 20
-122.4621201950789
 10
107.1969020999369
 20
-122.4659098001127
 10
107.1969020999369
 20
-122.4659098001127
 10
107.1969020999369
 20
-122.6640027905146
 10
107.1969020999369
 20
-122.6640027905146
 10
107.0697780765312
 20
-122.656423580447
 10
106.9578124732605
 20
-122.6471218226368
 10
106.839301188568
 20
-122.5761528556407
 10
106.6784152294068
 20
-122.4790011629566
 10
106.6446532936513
 20
-122.3146701083102
 10
106.6446532936513
 20
-122.2120062628498
 10
106.6446532936513
 20
-121.967404483397
 10
106.8286213925637
 20
-121.7841254035818
 10
107.1014729549955
 20
-121.7841254035818
 10
107.3302272952161
 20
-121.7841254035818
 10
107.4294460451913
 20
-121.8871337585907
 10
107.6557888185722
 20
-122.159640811474
 97
        0
 97
        0
 75
     2
 76
     1
 98
        0
  0
SPLINE
  5
118
330
112
100
AcDbEntity
  8
_U+30EC_U+30A4_U+30E4_U+30FC 1
370
     0
100
AcDbSpline
210
0.0
220
0.0
230
1.0
 70
    11
 71
     3
 72
    32
 73
    28
 74
     0
 42
0.0000000001
 43
0.0000000001
 12
1.0
 22
0.0
 32
0.0
 13
1.0
 23
0.0
 33
0.0
 40
0.0
 40
0.0
 40
0.0
 40
0.0
 40
1.0
 40
1.0
 40
1.0
 40
2.0
 40
2.0
 40
2.0
 40
3.0
 40
3.0
 40
3.0
 40
4.0
 40
4.0
 40
4.0
 40
5.0
 40
5.0
 40
5.0
 40
6.0
 40
6.0
 40
6.0
 40
7.0
 40
7.0
 40
7.0
 40
8.0
 40
8.0
 40
8.0
 40
9.0
 40
9.0
 40
9.0
 40
9.0
 10
108.288308349664
 20
-121.1984591710893
 30
0.0
 10
108.288308349664
 20
-121.6542453037878
 30
0.0
 10
107.7343369956359
 20
-121.6614800043069
 30
0.0
 10
107.5203965660018
 20
-121.6614800043069
 30
0.0
 10
107.2899196780386
 20
-121.6614800043069
 30
0.0
 10
106.6425862363602
 20
-121.6449435459777
 30
0.0
 10
106.6425862363602
 20
-121.1646972353338
 30
0.0
 10
106.6425862363602
 20
-121.0117349957887
 30
0.0
 10
106.7125216747108
 20
-120.7950384897665
 30
0.0
 10
107.0446288794889
 20
-120.7612765540111
 30
0.0
 10
107.0446288794889
 20
-120.7612765540111
 30
0.0
 10
107.0446288794889
 20
-120.9500677866028
 30
0.0
 10
107.0446288794889
 20
-120.9500677866028
 30
0.0
 10
106.9874402944337
 20
-120.9593695444129
 30
0.0
 10
106.839301188568
 20
-120.9872748178435
 30
0.0
 10
106.839301188568
 20
-121.166764292625
 30
0.0
 10
106.839301188568
 20
-121.4244574349217
 30
0.0
 10
107.1672742787637
 20
-121.4599419184197
 30
0.0
 10
107.3722574601361
 20
-121.4709662239725
 30
0.0
 10
107.2940537926209
 20
-121.3889729514236
 30
0.0
 10
107.2347981502746
 20
-121.3290282899802
 30
0.0
 10
107.2347981502746
 20
-121.1684868403676
 30
0.0
 10
107.2347981502746
 20
-121.0096679384976
 30
0.0
 10
107.3429741485115
 20
-120.7426730383907
 30
0.0
 10
107.7491509062224
 20
-120.7426730383907
 30
0.0
 10
108.0685112577051
 20
-120.7426730383907
 30
0.0
 10
108.288308349664
 20
-120.9183729081385
 30
0.0
 10
108.288308349664
 20
-121.1984591710893
 30
0.0
  0
SPLINE
  5
119
330
112
100
AcDbEntity
  8
_U+30EC_U+30A4_U+30E4_U+30FC 1
370
     0
100
AcDbSpline
210
0.0
220
0.0
230
1.0
 70
    11
 71
     3
 72
    17
 73
    13
 74
     0
 42
0.0000000001
 43
0.0000000001
 12
1.0
 22
0.0
 32
0.0
 13
1.0
 23
0.0
 33
0.0
 40
0.0
 40
0.0
 40
0.0
 40
0.0
 40
1.0
 40
1.0
 40
1.0
 40
2.0
 40
2.0
 40
2.0
 40
3.0
 40
3.0
 40
3.0
 40
4.0
 40
4.0
 40
4.0
 40
4.0
 10
107.4294460451913
 20
-121.1833007509542
 30
0.0
 10
107.4294460451913
 20
-121.4151556771115
 30
0.0
 10
107.6409749079856
 20
-121.4485731033184
 30
0.0
 10
107.757419135387
 20
-121.4485731033184
 30
0.0
 10
107.9331190051348
 20
-121.4485731033184
 30
0.0
 10
108.0960720215871
 20
-121.3645127734783
 30
0.0
 10
108.0960720215871
 20
-121.2022487761231
 30
0.0
 10
108.0960720215871
 20
-121.0957953256288
 30
0.0
 10
108.0368163792408
 20
-120.9407660287926
 30
0.0
 10
107.7512179635136
 20
-120.9407660287926
 30
0.0
 10
107.5269422474238
 20
-120.9407660287926
 30
0.0
 10
107.4294460451913
 20
-121.0641004471645
 30
0.0
 10
107.4294460451913
 20
-121.1833007509542
 30
0.0
  0
HATCH
  5
11A
330
112
100
AcDbEntity
  8
_U+30EC_U+30A4_U+30E4_U+30FC 1
 62
   179
420
  2234388
100
AcDbHatch
 10
0.0
 20
0.0
 30
0.0
210
0.0
220
0.0
230
1.0
  2
SOLID
 70
     1
 71
     0
 91
        2
 92
        1
 93
        1
 72
     4
 94
        3
 73
     0
 74
     1
 95
       32
 96
       28
 40
0.0
 40
0.0
 40
0.0
 40
0.0
 40
1.0
 40
1.0
 40
1.0
 40
2.0
 40
2.0
 40
2.0
 40
3.0
 40
3.0
 40
3.0
 40
4.0
 40
4.0
 40
4.0
 40
5.0
 40
5.0
 40
5.0
 40
6.0
 40
6.0
 40
6.0
 40
7.0
 40
7.0
 40
7.0
 40
8.0
 40
8.0
 40
8.0
 40
9.0
 40
9.0
 40
9.0
 40
9.0
 10
108.288308349664
 20
-121.1984591710893
 10
108.288308349664
 20
-121.6542453037878
 10
107.7343369956359
 20
-121.6614800043069
 10
107.5203965660018
 20
-121.6614800043069
 10
107.2899196780386
 20
-121.6614800043069
 10
106.6425862363602
 20
-121.6449435459777
 10
106.6425862363602
 20
-121.1646972353338
 10
106.6425862363602
 20
-121.0117349957887
 10
106.7125216747108
 20
-120.7950384897665
 10
107.0446288794889
 20
-120.7612765540111
 10
107.0446288794889
 20
-120.7612765540111
 10
107.0446288794889
 20
-120.9500677866028
 10
107.0446288794889
 20
-120.9500677866028
 10
106.9874402944337
 20
-120.9593695444129
 10
106.839301188568
 20
-120.9872748178435
 10
106.839301188568
 20
-121.166764292625
 10
106.839301188568
 20
-121.4244574349217
 10
107.1672742787637
 20
-121.4599419184197
 10
107.3722574601361
 20
-121.4709662239725
 10
107.2940537926209
 20
-121.3889729514236
 10
107.2347981502746
 20
-121.3290282899802
 10
107.2347981502746
 20
-121.1684868403676
 10
107.2347981502746
 20
-121.0096679384976
 10
107.3429741485115
 20
-120.7426730383907
 10
107.7491509062224
 20
-120.7426730383907
 10
108.0685112577051
 20
-120.7426730383907
 10
108.288308349664
 20
-120.9183729081385
 10
108.288308349664
 20
-121.1984591710893
 97
        0
 97
        0
 92
        1
 93
        1
 72
     4
 94
        3
 73
     0
 74
     1
 95
       17
 96
       13
 40
0.0
 40
0.0
 40
0.0
 40
0.0
 40
1.0
 40
1.0
 40
1.0
 40
2.0
 40
2.0
 40
2.0
 40
3.0
 40
3.0
 40
3.0
 40
4.0
 40
4.0
 40
4.0
 40
4.0
 10
107.4294460451913
 20
-121.1833007509542
 10
107.4294460451913
 20
-121.4151556771115
 10
107.6409749079856
 20
-121.4485731033184
 10
107.757419135387
 20
-121.4485731033184
 10
107.9331190051348
 20
-121.4485731033184
 10
108.0960720215871
 20
-121.3645127734783
 10
108.0960720215871
 20
-121.2022487761231
 10
108.0960720215871
 20
-121.0957953256288
 10
108.0368163792408
 20
-120.9407660287926
 10
107.7512179635136
 20
-120.9407660287926
 10
107.5269422474238
 20
-120.9407660287926
 10
107.4294460451913
 20
-121.0641004471645
 10
107.4294460451913
 20
-121.1833007509542
 97
        0
 97
        0
 75
     2
 76
     1
 98
        0
  0
ENDBLK
  5
115
330
112
100
AcDbEntity
  8
0
100
AcDbBlockEnd
  0
BLOCK
  5
11D
330
11B
100
AcDbEntity
  8
0
100
AcDbBlockBegin
  2
block 4
 70
     0
 10
0.0
 20
0.0
 30
0.0
  3
block 4
  1

  0
SPLINE
  5
11F
330
11B
100
AcDbEntity
  8
_U+30EC_U+30A4_U+30E4_U+30FC 1
370
     0
100
AcDbSpline
210
0.0
220
0.0
230
1.0
 70
    11
 71
     3
 72
    26
 73
    22
 74
     0
 42
0.0000000001
 43
0.0000000001
 12
1.0
 22
0.0
 32
0.0
 13
1.0
 23
0.0
 33
0.0
 40
0.0
 40
0.0
 40
0.0
 40
0.0
 40
1.0
 40
1.0
 40
1.0
 40
2.0
 40
2.0
 40
2.0
 40
3.0
 40
3.0
 40
3.0
 40
4.0
 40
4.0
 40
4.0
 40
5.0
 40
5.0
 40
5.0
 40
6.0
 40
6.0
 40
6.0
 40
7.0
 40
7.0
 40
7.0
 40
7.0
 10
108.2376654460309
 20
-141.7846272431997
 30
0.0
 10
108.2376654460309
 20
-141.7846272431997
 30
0.0
 10
107.1335123430083
 20
-141.7846272431997
 30
0.0
 10
107.1335123430083
 20
-141.7846272431997
 30
0.0
 10
107.1335123430083
 20
-141.7846272431997
 30
0.0
 10
107.1335123430083
 20
-142.0760823212518
 30
0.0
 10
107.1335123430083
 20
-142.0760823212518
 30
0.0
 10
107.1335123430083
 20
-142.0760823212518
 30
0.0
 10
106.9853732371426
 20
-142.0760823212518
 30
0.0
 10
106.9853732371426
 20
-142.0760823212518
 30
0.0
 10
106.970559326556
 20
-141.7829046954571
 30
0.0
 10
106.8076063101037
 20
-141.7419080591826
 30
0.0
 10
106.6932291399934
 20
-141.7157253334947
 30
0.0
 10
106.6932291399934
 20
-141.7157253334947
 30
0.0
 10
106.6932291399934
 20
-141.5868787623463
 30
0.0
 10
106.6932291399934
 20
-141.5868787623463
 30
0.0
 10
106.6932291399934
 20
-141.5868787623463
 30
0.0
 10
108.2376654460309
 20
-141.5868787623463
 30
0.0
 10
108.2376654460309
 20
-141.5868787623463
 30
0.0
 10
108.2376654460309
 20
-141.5868787623463
 30
0.0
 10
108.2376654460309
 20
-141.7846272431997
 30
0.0
 10
108.2376654460309
 20
-141.7846272431997
 30
0.0
  0
HATCH
  5
120
330
11B
100
AcDbEntity
  8
_U+30EC_U+30A4_U+30E4_U+30FC 1
 62
   179
420
  2234388
100
AcDbHatch
 10
0.0
 20
0.0
 30
0.0
210
0.0
220
0.0
230
1.0
  2
SOLID
 70
     1
 71
     0
 91
        1
 92
        1
 93
        1
 72
     4
 94
        3
 73
     0
 74
     1
 95
       26
 96
       22
 40
0.0
 40
0.0
 40
0.0
 40
0.0
 40
1.0
 40
1.0
 40
1.0
 40
2.0
 40
2.0
 40
2.0
 40
3.0
 40
3.0
 40
3.0
 40
4.0
 40
4.0
 40
4.0
 40
5.0
 40
5.0
 40
5.0
 40
6.0
 40
6.0
 40
6.0
 40
7.0
 40
7.0
 40
7.0
 40
7.0
 10
108.2376654460309
 20
-141.7846272431997
 10
108.2376654460309
 20
-141.7846272431997
 10
107.1335123430083
 20
-141.7846272431997
 10
107.1335123430083
 20
-141.7846272431997
 10
107.1335123430083
 20
-141.7846272431997
 10
107.1335123430083
 20
-142.0760823212518
 10
107.1335123430083
 20
-142.0760823212518
 10
107.1335123430083
 20
-142.0760823212518
 10
106.9853732371426
 20
-142.0760823212518
 10
106.9853732371426
 20
-142.0760823212518
 10
106.970559326556
 20
-141.7829046954571
 10
106.8076063101037
 20
-141.7419080591826
 10
106.6932291399934
 20
-141.7157253334947
 10
106.6932291399934
 20
-141.7157253334947
 10
106.6932291399934
 20
-141.5868787623463
 10
106.6932291399934
 20
-141.5868787623463
 10
106.6932291399934
 20
-141.5868787623463
 10
108.2376654460309
 20
-141.5868787623463
 10
108.2376654460309
 20
-141.5868787623463
 10
108.2376654460309
 20
-141.5868787623463
 10
108.2376654460309
 20
-141.7846272431997
 10
108.2376654460309
 20
-141.7846272431997
 97
        0
 97
        0
 75
     2
 76
     1
 98
        0
  0
SPLINE
  5
121
330
11B
100
AcDbEntity
  8
_U+30EC_U+30A4_U+30E4_U+30FC 1
370
     0
100
AcDbSpline
210
0.0
220
0.0
230
1.0
 70
    11
 71
     3
 72
    62
 73
    58
 74
     0
 42
0.0000000001
 43
0.0000000001
 12
1.0
 22
0.0
 32
0.0
 13
1.0
 23
0.0
 33
0.0
 40
0.0
 40
0.0
 40
0.0
 40
0.0
 40
1.0
 40
1.0
 40
1.0
 40
2.0
 40
2.0
 40
2.0
 40
3.0
 40
3.0
 40
3.0
 40
4.0
 40
4.0
 40
4.0
 40
5.0
 40
5.0
 40
5.0
 40
6.0
 40
6.0
 40
6.0
 40
7.0
 40
7.0
 40
7.0
 40
8.0
 40
8.0
 40
8.0
 40
9.0
 40
9.0
 40
9.0
 40
10.0
 40
10.0
 40
10.0
 40
11.0
 40
11.0
 40
11.0
 40
12.0
 40
12.0
 40
12.0
 40
13.0
 40
13.0
 40
13.0
 40
14.0
 40
14.0
 40
14.0
 40
15.0
 40
15.0
 40
15.0
 40
16.0
 40
16.0
 40
16.0
 40
17.0
 40
17.0
 40
17.0
 40
18.0
 40
18.0
 40
18.0
 40
19.0
 40
19.0
 40
19.0
 40
19.0
 10
108.288308349664
 20
-140.7094129422532
 30
0.0
 10
108.288308349664
 20
-140.7934732720933
 30
0.0
 10
108.267293267204
 20
-140.9860541097188
 30
0.0
 10
108.0812581110005
 20
-141.0962971652468
 30
0.0
 10
107.9689479981814
 20
-141.161409469918
 30
0.0
 10
107.8697292482062
 20
-141.1651990749518
 30
0.0
 10
107.784979899269
 20
-141.1689886799855
 30
0.0
 10
107.784979899269
 20
-141.1689886799855
 30
0.0
 10
107.784979899269
 20
-140.9746852946174
 30
0.0
 10
107.784979899269
 20
-140.9746852946174
 30
0.0
 10
107.8590494522019
 20
-140.9729627468748
 30
0.0
 10
108.0936604547474
 20
-140.9636609890646
 30
0.0
 10
108.0936604547474
 20
-140.713202547287
 30
0.0
 10
108.0936604547474
 20
-140.5919351862062
 30
0.0
 10
108.0240695259454
 20
-140.4572319527329
 30
0.0
 10
107.7956596952733
 20
-140.4572319527329
 30
0.0
 10
107.6792154678719
 20
-140.4572319527329
 30
0.0
 10
107.6306396215299
 20
-140.4909938884884
 30
0.0
 10
107.5989447430655
 20
-140.5188991619189
 30
0.0
 10
107.5248751901327
 20
-140.5843559761387
 30
0.0
 10
107.5121283368373
 20
-140.6870198215991
 30
0.0
 10
107.5121283368373
 20
-140.7355956679411
 30
0.0
 10
107.5121283368373
 20
-140.7524766358188
 30
0.0
 10
107.5141953941284
 20
-140.7841715142831
 30
0.0
 10
107.5183295087107
 20
-140.8086316922284
 30
0.0
 10
107.5183295087107
 20
-140.8086316922284
 30
0.0
 10
107.3236816137941
 20
-140.8086316922284
 30
0.0
 10
107.3236816137941
 20
-140.8086316922284
 30
0.0
 10
107.3302272952161
 20
-140.774869756473
 30
0.0
 10
107.3322943525072
 20
-140.7376627252323
 30
0.0
 10
107.3322943525072
 20
-140.7318060629073
 30
0.0
 10
107.3322943525072
 20
-140.6739284587551
 30
0.0
 10
107.3109347604987
 20
-140.4985730985559
 30
0.0
 10
107.074256700662
 20
-140.4985730985559
 30
0.0
 10
106.8964897736231
 20
-140.4985730985559
 30
0.0
 10
106.8413682458591
 20
-140.6143283068603
 30
0.0
 10
106.8413682458591
 20
-140.7114799995444
 30
0.0
 10
106.8413682458591
 20
-140.9450574734443
 30
0.0
 10
107.074256700662
 20
-140.9522921739633
 30
0.0
 10
107.1459146867552
 20
-140.9560817789971
 30
0.0
 10
107.1459146867552
 20
-140.9560817789971
 30
0.0
 10
107.1459146867552
 20
-141.1355712537786
 30
0.0
 10
107.1459146867552
 20
-141.1355712537786
 30
0.0
 10
107.0212022301891
 20
-141.1279920437111
 30
0.0
 10
106.6446532936513
 20
-141.1035318657658
 30
0.0
 10
106.6446532936513
 20
-140.700111184443
 30
0.0
 10
106.6446532936513
 20
-140.5023627035897
 30
0.0
 10
106.7717773170571
 20
-140.2891112930527
 30
0.0
 10
107.06771101924
 20
-140.2891112930527
 30
0.0
 10
107.254090684992
 20
-140.2891112930527
 30
0.0
 10
107.3364284670895
 20
-140.3731716228928
 30
0.0
 10
107.397751166727
 20
-140.4610215577667
 30
0.0
 10
107.425311930609
 20
-140.4069335586483
 30
0.0
 10
107.5055826554153
 20
-140.2463921090356
 30
0.0
 10
107.7829128419779
 20
-140.2463921090356
 30
0.0
 10
108.1212212186294
 20
-140.2463921090356
 30
0.0
 10
108.288308349664
 20
-140.4648111628005
 30
0.0
 10
108.288308349664
 20
-140.7094129422532
 30
0.0
  0
HATCH
  5
122
330
11B
100
AcDbEntity
  8
_U+30EC_U+30A4_U+30E4_U+30FC 1
 62
   179
420
  2234388
100
AcDbHatch
 10
0.0
 20
0.0
 30
0.0
210
0.0
220
0.0
230
1.0
  2
SOLID
 70
     1
 71
     0
 91
        1
 92
        1
 93
        1
 72
     4
 94
        3
 73
     0
 74
     1
 95
       62
 96
       58
 40
0.0
 40
0.0
 40
0.0
 40
0.0
 40
1.0
 40
1.0
 40
1.0
 40
2.0
 40
2.0
 40
2.0
 40
3.0
 40
3.0
 40
3.0
 40
4.0
 40
4.0
 40
4.0
 40
5.0
 40
5.0
 40
5.0
 40
6.0
 40
6.0
 40
6.0
 40
7.0
 40
7.0
 40
7.0
 40
8.0
 40
8.0
 40
8.0
 40
9.0
 40
9.0
 40
9.0
 40
10.0
 40
10.0
 40
10.0
 40
11.0
 40
11.0
 40
11.0
 40
12.0
 40
12.0
 40
12.0
 40
13.0
 40
13.0
 40
13.0
 40
14.0
 40
14.0
 40
14.0
 40
15.0
 40
15.0
 40
15.0
 40
16.0
 40
16.0
 40
16.0
 40
17.0
 40
17.0
 40
17.0
 40
18.0
 40
18.0
 40
18.0
 40
19.0
 40
19.0
 40
19.0
 40
19.0
 10
108.288308349664
 20
-140.7094129422532
 10
108.288308349664
 20
-140.7934732720933
 10
108.267293267204
 20
-140.9860541097188
 10
108.0812581110005
 20
-141.0962971652468
 10
107.9689479981814
 20
-141.161409469918
 10
107.8697292482062
 20
-141.1651990749518
 10
107.784979899269
 20
-141.1689886799855
 10
107.784979899269
 20
-141.1689886799855
 10
107.784979899269
 20
-140.9746852946174
 10
107.784979899269
 20
-140.9746852946174
 10
107.8590494522019
 20
-140.9729627468748
 10
108.0936604547474
 20
-140.9636609890646
 10
108.0936604547474
 20
-140.713202547287
 10
108.0936604547474
 20
-140.5919351862062
 10
108.0240695259454
 20
-140.4572319527329
 10
107.7956596952733
 20
-140.4572319527329
 10
107.6792154678719
 20
-140.4572319527329
 10
107.6306396215299
 20
-140.4909938884884
 10
107.5989447430655
 20
-140.5188991619189
 10
107.5248751901327
 20
-140.5843559761387
 10
107.5121283368373
 20
-140.6870198215991
 10
107.5121283368373
 20
-140.7355956679411
 10
107.5121283368373
 20
-140.7524766358188
 10
107.5141953941284
 20
-140.7841715142831
 10
107.5183295087107
 20
-140.8086316922284
 10
107.5183295087107
 20
-140.8086316922284
 10
107.3236816137941
 20
-140.8086316922284
 10
107.3236816137941
 20
-140.8086316922284
 10
107.3302272952161
 20
-140.774869756473
 10
107.3322943525072
 20
-140.7376627252323
 10
107.3322943525072
 20
-140.7318060629073
 10
107.3322943525072
 20
-140.6739284587551
 10
107.3109347604987
 20
-140.4985730985559
 10
107.074256700662
 20
-140.4985730985559
 10
106.8964897736231
 20
-140.4985730985559
 10
106.8413682458591
 20
-140.6143283068603
 10
106.8413682458591
 20
-140.7114799995444
 10
106.8413682458591
 20
-140.9450574734443
 10
107.074256700662
 20
-140.9522921739633
 10
107.1459146867552
 20
-140.9560817789971
 10
107.1459146867552
 20
-140.9560817789971
 10
107.1459146867552
 20
-141.1355712537786
 10
107.1459146867552
 20
-141.1355712537786
 10
107.0212022301891
 20
-141.1279920437111
 10
106.6446532936513
 20
-141.1035318657658
 10
106.6446532936513
 20
-140.700111184443
 10
106.6446532936513
 20
-140.5023627035897
 10
106.7717773170571
 20
-140.2891112930527
 10
107.06771101924
 20
-140.2891112930527
 10
107.254090684992
 20
-140.2891112930527
 10
107.3364284670895
 20
-140.3731716228928
 10
107.397751166727
 20
-140.4610215577667
 10
107.425311930609
 20
-140.4069335586483
 10
107.5055826554153
 20
-140.2463921090356
 10
107.7829128419779
 20
-140.2463921090356
 10
108.1212212186294
 20
-140.2463921090356
 10
108.288308349664
 20
-140.4648111628005
 10
108.288308349664
 20
-140.7094129422532
 97
        0
 97
        0
 75
     2
 76
     1
 98
        0
  0
ENDBLK
  5
11E
330
11B
100
AcDbEntity
  8
0
100
AcDbBlockEnd
  0
BLOCK
  5
125
330
123
100
AcDbEntity
  8
0
100
AcDbBlockBegin
  2
block 5
 70
     0
 10
0.0
 20
0.0
 30
0.0
  3
block 5
  1

  0
POLYLINE
  5
127
330
123
100
AcDbEntity
  8
_U+30EC_U+30A4_U+30E4_U+30FC 1
370
     0
100
AcDb2dPolyline
 66
     1
 10
0.0
 20
0.0
 30
0.0
  0
VERTEX
  5
128
330
127
100
AcDbEntity
  8
_U+30EC_U+30A4_U+30E4_U+30FC 1
370
     0
100
AcDbVertex
100
AcDb2dVertex
 10
107.8907443306662
 20
-149.428605105872
 30
0.0
  0
VERTEX
  5
129
330
127
100
AcDbEntity
  8
_U+30EC_U+30A4_U+30E4_U+30FC 1
370
     0
100
AcDbVertex
100
AcDb2dVertex
 10
108.2376654460309
 20
-149.428605105872
 30
0.0
  0
VERTEX
  5
12A
330
127
100
AcDbEntity
  8
_U+30EC_U+30A4_U+30E4_U+30FC 1
370
     0
100
AcDbVertex
100
AcDb2dVertex
 10
108.2376654460309
 20
-149.6211859434975
 30
0.0
  0
VERTEX
  5
12B
330
127
100
AcDbEntity
  8
_U+30EC_U+30A4_U+30E4_U+30FC 1
370
     0
100
AcDbVertex
100
AcDb2dVertex
 10
107.8907443306662
 20
-149.6211859434975
 30
0.0
  0
VERTEX
  5
12C
330
127
100
AcDbEntity
  8
_U+30EC_U+30A4_U+30E4_U+30FC 1
370
     0
100
AcDbVertex
100
AcDb2dVertex
 10
107.8907443306662
 20
-150.200306494568
 30
0.0
  0
VERTEX
  5
12D
330
127
100
AcDbEntity
  8
_U+30EC_U+30A4_U+30E4_U+30FC 1
370
     0
100
AcDbVertex
100
AcDb2dVertex
 10
107.6664686145764
 20
-150.200306494568
 30
0.0
  0
VERTEX
  5
12E
330
127
100
AcDbEntity
  8
_U+30EC_U+30A4_U+30E4_U+30FC 1
370
     0
100
AcDbVertex
100
AcDb2dVertex
 10
106.6932291399934
 20
-149.600515370586
 30
0.0
  0
VERTEX
  5
12F
330
127
100
AcDbEntity
  8
_U+30EC_U+30A4_U+30E4_U+30FC 1
370
     0
100
AcDbVertex
100
AcDb2dVertex
 10
106.6932291399934
 20
-149.428605105872
 30
0.0
  0
VERTEX
  5
130
330
127
100
AcDbEntity
  8
_U+30EC_U+30A4_U+30E4_U+30FC 1
370
     0
100
AcDbVertex
100
AcDb2dVertex
 10
107.6919623211673
 20
-149.428605105872
 30
0.0
  0
VERTEX
  5
131
330
127
100
AcDbEntity
  8
_U+30EC_U+30A4_U+30E4_U+30FC 1
370
     0
100
AcDbVertex
100
AcDb2dVertex
 10
107.6919623211673
 20
-149.2456705356053
 30
0.0
  0
VERTEX
  5
132
330
127
100
AcDbEntity
  8
_U+30EC_U+30A4_U+30E4_U+30FC 1
370
     0
100
AcDbVertex
100
AcDb2dVertex
 10
107.8907443306662
 20
-149.2456705356053
 30
0.0
  0
VERTEX
  5
133
330
127
100
AcDbEntity
  8
_U+30EC_U+30A4_U+30E4_U+30FC 1
370
     0
100
AcDbVertex
100
AcDb2dVertex
 10
107.8907443306662
 20
-149.428605105872
 30
0.0
  0
SEQEND
  5
134
330
127
100
AcDbEntity
  8
_U+30EC_U+30A4_U+30E4_U+30FC 1
370
     0
  0
POLYLINE
  5
135
330
123
100
AcDbEntity
  8
_U+30EC_U+30A4_U+30E4_U+30FC 1
370
     0
100
AcDb2dPolyline
 66
     1
 10
0.0
 20
0.0
 30
0.0
  0
VERTEX
  5
136
330
135
100
AcDbEntity
  8
_U+30EC_U+30A4_U+30E4_U+30FC 1
370
     0
100
AcDbVertex
100
AcDb2dVertex
 10
107.0360161407757
 20
-149.6211859434975
 30
0.0
  0
VERTEX
  5
137
330
135
100
AcDbEntity
  8
_U+30EC_U+30A4_U+30E4_U+30FC 1
370
     0
100
AcDbVertex
100
AcDb2dVertex
 10
107.6919623211673
 20
-150.0246066248203
 30
0.0
  0
VERTEX
  5
138
330
135
100
AcDbEntity
  8
_U+30EC_U+30A4_U+30E4_U+30FC 1
370
     0
100
AcDbVertex
100
AcDb2dVertex
 10
107.6919623211673
 20
-149.6211859434975
 30
0.0
  0
VERTEX
  5
139
330
135
100
AcDbEntity
  8
_U+30EC_U+30A4_U+30E4_U+30FC 1
370
     0
100
AcDbVertex
100
AcDb2dVertex
 10
107.0360161407757
 20
-149.6211859434975
 30
0.0
  0
SEQEND
  5
13A
330
135
100
AcDbEntity
  8
_U+30EC_U+30A4_U+30E4_U+30FC 1
370
     0
  0
HATCH
  5
13B
330
123
100
AcDbEntity
  8
_U+30EC_U+30A4_U+30E4_U+30FC 1
 62
   179
420
  2234388
100
AcDbHatch
 10
0.0
 20
0.0
 30
0.0
210
0.0
220
0.0
230
1.0
  2
SOLID
 70
     1
 71
     0
 91
        2
 92
        1
 93
       11
 72
     1
 10
107.8907443306662
 20
-149.428605105872
 11
108.2376654460309
 21
-149.428605105872
 72
     1
 10
108.2376654460309
 20
-149.428605105872
 11
108.2376654460309
 21
-149.6211859434975
 72
     1
 10
108.2376654460309
 20
-149.6211859434975
 11
107.8907443306662
 21
-149.6211859434975
 72
     1
 10
107.8907443306662
 20
-149.6211859434975
 11
107.8907443306662
 21
-150.200306494568
 72
     1
 10
107.8907443306662
 20
-150.200306494568
 11
107.6664686145764
 21
-150.200306494568
 72
     1
 10
107.6664686145764
 20
-150.200306494568
 11
106.6932291399934
 21
-149.600515370586
 72
     1
 10
106.6932291399934
 20
-149.600515370586
 11
106.6932291399934
 21
-149.428605105872
 72
     1
 10
106.6932291399934
 20
-149.428605105872
 11
107.6919623211673
 21
-149.428605105872
 72
     1
 10
107.6919623211673
 20
-149.428605105872
 11
107.6919623211673
 21
-149.2456705356053
 72
     1
 10
107.6919623211673
 20
-149.2456705356053
 11
107.8907443306662
 21
-149.2456705356053
 72
     1
 10
107.8907443306662
 20
-149.2456705356053
 11
107.8907443306662
 21
-149.428605105872
 97
        0
 92
        1
 93
        3
 72
     1
 10
107.0360161407757
 20
-149.6211859434975
 11
107.6919623211673
 21
-150.0246066248203
 72
     1
 10
107.6919623211673
 20
-150.0246066248203
 11
107.6919623211673
 21
-149.6211859434975
 72
     1
 10
107.6919623211673
 20
-149.6211859434975
 11
107.0360161407757
 21
-149.6211859434975
 97
        0
 75
     2
 76
     1
 98
        0
  0
ENDBLK
  5
126
330
123
100
AcDbEntity
  8
0
100
AcDbBlockEnd
  0
BLOCK
  5
13E
330
13C
100
AcDbEntity
  8
0
100
AcDbBlockBegin
  2
block 6
 70
     0
 10
0.0
 20
0.0
 30
0.0
  3
block 6
  1

  0
SPLINE
  5
140
330
13C
100
AcDbEntity
  8
_U+30EC_U+30A4_U+30E4_U+30FC 1
370
     0
100
AcDbSpline
210
0.0
220
0.0
230
1.0
 70
    11
 71
     3
 72
    44
 73
    40
 74
     0
 42
0.0000000001
 43
0.0000000001
 12
1.0
 22
0.0
 32
0.0
 13
1.0
 23
0.0
 33
0.0
 40
0.0
 40
0.0
 40
0.0
 40
0.0
 40
1.0
 40
1.0
 40
1.0
 40
2.0
 40
2.0
 40
2.0
 40
3.0
 40
3.0
 40
3.0
 40
4.0
 40
4.0
 40
4.0
 40
5.0
 40
5.0
 40
5.0
 40
6.0
 40
6.0
 40
6.0
 40
7.0
 40
7.0
 40
7.0
 40
8.0
 40
8.0
 40
8.0
 40
9.0
 40
9.0
 40
9.0
 40
10.0
 40
10.0
 40
10.0
 40
11.0
 40
11.0
 40
11.0
 40
12.0
 40
12.0
 40
12.0
 40
13.0
 40
13.0
 40
13.0
 40
13.0
 10
92.0398600030317
 20
-154.6103732252363
 30
0.0
 10
91.84762367495476
 20
-154.7691921271063
 30
0.0
 10
91.76528589285729
 20
-154.8432616800392
 30
0.0
 10
91.72222219929166
 20
-154.9869221617741
 30
0.0
 10
91.72222219929166
 20
-154.9869221617741
 30
0.0
 10
92.40986325814754
 20
-154.9869221617741
 30
0.0
 10
92.40986325814754
 20
-154.9869221617741
 30
0.0
 10
92.40986325814754
 20
-154.9869221617741
 30
0.0
 10
92.40986325814754
 20
-155.192249852695
 30
0.0
 10
92.40986325814754
 20
-155.192249852695
 30
0.0
 10
92.40986325814754
 20
-155.192249852695
 30
0.0
 10
91.5020805977842
 20
-155.192249852695
 30
0.0
 10
91.5020805977842
 20
-155.192249852695
 30
0.0
 10
91.52998587121473
 20
-154.8346489413261
 30
0.0
 10
91.58786347536693
 20
-154.7564452738109
 30
0.0
 10
91.92789439976109
 20
-154.4581000047883
 30
0.0
 10
92.15389266359348
 20
-154.2593179952893
 30
0.0
 10
92.21177026774568
 20
-154.1914496142299
 30
0.0
 10
92.21177026774568
 20
-154.0539903043685
 30
0.0
 10
92.21177026774568
 20
-153.9354790196759
 30
0.0
 10
92.14838051081708
 20
-153.8045653912364
 30
0.0
 10
91.97440318881196
 20
-153.8045653912364
 30
0.0
 10
91.7446153199458
 20
-153.8045653912364
 30
0.0
 10
91.73738061942677
 20
-154.0350422791996
 30
0.0
 10
91.733591014393
 20
-154.151486506601
 30
0.0
 10
91.733591014393
 20
-154.151486506601
 30
0.0
 10
91.53549802399112
 20
-154.151486506601
 30
0.0
 10
91.53549802399112
 20
-154.151486506601
 30
0.0
 10
91.54307723405869
 20
-154.0243624831953
 30
0.0
 10
91.55237899186885
 20
-153.9123968799247
 30
0.0
 10
91.623347958865
 20
-153.7938855952321
 30
0.0
 10
91.72049965154905
 20
-153.6329996360709
 30
0.0
 10
91.88483070619546
 20
-153.5992377003155
 30
0.0
 10
91.98749455165591
 20
-153.5992377003155
 30
0.0
 10
92.23244084065718
 20
-153.5992377003155
 30
0.0
 10
92.41537541092394
 20
-153.7832057992278
 30
0.0
 10
92.41537541092394
 20
-154.0560573616596
 30
0.0
 10
92.41537541092394
 20
-154.2848117018802
 30
0.0
 10
92.31271156546349
 20
-154.3840304518554
 30
0.0
 10
92.0398600030317
 20
-154.6103732252363
 30
0.0
  0
HATCH
  5
141
330
13C
100
AcDbEntity
  8
_U+30EC_U+30A4_U+30E4_U+30FC 1
 62
   179
420
  2234388
100
AcDbHatch
 10
0.0
 20
0.0
 30
0.0
210
0.0
220
0.0
230
1.0
  2
SOLID
 70
     1
 71
     0
 91
        1
 92
        1
 93
        1
 72
     4
 94
        3
 73
     0
 74
     1
 95
       44
 96
       40
 40
0.0
 40
0.0
 40
0.0
 40
0.0
 40
1.0
 40
1.0
 40
1.0
 40
2.0
 40
2.0
 40
2.0
 40
3.0
 40
3.0
 40
3.0
 40
4.0
 40
4.0
 40
4.0
 40
5.0
 40
5.0
 40
5.0
 40
6.0
 40
6.0
 40
6.0
 40
7.0
 40
7.0
 40
7.0
 40
8.0
 40
8.0
 40
8.0
 40
9.0
 40
9.0
 40
9.0
 40
10.0
 40
10.0
 40
10.0
 40
11.0
 40
11.0
 40
11.0
 40
12.0
 40
12.0
 40
12.0
 40
13.0
 40
13.0
 40
13.0
 40
13.0
 10
92.0398600030317
 20
-154.6103732252363
 10
91.84762367495476
 20
-154.7691921271063
 10
91.76528589285729
 20
-154.8432616800392
 10
91.72222219929166
 20
-154.9869221617741
 10
91.72222219929166
 20
-154.9869221617741
 10
92.40986325814754
 20
-154.9869221617741
 10
92.40986325814754
 20
-154.9869221617741
 10
92.40986325814754
 20
-154.9869221617741
 10
92.40986325814754
 20
-155.192249852695
 10
92.40986325814754
 20
-155.192249852695
 10
92.40986325814754
 20
-155.192249852695
 10
91.5020805977842
 20
-155.192249852695
 10
91.5020805977842
 20
-155.192249852695
 10
91.52998587121473
 20
-154.8346489413261
 10
91.58786347536693
 20
-154.7564452738109
 10
91.92789439976109
 20
-154.4581000047883
 10
92.15389266359348
 20
-154.2593179952893
 10
92.21177026774568
 20
-154.1914496142299
 10
92.21177026774568
 20
-154.0539903043685
 10
92.21177026774568
 20
-153.9354790196759
 10
92.14838051081708
 20
-153.8045653912364
 10
91.97440318881196
 20
-153.8045653912364
 10
91.7446153199458
 20
-153.8045653912364
 10
91.73738061942677
 20
-154.0350422791996
 10
91.733591014393
 20
-154.151486506601
 10
91.733591014393
 20
-154.151486506601
 10
91.53549802399112
 20
-154.151486506601
 10
91.53549802399112
 20
-154.151486506601
 10
91.54307723405869
 20
-154.0243624831953
 10
91.55237899186885
 20
-153.9123968799247
 10
91.623347958865
 20
-153.7938855952321
 10
91.72049965154905
 20
-153.6329996360709
 10
91.88483070619546
 20
-153.5992377003155
 10
91.98749455165591
 20
-153.5992377003155
 10
92.23244084065718
 20
-153.5992377003155
 10
92.41537541092394
 20
-153.7832057992278
 10
92.41537541092394
 20
-154.0560573616596
 10
92.41537541092394
 20
-154.2848117018802
 10
92.31271156546349
 20
-154.3840304518554
 10
92.0398600030317
 20
-154.6103732252363
 97
        0
 97
        0
 75
     2
 76
     1
 98
        0
  0
SPLINE
  5
142
330
13C
100
AcDbEntity
  8
_U+30EC_U+30A4_U+30E4_U+30FC 1
370
     0
100
AcDbSpline
210
0.0
220
0.0
230
1.0
 70
    11
 71
     3
 72
    53
 73
    49
 74
     0
 42
0.0000000001
 43
0.0000000001
 12
1.0
 22
0.0
 32
0.0
 13
1.0
 23
0.0
 33
0.0
 40
0.0
 40
0.0
 40
0.0
 40
0.0
 40
1.0
 40
1.0
 40
1.0
 40
2.0
 40
2.0
 40
2.0
 40
3.0
 40
3.0
 40
3.0
 40
4.0
 40
4.0
 40
4.0
 40
5.0
 40
5.0
 40
5.0
 40
6.0
 40
6.0
 40
6.0
 40
7.0
 40
7.0
 40
7.0
 40
8.0
 40
8.0
 40
8.0
 40
9.0
 40
9.0
 40
9.0
 40
10.0
 40
10.0
 40
10.0
 40
11.0
 40
11.0
 40
11.0
 40
12.0
 40
12.0
 40
12.0
 40
13.0
 40
13.0
 40
13.0
 40
14.0
 40
14.0
 40
14.0
 40
15.0
 40
15.0
 40
15.0
 40
16.0
 40
16.0
 40
16.0
 40
16.0
 10
92.98071558005344
 20
-155.2428927563282
 30
0.0
 10
92.91146916079991
 20
-155.2428927563282
 30
0.0
 10
92.82189667818342
 20
-155.2260117884504
 30
0.0
 10
92.73232419556692
 20
-155.1626220315219
 30
0.0
 10
92.5790174464733
 20
-155.0527234855424
 30
0.0
 10
92.56041393085296
 20
-154.9214653475544
 30
0.0
 10
92.54353296297523
 20
-154.813633858866
 30
0.0
 10
92.54353296297523
 20
-154.813633858866
 30
0.0
 10
92.73955889608595
 20
-154.813633858866
 30
0.0
 10
92.73955889608595
 20
-154.813633858866
 30
0.0
 10
92.78813474242797
 20
-155.012415868365
 30
0.0
 10
92.90044485524712
 20
-155.0420436895381
 30
0.0
 10
92.98243812779606
 20
-155.0420436895381
 30
0.0
 10
93.10577254616801
 20
-155.0420436895381
 30
0.0
 10
93.24013127009275
 20
-154.9424804300144
 30
0.0
 10
93.24013127009275
 20
-154.70993648476
 30
0.0
 10
93.24013127009275
 20
-154.453965890206
 30
0.0
 10
93.08165687777125
 20
-154.3840304518554
 30
0.0
 10
92.97485891772851
 20
-154.3840304518554
 30
0.0
 10
92.94695364429799
 20
-154.3840304518554
 30
0.0
 10
92.82189667818342
 20
-154.3840304518554
 30
0.0
 10
92.74334850111973
 20
-154.5132215325523
 30
0.0
 10
92.74334850111973
 20
-154.5132215325523
 30
0.0
 10
92.58831920428348
 20
-154.4942735073834
 30
0.0
 10
92.58831920428348
 20
-154.4942735073834
 30
0.0
 10
92.58831920428348
 20
-154.4942735073834
 30
0.0
 10
92.6947726547777
 20
-153.6478135466575
 30
0.0
 10
92.6947726547777
 20
-153.6478135466575
 30
0.0
 10
92.6947726547777
 20
-153.6478135466575
 30
0.0
 10
93.38206920408504
 20
-153.6478135466575
 30
0.0
 10
93.38206920408504
 20
-153.6478135466575
 30
0.0
 10
93.38206920408504
 20
-153.6478135466575
 30
0.0
 10
93.38206920408504
 20
-153.8424614415741
 30
0.0
 10
93.38206920408504
 20
-153.8424614415741
 30
0.0
 10
93.38206920408504
 20
-153.8424614415741
 30
0.0
 10
92.83877764606115
 20
-153.8424614415741
 30
0.0
 10
92.83877764606115
 20
-153.8424614415741
 30
0.0
 10
92.83877764606115
 20
-153.8424614415741
 30
0.0
 10
92.78090004190895
 20
-154.2655191671628
 30
0.0
 10
92.78090004190895
 20
-154.2655191671628
 30
0.0
 10
92.83498804102737
 20
-154.2317572314074
 30
0.0
 10
92.90767955576614
 20
-154.1914496142299
 30
0.0
 10
93.01241045851773
 20
-154.1914496142299
 30
0.0
 10
93.2366861746075
 20
-154.1914496142299
 30
0.0
 10
93.44580347056217
 20
-154.3778292799819
 30
0.0
 10
93.44580347056217
 20
-154.6909884595912
 30
0.0
 10
93.44580347056217
 20
-155.0082817537827
 30
0.0
 10
93.2477104801603
 20
-155.2428927563282
 30
0.0
 10
92.98071558005344
 20
-155.2428927563282
 30
0.0
  0
HATCH
  5
143
330
13C
100
AcDbEntity
  8
_U+30EC_U+30A4_U+30E4_U+30FC 1
 62
   179
420
  2234388
100
AcDbHatch
 10
0.0
 20
0.0
 30
0.0
210
0.0
220
0.0
230
1.0
  2
SOLID
 70
     1
 71
     0
 91
        1
 92
        1
 93
        1
 72
     4
 94
        3
 73
     0
 74
     1
 95
       53
 96
       49
 40
0.0
 40
0.0
 40
0.0
 40
0.0
 40
1.0
 40
1.0
 40
1.0
 40
2.0
 40
2.0
 40
2.0
 40
3.0
 40
3.0
 40
3.0
 40
4.0
 40
4.0
 40
4.0
 40
5.0
 40
5.0
 40
5.0
 40
6.0
 40
6.0
 40
6.0
 40
7.0
 40
7.0
 40
7.0
 40
8.0
 40
8.0
 40
8.0
 40
9.0
 40
9.0
 40
9.0
 40
10.0
 40
10.0
 40
10.0
 40
11.0
 40
11.0
 40
11.0
 40
12.0
 40
12.0
 40
12.0
 40
13.0
 40
13.0
 40
13.0
 40
14.0
 40
14.0
 40
14.0
 40
15.0
 40
15.0
 40
15.0
 40
16.0
 40
16.0
 40
16.0
 40
16.0
 10
92.98071558005344
 20
-155.2428927563282
 10
92.91146916079991
 20
-155.2428927563282
 10
92.82189667818342
 20
-155.2260117884504
 10
92.73232419556692
 20
-155.1626220315219
 10
92.5790174464733
 20
-155.0527234855424
 10
92.56041393085296
 20
-154.9214653475544
 10
92.54353296297523
 20
-154.813633858866
 10
92.54353296297523
 20
-154.813633858866
 10
92.73955889608595
 20
-154.813633858866
 10
92.73955889608595
 20
-154.813633858866
 10
92.78813474242797
 20
-155.012415868365
 10
92.90044485524712
 20
-155.0420436895381
 10
92.98243812779606
 20
-155.0420436895381
 10
93.10577254616801
 20
-155.0420436895381
 10
93.24013127009275
 20
-154.9424804300144
 10
93.24013127009275
 20
-154.70993648476
 10
93.24013127009275
 20
-154.453965890206
 10
93.08165687777125
 20
-154.3840304518554
 10
92.97485891772851
 20
-154.3840304518554
 10
92.94695364429799
 20
-154.3840304518554
 10
92.82189667818342
 20
-154.3840304518554
 10
92.74334850111973
 20
-154.5132215325523
 10
92.74334850111973
 20
-154.5132215325523
 10
92.58831920428348
 20
-154.4942735073834
 10
92.58831920428348
 20
-154.4942735073834
 10
92.58831920428348
 20
-154.4942735073834
 10
92.6947726547777
 20
-153.6478135466575
 10
92.6947726547777
 20
-153.6478135466575
 10
92.6947726547777
 20
-153.6478135466575
 10
93.38206920408504
 20
-153.6478135466575
 10
93.38206920408504
 20
-153.6478135466575
 10
93.38206920408504
 20
-153.6478135466575
 10
93.38206920408504
 20
-153.8424614415741
 10
93.38206920408504
 20
-153.8424614415741
 10
93.38206920408504
 20
-153.8424614415741
 10
92.83877764606115
 20
-153.8424614415741
 10
92.83877764606115
 20
-153.8424614415741
 10
92.83877764606115
 20
-153.8424614415741
 10
92.78090004190895
 20
-154.2655191671628
 10
92.78090004190895
 20
-154.2655191671628
 10
92.83498804102737
 20
-154.2317572314074
 10
92.90767955576614
 20
-154.1914496142299
 10
93.01241045851773
 20
-154.1914496142299
 10
93.2366861746075
 20
-154.1914496142299
 10
93.44580347056217
 20
-154.3778292799819
 10
93.44580347056217
 20
-154.6909884595912
 10
93.44580347056217
 20
-155.0082817537827
 10
93.2477104801603
 20
-155.2428927563282
 10
92.98071558005344
 20
-155.2428927563282
 97
        0
 97
        0
 75
     2
 76
     1
 98
        0
  0
ENDBLK
  5
13F
330
13C
100
AcDbEntity
  8
0
100
AcDbBlockEnd
  0
BLOCK
  5
146
330
144
100
AcDbEntity
  8
0
100
AcDbBlockBegin
  2
block 7
 70
     0
 10
0.0
 20
0.0
 30
0.0
  3
block 7
  1

  0
SPLINE
  5
148
330
144
100
AcDbEntity
  8
_U+30EC_U+30A4_U+30E4_U+30FC 1
370
     0
100
AcDbSpline
210
0.0
220
0.0
230
1.0
 70
    11
 71
     3
 72
    44
 73
    40
 74
     0
 42
0.0000000001
 43
0.0000000001
 12
1.0
 22
0.0
 32
0.0
 13
1.0
 23
0.0
 33
0.0
 40
0.0
 40
0.0
 40
0.0
 40
0.0
 40
1.0
 40
1.0
 40
1.0
 40
2.0
 40
2.0
 40
2.0
 40
3.0
 40
3.0
 40
3.0
 40
4.0
 40
4.0
 40
4.0
 40
5.0
 40
5.0
 40
5.0
 40
6.0
 40
6.0
 40
6.0
 40
7.0
 40
7.0
 40
7.0
 40
8.0
 40
8.0
 40
8.0
 40
9.0
 40
9.0
 40
9.0
 40
10.0
 40
10.0
 40
10.0
 40
11.0
 40
11.0
 40
11.0
 40
12.0
 40
12.0
 40
12.0
 40
13.0
 40
13.0
 40
13.0
 40
13.0
 10
74.57046981642684
 20
-142.1594536319949
 30
0.0
 10
74.72928871829684
 20
-142.3520344696203
 30
0.0
 10
74.80335827122973
 20
-142.4340277421693
 30
0.0
 10
74.94701875296464
 20
-142.4770914357349
 30
0.0
 10
74.94701875296464
 20
-142.4770914357349
 30
0.0
 10
74.94701875296464
 20
-141.7897948864276
 30
0.0
 10
74.94701875296464
 20
-141.7897948864276
 30
0.0
 10
74.94701875296464
 20
-141.7897948864276
 30
0.0
 10
75.15234644388553
 20
-141.7897948864276
 30
0.0
 10
75.15234644388553
 20
-141.7897948864276
 30
0.0
 10
75.15234644388553
 20
-141.7897948864276
 30
0.0
 10
75.15234644388553
 20
-142.6975775467909
 30
0.0
 10
75.15234644388553
 20
-142.6975775467909
 30
0.0
 10
74.7947455325166
 20
-142.6693277638119
 30
0.0
 10
74.71654186500142
 20
-142.6114501596597
 30
0.0
 10
74.41819659597878
 20
-142.2714192352655
 30
0.0
 10
74.21941458647987
 20
-142.0454209714331
 30
0.0
 10
74.15154620542044
 20
-141.9875433672809
 30
0.0
 10
74.01408689555898
 20
-141.9875433672809
 30
0.0
 10
73.89557561086639
 20
-141.9875433672809
 30
0.0
 10
73.76466198242689
 20
-142.051277633758
 30
0.0
 10
73.76466198242689
 20
-142.2249104462146
 30
0.0
 10
73.76466198242689
 20
-142.4546983150808
 30
0.0
 10
73.99513887039011
 20
-142.4622775251483
 30
0.0
 10
74.11158309779155
 20
-142.4657226206336
 30
0.0
 10
74.11158309779155
 20
-142.4657226206336
 30
0.0
 10
74.11158309779155
 20
-142.6638156110354
 30
0.0
 10
74.11158309779155
 20
-142.6638156110354
 30
0.0
 10
73.98445907438584
 20
-142.6562364009679
 30
0.0
 10
73.87249347111522
 20
-142.6469346431577
 30
0.0
 10
73.75398218642262
 20
-142.5759656761616
 30
0.0
 10
73.59309622726146
 20
-142.4788139834775
 30
0.0
 10
73.559334291506
 20
-142.3144829288311
 30
0.0
 10
73.559334291506
 20
-142.2118190833707
 30
0.0
 10
73.559334291506
 20
-141.9672173039179
 30
0.0
 10
73.74330239041835
 20
-141.7839382241026
 30
0.0
 10
74.01615395285013
 20
-141.7839382241026
 30
0.0
 10
74.24490829307072
 20
-141.7839382241026
 30
0.0
 10
74.34412704304592
 20
-141.8869465791116
 30
0.0
 10
74.57046981642684
 20
-142.1594536319949
 30
0.0
  0
HATCH
  5
149
330
144
100
AcDbEntity
  8
_U+30EC_U+30A4_U+30E4_U+30FC 1
 62
   179
420
  2234388
100
AcDbHatch
 10
0.0
 20
0.0
 30
0.0
210
0.0
220
0.0
230
1.0
  2
SOLID
 70
     1
 71
     0
 91
        1
 92
        1
 93
        1
 72
     4
 94
        3
 73
     0
 74
     1
 95
       44
 96
       40
 40
0.0
 40
0.0
 40
0.0
 40
0.0
 40
1.0
 40
1.0
 40
1.0
 40
2.0
 40
2.0
 40
2.0
 40
3.0
 40
3.0
 40
3.0
 40
4.0
 40
4.0
 40
4.0
 40
5.0
 40
5.0
 40
5.0
 40
6.0
 40
6.0
 40
6.0
 40
7.0
 40
7.0
 40
7.0
 40
8.0
 40
8.0
 40
8.0
 40
9.0
 40
9.0
 40
9.0
 40
10.0
 40
10.0
 40
10.0
 40
11.0
 40
11.0
 40
11.0
 40
12.0
 40
12.0
 40
12.0
 40
13.0
 40
13.0
 40
13.0
 40
13.0
 10
74.57046981642684
 20
-142.1594536319949
 10
74.72928871829684
 20
-142.3520344696203
 10
74.80335827122973
 20
-142.4340277421693
 10
74.94701875296464
 20
-142.4770914357349
 10
74.94701875296464
 20
-142.4770914357349
 10
74.94701875296464
 20
-141.7897948864276
 10
74.94701875296464
 20
-141.7897948864276
 10
74.94701875296464
 20
-141.7897948864276
 10
75.15234644388553
 20
-141.7897948864276
 10
75.15234644388553
 20
-141.7897948864276
 10
75.15234644388553
 20
-141.7897948864276
 10
75.15234644388553
 20
-142.6975775467909
 10
75.15234644388553
 20
-142.6975775467909
 10
74.7947455325166
 20
-142.6693277638119
 10
74.71654186500142
 20
-142.6114501596597
 10
74.41819659597878
 20
-142.2714192352655
 10
74.21941458647987
 20
-142.0454209714331
 10
74.15154620542044
 20
-141.9875433672809
 10
74.01408689555898
 20
-141.9875433672809
 10
73.89557561086639
 20
-141.9875433672809
 10
73.76466198242689
 20
-142.051277633758
 10
73.76466198242689
 20
-142.2249104462146
 10
73.76466198242689
 20
-142.4546983150808
 10
73.99513887039011
 20
-142.4622775251483
 10
74.11158309779155
 20
-142.4657226206336
 10
74.11158309779155
 20
-142.4657226206336
 10
74.11158309779155
 20
-142.6638156110354
 10
74.11158309779155
 20
-142.6638156110354
 10
73.98445907438584
 20
-142.6562364009679
 10
73.87249347111522
 20
-142.6469346431577
 10
73.75398218642262
 20
-142.5759656761616
 10
73.59309622726146
 20
-142.4788139834775
 10
73.559334291506
 20
-142.3144829288311
 10
73.559334291506
 20
-142.2118190833707
 10
73.559334291506
 20
-141.9672173039179
 10
73.74330239041835
 20
-141.7839382241026
 10
74.01615395285013
 20
-141.7839382241026
 10
74.24490829307072
 20
-141.7839382241026
 10
74.34412704304592
 20
-141.8869465791116
 10
74.57046981642684
 20
-142.1594536319949
 97
        0
 97
        0
 75
     2
 76
     1
 98
        0
  0
SPLINE
  5
14A
330
144
100
AcDbEntity
  8
_U+30EC_U+30A4_U+30E4_U+30FC 1
370
     0
100
AcDbSpline
210
0.0
220
0.0
230
1.0
 70
    11
 71
     3
 72
    29
 73
    25
 74
     0
 42
0.0000000001
 43
0.0000000001
 12
1.0
 22
0.0
 32
0.0
 13
1.0
 23
0.0
 33
0.0
 40
0.0
 40
0.0
 40
0.0
 40
0.0
 40
1.0
 40
1.0
 40
1.0
 40
2.0
 40
2.0
 40
2.0
 40
3.0
 40
3.0
 40
3.0
 40
4.0
 40
4.0
 40
4.0
 40
5.0
 40
5.0
 40
5.0
 40
6.0
 40
6.0
 40
6.0
 40
7.0
 40
7.0
 40
7.0
 40
8.0
 40
8.0
 40
8.0
 40
8.0
 10
74.97457951684663
 20
-140.8506618571485
 30
0.0
 10
75.18404132234983
 20
-140.9460910020899
 30
0.0
 10
75.2029893475187
 20
-141.0993977511835
 30
0.0
 10
75.2029893475187
 20
-141.2020615966439
 30
0.0
 10
75.2029893475187
 20
-141.3439995306362
 30
0.0
 10
75.15648055846783
 20
-141.4690564967508
 30
0.0
 10
74.97457951684663
 20
-141.5531168265909
 30
0.0
 10
74.77993162193002
 20
-141.6447563664985
 30
0.0
 10
74.54290905254483
 20
-141.6616373343763
 30
0.0
 10
74.38030054564103
 20
-141.6616373343763
 30
0.0
 10
74.2362955543576
 20
-141.6616373343763
 30
0.0
 10
73.98445907438584
 20
-141.6464789142412
 30
0.0
 10
73.78567706488691
 20
-141.5531168265909
 30
0.0
 10
73.5827609408057
 20
-141.458032191198
 30
0.0
 10
73.559334291506
 20
-141.3157497476572
 30
0.0
 10
73.559334291506
 20
-141.2020615966439
 30
0.0
 10
73.559334291506
 20
-141.0618462103943
 30
0.0
 10
73.60377602326572
 20
-140.9347221869886
 30
0.0
 10
73.78567706488691
 20
-140.8506618571485
 30
0.0
 10
73.97825790251238
 20
-140.7631564318231
 30
0.0
 10
74.20666773318445
 20
-140.7424858589116
 30
0.0
 10
74.38030054564103
 20
-140.7424858589116
 30
0.0
 10
74.55152179125795
 20
-140.7424858589116
 30
0.0
 10
74.78199867922118
 20
-140.761089374532
 30
0.0
 10
74.97457951684663
 20
-140.8506618571485
 30
0.0
  0
SPLINE
  5
14B
330
144
100
AcDbEntity
  8
_U+30EC_U+30A4_U+30E4_U+30FC 1
370
     0
100
AcDbSpline
210
0.0
220
0.0
230
1.0
 70
    11
 71
     3
 72
    17
 73
    13
 74
     0
 42
0.0000000001
 43
0.0000000001
 12
1.0
 22
0.0
 32
0.0
 13
1.0
 23
0.0
 33
0.0
 40
0.0
 40
0.0
 40
0.0
 40
0.0
 40
1.0
 40
1.0
 40
1.0
 40
2.0
 40
2.0
 40
2.0
 40
3.0
 40
3.0
 40
3.0
 40
4.0
 40
4.0
 40
4.0
 40
4.0
 10
73.75191512913148
 20
-141.2020615966439
 30
0.0
 10
73.75191512913148
 20
-141.4225477076999
 30
0.0
 10
74.03544648756753
 20
-141.4635443439744
 30
0.0
 10
74.38030054564103
 20
-141.4635443439744
 30
0.0
 10
74.69966089712369
 20
-141.4635443439744
 30
0.0
 10
75.00834145260208
 20
-141.4318494655101
 30
0.0
 10
75.00834145260208
 20
-141.2020615966439
 30
0.0
 10
75.00834145260208
 20
-140.9832980333306
 30
0.0
 10
74.7272216610057
 20
-140.9405788493135
 30
0.0
 10
74.38030054564103
 20
-140.9405788493135
 30
0.0
 10
74.06059568460985
 20
-140.9405788493135
 30
0.0
 10
73.75191512913148
 20
-140.9739962755204
 30
0.0
 10
73.75191512913148
 20
-141.2020615966439
 30
0.0
  0
HATCH
  5
14C
330
144
100
AcDbEntity
  8
_U+30EC_U+30A4_U+30E4_U+30FC 1
 62
   179
420
  2234388
100
AcDbHatch
 10
0.0
 20
0.0
 30
0.0
210
0.0
220
0.0
230
1.0
  2
SOLID
 70
     1
 71
     0
 91
        2
 92
        1
 93
        1
 72
     4
 94
        3
 73
     0
 74
     1
 95
       29
 96
       25
 40
0.0
 40
0.0
 40
0.0
 40
0.0
 40
1.0
 40
1.0
 40
1.0
 40
2.0
 40
2.0
 40
2.0
 40
3.0
 40
3.0
 40
3.0
 40
4.0
 40
4.0
 40
4.0
 40
5.0
 40
5.0
 40
5.0
 40
6.0
 40
6.0
 40
6.0
 40
7.0
 40
7.0
 40
7.0
 40
8.0
 40
8.0
 40
8.0
 40
8.0
 10
74.97457951684663
 20
-140.8506618571485
 10
75.18404132234983
 20
-140.9460910020899
 10
75.2029893475187
 20
-141.0993977511835
 10
75.2029893475187
 20
-141.2020615966439
 10
75.2029893475187
 20
-141.3439995306362
 10
75.15648055846783
 20
-141.4690564967508
 10
74.97457951684663
 20
-141.5531168265909
 10
74.77993162193002
 20
-141.6447563664985
 10
74.54290905254483
 20
-141.6616373343763
 10
74.38030054564103
 20
-141.6616373343763
 10
74.2362955543576
 20
-141.6616373343763
 10
73.98445907438584
 20
-141.6464789142412
 10
73.78567706488691
 20
-141.5531168265909
 10
73.5827609408057
 20
-141.458032191198
 10
73.559334291506
 20
-141.3157497476572
 10
73.559334291506
 20
-141.2020615966439
 10
73.559334291506
 20
-141.0618462103943
 10
73.60377602326572
 20
-140.9347221869886
 10
73.78567706488691
 20
-140.8506618571485
 10
73.97825790251238
 20
-140.7631564318231
 10
74.20666773318445
 20
-140.7424858589116
 10
74.38030054564103
 20
-140.7424858589116
 10
74.55152179125795
 20
-140.7424858589116
 10
74.78199867922118
 20
-140.761089374532
 10
74.97457951684663
 20
-140.8506618571485
 97
        0
 97
        0
 92
        1
 93
        1
 72
     4
 94
        3
 73
     0
 74
     1
 95
       17
 96
       13
 40
0.0
 40
0.0
 40
0.0
 40
0.0
 40
1.0
 40
1.0
 40
1.0
 40
2.0
 40
2.0
 40
2.0
 40
3.0
 40
3.0
 40
3.0
 40
4.0
 40
4.0
 40
4.0
 40
4.0
 10
73.75191512913148
 20
-141.2020615966439
 10
73.75191512913148
 20
-141.4225477076999
 10
74.03544648756753
 20
-141.4635443439744
 10
74.38030054564103
 20
-141.4635443439744
 10
74.69966089712369
 20
-141.4635443439744
 10
75.00834145260208
 20
-141.4318494655101
 10
75.00834145260208
 20
-141.2020615966439
 10
75.00834145260208
 20
-140.9832980333306
 10
74.7272216610057
 20
-140.9405788493135
 10
74.38030054564103
 20
-140.9405788493135
 10
74.06059568460985
 20
-140.9405788493135
 10
73.75191512913148
 20
-140.9739962755204
 10
73.75191512913148
 20
-141.2020615966439
 97
        0
 97
        0
 75
     2
 76
     1
 98
        0
  0
ENDBLK
  5
147
330
144
100
AcDbEntity
  8
0
100
AcDbBlockEnd
  0
BLOCK
  5
14F
330
14D
100
AcDbEntity
  8
0
100
AcDbBlockBegin
  2
block 8
 70
     0
 10
0.0
 20
0.0
 30
0.0
  3
block 8
  1

  0
SPLINE
  5
151
330
14D
100
AcDbEntity
  8
_U+30EC_U+30A4_U+30E4_U+30FC 1
370
     0
100
AcDbSpline
210
0.0
220
0.0
230
1.0
 70
    11
 71
     3
 72
    26
 73
    22
 74
     0
 42
0.0000000001
 43
0.0000000001
 12
1.0
 22
0.0
 32
0.0
 13
1.0
 23
0.0
 33
0.0
 40
0.0
 40
0.0
 40
0.0
 40
0.0
 40
1.0
 40
1.0
 40
1.0
 40
2.0
 40
2.0
 40
2.0
 40
3.0
 40
3.0
 40
3.0
 40
4.0
 40
4.0
 40
4.0
 40
5.0
 40
5.0
 40
5.0
 40
6.0
 40
6.0
 40
6.0
 40
7.0
 40
7.0
 40
7.0
 40
7.0
 10
86.91579723304535
 20
-127.1924085511012
 30
0.0
 10
86.91579723304535
 20
-127.1924085511012
 30
0.0
 10
86.91579723304535
 20
-126.0880831933044
 30
0.0
 10
86.91579723304535
 20
-126.0880831933044
 30
0.0
 10
86.91579723304535
 20
-126.0880831933044
 30
0.0
 10
86.62434215499323
 20
-126.0880831933044
 30
0.0
 10
86.62434215499323
 20
-126.0880831933044
 30
0.0
 10
86.62434215499323
 20
-126.0880831933044
 30
0.0
 10
86.62434215499323
 20
-125.9401163422129
 30
0.0
 10
86.62434215499323
 20
-125.9401163422129
 30
0.0
 10
86.91751978078798
 20
-125.9253024316263
 30
0.0
 10
86.95851641706246
 20
-125.762349415174
 30
0.0
 10
86.98469914275036
 20
-125.648144499838
 30
0.0
 10
86.98469914275036
 20
-125.648144499838
 30
0.0
 10
87.1135457138987
 20
-125.648144499838
 30
0.0
 10
87.1135457138987
 20
-125.648144499838
 30
0.0
 10
87.1135457138987
 20
-125.648144499838
 30
0.0
 10
87.1135457138987
 20
-127.1924085511012
 30
0.0
 10
87.1135457138987
 20
-127.1924085511012
 30
0.0
 10
87.1135457138987
 20
-127.1924085511012
 30
0.0
 10
86.91579723304535
 20
-127.1924085511012
 30
0.0
 10
86.91579723304535
 20
-127.1924085511012
 30
0.0
  0
HATCH
  5
152
330
14D
100
AcDbEntity
  8
_U+30EC_U+30A4_U+30E4_U+30FC 1
 62
   179
420
  2234388
100
AcDbHatch
 10
0.0
 20
0.0
 30
0.0
210
0.0
220
0.0
230
1.0
  2
SOLID
 70
     1
 71
     0
 91
        1
 92
        1
 93
        1
 72
     4
 94
        3
 73
     0
 74
     1
 95
       26
 96
       22
 40
0.0
 40
0.0
 40
0.0
 40
0.0
 40
1.0
 40
1.0
 40
1.0
 40
2.0
 40
2.0
 40
2.0
 40
3.0
 40
3.0
 40
3.0
 40
4.0
 40
4.0
 40
4.0
 40
5.0
 40
5.0
 40
5.0
 40
6.0
 40
6.0
 40
6.0
 40
7.0
 40
7.0
 40
7.0
 40
7.0
 10
86.91579723304535
 20
-127.1924085511012
 10
86.91579723304535
 20
-127.1924085511012
 10
86.91579723304535
 20
-126.0880831933044
 10
86.91579723304535
 20
-126.0880831933044
 10
86.91579723304535
 20
-126.0880831933044
 10
86.62434215499323
 20
-126.0880831933044
 10
86.62434215499323
 20
-126.0880831933044
 10
86.62434215499323
 20
-126.0880831933044
 10
86.62434215499323
 20
-125.9401163422129
 10
86.62434215499323
 20
-125.9401163422129
 10
86.91751978078798
 20
-125.9253024316263
 10
86.95851641706246
 20
-125.762349415174
 10
86.98469914275036
 20
-125.648144499838
 10
86.98469914275036
 20
-125.648144499838
 10
87.1135457138987
 20
-125.648144499838
 10
87.1135457138987
 20
-125.648144499838
 10
87.1135457138987
 20
-125.648144499838
 10
87.1135457138987
 20
-127.1924085511012
 10
87.1135457138987
 20
-127.1924085511012
 10
87.1135457138987
 20
-127.1924085511012
 10
86.91579723304535
 20
-127.1924085511012
 10
86.91579723304535
 20
-127.1924085511012
 97
        0
 97
        0
 75
     2
 76
     1
 98
        0
  0
SPLINE
  5
153
330
14D
100
AcDbEntity
  8
_U+30EC_U+30A4_U+30E4_U+30FC 1
370
     0
100
AcDbSpline
210
0.0
220
0.0
230
1.0
 70
    11
 71
     3
 72
    62
 73
    58
 74
     0
 42
0.0000000001
 43
0.0000000001
 12
1.0
 22
0.0
 32
0.0
 13
1.0
 23
0.0
 33
0.0
 40
0.0
 40
0.0
 40
0.0
 40
0.0
 40
1.0
 40
1.0
 40
1.0
 40
2.0
 40
2.0
 40
2.0
 40
3.0
 40
3.0
 40
3.0
 40
4.0
 40
4.0
 40
4.0
 40
5.0
 40
5.0
 40
5.0
 40
6.0
 40
6.0
 40
6.0
 40
7.0
 40
7.0
 40
7.0
 40
8.0
 40
8.0
 40
8.0
 40
9.0
 40
9.0
 40
9.0
 40
10.0
 40
10.0
 40
10.0
 40
11.0
 40
11.0
 40
11.0
 40
12.0
 40
12.0
 40
12.0
 40
13.0
 40
13.0
 40
13.0
 40
14.0
 40
14.0
 40
14.0
 40
15.0
 40
15.0
 40
15.0
 40
16.0
 40
16.0
 40
16.0
 40
17.0
 40
17.0
 40
17.0
 40
18.0
 40
18.0
 40
18.0
 40
19.0
 40
19.0
 40
19.0
 40
19.0
 10
87.99101153399184
 20
-127.2432237095086
 30
0.0
 10
87.90695120415174
 20
-127.2432237095086
 30
0.0
 10
87.71437036652627
 20
-127.2220363722744
 30
0.0
 10
87.60412731099828
 20
-127.0358289612966
 30
0.0
 10
87.53867049677854
 20
-126.9236911032517
 30
0.0
 10
87.53522540129327
 20
-126.8243000985023
 30
0.0
 10
87.5314357962595
 20
-126.7397230043394
 30
0.0
 10
87.5314357962595
 20
-126.7397230043394
 30
0.0
 10
87.7257391816276
 20
-126.7397230043394
 30
0.0
 10
87.7257391816276
 20
-126.7397230043394
 30
0.0
 10
87.72746172937022
 20
-126.8137925572723
 30
0.0
 10
87.7367634871804
 20
-127.048575814592
 30
0.0
 10
87.98722192895806
 20
-127.048575814592
 30
0.0
 10
88.10848929003886
 20
-127.048575814592
 30
0.0
 10
88.24319252351212
 20
-126.9788126310157
 30
0.0
 10
88.24319252351212
 20
-126.7502305455694
 30
0.0
 10
88.24319252351212
 20
-126.6339585729422
 30
0.0
 10
88.20943058775667
 20
-126.5852104718259
 30
0.0
 10
88.18152531432615
 20
-126.5535155933616
 30
0.0
 10
88.11606850010641
 20
-126.4794460404288
 30
0.0
 10
88.01340465464595
 20
-126.4668714419076
 30
0.0
 10
87.96482880830393
 20
-126.4668714419076
 30
0.0
 10
87.94794784042621
 20
-126.4668714419076
 30
0.0
 10
87.91625296196192
 20
-126.4689384991987
 30
0.0
 10
87.89179278401664
 20
-126.473072613781
 30
0.0
 10
87.89179278401664
 20
-126.473072613781
 30
0.0
 10
87.89179278401664
 20
-126.2784247188644
 30
0.0
 10
87.89179278401664
 20
-126.2784247188644
 30
0.0
 10
87.9255547197721
 20
-126.2847981455121
 30
0.0
 10
87.96276175101279
 20
-126.2870374575776
 30
0.0
 10
87.96861841333771
 20
-126.2870374575776
 30
0.0
 10
88.0264960174899
 20
-126.2870374575776
 30
0.0
 10
88.20185137768912
 20
-126.2658501203433
 30
0.0
 10
88.20185137768912
 20
-126.0288275509581
 30
0.0
 10
88.20185137768912
 20
-125.8512328786935
 30
0.0
 10
88.08609616938473
 20
-125.7961113509295
 30
0.0
 10
87.98894447670068
 20
-125.7961113509295
 30
0.0
 10
87.75536700280074
 20
-125.7961113509295
 30
0.0
 10
87.74813230228172
 20
-126.0288275509581
 30
0.0
 10
87.74434269724794
 20
-126.1008300465998
 30
0.0
 10
87.74434269724794
 20
-126.1008300465998
 30
0.0
 10
87.56485322246643
 20
-126.1008300465998
 30
0.0
 10
87.56485322246643
 20
-126.1008300465998
 30
0.0
 10
87.57243243253397
 20
-125.9759453352595
 30
0.0
 10
87.59689261047926
 20
-125.5993963987217
 30
0.0
 10
88.00031329180202
 20
-125.5993963987217
 30
0.0
 10
88.19806177265535
 20
-125.5993963987217
 30
0.0
 10
88.41131318319232
 20
-125.7263481673531
 30
0.0
 10
88.41131318319232
 20
-126.0224541243104
 30
0.0
 10
88.41131318319232
 20
-126.2086615352881
 30
0.0
 10
88.32725285335222
 20
-126.2911715721599
 30
0.0
 10
88.23940291847835
 20
-126.3524942717973
 30
0.0
 10
88.29349091759677
 20
-126.3800550356793
 30
0.0
 10
88.45403236720941
 20
-126.4604980152599
 30
0.0
 10
88.45403236720941
 20
-126.7376559470482
 30
0.0
 10
88.45403236720941
 20
-127.076136578474
 30
0.0
 10
88.23561331344457
 20
-127.2432237095086
 30
0.0
 10
87.99101153399184
 20
-127.2432237095086
 30
0.0
  0
HATCH
  5
154
330
14D
100
AcDbEntity
  8
_U+30EC_U+30A4_U+30E4_U+30FC 1
 62
   179
420
  2234388
100
AcDbHatch
 10
0.0
 20
0.0
 30
0.0
210
0.0
220
0.0
230
1.0
  2
SOLID
 70
     1
 71
     0
 91
        1
 92
        1
 93
        1
 72
     4
 94
        3
 73
     0
 74
     1
 95
       62
 96
       58
 40
0.0
 40
0.0
 40
0.0
 40
0.0
 40
1.0
 40
1.0
 40
1.0
 40
2.0
 40
2.0
 40
2.0
 40
3.0
 40
3.0
 40
3.0
 40
4.0
 40
4.0
 40
4.0
 40
5.0
 40
5.0
 40
5.0
 40
6.0
 40
6.0
 40
6.0
 40
7.0
 40
7.0
 40
7.0
 40
8.0
 40
8.0
 40
8.0
 40
9.0
 40
9.0
 40
9.0
 40
10.0
 40
10.0
 40
10.0
 40
11.0
 40
11.0
 40
11.0
 40
12.0
 40
12.0
 40
12.0
 40
13.0
 40
13.0
 40
13.0
 40
14.0
 40
14.0
 40
14.0
 40
15.0
 40
15.0
 40
15.0
 40
16.0
 40
16.0
 40
16.0
 40
17.0
 40
17.0
 40
17.0
 40
18.0
 40
18.0
 40
18.0
 40
19.0
 40
19.0
 40
19.0
 40
19.0
 10
87.99101153399184
 20
-127.2432237095086
 10
87.90695120415174
 20
-127.2432237095086
 10
87.71437036652627
 20
-127.2220363722744
 10
87.60412731099828
 20
-127.0358289612966
 10
87.53867049677854
 20
-126.9236911032517
 10
87.53522540129327
 20
-126.8243000985023
 10
87.5314357962595
 20
-126.7397230043394
 10
87.5314357962595
 20
-126.7397230043394
 10
87.7257391816276
 20
-126.7397230043394
 10
87.7257391816276
 20
-126.7397230043394
 10
87.72746172937022
 20
-126.8137925572723
 10
87.7367634871804
 20
-127.048575814592
 10
87.98722192895806
 20
-127.048575814592
 10
88.10848929003886
 20
-127.048575814592
 10
88.24319252351212
 20
-126.9788126310157
 10
88.24319252351212
 20
-126.7502305455694
 10
88.24319252351212
 20
-126.6339585729422
 10
88.20943058775667
 20
-126.5852104718259
 10
88.18152531432615
 20
-126.5535155933616
 10
88.11606850010641
 20
-126.4794460404288
 10
88.01340465464595
 20
-126.4668714419076
 10
87.96482880830393
 20
-126.4668714419076
 10
87.94794784042621
 20
-126.4668714419076
 10
87.91625296196192
 20
-126.4689384991987
 10
87.89179278401664
 20
-126.473072613781
 10
87.89179278401664
 20
-126.473072613781
 10
87.89179278401664
 20
-126.2784247188644
 10
87.89179278401664
 20
-126.2784247188644
 10
87.9255547197721
 20
-126.2847981455121
 10
87.96276175101279
 20
-126.2870374575776
 10
87.96861841333771
 20
-126.2870374575776
 10
88.0264960174899
 20
-126.2870374575776
 10
88.20185137768912
 20
-126.2658501203433
 10
88.20185137768912
 20
-126.0288275509581
 10
88.20185137768912
 20
-125.8512328786935
 10
88.08609616938473
 20
-125.7961113509295
 10
87.98894447670068
 20
-125.7961113509295
 10
87.75536700280074
 20
-125.7961113509295
 10
87.74813230228172
 20
-126.0288275509581
 10
87.74434269724794
 20
-126.1008300465998
 10
87.74434269724794
 20
-126.1008300465998
 10
87.56485322246643
 20
-126.1008300465998
 10
87.56485322246643
 20
-126.1008300465998
 10
87.57243243253397
 20
-125.9759453352595
 10
87.59689261047926
 20
-125.5993963987217
 10
88.00031329180202
 20
-125.5993963987217
 10
88.19806177265535
 20
-125.5993963987217
 10
88.41131318319232
 20
-125.7263481673531
 10
88.41131318319232
 20
-126.0224541243104
 10
88.41131318319232
 20
-126.2086615352881
 10
88.32725285335222
 20
-126.2911715721599
 10
88.23940291847835
 20
-126.3524942717973
 10
88.29349091759677
 20
-126.3800550356793
 10
88.45403236720941
 20
-126.4604980152599
 10
88.45403236720941
 20
-126.7376559470482
 10
88.45403236720941
 20
-127.076136578474
 10
88.23561331344457
 20
-127.2432237095086
 10
87.99101153399184
 20
-127.2432237095086
 97
        0
 97
        0
 75
     2
 76
     1
 98
        0
  0
ENDBLK
  5
150
330
14D
100
AcDbEntity
  8
0
100
AcDbBlockEnd
  0
BLOCK
  5
157
330
155
100
AcDbEntity
  8
0
100
AcDbBlockBegin
  2
block 9
 70
     0
 10
0.0
 20
0.0
 30
0.0
  3
block 9
  1

  0
SPLINE
  5
159
330
155
100
AcDbEntity
  8
_U+30EC_U+30A4_U+30E4_U+30FC 1
370
     0
100
AcDbSpline
210
0.0
220
0.0
230
1.0
 70
    11
 71
     3
 72
    26
 73
    22
 74
     0
 42
0.0000000001
 43
0.0000000001
 12
1.0
 22
0.0
 32
0.0
 13
1.0
 23
0.0
 33
0.0
 40
0.0
 40
0.0
 40
0.0
 40
0.0
 40
1.0
 40
1.0
 40
1.0
 40
2.0
 40
2.0
 40
2.0
 40
3.0
 40
3.0
 40
3.0
 40
4.0
 40
4.0
 40
4.0
 40
5.0
 40
5.0
 40
5.0
 40
6.0
 40
6.0
 40
6.0
 40
7.0
 40
7.0
 40
7.0
 40
7.0
 10
79.72863903171715
 20
-117.1217054286189
 30
0.0
 10
79.72863903171715
 20
-117.1217054286189
 30
0.0
 10
79.72863903171715
 20
-116.017380070822
 30
0.0
 10
79.72863903171715
 20
-116.017380070822
 30
0.0
 10
79.72863903171715
 20
-116.017380070822
 30
0.0
 10
79.43735620843927
 20
-116.017380070822
 30
0.0
 10
79.43735620843927
 20
-116.017380070822
 30
0.0
 10
79.43735620843927
 20
-116.017380070822
 30
0.0
 10
79.43735620843927
 20
-115.8694132197306
 30
0.0
 10
79.43735620843927
 20
-115.8694132197306
 30
0.0
 10
79.73053383423404
 20
-115.854599309144
 30
0.0
 10
79.77170272528278
 20
-115.6916462926917
 30
0.0
 10
79.79771319619641
 20
-115.5774413773556
 30
0.0
 10
79.79771319619641
 20
-115.5774413773556
 30
0.0
 10
79.92673202211901
 20
-115.5774413773556
 30
0.0
 10
79.92673202211901
 20
-115.5774413773556
 30
0.0
 10
79.92673202211901
 20
-115.5774413773556
 30
0.0
 10
79.92673202211901
 20
-117.1217054286189
 30
0.0
 10
79.92673202211901
 20
-117.1217054286189
 30
0.0
 10
79.92673202211901
 20
-117.1217054286189
 30
0.0
 10
79.72863903171715
 20
-117.1217054286189
 30
0.0
 10
79.72863903171715
 20
-117.1217054286189
 30
0.0
  0
HATCH
  5
15A
330
155
100
AcDbEntity
  8
_U+30EC_U+30A4_U+30E4_U+30FC 1
 62
   179
420
  2234388
100
AcDbHatch
 10
0.0
 20
0.0
 30
0.0
210
0.0
220
0.0
230
1.0
  2
SOLID
 70
     1
 71
     0
 91
        1
 92
        1
 93
        1
 72
     4
 94
        3
 73
     0
 74
     1
 95
       26
 96
       22
 40
0.0
 40
0.0
 40
0.0
 40
0.0
 40
1.0
 40
1.0
 40
1.0
 40
2.0
 40
2.0
 40
2.0
 40
3.0
 40
3.0
 40
3.0
 40
4.0
 40
4.0
 40
4.0
 40
5.0
 40
5.0
 40
5.0
 40
6.0
 40
6.0
 40
6.0
 40
7.0
 40
7.0
 40
7.0
 40
7.0
 10
79.72863903171715
 20
-117.1217054286189
 10
79.72863903171715
 20
-117.1217054286189
 10
79.72863903171715
 20
-116.017380070822
 10
79.72863903171715
 20
-116.017380070822
 10
79.72863903171715
 20
-116.017380070822
 10
79.43735620843927
 20
-116.017380070822
 10
79.43735620843927
 20
-116.017380070822
 10
79.43735620843927
 20
-116.017380070822
 10
79.43735620843927
 20
-115.8694132197306
 10
79.43735620843927
 20
-115.8694132197306
 10
79.73053383423404
 20
-115.854599309144
 10
79.77170272528278
 20
-115.6916462926917
 10
79.79771319619641
 20
-115.5774413773556
 10
79.79771319619641
 20
-115.5774413773556
 10
79.92673202211901
 20
-115.5774413773556
 10
79.92673202211901
 20
-115.5774413773556
 10
79.92673202211901
 20
-115.5774413773556
 10
79.92673202211901
 20
-117.1217054286189
 10
79.92673202211901
 20
-117.1217054286189
 10
79.92673202211901
 20
-117.1217054286189
 10
79.72863903171715
 20
-117.1217054286189
 10
79.72863903171715
 20
-117.1217054286189
 97
        0
 97
        0
 75
     2
 76
     1
 98
        0
  0
SPLINE
  5
15B
330
155
100
AcDbEntity
  8
_U+30EC_U+30A4_U+30E4_U+30FC 1
370
     0
100
AcDbSpline
210
0.0
220
0.0
230
1.0
 70
    11
 71
     3
 72
   125
 73
   121
 74
     0
 42
0.0000000001
 43
0.0000000001
 12
1.0
 22
0.0
 32
0.0
 13
1.0
 23
0.0
 33
0.0
 40
0.0
 40
0.0
 40
0.0
 40
0.0
 40
1.0
 40
1.0
 40
1.0
 40
2.0
 40
2.0
 40
2.0
 40
3.0
 40
3.0
 40
3.0
 40
4.0
 40
4.0
 40
4.0
 40
5.0
 40
5.0
 40
5.0
 40
6.0
 40
6.0
 40
6.0
 40
7.0
 40
7.0
 40
7.0
 40
8.0
 40
8.0
 40
8.0
 40
9.0
 40
9.0
 40
9.0
 40
10.0
 40
10.0
 40
10.0
 40
11.0
 40
11.0
 40
11.0
 40
12.0
 40
12.0
 40
12.0
 40
13.0
 40
13.0
 40
13.0
 40
14.0
 40
14.0
 40
14.0
 40
15.0
 40
15.0
 40
15.0
 40
16.0
 40
16.0
 40
16.0
 40
17.0
 40
17.0
 40
17.0
 40
18.0
 40
18.0
 40
18.0
 40
19.0
 40
19.0
 40
19.0
 40
20.0
 40
20.0
 40
20.0
 40
21.0
 40
21.0
 40
21.0
 40
22.0
 40
22.0
 40
22.0
 40
23.0
 40
23.0
 40
23.0
 40
24.0
 40
24.0
 40
24.0
 40
25.0
 40
25.0
 40
25.0
 40
26.0
 40
26.0
 40
26.0
 40
27.0
 40
27.0
 40
27.0
 40
28.0
 40
28.0
 40
28.0
 40
29.0
 40
29.0
 40
29.0
 40
30.0
 40
30.0
 40
30.0
 40
31.0
 40
31.0
 40
31.0
 40
32.0
 40
32.0
 40
32.0
 40
33.0
 40
33.0
 40
33.0
 40
34.0
 40
34.0
 40
34.0
 40
35.0
 40
35.0
 40
35.0
 40
36.0
 40
36.0
 40
36.0
 40
37.0
 40
37.0
 40
37.0
 40
38.0
 40
38.0
 40
38.0
 40
39.0
 40
39.0
 40
39.0
 40
40.0
 40
40.0
 40
40.0
 40
40.0
 10
81.97139619261479
 20
-116.9482448709365
 30
0.0
 10
81.9135185884626
 20
-116.9143106804068
 30
0.0
 10
81.79018417009065
 20
-116.8424804395394
 30
0.0
 10
81.64652368835573
 20
-116.6986477030302
 30
0.0
 10
81.51388751217361
 20
-116.5632554504599
 30
0.0
 10
81.39606524657808
 20
-116.4066758606553
 30
0.0
 10
81.31958412680552
 20
-116.2607760668549
 30
0.0
 10
81.31958412680552
 20
-116.2607760668549
 30
0.0
 10
81.31958412680552
 20
-116.5673895650422
 30
0.0
 10
81.31958412680552
 20
-116.5673895650422
 30
0.0
 10
81.31958412680552
 20
-116.6054578701542
 30
0.0
 10
81.31958412680552
 20
-116.6182047234496
 30
0.0
 10
81.32130667454815
 20
-116.7408501227245
 30
0.0
 10
81.32130667454815
 20
-116.7408501227245
 30
0.0
 10
81.35679115804622
 20
-116.7408501227245
 30
0.0
 10
81.35679115804622
 20
-116.7408501227245
 30
0.0
 10
81.44670815021124
 20
-116.7408501227245
 30
0.0
 10
81.53628063282774
 20
-116.7367160081422
 30
0.0
 10
81.62413056770161
 20
-116.7219020975556
 30
0.0
 10
81.62413056770161
 20
-116.7219020975556
 30
0.0
 10
81.62413056770161
 20
-116.9313639030588
 30
0.0
 10
81.62413056770161
 20
-116.9313639030588
 30
0.0
 10
81.54385984289529
 20
-116.9186170497634
 30
0.0
 10
81.43912894014369
 20
-116.9122436231157
 30
0.0
 10
81.35679115804622
 20
-116.9122436231157
 30
0.0
 10
81.35679115804622
 20
-116.9122436231157
 30
0.0
 10
81.3233737318393
 20
-116.9122436231157
 30
0.0
 10
81.3233737318393
 20
-116.9122436231157
 30
0.0
 10
81.3233737318393
 20
-116.982006806692
 30
0.0
 10
81.32509627958193
 20
-117.0560763596249
 30
0.0
 10
81.33267548964947
 20
-117.2803520757146
 30
0.0
 10
81.33267548964947
 20
-117.2803520757146
 30
0.0
 10
81.12149113640366
 20
-117.2803520757146
 30
0.0
 10
81.12149113640366
 20
-117.2803520757146
 30
0.0
 10
81.12734779872858
 20
-117.0603827289814
 30
0.0
 10
81.12907034647121
 20
-116.9906195454051
 30
0.0
 10
81.12907034647121
 20
-116.9122436231157
 30
0.0
 10
81.12907034647121
 20
-116.9122436231157
 30
0.0
 10
81.09530841071576
 20
-116.9122436231157
 30
0.0
 10
81.09530841071576
 20
-116.9122436231157
 30
0.0
 10
81.00573592809927
 20
-116.9122436231157
 30
0.0
 10
80.9178859932254
 20
-116.9165499924723
 30
0.0
 10
80.83038056790005
 20
-116.9313639030588
 30
0.0
 10
80.83038056790005
 20
-116.9313639030588
 30
0.0
 10
80.83038056790005
 20
-116.7219020975556
 30
0.0
 10
80.83038056790005
 20
-116.7219020975556
 30
0.0
 10
80.9178859932254
 20
-116.7367160081422
 30
0.0
 10
81.00573592809927
 20
-116.7408501227245
 30
0.0
 10
81.09530841071576
 20
-116.7408501227245
 30
0.0
 10
81.09530841071576
 20
-116.7408501227245
 30
0.0
 10
81.13079289421384
 20
-116.7408501227245
 30
0.0
 10
81.13079289421384
 20
-116.7408501227245
 30
0.0
 10
81.13285995150498
 20
-116.6266452073885
 30
0.0
 10
81.13285995150498
 20
-116.6138983540931
 30
0.0
 10
81.13285995150498
 20
-116.575830048981
 30
0.0
 10
81.13285995150498
 20
-116.575830048981
 30
0.0
 10
81.13285995150498
 20
-116.2352823602641
 30
0.0
 10
81.13285995150498
 20
-116.2352823602641
 30
0.0
 10
80.97955320241137
 20
-116.5420681132256
 30
0.0
 10
80.75734454361275
 20
-116.8023450771362
 30
0.0
 10
80.47898082840456
 20
-116.960991724232
 30
0.0
 10
80.47898082840456
 20
-116.960991724232
 30
0.0
 10
80.33325328937849
 20
-116.7663438293154
 30
0.0
 10
80.33325328937849
 20
-116.7663438293154
 30
0.0
 10
80.62298581968801
 20
-116.6521389139793
 30
0.0
 10
80.89755992986242
 20
-116.357927759539
 30
0.0
 10
81.06740313728524
 20
-115.9455498299546
 30
0.0
 10
81.06740313728524
 20
-115.9455498299546
 30
0.0
 10
80.94958087168969
 20
-115.9455498299546
 30
0.0
 10
80.94958087168969
 20
-115.9455498299546
 30
0.0
 10
80.77215845419933
 20
-115.9455498299546
 30
0.0
 10
80.5706203683122
 20
-115.9496839445369
 30
0.0
 10
80.39492049856447
 20
-115.9624307978323
 30
0.0
 10
80.39492049856447
 20
-115.9624307978323
 30
0.0
 10
80.39492049856447
 20
-115.7550360496203
 30
0.0
 10
80.39492049856447
 20
-115.7550360496203
 30
0.0
 10
80.57992212612238
 20
-115.7677829029157
 30
0.0
 10
80.7649237536803
 20
-115.7720892722723
 30
0.0
 10
80.94958087168969
 20
-115.7720892722723
 30
0.0
 10
80.94958087168969
 20
-115.7720892722723
 30
0.0
 10
81.13285995150498
 20
-115.7720892722723
 30
0.0
 10
81.13285995150498
 20
-115.7720892722723
 30
0.0
 10
81.13079289421384
 20
-115.5519476707648
 30
0.0
 10
81.12907034647121
 20
-115.5266262189482
 30
0.0
 10
81.12528074143744
 20
-115.3531656612659
 30
0.0
 10
81.12528074143744
 20
-115.3531656612659
 30
0.0
 10
81.31958412680552
 20
-115.3659125145613
 30
0.0
 10
81.31958412680552
 20
-115.3659125145613
 30
0.0
 10
81.35334606256097
 20
-115.3679795718525
 30
0.0
 10
81.36815997314754
 20
-115.3743529985002
 30
0.0
 10
81.36815997314754
 20
-115.3996744503168
 30
0.0
 10
81.36815997314754
 20
-115.4165554181945
 30
0.0
 10
81.36437036811377
 20
-115.420861787551
 30
0.0
 10
81.32509627958193
 20
-115.4546237233065
 30
0.0
 10
81.3233737318393
 20
-115.5181857350094
 30
0.0
 10
81.31958412680552
 20
-115.695780407274
 30
0.0
 10
81.31958412680552
 20
-115.7720892722723
 30
0.0
 10
81.31958412680552
 20
-115.7720892722723
 30
0.0
 10
81.49700654429589
 20
-115.7720892722723
 30
0.0
 10
81.49700654429589
 20
-115.7720892722723
 30
0.0
 10
81.67442896178626
 20
-115.7720892722723
 30
0.0
 10
81.8818237099983
 20
-115.7677829029157
 30
0.0
 10
82.05752357974605
 20
-115.7550360496203
 30
0.0
 10
82.05752357974605
 20
-115.7550360496203
 30
0.0
 10
82.05752357974605
 20
-115.9624307978323
 30
0.0
 10
82.05752357974605
 20
-115.9624307978323
 30
0.0
 10
81.87045489489698
 20
-115.9496839445369
 30
0.0
 10
81.68373071959643
 20
-115.9455498299546
 30
0.0
 10
81.49700654429589
 20
-115.9455498299546
 30
0.0
 10
81.49700654429589
 20
-115.9455498299546
 30
0.0
 10
81.36643742540492
 20
-115.9455498299546
 30
0.0
 10
81.36643742540492
 20
-115.9455498299546
 30
0.0
 10
81.4129462144558
 20
-116.0428737774129
 30
0.0
 10
81.50458575436345
 20
-116.2247748190341
 30
0.0
 10
81.65410289842329
 20
-116.4003024340076
 30
0.0
 10
81.84806177424285
 20
-116.630951576745
 30
0.0
 10
82.02203909624797
 20
-116.7112223015514
 30
0.0
 10
82.10782197383068
 20
-116.7515299187288
 30
0.0
 10
82.10782197383068
 20
-116.7515299187288
 30
0.0
 10
81.97139619261479
 20
-116.9482448709365
 30
0.0
 10
81.97139619261479
 20
-116.9482448709365
 30
0.0
  0
HATCH
  5
15C
330
155
100
AcDbEntity
  8
_U+30EC_U+30A4_U+30E4_U+30FC 1
 62
   179
420
  2234388
100
AcDbHatch
 10
0.0
 20
0.0
 30
0.0
210
0.0
220
0.0
230
1.0
  2
SOLID
 70
     1
 71
     0
 91
        1
 92
        1
 93
        1
 72
     4
 94
        3
 73
     0
 74
     1
 95
      125
 96
      121
 40
0.0
 40
0.0
 40
0.0
 40
0.0
 40
1.0
 40
1.0
 40
1.0
 40
2.0
 40
2.0
 40
2.0
 40
3.0
 40
3.0
 40
3.0
 40
4.0
 40
4.0
 40
4.0
 40
5.0
 40
5.0
 40
5.0
 40
6.0
 40
6.0
 40
6.0
 40
7.0
 40
7.0
 40
7.0
 40
8.0
 40
8.0
 40
8.0
 40
9.0
 40
9.0
 40
9.0
 40
10.0
 40
10.0
 40
10.0
 40
11.0
 40
11.0
 40
11.0
 40
12.0
 40
12.0
 40
12.0
 40
13.0
 40
13.0
 40
13.0
 40
14.0
 40
14.0
 40
14.0
 40
15.0
 40
15.0
 40
15.0
 40
16.0
 40
16.0
 40
16.0
 40
17.0
 40
17.0
 40
17.0
 40
18.0
 40
18.0
 40
18.0
 40
19.0
 40
19.0
 40
19.0
 40
20.0
 40
20.0
 40
20.0
 40
21.0
 40
21.0
 40
21.0
 40
22.0
 40
22.0
 40
22.0
 40
23.0
 40
23.0
 40
23.0
 40
24.0
 40
24.0
 40
24.0
 40
25.0
 40
25.0
 40
25.0
 40
26.0
 40
26.0
 40
26.0
 40
27.0
 40
27.0
 40
27.0
 40
28.0
 40
28.0
 40
28.0
 40
29.0
 40
29.0
 40
29.0
 40
30.0
 40
30.0
 40
30.0
 40
31.0
 40
31.0
 40
31.0
 40
32.0
 40
32.0
 40
32.0
 40
33.0
 40
33.0
 40
33.0
 40
34.0
 40
34.0
 40
34.0
 40
35.0
 40
35.0
 40
35.0
 40
36.0
 40
36.0
 40
36.0
 40
37.0
 40
37.0
 40
37.0
 40
38.0
 40
38.0
 40
38.0
 40
39.0
 40
39.0
 40
39.0
 40
40.0
 40
40.0
 40
40.0
 40
40.0
 10
81.97139619261479
 20
-116.9482448709365
 10
81.9135185884626
 20
-116.9143106804068
 10
81.79018417009065
 20
-116.8424804395394
 10
81.64652368835573
 20
-116.6986477030302
 10
81.51388751217361
 20
-116.5632554504599
 10
81.39606524657808
 20
-116.4066758606553
 10
81.31958412680552
 20
-116.2607760668549
 10
81.31958412680552
 20
-116.2607760668549
 10
81.31958412680552
 20
-116.5673895650422
 10
81.31958412680552
 20
-116.5673895650422
 10
81.31958412680552
 20
-116.6054578701542
 10
81.31958412680552
 20
-116.6182047234496
 10
81.32130667454815
 20
-116.7408501227245
 10
81.32130667454815
 20
-116.7408501227245
 10
81.35679115804622
 20
-116.7408501227245
 10
81.35679115804622
 20
-116.7408501227245
 10
81.44670815021124
 20
-116.7408501227245
 10
81.53628063282774
 20
-116.7367160081422
 10
81.62413056770161
 20
-116.7219020975556
 10
81.62413056770161
 20
-116.7219020975556
 10
81.62413056770161
 20
-116.9313639030588
 10
81.62413056770161
 20
-116.9313639030588
 10
81.54385984289529
 20
-116.9186170497634
 10
81.43912894014369
 20
-116.9122436231157
 10
81.35679115804622
 20
-116.9122436231157
 10
81.35679115804622
 20
-116.9122436231157
 10
81.3233737318393
 20
-116.9122436231157
 10
81.3233737318393
 20
-116.9122436231157
 10
81.3233737318393
 20
-116.982006806692
 10
81.32509627958193
 20
-117.0560763596249
 10
81.33267548964947
 20
-117.2803520757146
 10
81.33267548964947
 20
-117.2803520757146
 10
81.12149113640366
 20
-117.2803520757146
 10
81.12149113640366
 20
-117.2803520757146
 10
81.12734779872858
 20
-117.0603827289814
 10
81.12907034647121
 20
-116.9906195454051
 10
81.12907034647121
 20
-116.9122436231157
 10
81.12907034647121
 20
-116.9122436231157
 10
81.09530841071576
 20
-116.9122436231157
 10
81.09530841071576
 20
-116.9122436231157
 10
81.00573592809927
 20
-116.9122436231157
 10
80.9178859932254
 20
-116.9165499924723
 10
80.83038056790005
 20
-116.9313639030588
 10
80.83038056790005
 20
-116.9313639030588
 10
80.83038056790005
 20
-116.7219020975556
 10
80.83038056790005
 20
-116.7219020975556
 10
80.9178859932254
 20
-116.7367160081422
 10
81.00573592809927
 20
-116.7408501227245
 10
81.09530841071576
 20
-116.7408501227245
 10
81.09530841071576
 20
-116.7408501227245
 10
81.13079289421384
 20
-116.7408501227245
 10
81.13079289421384
 20
-116.7408501227245
 10
81.13285995150498
 20
-116.6266452073885
 10
81.13285995150498
 20
-116.6138983540931
 10
81.13285995150498
 20
-116.575830048981
 10
81.13285995150498
 20
-116.575830048981
 10
81.13285995150498
 20
-116.2352823602641
 10
81.13285995150498
 20
-116.2352823602641
 10
80.97955320241137
 20
-116.5420681132256
 10
80.75734454361275
 20
-116.8023450771362
 10
80.47898082840456
 20
-116.960991724232
 10
80.47898082840456
 20
-116.960991724232
 10
80.33325328937849
 20
-116.7663438293154
 10
80.33325328937849
 20
-116.7663438293154
 10
80.62298581968801
 20
-116.6521389139793
 10
80.89755992986242
 20
-116.357927759539
 10
81.06740313728524
 20
-115.9455498299546
 10
81.06740313728524
 20
-115.9455498299546
 10
80.94958087168969
 20
-115.9455498299546
 10
80.94958087168969
 20
-115.9455498299546
 10
80.77215845419933
 20
-115.9455498299546
 10
80.5706203683122
 20
-115.9496839445369
 10
80.39492049856447
 20
-115.9624307978323
 10
80.39492049856447
 20
-115.9624307978323
 10
80.39492049856447
 20
-115.7550360496203
 10
80.39492049856447
 20
-115.7550360496203
 10
80.57992212612238
 20
-115.7677829029157
 10
80.7649237536803
 20
-115.7720892722723
 10
80.94958087168969
 20
-115.7720892722723
 10
80.94958087168969
 20
-115.7720892722723
 10
81.13285995150498
 20
-115.7720892722723
 10
81.13285995150498
 20
-115.7720892722723
 10
81.13079289421384
 20
-115.5519476707648
 10
81.12907034647121
 20
-115.5266262189482
 10
81.12528074143744
 20
-115.3531656612659
 10
81.12528074143744
 20
-115.3531656612659
 10
81.31958412680552
 20
-115.3659125145613
 10
81.31958412680552
 20
-115.3659125145613
 10
81.35334606256097
 20
-115.3679795718525
 10
81.36815997314754
 20
-115.3743529985002
 10
81.36815997314754
 20
-115.3996744503168
 10
81.36815997314754
 20
-115.4165554181945
 10
81.36437036811377
 20
-115.420861787551
 10
81.32509627958193
 20
-115.4546237233065
 10
81.3233737318393
 20
-115.5181857350094
 10
81.31958412680552
 20
-115.695780407274
 10
81.31958412680552
 20
-115.7720892722723
 10
81.31958412680552
 20
-115.7720892722723
 10
81.49700654429589
 20
-115.7720892722723
 10
81.49700654429589
 20
-115.7720892722723
 10
81.67442896178626
 20
-115.7720892722723
 10
81.8818237099983
 20
-115.7677829029157
 10
82.05752357974605
 20
-115.7550360496203
 10
82.05752357974605
 20
-115.7550360496203
 10
82.05752357974605
 20
-115.9624307978323
 10
82.05752357974605
 20
-115.9624307978323
 10
81.87045489489698
 20
-115.9496839445369
 10
81.68373071959643
 20
-115.9455498299546
 10
81.49700654429589
 20
-115.9455498299546
 10
81.49700654429589
 20
-115.9455498299546
 10
81.36643742540492
 20
-115.9455498299546
 10
81.36643742540492
 20
-115.9455498299546
 10
81.4129462144558
 20
-116.0428737774129
 10
81.50458575436345
 20
-116.2247748190341
 10
81.65410289842329
 20
-116.4003024340076
 10
81.84806177424285
 20
-116.630951576745
 10
82.02203909624797
 20
-116.7112223015514
 10
82.10782197383068
 20
-116.7515299187288
 10
82.10782197383068
 20
-116.7515299187288
 10
81.97139619261479
 20
-116.9482448709365
 10
81.97139619261479
 20
-116.9482448709365
 97
        0
 97
        0
 75
     2
 76
     1
 98
        0
  0
SPLINE
  5
15D
330
155
100
AcDbEntity
  8
_U+30EC_U+30A4_U+30E4_U+30FC 1
370
     0
100
AcDbSpline
210
0.0
220
0.0
230
1.0
 70
    11
 71
     3
 72
    20
 73
    16
 74
     0
 42
0.0000000001
 43
0.0000000001
 12
1.0
 22
0.0
 32
0.0
 13
1.0
 23
0.0
 33
0.0
 40
0.0
 40
0.0
 40
0.0
 40
0.0
 40
1.0
 40
1.0
 40
1.0
 40
2.0
 40
2.0
 40
2.0
 40
3.0
 40
3.0
 40
3.0
 40
4.0
 40
4.0
 40
4.0
 40
5.0
 40
5.0
 40
5.0
 40
5.0
 10
83.20611841452833
 20
-117.2614040505458
 30
0.0
 10
83.08450654389901
 20
-117.1534003070832
 30
0.0
 10
82.97081839288577
 20
-117.0645168435637
 30
0.0
 10
82.76514619241635
 20
-116.9546182975843
 30
0.0
 10
82.59702553273617
 20
-116.8636677767737
 30
0.0
 10
82.42339272027957
 20
-116.7832247971931
 30
0.0
 10
82.2404581500128
 20
-116.7472235493722
 30
0.0
 10
82.2404581500128
 20
-116.7472235493722
 30
0.0
 10
82.31866181752798
 20
-116.5525756544556
 30
0.0
 10
82.31866181752798
 20
-116.5525756544556
 30
0.0
 10
82.68866507264381
 20
-116.6605793979182
 30
0.0
 10
83.05832381821112
 20
-116.8529879807694
 30
0.0
 10
83.29017874436843
 20
-117.0435017611037
 30
0.0
 10
83.29017874436843
 20
-117.0435017611037
 30
0.0
 10
83.20611841452833
 20
-117.2614040505458
 30
0.0
 10
83.20611841452833
 20
-117.2614040505458
 30
0.0
  0
SPLINE
  5
15E
330
155
100
AcDbEntity
  8
_U+30EC_U+30A4_U+30E4_U+30FC 1
370
     0
100
AcDbSpline
210
0.0
220
0.0
230
1.0
 70
    11
 71
     3
 72
    17
 73
    13
 74
     0
 42
0.0000000001
 43
0.0000000001
 12
1.0
 22
0.0
 32
0.0
 13
1.0
 23
0.0
 33
0.0
 40
0.0
 40
0.0
 40
0.0
 40
0.0
 40
1.0
 40
1.0
 40
1.0
 40
2.0
 40
2.0
 40
2.0
 40
3.0
 40
3.0
 40
3.0
 40
4.0
 40
4.0
 40
4.0
 40
4.0
 10
83.11447887462069
 20
-116.4933200121093
 30
0.0
 10
82.9146633364762
 20
-116.3262328810747
 30
0.0
 10
82.62320825842406
 20
-116.1992811124432
 30
0.0
 10
82.42167017253695
 20
-116.1634521193966
 30
0.0
 10
82.42167017253695
 20
-116.1634521193966
 30
0.0
 10
82.48299287217439
 20
-115.9644978551235
 30
0.0
 10
82.48299287217439
 20
-115.9644978551235
 30
0.0
 10
82.64766843636934
 20
-115.9961927335878
 30
0.0
 10
82.97254094062839
 20
-116.1443318394535
 30
0.0
 10
83.18372529387422
 20
-116.2966050599016
 30
0.0
 10
83.18372529387422
 20
-116.2966050599016
 30
0.0
 10
83.11447887462069
 20
-116.4933200121093
 30
0.0
 10
83.11447887462069
 20
-116.4933200121093
 30
0.0
  0
SPLINE
  5
15F
330
155
100
AcDbEntity
  8
_U+30EC_U+30A4_U+30E4_U+30FC 1
370
     0
100
AcDbSpline
210
0.0
220
0.0
230
1.0
 70
    11
 71
     3
 72
    20
 73
    16
 74
     0
 42
0.0000000001
 43
0.0000000001
 12
1.0
 22
0.0
 32
0.0
 13
1.0
 23
0.0
 33
0.0
 40
0.0
 40
0.0
 40
0.0
 40
0.0
 40
1.0
 40
1.0
 40
1.0
 40
2.0
 40
2.0
 40
2.0
 40
3.0
 40
3.0
 40
3.0
 40
4.0
 40
4.0
 40
4.0
 40
5.0
 40
5.0
 40
5.0
 40
5.0
 10
83.1423841480512
 20
-115.9264295500114
 30
0.0
 10
83.08657360119017
 20
-115.8714802770217
 30
0.0
 10
83.02283933471304
 20
-115.8079182653189
 30
0.0
 10
82.80614282869082
 20
-115.6980197193394
 30
0.0
 10
82.59909259002731
 20
-115.5943223452334
 30
0.0
 10
82.51296520289607
 20
-115.5774413773556
 30
0.0
 10
82.4251152680222
 20
-115.5603881547037
 30
0.0
 10
82.4251152680222
 20
-115.5603881547037
 30
0.0
 10
82.48505992946555
 20
-115.355232718557
 30
0.0
 10
82.48505992946555
 20
-115.355232718557
 30
0.0
 10
82.76721324970751
 20
-115.4187947302599
 30
0.0
 10
83.09380830170919
 20
-115.6132703704022
 30
0.0
 10
83.20784096227096
 20
-115.7105943178606
 30
0.0
 10
83.20784096227096
 20
-115.7105943178606
 30
0.0
 10
83.1423841480512
 20
-115.9264295500114
 30
0.0
 10
83.1423841480512
 20
-115.9264295500114
 30
0.0
  0
HATCH
  5
160
330
155
100
AcDbEntity
  8
_U+30EC_U+30A4_U+30E4_U+30FC 1
 62
   179
420
  2234388
100
AcDbHatch
 10
0.0
 20
0.0
 30
0.0
210
0.0
220
0.0
230
1.0
  2
SOLID
 70
     1
 71
     0
 91
        3
 92
        1
 93
        1
 72
     4
 94
        3
 73
     0
 74
     1
 95
       20
 96
       16
 40
0.0
 40
0.0
 40
0.0
 40
0.0
 40
1.0
 40
1.0
 40
1.0
 40
2.0
 40
2.0
 40
2.0
 40
3.0
 40
3.0
 40
3.0
 40
4.0
 40
4.0
 40
4.0
 40
5.0
 40
5.0
 40
5.0
 40
5.0
 10
83.20611841452833
 20
-117.2614040505458
 10
83.08450654389901
 20
-117.1534003070832
 10
82.97081839288577
 20
-117.0645168435637
 10
82.76514619241635
 20
-116.9546182975843
 10
82.59702553273617
 20
-116.8636677767737
 10
82.42339272027957
 20
-116.7832247971931
 10
82.2404581500128
 20
-116.7472235493722
 10
82.2404581500128
 20
-116.7472235493722
 10
82.31866181752798
 20
-116.5525756544556
 10
82.31866181752798
 20
-116.5525756544556
 10
82.68866507264381
 20
-116.6605793979182
 10
83.05832381821112
 20
-116.8529879807694
 10
83.29017874436843
 20
-117.0435017611037
 10
83.29017874436843
 20
-117.0435017611037
 10
83.20611841452833
 20
-117.2614040505458
 10
83.20611841452833
 20
-117.2614040505458
 97
        0
 97
        0
 92
        1
 93
        1
 72
     4
 94
        3
 73
     0
 74
     1
 95
       17
 96
       13
 40
0.0
 40
0.0
 40
0.0
 40
0.0
 40
1.0
 40
1.0
 40
1.0
 40
2.0
 40
2.0
 40
2.0
 40
3.0
 40
3.0
 40
3.0
 40
4.0
 40
4.0
 40
4.0
 40
4.0
 10
83.11447887462069
 20
-116.4933200121093
 10
82.9146633364762
 20
-116.3262328810747
 10
82.62320825842406
 20
-116.1992811124432
 10
82.42167017253695
 20
-116.1634521193966
 10
82.42167017253695
 20
-116.1634521193966
 10
82.48299287217439
 20
-115.9644978551235
 10
82.48299287217439
 20
-115.9644978551235
 10
82.64766843636934
 20
-115.9961927335878
 10
82.97254094062839
 20
-116.1443318394535
 10
83.18372529387422
 20
-116.2966050599016
 10
83.18372529387422
 20
-116.2966050599016
 10
83.11447887462069
 20
-116.4933200121093
 10
83.11447887462069
 20
-116.4933200121093
 97
        0
 97
        0
 92
        1
 93
        1
 72
     4
 94
        3
 73
     0
 74
     1
 95
       20
 96
       16
 40
0.0
 40
0.0
 40
0.0
 40
0.0
 40
1.0
 40
1.0
 40
1.0
 40
2.0
 40
2.0
 40
2.0
 40
3.0
 40
3.0
 40
3.0
 40
4.0
 40
4.0
 40
4.0
 40
5.0
 40
5.0
 40
5.0
 40
5.0
 10
83.1423841480512
 20
-115.9264295500114
 10
83.08657360119017
 20
-115.8714802770217
 10
83.02283933471304
 20
-115.8079182653189
 10
82.80614282869082
 20
-115.6980197193394
 10
82.59909259002731
 20
-115.5943223452334
 10
82.51296520289607
 20
-115.5774413773556
 10
82.4251152680222
 20
-115.5603881547037
 10
82.4251152680222
 20
-115.5603881547037
 10
82.48505992946555
 20
-115.355232718557
 10
82.48505992946555
 20
-115.355232718557
 10
82.76721324970751
 20
-115.4187947302599
 10
83.09380830170919
 20
-115.6132703704022
 10
83.20784096227096
 20
-115.7105943178606
 10
83.20784096227096
 20
-115.7105943178606
 10
83.1423841480512
 20
-115.9264295500114
 10
83.1423841480512
 20
-115.9264295500114
 97
        0
 97
        0
 75
     2
 76
     1
 98
        0
  0
SPLINE
  5
161
330
155
100
AcDbEntity
  8
_U+30EC_U+30A4_U+30E4_U+30FC 1
370
     0
100
AcDbSpline
210
0.0
220
0.0
230
1.0
 70
    11
 71
     3
 72
    17
 73
    13
 74
     0
 42
0.0000000001
 43
0.0000000001
 12
1.0
 22
0.0
 32
0.0
 13
1.0
 23
0.0
 33
0.0
 40
0.0
 40
0.0
 40
0.0
 40
0.0
 40
1.0
 40
1.0
 40
1.0
 40
2.0
 40
2.0
 40
2.0
 40
3.0
 40
3.0
 40
3.0
 40
4.0
 40
4.0
 40
4.0
 40
4.0
 10
83.72667234234959
 20
-116.2797240920238
 30
0.0
 10
83.69325491614266
 20
-116.1951469978609
 30
0.0
 10
83.65191377031967
 20
-116.0998901076938
 30
0.0
 10
83.45967744224272
 20
-115.854599309144
 30
0.0
 10
83.45967744224272
 20
-115.854599309144
 30
0.0
 10
83.60919458630256
 20
-115.7149006872171
 30
0.0
 10
83.60919458630256
 20
-115.7149006872171
 30
0.0
 10
83.71358097950564
 20
-115.8206651186143
 30
0.0
 10
83.84070500291135
 20
-116.0490749492864
 30
0.0
 10
83.891003396996
 20
-116.1486382088101
 30
0.0
 10
83.891003396996
 20
-116.1486382088101
 30
0.0
 10
83.72667234234959
 20
-116.2797240920238
 30
0.0
 10
83.72667234234959
 20
-116.2797240920238
 30
0.0
  0
SPLINE
  5
162
330
155
100
AcDbEntity
  8
_U+30EC_U+30A4_U+30E4_U+30FC 1
370
     0
100
AcDbSpline
210
0.0
220
0.0
230
1.0
 70
    11
 71
     3
 72
    32
 73
    28
 74
     0
 42
0.0000000001
 43
0.0000000001
 12
1.0
 22
0.0
 32
0.0
 13
1.0
 23
0.0
 33
0.0
 40
0.0
 40
0.0
 40
0.0
 40
0.0
 40
1.0
 40
1.0
 40
1.0
 40
2.0
 40
2.0
 40
2.0
 40
3.0
 40
3.0
 40
3.0
 40
4.0
 40
4.0
 40
4.0
 40
5.0
 40
5.0
 40
5.0
 40
6.0
 40
6.0
 40
6.0
 40
7.0
 40
7.0
 40
7.0
 40
8.0
 40
8.0
 40
8.0
 40
9.0
 40
9.0
 40
9.0
 40
9.0
 10
84.86803247661285
 20
-115.8862941876083
 30
0.0
 10
84.83633759814856
 20
-115.8968017288383
 30
0.0
 10
84.83254799311479
 20
-115.8988687861295
 30
0.0
 10
84.80257566239311
 20
-115.9116156394249
 30
0.0
 10
84.76915823618619
 20
-116.0638888598729
 30
0.0
 10
84.67579614853591
 20
-116.4848795281705
 30
0.0
 10
84.29821368335253
 20
-116.8805487446514
 30
0.0
 10
84.15455320161762
 20
-117.0307549078083
 30
0.0
 10
83.99194469471382
 20
-117.1577066764397
 30
0.0
 10
83.80522051941328
 20
-117.2233357454338
 30
0.0
 10
83.80522051941328
 20
-117.2233357454338
 30
0.0
 10
83.63331025469931
 20
-117.0391953917472
 30
0.0
 10
83.63331025469931
 20
-117.0391953917472
 30
0.0
 10
83.90409475983995
 20
-116.9566853548754
 30
0.0
 10
84.15455320161762
 20
-116.8001057650708
 30
0.0
 10
84.3281860140742
 20
-116.5525756544556
 30
0.0
 10
84.50388588382195
 20
-116.3009114292581
 30
0.0
 10
84.62343069716012
 20
-115.9011080981949
 30
0.0
 10
84.62136363986897
 20
-115.6832058087528
 30
0.0
 10
84.62136363986897
 20
-115.6832058087528
 30
0.0
 10
84.84391680821611
 20
-115.8037841507366
 30
0.0
 10
84.84391680821611
 20
-115.8037841507366
 30
0.0
 10
84.8549411137689
 20
-115.8101575773843
 30
0.0
 10
84.8921481450096
 20
-115.8334119719097
 30
0.0
 10
84.8921481450096
 20
-115.8608004810174
 30
0.0
 10
84.8921481450096
 20
-115.8735473343129
 30
0.0
 10
84.87733423442303
 20
-115.8819878182517
 30
0.0
 10
84.86803247661285
 20
-115.8862941876083
 30
0.0
  0
SPLINE
  5
163
330
155
100
AcDbEntity
  8
_U+30EC_U+30A4_U+30E4_U+30FC 1
370
     0
100
AcDbSpline
210
0.0
220
0.0
230
1.0
 70
    11
 71
     3
 72
    17
 73
    13
 74
     0
 42
0.0000000001
 43
0.0000000001
 12
1.0
 22
0.0
 32
0.0
 13
1.0
 23
0.0
 33
0.0
 40
0.0
 40
0.0
 40
0.0
 40
0.0
 40
1.0
 40
1.0
 40
1.0
 40
2.0
 40
2.0
 40
2.0
 40
3.0
 40
3.0
 40
3.0
 40
4.0
 40
4.0
 40
4.0
 40
4.0
 10
84.57864445585187
 20
-115.6027628291722
 30
0.0
 10
84.53006860950985
 20
-115.4969983977751
 30
0.0
 10
84.48872746368686
 20
-115.4398098127199
 30
0.0
 10
84.43084985953465
 20
-115.382793482439
 30
0.0
 10
84.43084985953465
 20
-115.382793482439
 30
0.0
 10
84.53730331002888
 20
-115.2939100189196
 30
0.0
 10
84.53730331002888
 20
-115.2939100189196
 30
0.0
 10
84.60827227702502
 20
-115.3721136864348
 30
0.0
 10
84.64961342284802
 20
-115.4293022714899
 30
0.0
 10
84.70163436467529
 20
-115.5181857350094
 30
0.0
 10
84.70163436467529
 20
-115.5181857350094
 30
0.0
 10
84.57864445585187
 20
-115.6027628291722
 30
0.0
 10
84.57864445585187
 20
-115.6027628291722
 30
0.0
  0
SPLINE
  5
164
330
155
100
AcDbEntity
  8
_U+30EC_U+30A4_U+30E4_U+30FC 1
370
     0
100
AcDbSpline
210
0.0
220
0.0
230
1.0
 70
    11
 71
     3
 72
    17
 73
    13
 74
     0
 42
0.0000000001
 43
0.0000000001
 12
1.0
 22
0.0
 32
0.0
 13
1.0
 23
0.0
 33
0.0
 40
0.0
 40
0.0
 40
0.0
 40
0.0
 40
1.0
 40
1.0
 40
1.0
 40
2.0
 40
2.0
 40
2.0
 40
3.0
 40
3.0
 40
3.0
 40
4.0
 40
4.0
 40
4.0
 40
4.0
 10
84.89972735507716
 20
-115.6239501664065
 30
0.0
 10
84.8604532665453
 20
-115.5286932762394
 30
0.0
 10
84.84184975092496
 20
-115.5054388817139
 30
0.0
 10
84.74676511553206
 20
-115.3912339663779
 30
0.0
 10
84.74676511553206
 20
-115.3912339663779
 30
0.0
 10
84.84184975092496
 20
-115.3023505028584
 30
0.0
 10
84.84184975092496
 20
-115.3023505028584
 30
0.0
 10
84.91660832295489
 20
-115.3659125145613
 30
0.0
 10
84.99136689498481
 20
-115.4821844871885
 30
0.0
 10
85.00824786286252
 20
-115.5478135561825
 30
0.0
 10
85.00824786286252
 20
-115.5478135561825
 30
0.0
 10
84.89972735507716
 20
-115.6239501664065
 30
0.0
 10
84.89972735507716
 20
-115.6239501664065
 30
0.0
  0
HATCH
  5
165
330
155
100
AcDbEntity
  8
_U+30EC_U+30A4_U+30E4_U+30FC 1
 62
   179
420
  2234388
100
AcDbHatch
 10
0.0
 20
0.0
 30
0.0
210
0.0
220
0.0
230
1.0
  2
SOLID
 70
     1
 71
     0
 91
        4
 92
        1
 93
        1
 72
     4
 94
        3
 73
     0
 74
     1
 95
       17
 96
       13
 40
0.0
 40
0.0
 40
0.0
 40
0.0
 40
1.0
 40
1.0
 40
1.0
 40
2.0
 40
2.0
 40
2.0
 40
3.0
 40
3.0
 40
3.0
 40
4.0
 40
4.0
 40
4.0
 40
4.0
 10
83.72667234234959
 20
-116.2797240920238
 10
83.69325491614266
 20
-116.1951469978609
 10
83.65191377031967
 20
-116.0998901076938
 10
83.45967744224272
 20
-115.854599309144
 10
83.45967744224272
 20
-115.854599309144
 10
83.60919458630256
 20
-115.7149006872171
 10
83.60919458630256
 20
-115.7149006872171
 10
83.71358097950564
 20
-115.8206651186143
 10
83.84070500291135
 20
-116.0490749492864
 10
83.891003396996
 20
-116.1486382088101
 10
83.891003396996
 20
-116.1486382088101
 10
83.72667234234959
 20
-116.2797240920238
 10
83.72667234234959
 20
-116.2797240920238
 97
        0
 97
        0
 92
        1
 93
        1
 72
     4
 94
        3
 73
     0
 74
     1
 95
       32
 96
       28
 40
0.0
 40
0.0
 40
0.0
 40
0.0
 40
1.0
 40
1.0
 40
1.0
 40
2.0
 40
2.0
 40
2.0
 40
3.0
 40
3.0
 40
3.0
 40
4.0
 40
4.0
 40
4.0
 40
5.0
 40
5.0
 40
5.0
 40
6.0
 40
6.0
 40
6.0
 40
7.0
 40
7.0
 40
7.0
 40
8.0
 40
8.0
 40
8.0
 40
9.0
 40
9.0
 40
9.0
 40
9.0
 10
84.86803247661285
 20
-115.8862941876083
 10
84.83633759814856
 20
-115.8968017288383
 10
84.83254799311479
 20
-115.8988687861295
 10
84.80257566239311
 20
-115.9116156394249
 10
84.76915823618619
 20
-116.0638888598729
 10
84.67579614853591
 20
-116.4848795281705
 10
84.29821368335253
 20
-116.8805487446514
 10
84.15455320161762
 20
-117.0307549078083
 10
83.99194469471382
 20
-117.1577066764397
 10
83.80522051941328
 20
-117.2233357454338
 10
83.80522051941328
 20
-117.2233357454338
 10
83.63331025469931
 20
-117.0391953917472
 10
83.63331025469931
 20
-117.0391953917472
 10
83.90409475983995
 20
-116.9566853548754
 10
84.15455320161762
 20
-116.8001057650708
 10
84.3281860140742
 20
-116.5525756544556
 10
84.50388588382195
 20
-116.3009114292581
 10
84.62343069716012
 20
-115.9011080981949
 10
84.62136363986897
 20
-115.6832058087528
 10
84.62136363986897
 20
-115.6832058087528
 10
84.84391680821611
 20
-115.8037841507366
 10
84.84391680821611
 20
-115.8037841507366
 10
84.8549411137689
 20
-115.8101575773843
 10
84.8921481450096
 20
-115.8334119719097
 10
84.8921481450096
 20
-115.8608004810174
 10
84.8921481450096
 20
-115.8735473343129
 10
84.87733423442303
 20
-115.8819878182517
 10
84.86803247661285
 20
-115.8862941876083
 97
        0
 97
        0
 92
        1
 93
        1
 72
     4
 94
        3
 73
     0
 74
     1
 95
       17
 96
       13
 40
0.0
 40
0.0
 40
0.0
 40
0.0
 40
1.0
 40
1.0
 40
1.0
 40
2.0
 40
2.0
 40
2.0
 40
3.0
 40
3.0
 40
3.0
 40
4.0
 40
4.0
 40
4.0
 40
4.0
 10
84.57864445585187
 20
-115.6027628291722
 10
84.53006860950985
 20
-115.4969983977751
 10
84.48872746368686
 20
-115.4398098127199
 10
84.43084985953465
 20
-115.382793482439
 10
84.43084985953465
 20
-115.382793482439
 10
84.53730331002888
 20
-115.2939100189196
 10
84.53730331002888
 20
-115.2939100189196
 10
84.60827227702502
 20
-115.3721136864348
 10
84.64961342284802
 20
-115.4293022714899
 10
84.70163436467529
 20
-115.5181857350094
 10
84.70163436467529
 20
-115.5181857350094
 10
84.57864445585187
 20
-115.6027628291722
 10
84.57864445585187
 20
-115.6027628291722
 97
        0
 97
        0
 92
        1
 93
        1
 72
     4
 94
        3
 73
     0
 74
     1
 95
       17
 96
       13
 40
0.0
 40
0.0
 40
0.0
 40
0.0
 40
1.0
 40
1.0
 40
1.0
 40
2.0
 40
2.0
 40
2.0
 40
3.0
 40
3.0
 40
3.0
 40
4.0
 40
4.0
 40
4.0
 40
4.0
 10
84.89972735507716
 20
-115.6239501664065
 10
84.8604532665453
 20
-115.5286932762394
 10
84.84184975092496
 20
-115.5054388817139
 10
84.74676511553206
 20
-115.3912339663779
 10
84.74676511553206
 20
-115.3912339663779
 10
84.84184975092496
 20
-115.3023505028584
 10
84.84184975092496
 20
-115.3023505028584
 10
84.91660832295489
 20
-115.3659125145613
 10
84.99136689498481
 20
-115.4821844871885
 10
85.00824786286252
 20
-115.5478135561825
 10
85.00824786286252
 20
-115.5478135561825
 10
84.89972735507716
 20
-115.6239501664065
 10
84.89972735507716
 20
-115.6239501664065
 97
        0
 97
        0
 75
     2
 76
     1
 98
        0
  0
SPLINE
  5
166
330
155
100
AcDbEntity
  8
_U+30EC_U+30A4_U+30E4_U+30FC 1
370
     0
100
AcDbSpline
210
0.0
220
0.0
230
1.0
 70
    11
 71
     3
 72
    98
 73
    94
 74
     0
 42
0.0000000001
 43
0.0000000001
 12
1.0
 22
0.0
 32
0.0
 13
1.0
 23
0.0
 33
0.0
 40
0.0
 40
0.0
 40
0.0
 40
0.0
 40
1.0
 40
1.0
 40
1.0
 40
2.0
 40
2.0
 40
2.0
 40
3.0
 40
3.0
 40
3.0
 40
4.0
 40
4.0
 40
4.0
 40
5.0
 40
5.0
 40
5.0
 40
6.0
 40
6.0
 40
6.0
 40
7.0
 40
7.0
 40
7.0
 40
8.0
 40
8.0
 40
8.0
 40
9.0
 40
9.0
 40
9.0
 40
10.0
 40
10.0
 40
10.0
 40
11.0
 40
11.0
 40
11.0
 40
12.0
 40
12.0
 40
12.0
 40
13.0
 40
13.0
 40
13.0
 40
14.0
 40
14.0
 40
14.0
 40
15.0
 40
15.0
 40
15.0
 40
16.0
 40
16.0
 40
16.0
 40
17.0
 40
17.0
 40
17.0
 40
18.0
 40
18.0
 40
18.0
 40
19.0
 40
19.0
 40
19.0
 40
20.0
 40
20.0
 40
20.0
 40
21.0
 40
21.0
 40
21.0
 40
22.0
 40
22.0
 40
22.0
 40
23.0
 40
23.0
 40
23.0
 40
24.0
 40
24.0
 40
24.0
 40
25.0
 40
25.0
 40
25.0
 40
26.0
 40
26.0
 40
26.0
 40
27.0
 40
27.0
 40
27.0
 40
28.0
 40
28.0
 40
28.0
 40
29.0
 40
29.0
 40
29.0
 40
30.0
 40
30.0
 40
30.0
 40
31.0
 40
31.0
 40
31.0
 40
31.0
 10
85.98493243293085
 20
-117.2295369173072
 30
0.0
 10
85.98493243293085
 20
-117.2295369173072
 30
0.0
 10
85.87124428191761
 20
-117.0624497862726
 30
0.0
 10
85.87124428191761
 20
-117.0624497862726
 30
0.0
 10
86.13823918202448
 20
-117.020075111804
 30
0.0
 10
86.32496335732502
 20
-116.8466145541217
 30
0.0
 10
86.32496335732502
 20
-116.6138983540931
 30
0.0
 10
86.32496335732502
 20
-116.5568820238122
 30
0.0
 10
86.30635984170466
 20
-116.3305392504313
 30
0.0
 10
86.08966333568245
 20
-116.2881645759627
 30
0.0
 10
86.02799612649648
 20
-116.489185897527
 30
0.0
 10
85.92705482877865
 20
-116.6710869391482
 30
0.0
 10
85.80406491995524
 20
-116.8318006435351
 30
0.0
 10
85.81336667776542
 20
-116.8721082607125
 30
0.0
 10
85.81681177325066
 20
-116.8805487446514
 30
0.0
 10
85.84885116126348
 20
-116.9630587815231
 30
0.0
 10
85.84885116126348
 20
-116.9630587815231
 30
0.0
 10
85.69554441216987
 20
-117.0793307541503
 30
0.0
 10
85.69554441216987
 20
-117.0793307541503
 30
0.0
 10
85.67142874377312
 20
-117.0159409972217
 30
0.0
 10
85.66763913873935
 20
-117.0075005132828
 30
0.0
 10
85.65833738092917
 20
-116.9735663227531
 30
0.0
 10
85.59081350941827
 20
-117.037128334456
 30
0.0
 10
85.48436005892405
 20
-117.1322129698489
 30
0.0
 10
85.34827878725669
 20
-117.1322129698489
 30
0.0
 10
85.21908770655982
 20
-117.1322129698489
 30
0.0
 10
85.11642386109936
 20
-117.0455688183949
 30
0.0
 10
85.11642386109936
 20
-116.8424804395394
 30
0.0
 10
85.11642386109936
 20
-116.5484415398733
 30
0.0
 10
85.31072724646747
 20
-116.2860975186715
 30
0.0
 10
85.5704874460553
 20
-116.1844672018567
 30
0.0
 10
85.5649752932789
 20
-116.1083305916327
 30
0.0
 10
85.5759995988317
 20
-116.0025661602355
 30
0.0
 10
85.58357880889925
 20
-115.9496839445369
 30
0.0
 10
85.39857718134134
 20
-115.96880422448
 30
0.0
 10
85.34621172996553
 20
-115.96880422448
 30
0.0
 10
85.27352021522677
 20
-115.96880422448
 30
0.0
 10
85.27352021522677
 20
-115.96880422448
 30
0.0
 10
85.2063408532644
 20
-115.7657158456246
 30
0.0
 10
85.2063408532644
 20
-115.7657158456246
 30
0.0
 10
85.25457219005789
 20
-115.7805297562111
 30
0.0
 10
85.30900469872483
 20
-115.7953436667977
 30
0.0
 10
85.45645478549353
 20
-115.7953436667977
 30
0.0
 10
85.51433238964573
 20
-115.7953436667977
 30
0.0
 10
85.55188393043495
 20
-115.7931043547323
 30
0.0
 10
85.5966701717432
 20
-115.78897024015
 30
0.0
 10
85.61699623510617
 20
-115.5838148040034
 30
0.0
 10
85.61906329239733
 20
-115.5603881547037
 30
0.0
 10
85.64696856582785
 20
-115.3953680809602
 30
0.0
 10
85.64696856582785
 20
-115.3953680809602
 30
0.0
 10
85.84127195119594
 20
-115.4546237233065
 30
0.0
 10
85.84127195119594
 20
-115.4546237233065
 30
0.0
 10
85.87503388695139
 20
-115.4653035193108
 30
0.0
 10
85.87847898243663
 20
-115.4673705766019
 30
0.0
 10
85.87847898243663
 20
-115.4821844871885
 30
0.0
 10
85.87847898243663
 20
-115.5054388817139
 30
0.0
 10
85.87296682966023
 20
-115.5097452510705
 30
0.0
 10
85.8226684355756
 20
-115.5455742441171
 30
0.0
 10
85.80751001544049
 20
-115.6070691985288
 30
0.0
 10
85.79820825763031
 20
-115.6492716182231
 30
0.0
 10
85.77788219426733
 20
-115.761409476268
 30
0.0
 10
86.00939261087613
 20
-115.723341171156
 30
0.0
 10
86.12514781918053
 20
-115.6832058087528
 30
0.0
 10
86.29878063163711
 20
-115.6006957718811
 30
0.0
 10
86.29878063163711
 20
-115.6006957718811
 30
0.0
 10
86.28568926879316
 20
-115.8015448386711
 30
0.0
 10
86.28568926879316
 20
-115.8015448386711
 30
0.0
 10
86.08794078793983
 20
-115.8608004810174
 30
0.0
 10
85.97769773241183
 20
-115.8862941876083
 30
0.0
 10
85.74963241128829
 20
-115.930735919368
 30
0.0
 10
85.73275144341056
 20
-116.0258205547609
 30
0.0
 10
85.73102889566795
 20
-116.0638888598729
 30
0.0
 10
85.72930634792532
 20
-116.1315849861581
 30
0.0
 10
85.78718395207751
 20
-116.1083305916327
 30
0.0
 10
85.82645804060937
 20
-116.0978230504026
 30
0.0
 10
85.96460636956787
 20
-116.0998901076938
 30
0.0
 10
85.97942028015446
 20
-116.0258205547609
 30
0.0
 10
85.9814873374456
 20
-116.0110066441743
 30
0.0
 10
85.9814873374456
 20
-115.9729383390623
 30
0.0
 10
85.9814873374456
 20
-115.9729383390623
 30
0.0
 10
86.16993406048877
 20
-116.0025661602355
 30
0.0
 10
86.16993406048877
 20
-116.0025661602355
 30
0.0
 10
86.16269935996975
 20
-116.0342610386998
 30
0.0
 10
86.15890975493598
 20
-116.0428737774129
 30
0.0
 10
86.13651663428185
 20
-116.1274508715758
 30
0.0
 10
86.19611678617667
 20
-116.1443318394535
 30
0.0
 10
86.30257023667089
 20
-116.1803330872744
 30
0.0
 10
86.39214271928738
 20
-116.2945380026104
 30
0.0
 10
86.47620304912748
 20
-116.4046088033641
 30
0.0
 10
86.4985961697816
 20
-116.5336276292867
 30
0.0
 10
86.4985961697816
 20
-116.6202717807408
 30
0.0
 10
86.4985961697816
 20
-116.8488538661871
 30
0.0
 10
86.33426511513518
 20
-117.1365193392055
 30
0.0
 10
85.98493243293085
 20
-117.2295369173072
 30
0.0
  0
SPLINE
  5
167
330
155
100
AcDbEntity
  8
_U+30EC_U+30A4_U+30E4_U+30FC 1
370
     0
100
AcDbSpline
210
0.0
220
0.0
230
1.0
 70
    11
 71
     3
 72
    23
 73
    19
 74
     0
 42
0.0000000001
 43
0.0000000001
 12
1.0
 22
0.0
 32
0.0
 13
1.0
 23
0.0
 33
0.0
 40
0.0
 40
0.0
 40
0.0
 40
0.0
 40
1.0
 40
1.0
 40
1.0
 40
2.0
 40
2.0
 40
2.0
 40
3.0
 40
3.0
 40
3.0
 40
4.0
 40
4.0
 40
4.0
 40
5.0
 40
5.0
 40
5.0
 40
6.0
 40
6.0
 40
6.0
 40
6.0
 10
85.5649752932789
 20
-116.3622341288956
 30
0.0
 10
85.51054278461196
 20
-116.3939290073599
 30
0.0
 10
85.4712686960801
 20
-116.4171834018853
 30
0.0
 10
85.40408933411773
 20
-116.5019327508224
 30
0.0
 10
85.34448918222292
 20
-116.5801364183376
 30
0.0
 10
85.28454452077956
 20
-116.6795274230871
 30
0.0
 10
85.28454452077956
 20
-116.8192260450139
 30
0.0
 10
85.28454452077956
 20
-116.9291245909934
 30
0.0
 10
85.36309269784326
 20
-116.9398043869977
 30
0.0
 10
85.38720836624
 20
-116.9398043869977
 30
0.0
 10
85.42097030199545
 20
-116.9398043869977
 30
0.0
 10
85.46196693826992
 20
-116.92292341912
 30
0.0
 10
85.4919392689916
 20
-116.9038031391768
 30
0.0
 10
85.5498168731438
 20
-116.867801891356
 30
0.0
 10
85.5815117516081
 20
-116.8276665289528
 30
0.0
 10
85.61148408232977
 20
-116.791665281132
 30
0.0
 10
85.58357880889925
 20
-116.6457654873316
 30
0.0
 10
85.56842038876415
 20
-116.4383707391196
 30
0.0
 10
85.5649752932789
 20
-116.3622341288956
 30
0.0
  0
SPLINE
  5
168
330
155
100
AcDbEntity
  8
_U+30EC_U+30A4_U+30E4_U+30FC 1
370
     0
100
AcDbSpline
210
0.0
220
0.0
230
1.0
 70
    11
 71
     3
 72
    14
 73
    10
 74
     0
 42
0.0000000001
 43
0.0000000001
 12
1.0
 22
0.0
 32
0.0
 13
1.0
 23
0.0
 33
0.0
 40
0.0
 40
0.0
 40
0.0
 40
0.0
 40
1.0
 40
1.0
 40
1.0
 40
2.0
 40
2.0
 40
2.0
 40
3.0
 40
3.0
 40
3.0
 40
3.0
 10
85.72344968560039
 20
-116.2924709453193
 30
0.0
 10
85.73481850070172
 20
-116.4764390442316
 30
0.0
 10
85.74033065347811
 20
-116.5208807759913
 30
0.0
 10
85.75342201632206
 20
-116.6225110928062
 30
0.0
 10
85.84127195119594
 20
-116.4912529548182
 30
0.0
 10
85.89363740257173
 20
-116.3686075555433
 30
0.0
 10
85.9236097332934
 20
-116.2585367547895
 30
0.0
 10
85.83575979841953
 20
-116.2564696974984
 30
0.0
 10
85.79441865259653
 20
-116.2649101814372
 30
0.0
 10
85.72344968560039
 20
-116.2924709453193
 30
0.0
  0
HATCH
  5
169
330
155
100
AcDbEntity
  8
_U+30EC_U+30A4_U+30E4_U+30FC 1
 62
   179
420
  2234388
100
AcDbHatch
 10
0.0
 20
0.0
 30
0.0
210
0.0
220
0.0
230
1.0
  2
SOLID
 70
     1
 71
     0
 91
        3
 92
        1
 93
        1
 72
     4
 94
        3
 73
     0
 74
     1
 95
       98
 96
       94
 40
0.0
 40
0.0
 40
0.0
 40
0.0
 40
1.0
 40
1.0
 40
1.0
 40
2.0
 40
2.0
 40
2.0
 40
3.0
 40
3.0
 40
3.0
 40
4.0
 40
4.0
 40
4.0
 40
5.0
 40
5.0
 40
5.0
 40
6.0
 40
6.0
 40
6.0
 40
7.0
 40
7.0
 40
7.0
 40
8.0
 40
8.0
 40
8.0
 40
9.0
 40
9.0
 40
9.0
 40
10.0
 40
10.0
 40
10.0
 40
11.0
 40
11.0
 40
11.0
 40
12.0
 40
12.0
 40
12.0
 40
13.0
 40
13.0
 40
13.0
 40
14.0
 40
14.0
 40
14.0
 40
15.0
 40
15.0
 40
15.0
 40
16.0
 40
16.0
 40
16.0
 40
17.0
 40
17.0
 40
17.0
 40
18.0
 40
18.0
 40
18.0
 40
19.0
 40
19.0
 40
19.0
 40
20.0
 40
20.0
 40
20.0
 40
21.0
 40
21.0
 40
21.0
 40
22.0
 40
22.0
 40
22.0
 40
23.0
 40
23.0
 40
23.0
 40
24.0
 40
24.0
 40
24.0
 40
25.0
 40
25.0
 40
25.0
 40
26.0
 40
26.0
 40
26.0
 40
27.0
 40
27.0
 40
27.0
 40
28.0
 40
28.0
 40
28.0
 40
29.0
 40
29.0
 40
29.0
 40
30.0
 40
30.0
 40
30.0
 40
31.0
 40
31.0
 40
31.0
 40
31.0
 10
85.98493243293085
 20
-117.2295369173072
 10
85.98493243293085
 20
-117.2295369173072
 10
85.87124428191761
 20
-117.0624497862726
 10
85.87124428191761
 20
-117.0624497862726
 10
86.13823918202448
 20
-117.020075111804
 10
86.32496335732502
 20
-116.8466145541217
 10
86.32496335732502
 20
-116.6138983540931
 10
86.32496335732502
 20
-116.5568820238122
 10
86.30635984170466
 20
-116.3305392504313
 10
86.08966333568245
 20
-116.2881645759627
 10
86.02799612649648
 20
-116.489185897527
 10
85.92705482877865
 20
-116.6710869391482
 10
85.80406491995524
 20
-116.8318006435351
 10
85.81336667776542
 20
-116.8721082607125
 10
85.81681177325066
 20
-116.8805487446514
 10
85.84885116126348
 20
-116.9630587815231
 10
85.84885116126348
 20
-116.9630587815231
 10
85.69554441216987
 20
-117.0793307541503
 10
85.69554441216987
 20
-117.0793307541503
 10
85.67142874377312
 20
-117.0159409972217
 10
85.66763913873935
 20
-117.0075005132828
 10
85.65833738092917
 20
-116.9735663227531
 10
85.59081350941827
 20
-117.037128334456
 10
85.48436005892405
 20
-117.1322129698489
 10
85.34827878725669
 20
-117.1322129698489
 10
85.21908770655982
 20
-117.1322129698489
 10
85.11642386109936
 20
-117.0455688183949
 10
85.11642386109936
 20
-116.8424804395394
 10
85.11642386109936
 20
-116.5484415398733
 10
85.31072724646747
 20
-116.2860975186715
 10
85.5704874460553
 20
-116.1844672018567
 10
85.5649752932789
 20
-116.1083305916327
 10
85.5759995988317
 20
-116.0025661602355
 10
85.58357880889925
 20
-115.9496839445369
 10
85.39857718134134
 20
-115.96880422448
 10
85.34621172996553
 20
-115.96880422448
 10
85.27352021522677
 20
-115.96880422448
 10
85.27352021522677
 20
-115.96880422448
 10
85.2063408532644
 20
-115.7657158456246
 10
85.2063408532644
 20
-115.7657158456246
 10
85.25457219005789
 20
-115.7805297562111
 10
85.30900469872483
 20
-115.7953436667977
 10
85.45645478549353
 20
-115.7953436667977
 10
85.51433238964573
 20
-115.7953436667977
 10
85.55188393043495
 20
-115.7931043547323
 10
85.5966701717432
 20
-115.78897024015
 10
85.61699623510617
 20
-115.5838148040034
 10
85.61906329239733
 20
-115.5603881547037
 10
85.64696856582785
 20
-115.3953680809602
 10
85.64696856582785
 20
-115.3953680809602
 10
85.84127195119594
 20
-115.4546237233065
 10
85.84127195119594
 20
-115.4546237233065
 10
85.87503388695139
 20
-115.4653035193108
 10
85.87847898243663
 20
-115.4673705766019
 10
85.87847898243663
 20
-115.4821844871885
 10
85.87847898243663
 20
-115.5054388817139
 10
85.87296682966023
 20
-115.5097452510705
 10
85.8226684355756
 20
-115.5455742441171
 10
85.80751001544049
 20
-115.6070691985288
 10
85.79820825763031
 20
-115.6492716182231
 10
85.77788219426733
 20
-115.761409476268
 10
86.00939261087613
 20
-115.723341171156
 10
86.12514781918053
 20
-115.6832058087528
 10
86.29878063163711
 20
-115.6006957718811
 10
86.29878063163711
 20
-115.6006957718811
 10
86.28568926879316
 20
-115.8015448386711
 10
86.28568926879316
 20
-115.8015448386711
 10
86.08794078793983
 20
-115.8608004810174
 10
85.97769773241183
 20
-115.8862941876083
 10
85.74963241128829
 20
-115.930735919368
 10
85.73275144341056
 20
-116.0258205547609
 10
85.73102889566795
 20
-116.0638888598729
 10
85.72930634792532
 20
-116.1315849861581
 10
85.78718395207751
 20
-116.1083305916327
 10
85.82645804060937
 20
-116.0978230504026
 10
85.96460636956787
 20
-116.0998901076938
 10
85.97942028015446
 20
-116.0258205547609
 10
85.9814873374456
 20
-116.0110066441743
 10
85.9814873374456
 20
-115.9729383390623
 10
85.9814873374456
 20
-115.9729383390623
 10
86.16993406048877
 20
-116.0025661602355
 10
86.16993406048877
 20
-116.0025661602355
 10
86.16269935996975
 20
-116.0342610386998
 10
86.15890975493598
 20
-116.0428737774129
 10
86.13651663428185
 20
-116.1274508715758
 10
86.19611678617667
 20
-116.1443318394535
 10
86.30257023667089
 20
-116.1803330872744
 10
86.39214271928738
 20
-116.2945380026104
 10
86.47620304912748
 20
-116.4046088033641
 10
86.4985961697816
 20
-116.5336276292867
 10
86.4985961697816
 20
-116.6202717807408
 10
86.4985961697816
 20
-116.8488538661871
 10
86.33426511513518
 20
-117.1365193392055
 10
85.98493243293085
 20
-117.2295369173072
 97
        0
 97
        0
 92
        1
 93
        1
 72
     4
 94
        3
 73
     0
 74
     1
 95
       23
 96
       19
 40
0.0
 40
0.0
 40
0.0
 40
0.0
 40
1.0
 40
1.0
 40
1.0
 40
2.0
 40
2.0
 40
2.0
 40
3.0
 40
3.0
 40
3.0
 40
4.0
 40
4.0
 40
4.0
 40
5.0
 40
5.0
 40
5.0
 40
6.0
 40
6.0
 40
6.0
 40
6.0
 10
85.5649752932789
 20
-116.3622341288956
 10
85.51054278461196
 20
-116.3939290073599
 10
85.4712686960801
 20
-116.4171834018853
 10
85.40408933411773
 20
-116.5019327508224
 10
85.34448918222292
 20
-116.5801364183376
 10
85.28454452077956
 20
-116.6795274230871
 10
85.28454452077956
 20
-116.8192260450139
 10
85.28454452077956
 20
-116.9291245909934
 10
85.36309269784326
 20
-116.9398043869977
 10
85.38720836624
 20
-116.9398043869977
 10
85.42097030199545
 20
-116.9398043869977
 10
85.46196693826992
 20
-116.92292341912
 10
85.4919392689916
 20
-116.9038031391768
 10
85.5498168731438
 20
-116.867801891356
 10
85.5815117516081
 20
-116.8276665289528
 10
85.61148408232977
 20
-116.791665281132
 10
85.58357880889925
 20
-116.6457654873316
 10
85.56842038876415
 20
-116.4383707391196
 10
85.5649752932789
 20
-116.3622341288956
 97
        0
 97
        0
 92
        1
 93
        1
 72
     4
 94
        3
 73
     0
 74
     1
 95
       14
 96
       10
 40
0.0
 40
0.0
 40
0.0
 40
0.0
 40
1.0
 40
1.0
 40
1.0
 40
2.0
 40
2.0
 40
2.0
 40
3.0
 40
3.0
 40
3.0
 40
3.0
 10
85.72344968560039
 20
-116.2924709453193
 10
85.73481850070172
 20
-116.4764390442316
 10
85.74033065347811
 20
-116.5208807759913
 10
85.75342201632206
 20
-116.6225110928062
 10
85.84127195119594
 20
-116.4912529548182
 10
85.89363740257173
 20
-116.3686075555433
 10
85.9236097332934
 20
-116.2585367547895
 10
85.83575979841953
 20
-116.2564696974984
 10
85.79441865259653
 20
-116.2649101814372
 10
85.72344968560039
 20
-116.2924709453193
 97
        0
 97
        0
 75
     2
 76
     1
 98
        0
  0
SPLINE
  5
16A
330
155
100
AcDbEntity
  8
_U+30EC_U+30A4_U+30E4_U+30FC 1
370
     0
100
AcDbSpline
210
0.0
220
0.0
230
1.0
 70
    11
 71
     3
 72
    41
 73
    37
 74
     0
 42
0.0000000001
 43
0.0000000001
 12
1.0
 22
0.0
 32
0.0
 13
1.0
 23
0.0
 33
0.0
 40
0.0
 40
0.0
 40
0.0
 40
0.0
 40
1.0
 40
1.0
 40
1.0
 40
2.0
 40
2.0
 40
2.0
 40
3.0
 40
3.0
 40
3.0
 40
4.0
 40
4.0
 40
4.0
 40
5.0
 40
5.0
 40
5.0
 40
6.0
 40
6.0
 40
6.0
 40
7.0
 40
7.0
 40
7.0
 40
8.0
 40
8.0
 40
8.0
 40
9.0
 40
9.0
 40
9.0
 40
10.0
 40
10.0
 40
10.0
 40
11.0
 40
11.0
 40
11.0
 40
12.0
 40
12.0
 40
12.0
 40
12.0
 10
86.98056502816806
 20
-116.6753933085048
 30
0.0
 10
86.98056502816806
 20
-116.6753933085048
 30
0.0
 10
86.8444837565007
 20
-116.7134616136168
 30
0.0
 10
86.8444837565007
 20
-116.7134616136168
 30
0.0
 10
86.77351478950455
 20
-116.5251871453479
 30
0.0
 10
86.74733206381664
 20
-116.3029784865493
 30
0.0
 10
86.74733206381664
 20
-116.0978230504026
 30
0.0
 10
86.74733206381664
 20
-115.9074815248426
 30
0.0
 10
86.77730439453832
 20
-115.6683918981662
 30
0.0
 10
86.81830103081279
 20
-115.4441161820765
 30
0.0
 10
86.81830103081279
 20
-115.4441161820765
 30
0.0
 10
87.02190617399106
 20
-115.4906249711273
 30
0.0
 10
87.02190617399106
 20
-115.4906249711273
 30
0.0
 10
87.03672008457762
 20
-115.4949313404839
 30
0.0
 10
87.05911320523175
 20
-115.5013047671316
 30
0.0
 10
87.05911320523175
 20
-115.5245591616571
 30
0.0
 10
87.05911320523175
 20
-115.5435071868259
 30
0.0
 10
87.03672008457762
 20
-115.5603881547037
 30
0.0
 10
86.99365639101201
 20
-115.5879489185857
 30
0.0
 10
86.92268742401586
 20
-115.7593424189768
 30
0.0
 10
86.9040839083955
 20
-115.951751001828
 30
0.0
 10
86.9040839083955
 20
-116.1401977248712
 30
0.0
 10
86.9040839083955
 20
-116.2099609084475
 30
0.0
 10
86.91166311846305
 20
-116.3284721931401
 30
0.0
 10
86.92647702904964
 20
-116.3284721931401
 30
0.0
 10
86.93405623911718
 20
-116.3284721931401
 30
0.0
 10
86.93577878685981
 20
-116.3241658237835
 30
0.0
 10
86.95093720699491
 20
-116.2881645759627
 30
0.0
 10
86.96954072261526
 20
-116.243722844203
 30
0.0
 10
87.07978377814325
 20
-115.9708712817712
 30
0.0
 10
87.09080808369605
 20
-115.9496839445369
 30
0.0
 10
87.09080808369605
 20
-115.9496839445369
 30
0.0
 10
87.18072507586108
 20
-116.0850761971072
 30
0.0
 10
87.18072507586108
 20
-116.0850761971072
 30
0.0
 10
87.09838729376361
 20
-116.2755899774415
 30
0.0
 10
87.00674775385596
 20
-116.4828124708793
 30
0.0
 10
86.98056502816806
 20
-116.6753933085048
 30
0.0
  0
SPLINE
  5
16B
330
155
100
AcDbEntity
  8
_U+30EC_U+30A4_U+30E4_U+30FC 1
370
     0
100
AcDbSpline
210
0.0
220
0.0
230
1.0
 70
    11
 71
     3
 72
    32
 73
    28
 74
     0
 42
0.0000000001
 43
0.0000000001
 12
1.0
 22
0.0
 32
0.0
 13
1.0
 23
0.0
 33
0.0
 40
0.0
 40
0.0
 40
0.0
 40
0.0
 40
1.0
 40
1.0
 40
1.0
 40
2.0
 40
2.0
 40
2.0
 40
3.0
 40
3.0
 40
3.0
 40
4.0
 40
4.0
 40
4.0
 40
5.0
 40
5.0
 40
5.0
 40
6.0
 40
6.0
 40
6.0
 40
7.0
 40
7.0
 40
7.0
 40
8.0
 40
8.0
 40
8.0
 40
9.0
 40
9.0
 40
9.0
 40
9.0
 10
87.79154050539587
 20
-115.5519476707648
 30
0.0
 10
87.79326305313849
 20
-115.6091362558199
 30
0.0
 10
87.7987752059149
 20
-115.7445285083903
 30
0.0
 10
87.7987752059149
 20
-115.913682696716
 30
0.0
 10
87.7987752059149
 20
-116.3918619500687
 30
0.0
 10
87.75226641686402
 20
-116.8721082607125
 30
0.0
 10
87.42153725028004
 20
-117.1830281282563
 30
0.0
 10
87.42153725028004
 20
-117.1830281282563
 30
0.0
 10
87.21965465484439
 20
-117.0540093023337
 30
0.0
 10
87.21965465484439
 20
-117.0540093023337
 30
0.0
 10
87.27029755847757
 20
-117.0243814811606
 30
0.0
 10
87.39535452459214
 20
-116.9525512402931
 30
0.0
 10
87.48492700720864
 20
-116.7492906066634
 30
0.0
 10
87.59517006273663
 20
-116.4955593241747
 30
0.0
 10
87.61584063564813
 20
-116.2077215963821
 30
0.0
 10
87.61584063564813
 20
-116.0237534974698
 30
0.0
 10
87.61584063564813
 20
-115.8311726598443
 30
0.0
 10
87.5989596677704
 20
-115.6366970197019
 30
0.0
 10
87.58035615215006
 20
-115.4461832393676
 30
0.0
 10
87.58035615215006
 20
-115.4461832393676
 30
0.0
 10
87.79326305313849
 20
-115.4609971499542
 30
0.0
 10
87.79326305313849
 20
-115.4609971499542
 30
0.0
 10
87.81014402101621
 20
-115.4632364620196
 30
0.0
 10
87.84011635173789
 20
-115.4653035193108
 30
0.0
 10
87.84011635173789
 20
-115.4949313404839
 30
0.0
 10
87.84011635173789
 20
-115.5202527923005
 30
0.0
 10
87.81014402101621
 20
-115.5393730722436
 30
0.0
 10
87.79154050539587
 20
-115.5519476707648
 30
0.0
  0
HATCH
  5
16C
330
155
100
AcDbEntity
  8
_U+30EC_U+30A4_U+30E4_U+30FC 1
 62
   179
420
  2234388
100
AcDbHatch
 10
0.0
 20
0.0
 30
0.0
210
0.0
220
0.0
230
1.0
  2
SOLID
 70
     1
 71
     0
 91
        2
 92
        1
 93
        1
 72
     4
 94
        3
 73
     0
 74
     1
 95
       41
 96
       37
 40
0.0
 40
0.0
 40
0.0
 40
0.0
 40
1.0
 40
1.0
 40
1.0
 40
2.0
 40
2.0
 40
2.0
 40
3.0
 40
3.0
 40
3.0
 40
4.0
 40
4.0
 40
4.0
 40
5.0
 40
5.0
 40
5.0
 40
6.0
 40
6.0
 40
6.0
 40
7.0
 40
7.0
 40
7.0
 40
8.0
 40
8.0
 40
8.0
 40
9.0
 40
9.0
 40
9.0
 40
10.0
 40
10.0
 40
10.0
 40
11.0
 40
11.0
 40
11.0
 40
12.0
 40
12.0
 40
12.0
 40
12.0
 10
86.98056502816806
 20
-116.6753933085048
 10
86.98056502816806
 20
-116.6753933085048
 10
86.8444837565007
 20
-116.7134616136168
 10
86.8444837565007
 20
-116.7134616136168
 10
86.77351478950455
 20
-116.5251871453479
 10
86.74733206381664
 20
-116.3029784865493
 10
86.74733206381664
 20
-116.0978230504026
 10
86.74733206381664
 20
-115.9074815248426
 10
86.77730439453832
 20
-115.6683918981662
 10
86.81830103081279
 20
-115.4441161820765
 10
86.81830103081279
 20
-115.4441161820765
 10
87.02190617399106
 20
-115.4906249711273
 10
87.02190617399106
 20
-115.4906249711273
 10
87.03672008457762
 20
-115.4949313404839
 10
87.05911320523175
 20
-115.5013047671316
 10
87.05911320523175
 20
-115.5245591616571
 10
87.05911320523175
 20
-115.5435071868259
 10
87.03672008457762
 20
-115.5603881547037
 10
86.99365639101201
 20
-115.5879489185857
 10
86.92268742401586
 20
-115.7593424189768
 10
86.9040839083955
 20
-115.951751001828
 10
86.9040839083955
 20
-116.1401977248712
 10
86.9040839083955
 20
-116.2099609084475
 10
86.91166311846305
 20
-116.3284721931401
 10
86.92647702904964
 20
-116.3284721931401
 10
86.93405623911718
 20
-116.3284721931401
 10
86.93577878685981
 20
-116.3241658237835
 10
86.95093720699491
 20
-116.2881645759627
 10
86.96954072261526
 20
-116.243722844203
 10
87.07978377814325
 20
-115.9708712817712
 10
87.09080808369605
 20
-115.9496839445369
 10
87.09080808369605
 20
-115.9496839445369
 10
87.18072507586108
 20
-116.0850761971072
 10
87.18072507586108
 20
-116.0850761971072
 10
87.09838729376361
 20
-116.2755899774415
 10
87.00674775385596
 20
-116.4828124708793
 10
86.98056502816806
 20
-116.6753933085048
 97
        0
 97
        0
 92
        1
 93
        1
 72
     4
 94
        3
 73
     0
 74
     1
 95
       32
 96
       28
 40
0.0
 40
0.0
 40
0.0
 40
0.0
 40
1.0
 40
1.0
 40
1.0
 40
2.0
 40
2.0
 40
2.0
 40
3.0
 40
3.0
 40
3.0
 40
4.0
 40
4.0
 40
4.0
 40
5.0
 40
5.0
 40
5.0
 40
6.0
 40
6.0
 40
6.0
 40
7.0
 40
7.0
 40
7.0
 40
8.0
 40
8.0
 40
8.0
 40
9.0
 40
9.0
 40
9.0
 40
9.0
 10
87.79154050539587
 20
-115.5519476707648
 10
87.79326305313849
 20
-115.6091362558199
 10
87.7987752059149
 20
-115.7445285083903
 10
87.7987752059149
 20
-115.913682696716
 10
87.7987752059149
 20
-116.3918619500687
 10
87.75226641686402
 20
-116.8721082607125
 10
87.42153725028004
 20
-117.1830281282563
 10
87.42153725028004
 20
-117.1830281282563
 10
87.21965465484439
 20
-117.0540093023337
 10
87.21965465484439
 20
-117.0540093023337
 10
87.27029755847757
 20
-117.0243814811606
 10
87.39535452459214
 20
-116.9525512402931
 10
87.48492700720864
 20
-116.7492906066634
 10
87.59517006273663
 20
-116.4955593241747
 10
87.61584063564813
 20
-116.2077215963821
 10
87.61584063564813
 20
-116.0237534974698
 10
87.61584063564813
 20
-115.8311726598443
 10
87.5989596677704
 20
-115.6366970197019
 10
87.58035615215006
 20
-115.4461832393676
 10
87.58035615215006
 20
-115.4461832393676
 10
87.79326305313849
 20
-115.4609971499542
 10
87.79326305313849
 20
-115.4609971499542
 10
87.81014402101621
 20
-115.4632364620196
 10
87.84011635173789
 20
-115.4653035193108
 10
87.84011635173789
 20
-115.4949313404839
 10
87.84011635173789
 20
-115.5202527923005
 10
87.81014402101621
 20
-115.5393730722436
 10
87.79154050539587
 20
-115.5519476707648
 97
        0
 97
        0
 75
     2
 76
     1
 98
        0
  0
ENDBLK
  5
158
330
155
100
AcDbEntity
  8
0
100
AcDbBlockEnd
  0
ENDSEC
  0
SECTION
  2
ENTITIES
  0
POLYLINE
  5
41
330
1F
100
AcDbEntity
  8
_U+30EC_U+30A4_U+30E4_U+30FC 1
370
     0
100
AcDb2dPolyline
 66
     1
 10
0.0
 20
0.0
 30
0.0
  0
VERTEX
  5
42
330
41
100
AcDbEntity
  8
_U+30EC_U+30A4_U+30E4_U+30FC 1
370
     0
100
AcDbVertex
100
AcDb2dVertex
 10
80.9785140451771
 20
-133.720698855459
 30
0.0
  0
VERTEX
  5
43
330
41
100
AcDbEntity
  8
_U+30EC_U+30A4_U+30E4_U+30FC 1
370
     0
100
AcDbVertex
100
AcDb2dVertex
 10
93.97876288017979
 20
-133.720698855459
 30
0.0
  0
VERTEX
  5
44
330
41
100
AcDbEntity
  8
_U+30EC_U+30A4_U+30E4_U+30FC 1
370
     0
100
AcDbVertex
100
AcDb2dVertex
 10
93.97876288017979
 20
-120.420553303228
 30
0.0
  0
VERTEX
  5
45
330
41
100
AcDbEntity
  8
_U+30EC_U+30A4_U+30E4_U+30FC 1
370
     0
100
AcDbVertex
100
AcDb2dVertex
 10
94.57890842042436
 20
-119.7205010811811
 30
0.0
  0
VERTEX
  5
46
330
41
100
AcDbEntity
  8
_U+30EC_U+30A4_U+30E4_U+30FC 1
370
     0
100
AcDbVertex
100
AcDb2dVertex
 10
93.97876288017979
 20
-119.0204841369116
 30
0.0
  0
VERTEX
  5
47
330
41
100
AcDbEntity
  8
_U+30EC_U+30A4_U+30E4_U+30FC 1
370
     0
100
AcDbVertex
100
AcDb2dVertex
 10
93.97876288017979
 20
-108.7203255283756
 30
0.0
  0
VERTEX
  5
48
330
41
100
AcDbEntity
  8
_U+30EC_U+30A4_U+30E4_U+30FC 1
370
     0
100
AcDbVertex
100
AcDb2dVertex
 10
95.17901868289205
 20
-108.7203255283756
 30
0.0
  0
VERTEX
  5
49
330
41
100
AcDbEntity
  8
_U+30EC_U+30A4_U+30E4_U+30FC 1
370
     0
100
AcDbVertex
100
AcDb2dVertex
 10
95.17901868289205
 20
-134.7204710774309
 30
0.0
  0
VERTEX
  5
4A
330
41
100
AcDbEntity
  8
_U+30EC_U+30A4_U+30E4_U+30FC 1
370
     0
100
AcDbVertex
100
AcDb2dVertex
 10
80.9785140451771
 20
-134.7204710774309
 30
0.0
  0
VERTEX
  5
4B
330
41
100
AcDbEntity
  8
_U+30EC_U+30A4_U+30E4_U+30FC 1
370
     0
100
AcDbVertex
100
AcDb2dVertex
 10
80.9785140451771
 20
-150.7201780178758
 30
0.0
  0
VERTEX
  5
4C
330
41
100
AcDbEntity
  8
_U+30EC_U+30A4_U+30E4_U+30FC 1
370
     0
100
AcDbVertex
100
AcDb2dVertex
 10
103.9788484583897
 20
-150.7201780178758
 30
0.0
  0
VERTEX
  5
4D
330
41
100
AcDbEntity
  8
_U+30EC_U+30A4_U+30E4_U+30FC 1
370
     0
100
AcDbVertex
100
AcDb2dVertex
 10
103.9788484583897
 20
-147.7201910741809
 30
0.0
  0
VERTEX
  5
4E
330
41
100
AcDbEntity
  8
_U+30EC_U+30A4_U+30E4_U+30FC 1
370
     0
100
AcDbVertex
100
AcDb2dVertex
 10
104.9785853773287
 20
-147.7201910741809
 30
0.0
  0
VERTEX
  5
4F
330
41
100
AcDbEntity
  8
_U+30EC_U+30A4_U+30E4_U+30FC 1
370
     0
100
AcDbVertex
100
AcDb2dVertex
 10
104.9785853773287
 20
-151.7199502398477
 30
0.0
  0
VERTEX
  5
50
330
41
100
AcDbEntity
  8
_U+30EC_U+30A4_U+30E4_U+30FC 1
370
     0
100
AcDbVertex
100
AcDb2dVertex
 10
79.9787418484612
 20
-151.7199502398477
 30
0.0
  0
VERTEX
  5
51
330
41
100
AcDbEntity
  8
_U+30EC_U+30A4_U+30E4_U+30FC 1
370
     0
100
AcDbVertex
100
AcDb2dVertex
 10
79.9787418484612
 20
-131.7204841337366
 30
0.0
  0
VERTEX
  5
52
330
41
100
AcDbEntity
  8
_U+30EC_U+30A4_U+30E4_U+30FC 1
370
     0
100
AcDbVertex
100
AcDb2dVertex
 10
80.9785140451771
 20
-131.7204841337366
 30
0.0
  0
VERTEX
  5
53
330
41
100
AcDbEntity
  8
_U+30EC_U+30A4_U+30E4_U+30FC 1
370
     0
100
AcDbVertex
100
AcDb2dVertex
 10
80.9785140451771
 20
-133.720698855459
 30
0.0
  0
SEQEND
  5
55
330
41
100
AcDbEntity
  8
_U+30EC_U+30A4_U+30E4_U+30FC 1
370
     0
  0
HATCH
  5
54
330
1F
100
AcDbEntity
  8
_U+30EC_U+30A4_U+30E4_U+30FC 1
 62
   253
420
 11711154
100
AcDbHatch
 10
0.0
 20
0.0
 30
0.0
210
0.0
220
0.0
230
1.0
  2
SOLID
 70
     1
 71
     0
 91
        1
 92
        1
 93
       17
 72
     1
 10
80.9785140451771
 20
-133.720698855459
 11
93.97876288017979
 21
-133.720698855459
 72
     1
 10
93.97876288017979
 20
-133.720698855459
 11
93.97876288017979
 21
-120.420553303228
 72
     1
 10
93.97876288017979
 20
-120.420553303228
 11
94.57890842042436
 21
-119.7205010811811
 72
     1
 10
94.57890842042436
 20
-119.7205010811811
 11
93.97876288017979
 21
-119.0204841369116
 72
     1
 10
93.97876288017979
 20
-119.0204841369116
 11
93.97876288017979
 21
-108.7203255283756
 72
     1
 10
93.97876288017979
 20
-108.7203255283756
 11
95.17901868289205
 21
-108.7203255283756
 72
     1
 10
95.17901868289205
 20
-108.7203255283756
 11
95.17901868289205
 21
-134.7204710774309
 72
     1
 10
95.17901868289205
 20
-134.7204710774309
 11
80.9785140451771
 21
-134.7204710774309
 72
     1
 10
80.9785140451771
 20
-134.7204710774309
 11
80.9785140451771
 21
-150.7201780178758
 72
     1
 10
80.9785140451771
 20
-150.7201780178758
 11
103.9788484583897
 21
-150.7201780178758
 72
     1
 10
103.9788484583897
 20
-150.7201780178758
 11
103.9788484583897
 21
-147.7201910741809
 72
     1
 10
103.9788484583897
 20
-147.7201910741809
 11
104.9785853773287
 21
-147.7201910741809
 72
     1
 10
104.9785853773287
 20
-147.7201910741809
 11
104.9785853773287
 21
-151.7199502398477
 72
     1
 10
104.9785853773287
 20
-151.7199502398477
 11
79.9787418484612
 21
-151.7199502398477
 72
     1
 10
79.9787418484612
 20
-151.7199502398477
 11
79.9787418484612
 21
-131.7204841337366
 72
     1
 10
79.9787418484612
 20
-131.7204841337366
 11
80.9785140451771
 21
-131.7204841337366
 72
     1
 10
80.9785140451771
 20
-131.7204841337366
 11
80.9785140451771
 21
-133.720698855459
 97
        0
 75
     2
 76
     1
 98
        0
  0
POLYLINE
  5
56
330
1F
100
AcDbEntity
  8
_U+30EC_U+30A4_U+30E4_U+30FC 1
 62
   179
420
  2234388
370
    25
100
AcDb2dPolyline
 66
     1
 10
0.0
 20
0.0
 30
0.0
  0
VERTEX
  5
57
330
56
100
AcDbEntity
  8
_U+30EC_U+30A4_U+30E4_U+30FC 1
 62
   179
420
  2234388
370
    25
100
AcDbVertex
100
AcDb2dVertex
 10
95.17901868289205
 20
-108.7203255283756
 30
0.0
  0
VERTEX
  5
58
330
56
100
AcDbEntity
  8
_U+30EC_U+30A4_U+30E4_U+30FC 1
 62
   179
420
  2234388
370
    25
100
AcDbVertex
100
AcDb2dVertex
 10
95.17901868289205
 20
-134.7204710774309
 30
0.0
  0
SEQEND
  5
59
330
56
100
AcDbEntity
  8
_U+30EC_U+30A4_U+30E4_U+30FC 1
 62
   179
420
  2234388
370
    25
  0
POLYLINE
  5
5A
330
1F
100
AcDbEntity
  8
_U+30EC_U+30A4_U+30E4_U+30FC 1
 62
   179
420
  2234388
370
     9
100
AcDb2dPolyline
 66
     1
 10
0.0
 20
0.0
 30
0.0
  0
VERTEX
  5
5B
330
5A
100
AcDbEntity
  8
_U+30EC_U+30A4_U+30E4_U+30FC 1
 62
   179
420
  2234388
370
     9
100
AcDbVertex
100
AcDb2dVertex
 10
90.71849657446722
 20
-117.8381141372072
 30
0.0
  0
VERTEX
  5
5C
330
5A
100
AcDbEntity
  8
_U+30EC_U+30A4_U+30E4_U+30FC 1
 62
   179
420
  2234388
370
     9
100
AcDbVertex
100
AcDb2dVertex
 10
79.23667381183738
 20
-117.8381141372072
 30
0.0
  0
SEQEND
  5
5D
330
5A
100
AcDbEntity
  8
_U+30EC_U+30A4_U+30E4_U+30FC 1
 62
   179
420
  2234388
370
     9
  0
POLYLINE
  5
5E
330
1F
100
AcDbEntity
  8
_U+30EC_U+30A4_U+30E4_U+30FC 1
 62
   179
420
  2234388
370
     9
100
AcDb2dPolyline
 66
     1
 10
0.0
 20
0.0
 30
0.0
  0
VERTEX
  5
5F
330
5E
100
AcDbEntity
  8
_U+30EC_U+30A4_U+30E4_U+30FC 1
 62
   179
420
  2234388
370
     9
100
AcDbVertex
100
AcDb2dVertex
 10
93.97876288017979
 20
-119.7205010811811
 30
0.0
  0
VERTEX
  5
60
330
5E
100
AcDbEntity
  8
_U+30EC_U+30A4_U+30E4_U+30FC 1
 62
   179
420
  2234388
370
     9
100
AcDbVertex
100
AcDb2dVertex
 10
90.71849657446722
 20
-117.8381141372072
 30
0.0
  0
SEQEND
  5
61
330
5E
100
AcDbEntity
  8
_U+30EC_U+30A4_U+30E4_U+30FC 1
 62
   179
420
  2234388
370
     9
  0
POLYLINE
  5
62
330
1F
100
AcDbEntity
  8
_U+30EC_U+30A4_U+30E4_U+30FC 1
 62
   179
420
  2234388
370
     9
100
AcDb2dPolyline
 66
     1
 10
0.0
 20
0.0
 30
0.0
  0
VERTEX
  5
63
330
62
100
AcDbEntity
  8
_U+30EC_U+30A4_U+30E4_U+30FC 1
 62
   179
420
  2234388
370
     9
100
AcDbVertex
100
AcDb2dVertex
 10
93.97876288017979
 20
-119.7205010811811
 30
0.0
  0
VERTEX
  5
64
330
62
100
AcDbEntity
  8
_U+30EC_U+30A4_U+30E4_U+30FC 1
 62
   179
420
  2234388
370
     9
100
AcDbVertex
100
AcDb2dVertex
 10
92.918348185011
 20
-118.6601216370017
 30
0.0
  0
SEQEND
  5
65
330
62
100
AcDbEntity
  8
_U+30EC_U+30A4_U+30E4_U+30FC 1
 62
   179
420
  2234388
370
     9
  0
POLYLINE
  5
66
330
1F
100
AcDbEntity
  8
_U+30EC_U+30A4_U+30E4_U+30FC 1
 62
   179
420
  2234388
370
     9
100
AcDb2dPolyline
 66
     1
 10
0.0
 20
0.0
 30
0.0
  0
VERTEX
  5
67
330
66
100
AcDbEntity
  8
_U+30EC_U+30A4_U+30E4_U+30FC 1
 62
   179
420
  2234388
370
     9
100
AcDbVertex
100
AcDb2dVertex
 10
93.97876288017979
 20
-119.7205010811811
 30
0.0
  0
VERTEX
  5
68
330
66
100
AcDbEntity
  8
_U+30EC_U+30A4_U+30E4_U+30FC 1
 62
   179
420
  2234388
370
     9
100
AcDbVertex
100
AcDb2dVertex
 10
92.5297634727024
 20
-119.3319163590561
 30
0.0
  0
SEQEND
  5
69
330
66
100
AcDbEntity
  8
_U+30EC_U+30A4_U+30E4_U+30FC 1
 62
   179
420
  2234388
370
     9
  0
POLYLINE
  5
6A
330
1F
100
AcDbEntity
  8
_U+30EC_U+30A4_U+30E4_U+30FC 1
 62
   179
420
  2234388
370
    25
100
AcDb2dPolyline
 66
     1
 10
0.0
 20
0.0
 30
0.0
  0
VERTEX
  5
6B
330
6A
100
AcDbEntity
  8
_U+30EC_U+30A4_U+30E4_U+30FC 1
 62
   179
420
  2234388
370
    25
100
AcDbVertex
100
AcDb2dVertex
 10
95.17901868289205
 20
-134.7204710774309
 30
0.0
  0
VERTEX
  5
6C
330
6A
100
AcDbEntity
  8
_U+30EC_U+30A4_U+30E4_U+30FC 1
 62
   179
420
  2234388
370
    25
100
AcDbVertex
100
AcDb2dVertex
 10
80.9785140451771
 20
-134.7204710774309
 30
0.0
  0
SEQEND
  5
6D
330
6A
100
AcDbEntity
  8
_U+30EC_U+30A4_U+30E4_U+30FC 1
 62
   179
420
  2234388
370
    25
  0
POLYLINE
  5
6E
330
1F
100
AcDbEntity
  8
_U+30EC_U+30A4_U+30E4_U+30FC 1
 62
   179
420
  2234388
370
    25
100
AcDb2dPolyline
 66
     1
 10
0.0
 20
0.0
 30
0.0
  0
VERTEX
  5
6F
330
6E
100
AcDbEntity
  8
_U+30EC_U+30A4_U+30E4_U+30FC 1
 62
   179
420
  2234388
370
    25
100
AcDbVertex
100
AcDb2dVertex
 10
93.97876288017979
 20
-108.7203255283756
 30
0.0
  0
VERTEX
  5
70
330
6E
100
AcDbEntity
  8
_U+30EC_U+30A4_U+30E4_U+30FC 1
 62
   179
420
  2234388
370
    25
100
AcDbVertex
100
AcDb2dVertex
 10
93.97876288017979
 20
-119.0204841369116
 30
0.0
  0
SEQEND
  5
71
330
6E
100
AcDbEntity
  8
_U+30EC_U+30A4_U+30E4_U+30FC 1
 62
   179
420
  2234388
370
    25
  0
POLYLINE
  5
72
330
1F
100
AcDbEntity
  8
_U+30EC_U+30A4_U+30E4_U+30FC 1
 62
   179
420
  2234388
370
    25
100
AcDb2dPolyline
 66
     1
 10
0.0
 20
0.0
 30
0.0
  0
VERTEX
  5
73
330
72
100
AcDbEntity
  8
_U+30EC_U+30A4_U+30E4_U+30FC 1
 62
   179
420
  2234388
370
    25
100
AcDbVertex
100
AcDb2dVertex
 10
95.17901868289205
 20
-108.7203255283756
 30
0.0
  0
VERTEX
  5
74
330
72
100
AcDbEntity
  8
_U+30EC_U+30A4_U+30E4_U+30FC 1
 62
   179
420
  2234388
370
    25
100
AcDbVertex
100
AcDb2dVertex
 10
93.97876288017979
 20
-108.7203255283756
 30
0.0
  0
SEQEND
  5
75
330
72
100
AcDbEntity
  8
_U+30EC_U+30A4_U+30E4_U+30FC 1
 62
   179
420
  2234388
370
    25
  0
POLYLINE
  5
76
330
1F
100
AcDbEntity
  8
_U+30EC_U+30A4_U+30E4_U+30FC 1
 62
   179
420
  2234388
370
    25
100
AcDb2dPolyline
 66
     1
 10
0.0
 20
0.0
 30
0.0
  0
VERTEX
  5
77
330
76
100
AcDbEntity
  8
_U+30EC_U+30A4_U+30E4_U+30FC 1
 62
   179
420
  2234388
370
    25
100
AcDbVertex
100
AcDb2dVertex
 10
93.97876288017979
 20
-120.420553303228
 30
0.0
  0
VERTEX
  5
78
330
76
100
AcDbEntity
  8
_U+30EC_U+30A4_U+30E4_U+30FC 1
 62
   179
420
  2234388
370
    25
100
AcDbVertex
100
AcDb2dVertex
 10
94.57890842042436
 20
-119.7205010811811
 30
0.0
  0
SEQEND
  5
79
330
76
100
AcDbEntity
  8
_U+30EC_U+30A4_U+30E4_U+30FC 1
 62
   179
420
  2234388
370
    25
  0
POLYLINE
  5
7A
330
1F
100
AcDbEntity
  8
_U+30EC_U+30A4_U+30E4_U+30FC 1
 62
   179
420
  2234388
370
    25
100
AcDb2dPolyline
 66
     1
 10
0.0
 20
0.0
 30
0.0
  0
VERTEX
  5
7B
330
7A
100
AcDbEntity
  8
_U+30EC_U+30A4_U+30E4_U+30FC 1
 62
   179
420
  2234388
370
    25
100
AcDbVertex
100
AcDb2dVertex
 10
93.97876288017979
 20
-119.0204841369116
 30
0.0
  0
VERTEX
  5
7C
330
7A
100
AcDbEntity
  8
_U+30EC_U+30A4_U+30E4_U+30FC 1
 62
   179
420
  2234388
370
    25
100
AcDbVertex
100
AcDb2dVertex
 10
94.57890842042436
 20
-119.7205010811811
 30
0.0
  0
SEQEND
  5
7D
330
7A
100
AcDbEntity
  8
_U+30EC_U+30A4_U+30E4_U+30FC 1
 62
   179
420
  2234388
370
    25
  0
POLYLINE
  5
7E
330
1F
100
AcDbEntity
  8
_U+30EC_U+30A4_U+30E4_U+30FC 1
 62
   179
420
  2234388
370
    25
100
AcDb2dPolyline
 66
     1
 10
0.0
 20
0.0
 30
0.0
  0
VERTEX
  5
7F
330
7E
100
AcDbEntity
  8
_U+30EC_U+30A4_U+30E4_U+30FC 1
 62
   179
420
  2234388
370
    25
100
AcDbVertex
100
AcDb2dVertex
 10
93.97876288017979
 20
-120.420553303228
 30
0.0
  0
VERTEX
  5
80
330
7E
100
AcDbEntity
  8
_U+30EC_U+30A4_U+30E4_U+30FC 1
 62
   179
420
  2234388
370
    25
100
AcDbVertex
100
AcDb2dVertex
 10
93.97876288017979
 20
-133.720698855459
 30
0.0
  0
SEQEND
  5
81
330
7E
100
AcDbEntity
  8
_U+30EC_U+30A4_U+30E4_U+30FC 1
 62
   179
420
  2234388
370
    25
  0
POLYLINE
  5
82
330
1F
100
AcDbEntity
  8
_U+30EC_U+30A4_U+30E4_U+30FC 1
 62
   179
420
  2234388
370
    25
100
AcDb2dPolyline
 66
     1
 10
0.0
 20
0.0
 30
0.0
  0
VERTEX
  5
83
330
82
100
AcDbEntity
  8
_U+30EC_U+30A4_U+30E4_U+30FC 1
 62
   179
420
  2234388
370
    25
100
AcDbVertex
100
AcDb2dVertex
 10
79.9787418484612
 20
-131.7204841337366
 30
0.0
  0
VERTEX
  5
84
330
82
100
AcDbEntity
  8
_U+30EC_U+30A4_U+30E4_U+30FC 1
 62
   179
420
  2234388
370
    25
100
AcDbVertex
100
AcDb2dVertex
 10
79.9787418484612
 20
-151.7199502398477
 30
0.0
  0
SEQEND
  5
85
330
82
100
AcDbEntity
  8
_U+30EC_U+30A4_U+30E4_U+30FC 1
 62
   179
420
  2234388
370
    25
  0
POLYLINE
  5
86
330
1F
100
AcDbEntity
  8
_U+30EC_U+30A4_U+30E4_U+30FC 1
 62
   179
420
  2234388
370
    25
100
AcDb2dPolyline
 66
     1
 10
0.0
 20
0.0
 30
0.0
  0
VERTEX
  5
87
330
86
100
AcDbEntity
  8
_U+30EC_U+30A4_U+30E4_U+30FC 1
 62
   179
420
  2234388
370
    25
100
AcDbVertex
100
AcDb2dVertex
 10
104.9785853773287
 20
-147.7201910741809
 30
0.0
  0
VERTEX
  5
88
330
86
100
AcDbEntity
  8
_U+30EC_U+30A4_U+30E4_U+30FC 1
 62
   179
420
  2234388
370
    25
100
AcDbVertex
100
AcDb2dVertex
 10
103.9788484583897
 20
-147.7201910741809
 30
0.0
  0
SEQEND
  5
89
330
86
100
AcDbEntity
  8
_U+30EC_U+30A4_U+30E4_U+30FC 1
 62
   179
420
  2234388
370
    25
  0
POLYLINE
  5
8A
330
1F
100
AcDbEntity
  8
_U+30EC_U+30A4_U+30E4_U+30FC 1
 62
   179
420
  2234388
370
    25
100
AcDb2dPolyline
 66
     1
 10
0.0
 20
0.0
 30
0.0
  0
VERTEX
  5
8B
330
8A
100
AcDbEntity
  8
_U+30EC_U+30A4_U+30E4_U+30FC 1
 62
   179
420
  2234388
370
    25
100
AcDbVertex
100
AcDb2dVertex
 10
104.9785853773287
 20
-151.7199502398477
 30
0.0
  0
VERTEX
  5
8C
330
8A
100
AcDbEntity
  8
_U+30EC_U+30A4_U+30E4_U+30FC 1
 62
   179
420
  2234388
370
    25
100
AcDbVertex
100
AcDb2dVertex
 10
79.9787418484612
 20
-151.7199502398477
 30
0.0
  0
SEQEND
  5
8D
330
8A
100
AcDbEntity
  8
_U+30EC_U+30A4_U+30E4_U+30FC 1
 62
   179
420
  2234388
370
    25
  0
POLYLINE
  5
8E
330
1F
100
AcDbEntity
  8
_U+30EC_U+30A4_U+30E4_U+30FC 1
 62
   179
420
  2234388
370
    25
100
AcDb2dPolyline
 66
     1
 10
0.0
 20
0.0
 30
0.0
  0
VERTEX
  5
8F
330
8E
100
AcDbEntity
  8
_U+30EC_U+30A4_U+30E4_U+30FC 1
 62
   179
420
  2234388
370
    25
100
AcDbVertex
100
AcDb2dVertex
 10
80.9785140451771
 20
-131.7204841337366
 30
0.0
  0
VERTEX
  5
90
330
8E
100
AcDbEntity
  8
_U+30EC_U+30A4_U+30E4_U+30FC 1
 62
   179
420
  2234388
370
    25
100
AcDbVertex
100
AcDb2dVertex
 10
79.9787418484612
 20
-131.7204841337366
 30
0.0
  0
SEQEND
  5
91
330
8E
100
AcDbEntity
  8
_U+30EC_U+30A4_U+30E4_U+30FC 1
 62
   179
420
  2234388
370
    25
  0
POLYLINE
  5
92
330
1F
100
AcDbEntity
  8
_U+30EC_U+30A4_U+30E4_U+30FC 1
 62
   179
420
  2234388
370
    25
100
AcDb2dPolyline
 66
     1
 10
0.0
 20
0.0
 30
0.0
  0
VERTEX
  5
93
330
92
100
AcDbEntity
  8
_U+30EC_U+30A4_U+30E4_U+30FC 1
 62
   179
420
  2234388
370
    25
100
AcDbVertex
100
AcDb2dVertex
 10
104.9785853773287
 20
-147.7201910741809
 30
0.0
  0
VERTEX
  5
94
330
92
100
AcDbEntity
  8
_U+30EC_U+30A4_U+30E4_U+30FC 1
 62
   179
420
  2234388
370
    25
100
AcDbVertex
100
AcDb2dVertex
 10
104.9785853773287
 20
-151.7199502398477
 30
0.0
  0
SEQEND
  5
95
330
92
100
AcDbEntity
  8
_U+30EC_U+30A4_U+30E4_U+30FC 1
 62
   179
420
  2234388
370
    25
  0
POLYLINE
  5
96
330
1F
100
AcDbEntity
  8
_U+30EC_U+30A4_U+30E4_U+30FC 1
 62
   179
420
  2234388
370
    25
100
AcDb2dPolyline
 66
     1
 10
0.0
 20
0.0
 30
0.0
  0
VERTEX
  5
97
330
96
100
AcDbEntity
  8
_U+30EC_U+30A4_U+30E4_U+30FC 1
 62
   179
420
  2234388
370
    25
100
AcDbVertex
100
AcDb2dVertex
 10
103.9788484583897
 20
-147.7201910741809
 30
0.0
  0
VERTEX
  5
98
330
96
100
AcDbEntity
  8
_U+30EC_U+30A4_U+30E4_U+30FC 1
 62
   179
420
  2234388
370
    25
100
AcDbVertex
100
AcDb2dVertex
 10
103.9788484583897
 20
-150.7201780178758
 30
0.0
  0
SEQEND
  5
99
330
96
100
AcDbEntity
  8
_U+30EC_U+30A4_U+30E4_U+30FC 1
 62
   179
420
  2234388
370
    25
  0
POLYLINE
  5
9A
330
1F
100
AcDbEntity
  8
_U+30EC_U+30A4_U+30E4_U+30FC 1
 62
   179
420
  2234388
370
    25
100
AcDb2dPolyline
 66
     1
 10
0.0
 20
0.0
 30
0.0
  0
VERTEX
  5
9B
330
9A
100
AcDbEntity
  8
_U+30EC_U+30A4_U+30E4_U+30FC 1
 62
   179
420
  2234388
370
    25
100
AcDbVertex
100
AcDb2dVertex
 10
103.9788484583897
 20
-150.7201780178758
 30
0.0
  0
VERTEX
  5
9C
330
9A
100
AcDbEntity
  8
_U+30EC_U+30A4_U+30E4_U+30FC 1
 62
   179
420
  2234388
370
    25
100
AcDbVertex
100
AcDb2dVertex
 10
80.9785140451771
 20
-150.7201780178758
 30
0.0
  0
SEQEND
  5
9D
330
9A
100
AcDbEntity
  8
_U+30EC_U+30A4_U+30E4_U+30FC 1
 62
   179
420
  2234388
370
    25
  0
POLYLINE
  5
9E
330
1F
100
AcDbEntity
  8
_U+30EC_U+30A4_U+30E4_U+30FC 1
 62
   179
420
  2234388
370
    25
100
AcDb2dPolyline
 66
     1
 10
0.0
 20
0.0
 30
0.0
  0
VERTEX
  5
9F
330
9E
100
AcDbEntity
  8
_U+30EC_U+30A4_U+30E4_U+30FC 1
 62
   179
420
  2234388
370
    25
100
AcDbVertex
100
AcDb2dVertex
 10
80.9785140451771
 20
-131.7204841337366
 30
0.0
  0
VERTEX
  5
A0
330
9E
100
AcDbEntity
  8
_U+30EC_U+30A4_U+30E4_U+30FC 1
 62
   179
420
  2234388
370
    25
100
AcDbVertex
100
AcDb2dVertex
 10
80.9785140451771
 20
-133.720698855459
 30
0.0
  0
SEQEND
  5
A1
330
9E
100
AcDbEntity
  8
_U+30EC_U+30A4_U+30E4_U+30FC 1
 62
   179
420
  2234388
370
    25
  0
POLYLINE
  5
A2
330
1F
100
AcDbEntity
  8
_U+30EC_U+30A4_U+30E4_U+30FC 1
 62
   179
420
  2234388
370
    25
100
AcDb2dPolyline
 66
     1
 10
0.0
 20
0.0
 30
0.0
  0
VERTEX
  5
A3
330
A2
100
AcDbEntity
  8
_U+30EC_U+30A4_U+30E4_U+30FC 1
 62
   179
420
  2234388
370
    25
100
AcDbVertex
100
AcDb2dVertex
 10
93.97876288017979
 20
-133.720698855459
 30
0.0
  0
VERTEX
  5
A4
330
A2
100
AcDbEntity
  8
_U+30EC_U+30A4_U+30E4_U+30FC 1
 62
   179
420
  2234388
370
    25
100
AcDbVertex
100
AcDb2dVertex
 10
80.9785140451771
 20
-133.720698855459
 30
0.0
  0
SEQEND
  5
A5
330
A2
100
AcDbEntity
  8
_U+30EC_U+30A4_U+30E4_U+30FC 1
 62
   179
420
  2234388
370
    25
  0
POLYLINE
  5
A6
330
1F
100
AcDbEntity
  8
_U+30EC_U+30A4_U+30E4_U+30FC 1
 62
   179
420
  2234388
370
    25
100
AcDb2dPolyline
 66
     1
 10
0.0
 20
0.0
 30
0.0
  0
VERTEX
  5
A7
330
A6
100
AcDbEntity
  8
_U+30EC_U+30A4_U+30E4_U+30FC 1
 62
   179
420
  2234388
370
    25
100
AcDbVertex
100
AcDb2dVertex
 10
80.9785140451771
 20
-134.7204710774309
 30
0.0
  0
VERTEX
  5
A8
330
A6
100
AcDbEntity
  8
_U+30EC_U+30A4_U+30E4_U+30FC 1
 62
   179
420
  2234388
370
    25
100
AcDbVertex
100
AcDb2dVertex
 10
80.9785140451771
 20
-150.7201780178758
 30
0.0
  0
SEQEND
  5
A9
330
A6
100
AcDbEntity
  8
_U+30EC_U+30A4_U+30E4_U+30FC 1
 62
   179
420
  2234388
370
    25
  0
SPLINE
  5
AA
330
1F
100
AcDbEntity
  8
_U+30EC_U+30A4_U+30E4_U+30FC 1
 62
   179
420
  2234388
370
     9
100
AcDbSpline
210
0.0
220
0.0
230
1.0
 70
    11
 71
     3
 72
    17
 73
    13
 74
     0
 42
0.0000000001
 43
0.0000000001
 12
1.0
 22
0.0
 32
0.0
 13
1.0
 23
0.0
 33
0.0
 40
0.0
 40
0.0
 40
0.0
 40
0.0
 40
1.0
 40
1.0
 40
1.0
 40
2.0
 40
2.0
 40
2.0
 40
3.0
 40
3.0
 40
3.0
 40
4.0
 40
4.0
 40
4.0
 40
4.0
 10
93.87885621606196
 20
-104.7205663627087
 30
0.0
 10
93.87885621606196
 20
-104.6654624738338
 30
0.0
 10
93.92362371491984
 20
-104.6206596960671
 30
0.0
 10
93.97876288017979
 20
-104.6206596960671
 30
0.0
 10
94.03386676766286
 20
-104.6206596960671
 30
0.0
 10
94.07866954429763
 20
-104.6654624738338
 30
0.0
 10
94.07866954429763
 20
-104.7205663627087
 30
0.0
 10
94.07866954429763
 20
-104.7757055293618
 30
0.0
 10
94.03386676766286
 20
-104.8204730293503
 30
0.0
 10
93.97876288017979
 20
-104.8204730293503
 30
0.0
 10
93.92362371491984
 20
-104.8204730293503
 30
0.0
 10
93.87885621606196
 20
-104.7757055293618
 30
0.0
 10
93.87885621606196
 20
-104.7205663627087
 30
0.0
  0
SPLINE
  5
AB
330
1F
100
AcDbEntity
  8
_U+30EC_U+30A4_U+30E4_U+30FC 1
 62
   179
420
  2234388
370
     9
100
AcDbSpline
210
0.0
220
0.0
230
1.0
 70
    11
 71
     3
 72
    17
 73
    13
 74
     0
 42
0.0000000001
 43
0.0000000001
 12
1.0
 22
0.0
 32
0.0
 13
1.0
 23
0.0
 33
0.0
 40
0.0
 40
0.0
 40
0.0
 40
0.0
 40
1.0
 40
1.0
 40
1.0
 40
2.0
 40
2.0
 40
2.0
 40
3.0
 40
3.0
 40
3.0
 40
4.0
 40
4.0
 40
4.0
 40
4.0
 10
95.07844174101353
 20
-104.7205663627087
 30
0.0
 10
95.07844174101353
 20
-104.6654624738338
 30
0.0
 10
95.12320923987141
 20
-104.6206596960671
 30
0.0
 10
95.17901868289205
 20
-104.6206596960671
 30
0.0
 10
95.234157848152
 20
-104.6206596960671
 30
0.0
 10
95.27892775395817
 20
-104.6654624738338
 30
0.0
 10
95.27892775395817
 20
-104.7205663627087
 30
0.0
 10
95.27892775395817
 20
-104.7757055293618
 30
0.0
 10
95.234157848152
 20
-104.8204730293503
 30
0.0
 10
95.17901868289205
 20
-104.8204730293503
 30
0.0
 10
95.12320923987141
 20
-104.8204730293503
 30
0.0
 10
95.07844174101353
 20
-104.7757055293618
 30
0.0
 10
95.07844174101353
 20
-104.7205663627087
 30
0.0
  0
SPLINE
  5
AC
330
1F
100
AcDbEntity
  8
_U+30EC_U+30A4_U+30E4_U+30FC 1
 62
   179
420
  2234388
370
     9
100
AcDbSpline
210
0.0
220
0.0
230
1.0
 70
    11
 71
     3
 72
    17
 73
    13
 74
     0
 42
0.0000000001
 43
0.0000000001
 12
1.0
 22
0.0
 32
0.0
 13
1.0
 23
0.0
 33
0.0
 40
0.0
 40
0.0
 40
0.0
 40
0.0
 40
1.0
 40
1.0
 40
1.0
 40
2.0
 40
2.0
 40
2.0
 40
3.0
 40
3.0
 40
3.0
 40
4.0
 40
4.0
 40
4.0
 40
4.0
 10
108.8794961111415
 20
-151.7199502398477
 30
0.0
 10
108.8794961111415
 20
-151.6648110731946
 30
0.0
 10
108.9242636099994
 20
-151.6200435732061
 30
0.0
 10
108.9794055283106
 20
-151.6200435732061
 30
0.0
 10
109.0345066627424
 20
-151.6200435732061
 30
0.0
 10
109.0793094393772
 20
-151.6648110731946
 30
0.0
 10
109.0793094393772
 20
-151.7199502398477
 30
0.0
 10
109.0793094393772
 20
-151.7750541287226
 30
0.0
 10
109.0345066627424
 20
-151.8198569064894
 30
0.0
 10
108.9794055283106
 20
-151.8198569064894
 30
0.0
 10
108.9242636099994
 20
-151.8198569064894
 30
0.0
 10
108.8794961111415
 20
-151.7750541287226
 30
0.0
 10
108.8794961111415
 20
-151.7199502398477
 30
0.0
  0
SPLINE
  5
AD
330
1F
100
AcDbEntity
  8
_U+30EC_U+30A4_U+30E4_U+30FC 1
 62
   179
420
  2234388
370
     9
100
AcDbSpline
210
0.0
220
0.0
230
1.0
 70
    11
 71
     3
 72
    17
 73
    13
 74
     0
 42
0.0000000001
 43
0.0000000001
 12
1.0
 22
0.0
 32
0.0
 13
1.0
 23
0.0
 33
0.0
 40
0.0
 40
0.0
 40
0.0
 40
0.0
 40
1.0
 40
1.0
 40
1.0
 40
2.0
 40
2.0
 40
2.0
 40
3.0
 40
3.0
 40
3.0
 40
4.0
 40
4.0
 40
4.0
 40
4.0
 10
108.8794961111415
 20
-147.7201910741809
 30
0.0
 10
108.8794961111415
 20
-147.6650519075284
 30
0.0
 10
108.9242636099994
 20
-147.6202844075392
 30
0.0
 10
108.9794055283106
 20
-147.6202844075392
 30
0.0
 10
109.0345066627424
 20
-147.6202844075392
 30
0.0
 10
109.0793094393772
 20
-147.6650519075284
 30
0.0
 10
109.0793094393772
 20
-147.7201910741809
 30
0.0
 10
109.0793094393772
 20
-147.7752949630564
 30
0.0
 10
109.0345066627424
 20
-147.8200977408225
 30
0.0
 10
108.9794055283106
 20
-147.8200977408225
 30
0.0
 10
108.9242636099994
 20
-147.8200977408225
 30
0.0
 10
108.8794961111415
 20
-147.7752949630564
 30
0.0
 10
108.8794961111415
 20
-147.7201910741809
 30
0.0
  0
SPLINE
  5
AE
330
1F
100
AcDbEntity
  8
_U+30EC_U+30A4_U+30E4_U+30FC 1
 62
   179
420
  2234388
370
     9
100
AcDbSpline
210
0.0
220
0.0
230
1.0
 70
    11
 71
     3
 72
    17
 73
    13
 74
     0
 42
0.0000000001
 43
0.0000000001
 12
1.0
 22
0.0
 32
0.0
 13
1.0
 23
0.0
 33
0.0
 40
0.0
 40
0.0
 40
0.0
 40
0.0
 40
1.0
 40
1.0
 40
1.0
 40
2.0
 40
2.0
 40
2.0
 40
3.0
 40
3.0
 40
3.0
 40
4.0
 40
4.0
 40
4.0
 40
4.0
 10
108.8794961111415
 20
-134.7204710774309
 30
0.0
 10
108.8794961111415
 20
-134.6653319107779
 30
0.0
 10
108.9242636099994
 20
-134.6205644107893
 30
0.0
 10
108.9794055283106
 20
-134.6205644107893
 30
0.0
 10
109.0345066627424
 20
-134.6205644107893
 30
0.0
 10
109.0793094393772
 20
-134.6653319107779
 30
0.0
 10
109.0793094393772
 20
-134.7204710774309
 30
0.0
 10
109.0793094393772
 20
-134.7755749663058
 30
0.0
 10
109.0345066627424
 20
-134.8203777440726
 30
0.0
 10
108.9794055283106
 20
-134.8203777440726
 30
0.0
 10
108.9242636099994
 20
-134.8203777440726
 30
0.0
 10
108.8794961111415
 20
-134.7755749663058
 30
0.0
 10
108.8794961111415
 20
-134.7204710774309
 30
0.0
  0
SPLINE
  5
AF
330
1F
100
AcDbEntity
  8
_U+30EC_U+30A4_U+30E4_U+30FC 1
 62
   179
420
  2234388
370
     9
100
AcDbSpline
210
0.0
220
0.0
230
1.0
 70
    11
 71
     3
 72
    17
 73
    13
 74
     0
 42
0.0000000001
 43
0.0000000001
 12
1.0
 22
0.0
 32
0.0
 13
1.0
 23
0.0
 33
0.0
 40
0.0
 40
0.0
 40
0.0
 40
0.0
 40
1.0
 40
1.0
 40
1.0
 40
2.0
 40
2.0
 40
2.0
 40
3.0
 40
3.0
 40
3.0
 40
4.0
 40
4.0
 40
4.0
 40
4.0
 10
108.8794961111415
 20
-108.7203255283756
 30
0.0
 10
108.8794961111415
 20
-108.6651863617225
 30
0.0
 10
108.9242636099994
 20
-108.620418861734
 30
0.0
 10
108.9794055283106
 20
-108.620418861734
 30
0.0
 10
109.0345066627424
 20
-108.620418861734
 30
0.0
 10
109.0793094393772
 20
-108.6651863617225
 30
0.0
 10
109.0793094393772
 20
-108.7203255283756
 30
0.0
 10
109.0793094393772
 20
-108.776134972806
 30
0.0
 10
109.0345066627424
 20
-108.8209377505724
 30
0.0
 10
108.9794055283106
 20
-108.8209377505724
 30
0.0
 10
108.9242636099994
 20
-108.8209377505724
 30
0.0
 10
108.8794961111415
 20
-108.776134972806
 30
0.0
 10
108.8794961111415
 20
-108.7203255283756
 30
0.0
  0
SPLINE
  5
B0
330
1F
100
AcDbEntity
  8
_U+30EC_U+30A4_U+30E4_U+30FC 1
 62
   179
420
  2234388
370
     9
100
AcDbSpline
210
0.0
220
0.0
230
1.0
 70
    11
 71
     3
 72
    17
 73
    13
 74
     0
 42
0.0000000001
 43
0.0000000001
 12
1.0
 22
0.0
 32
0.0
 13
1.0
 23
0.0
 33
0.0
 40
0.0
 40
0.0
 40
0.0
 40
0.0
 40
1.0
 40
1.0
 40
1.0
 40
2.0
 40
2.0
 40
2.0
 40
3.0
 40
3.0
 40
3.0
 40
4.0
 40
4.0
 40
4.0
 40
4.0
 10
79.87883518434336
 20
-155.720379683292
 30
0.0
 10
79.87883518434336
 20
-155.6652757944171
 30
0.0
 10
79.92363796097813
 20
-155.6204730166504
 30
0.0
 10
79.9787418484612
 20
-155.6204730166504
 30
0.0
 10
80.03388101372114
 20
-155.6204730166504
 30
0.0
 10
80.07864851257904
 20
-155.6652757944171
 30
0.0
 10
80.07864851257904
 20
-155.720379683292
 30
0.0
 10
80.07864851257904
 20
-155.7755188499451
 30
0.0
 10
80.03388101372114
 20
-155.8202863499336
 30
0.0
 10
79.9787418484612
 20
-155.8202863499336
 30
0.0
 10
79.92363796097813
 20
-155.8202863499336
 30
0.0
 10
79.87883518434336
 20
-155.7755188499451
 30
0.0
 10
79.87883518434336
 20
-155.720379683292
 30
0.0
  0
SPLINE
  5
B1
330
1F
100
AcDbEntity
  8
_U+30EC_U+30A4_U+30E4_U+30FC 1
 62
   179
420
  2234388
370
     9
100
AcDbSpline
210
0.0
220
0.0
230
1.0
 70
    11
 71
     3
 72
    17
 73
    13
 74
     0
 42
0.0000000001
 43
0.0000000001
 12
1.0
 22
0.0
 32
0.0
 13
1.0
 23
0.0
 33
0.0
 40
0.0
 40
0.0
 40
0.0
 40
0.0
 40
1.0
 40
1.0
 40
1.0
 40
2.0
 40
2.0
 40
2.0
 40
3.0
 40
3.0
 40
3.0
 40
4.0
 40
4.0
 40
4.0
 40
4.0
 10
104.8786787132109
 20
-155.720379683292
 30
0.0
 10
104.8786787132109
 20
-155.6652757944171
 30
0.0
 10
104.9234814898456
 20
-155.6204730166504
 30
0.0
 10
104.9785853773287
 20
-155.6204730166504
 30
0.0
 10
105.0344300981262
 20
-155.6204730166504
 30
0.0
 10
105.0791975969841
 20
-155.6652757944171
 30
0.0
 10
105.0791975969841
 20
-155.720379683292
 30
0.0
 10
105.0791975969841
 20
-155.7755188499451
 30
0.0
 10
105.0344300981262
 20
-155.8202863499336
 30
0.0
 10
104.9785853773287
 20
-155.8202863499336
 30
0.0
 10
104.9234814898456
 20
-155.8202863499336
 30
0.0
 10
104.8786787132109
 20
-155.7755188499451
 30
0.0
 10
104.8786787132109
 20
-155.720379683292
 30
0.0
  0
SPLINE
  5
B2
330
1F
100
AcDbEntity
  8
_U+30EC_U+30A4_U+30E4_U+30FC 1
 62
   179
420
  2234388
370
     9
100
AcDbSpline
210
0.0
220
0.0
230
1.0
 70
    11
 71
     3
 72
    17
 73
    13
 74
     0
 42
0.0000000001
 43
0.0000000001
 12
1.0
 22
0.0
 32
0.0
 13
1.0
 23
0.0
 33
0.0
 40
0.0
 40
0.0
 40
0.0
 40
0.0
 40
1.0
 40
1.0
 40
1.0
 40
2.0
 40
2.0
 40
2.0
 40
3.0
 40
3.0
 40
3.0
 40
4.0
 40
4.0
 40
4.0
 40
4.0
 10
75.87907611971904
 20
-131.7204841337366
 30
0.0
 10
75.87907611971904
 20
-131.6653449670835
 30
0.0
 10
75.92387889635381
 20
-131.620577467095
 30
0.0
 10
75.97898278383688
 20
-131.620577467095
 30
0.0
 10
76.03412194909683
 20
-131.620577467095
 30
0.0
 10
76.07888944795472
 20
-131.6653449670835
 30
0.0
 10
76.07888944795472
 20
-131.7204841337366
 30
0.0
 10
76.07888944795472
 20
-131.7755880226115
 30
0.0
 10
76.03412194909683
 20
-131.8203908003782
 30
0.0
 10
75.97898278383688
 20
-131.8203908003782
 30
0.0
 10
75.92387889635381
 20
-131.8203908003782
 30
0.0
 10
75.87907611971904
 20
-131.7755880226115
 30
0.0
 10
75.87907611971904
 20
-131.7204841337366
 30
0.0
  0
SPLINE
  5
B3
330
1F
100
AcDbEntity
  8
_U+30EC_U+30A4_U+30E4_U+30FC 1
 62
   179
420
  2234388
370
     9
100
AcDbSpline
210
0.0
220
0.0
230
1.0
 70
    11
 71
     3
 72
    17
 73
    13
 74
     0
 42
0.0000000001
 43
0.0000000001
 12
1.0
 22
0.0
 32
0.0
 13
1.0
 23
0.0
 33
0.0
 40
0.0
 40
0.0
 40
0.0
 40
0.0
 40
1.0
 40
1.0
 40
1.0
 40
2.0
 40
2.0
 40
2.0
 40
3.0
 40
3.0
 40
3.0
 40
4.0
 40
4.0
 40
4.0
 40
4.0
 10
75.87907611971904
 20
-151.7199502398477
 30
0.0
 10
75.87907611971904
 20
-151.6648110731946
 30
0.0
 10
75.92387889635381
 20
-151.6200435732061
 30
0.0
 10
75.97898278383688
 20
-151.6200435732061
 30
0.0
 10
76.03412194909683
 20
-151.6200435732061
 30
0.0
 10
76.07888944795472
 20
-151.6648110731946
 30
0.0
 10
76.07888944795472
 20
-151.7199502398477
 30
0.0
 10
76.07888944795472
 20
-151.7750541287226
 30
0.0
 10
76.03412194909683
 20
-151.8198569064894
 30
0.0
 10
75.97898278383688
 20
-151.8198569064894
 30
0.0
 10
75.92387889635381
 20
-151.8198569064894
 30
0.0
 10
75.87907611971904
 20
-151.7750541287226
 30
0.0
 10
75.87907611971904
 20
-151.7199502398477
 30
0.0
  0
SPLINE
  5
B4
330
1F
100
AcDbEntity
  8
_U+30EC_U+30A4_U+30E4_U+30FC 1
 62
   179
420
  2234388
370
     9
100
AcDbSpline
210
0.0
220
0.0
230
1.0
 70
    11
 71
     3
 72
    17
 73
    13
 74
     0
 42
0.0000000001
 43
0.0000000001
 12
1.0
 22
0.0
 32
0.0
 13
1.0
 23
0.0
 33
0.0
 40
0.0
 40
0.0
 40
0.0
 40
0.0
 40
1.0
 40
1.0
 40
1.0
 40
2.0
 40
2.0
 40
2.0
 40
3.0
 40
3.0
 40
3.0
 40
4.0
 40
4.0
 40
4.0
 40
4.0
 10
93.87885621606196
 20
-127.7207249680697
 30
0.0
 10
93.87885621606196
 20
-127.6649155236393
 30
0.0
 10
93.92362371491984
 20
-127.6201127458729
 30
0.0
 10
93.97876288017979
 20
-127.6201127458729
 30
0.0
 10
94.03386676766286
 20
-127.6201127458729
 30
0.0
 10
94.07866954429763
 20
-127.6649155236393
 30
0.0
 10
94.07866954429763
 20
-127.7207249680697
 30
0.0
 10
94.07866954429763
 20
-127.7758288569449
 30
0.0
 10
94.03386676766286
 20
-127.8206316347117
 30
0.0
 10
93.97876288017979
 20
-127.8206316347117
 30
0.0
 10
93.92362371491984
 20
-127.8206316347117
 30
0.0
 10
93.87885621606196
 20
-127.7758288569449
 30
0.0
 10
93.87885621606196
 20
-127.7207249680697
 30
0.0
  0
SPLINE
  5
B5
330
1F
100
AcDbEntity
  8
_U+30EC_U+30A4_U+30E4_U+30FC 1
 62
   179
420
  2234388
370
     9
100
AcDbSpline
210
0.0
220
0.0
230
1.0
 70
    11
 71
     3
 72
    17
 73
    13
 74
     0
 42
0.0000000001
 43
0.0000000001
 12
1.0
 22
0.0
 32
0.0
 13
1.0
 23
0.0
 33
0.0
 40
0.0
 40
0.0
 40
0.0
 40
0.0
 40
1.0
 40
1.0
 40
1.0
 40
2.0
 40
2.0
 40
2.0
 40
3.0
 40
3.0
 40
3.0
 40
4.0
 40
4.0
 40
4.0
 40
4.0
 10
80.87860738105927
 20
-127.7207249680697
 30
0.0
 10
80.87860738105927
 20
-127.6649155236393
 30
0.0
 10
80.92341015769404
 20
-127.6201127458729
 30
0.0
 10
80.9785140451771
 20
-127.6201127458729
 30
0.0
 10
81.03432348819773
 20
-127.6201127458729
 30
0.0
 10
81.0791262648325
 20
-127.6649155236393
 30
0.0
 10
81.0791262648325
 20
-127.7207249680697
 30
0.0
 10
81.0791262648325
 20
-127.7758288569449
 30
0.0
 10
81.03432348819773
 20
-127.8206316347117
 30
0.0
 10
80.9785140451771
 20
-127.8206316347117
 30
0.0
 10
80.92341015769404
 20
-127.8206316347117
 30
0.0
 10
80.87860738105927
 20
-127.7758288569449
 30
0.0
 10
80.87860738105927
 20
-127.7207249680697
 30
0.0
  0
POLYLINE
  5
B6
330
1F
100
AcDbEntity
  8
_U+30EC_U+30A4_U+30E4_U+30FC 1
 62
   179
420
  2234388
370
     9
100
AcDb2dPolyline
 66
     1
 10
0.0
 20
0.0
 30
0.0
  0
VERTEX
  5
B7
330
B6
100
AcDbEntity
  8
_U+30EC_U+30A4_U+30E4_U+30FC 1
 62
   179
420
  2234388
370
     9
100
AcDbVertex
100
AcDb2dVertex
 10
95.17901868289205
 20
-104.7205663627087
 30
0.0
  0
VERTEX
  5
B8
330
B6
100
AcDbEntity
  8
_U+30EC_U+30A4_U+30E4_U+30FC 1
 62
   179
420
  2234388
370
     9
100
AcDbVertex
100
AcDb2dVertex
 10
100.4362541043243
 20
-104.7205663627087
 30
0.0
  0
SEQEND
  5
B9
330
B6
100
AcDbEntity
  8
_U+30EC_U+30A4_U+30E4_U+30FC 1
 62
   179
420
  2234388
370
     9
  0
POLYLINE
  5
BA
330
1F
100
AcDbEntity
  8
_U+30EC_U+30A4_U+30E4_U+30FC 1
 62
   179
420
  2234388
370
     9
100
AcDb2dPolyline
 66
     1
 10
0.0
 20
0.0
 30
0.0
  0
VERTEX
  5
BB
330
BA
100
AcDbEntity
  8
_U+30EC_U+30A4_U+30E4_U+30FC 1
 62
   179
420
  2234388
370
     9
100
AcDbVertex
100
AcDb2dVertex
 10
95.17901868289205
 20
-104.7205663627087
 30
0.0
  0
VERTEX
  5
BC
330
BA
100
AcDbEntity
  8
_U+30EC_U+30A4_U+30E4_U+30FC 1
 62
   179
420
  2234388
370
     9
100
AcDbVertex
100
AcDb2dVertex
 10
92.97899068346388
 20
-104.7205663627087
 30
0.0
  0
SEQEND
  5
BD
330
BA
100
AcDbEntity
  8
_U+30EC_U+30A4_U+30E4_U+30FC 1
 62
   179
420
  2234388
370
     9
  0
POLYLINE
  5
BE
330
1F
100
AcDbEntity
  8
_U+30EC_U+30A4_U+30E4_U+30FC 1
 62
   179
420
  2234388
370
     9
100
AcDb2dPolyline
 66
     1
 10
0.0
 20
0.0
 30
0.0
  0
VERTEX
  5
BF
330
BE
100
AcDbEntity
  8
_U+30EC_U+30A4_U+30E4_U+30FC 1
 62
   179
420
  2234388
370
     9
100
AcDbVertex
100
AcDb2dVertex
 10
95.17901868289205
 20
-106.1806077512327
 30
0.0
  0
VERTEX
  5
C0
330
BE
100
AcDbEntity
  8
_U+30EC_U+30A4_U+30E4_U+30FC 1
 62
   179
420
  2234388
370
     9
100
AcDbVertex
100
AcDb2dVertex
 10
95.17901868289205
 20
-103.7207941407365
 30
0.0
  0
SEQEND
  5
C1
330
BE
100
AcDbEntity
  8
_U+30EC_U+30A4_U+30E4_U+30FC 1
 62
   179
420
  2234388
370
     9
  0
POLYLINE
  5
C2
330
1F
100
AcDbEntity
  8
_U+30EC_U+30A4_U+30E4_U+30FC 1
 62
   179
420
  2234388
370
     9
100
AcDb2dPolyline
 66
     1
 10
0.0
 20
0.0
 30
0.0
  0
VERTEX
  5
C3
330
C2
100
AcDbEntity
  8
_U+30EC_U+30A4_U+30E4_U+30FC 1
 62
   179
420
  2234388
370
     9
100
AcDbVertex
100
AcDb2dVertex
 10
93.97876288017979
 20
-106.1806077512327
 30
0.0
  0
VERTEX
  5
C4
330
C2
100
AcDbEntity
  8
_U+30EC_U+30A4_U+30E4_U+30FC 1
 62
   179
420
  2234388
370
     9
100
AcDbVertex
100
AcDb2dVertex
 10
93.97876288017979
 20
-103.7207941407365
 30
0.0
  0
SEQEND
  5
C5
330
C2
100
AcDbEntity
  8
_U+30EC_U+30A4_U+30E4_U+30FC 1
 62
   179
420
  2234388
370
     9
  0
POLYLINE
  5
C6
330
1F
100
AcDbEntity
  8
_U+30EC_U+30A4_U+30E4_U+30FC 1
 62
   179
420
  2234388
370
     9
100
AcDb2dPolyline
 66
     1
 10
0.0
 20
0.0
 30
0.0
  0
VERTEX
  5
C7
330
C6
100
AcDbEntity
  8
_U+30EC_U+30A4_U+30E4_U+30FC 1
 62
   179
420
  2234388
370
     9
100
AcDbVertex
100
AcDb2dVertex
 10
108.9794055283106
 20
-134.7204710774309
 30
0.0
  0
VERTEX
  5
C8
330
C6
100
AcDbEntity
  8
_U+30EC_U+30A4_U+30E4_U+30FC 1
 62
   179
420
  2234388
370
     9
100
AcDbVertex
100
AcDb2dVertex
 10
108.9794055283106
 20
-108.7203255283756
 30
0.0
  0
SEQEND
  5
C9
330
C6
100
AcDbEntity
  8
_U+30EC_U+30A4_U+30E4_U+30FC 1
 62
   179
420
  2234388
370
     9
  0
POLYLINE
  5
CA
330
1F
100
AcDbEntity
  8
_U+30EC_U+30A4_U+30E4_U+30FC 1
 62
   179
420
  2234388
370
     9
100
AcDb2dPolyline
 66
     1
 10
0.0
 20
0.0
 30
0.0
  0
VERTEX
  5
CB
330
CA
100
AcDbEntity
  8
_U+30EC_U+30A4_U+30E4_U+30FC 1
 62
   179
420
  2234388
370
     9
100
AcDbVertex
100
AcDb2dVertex
 10
97.71873886445907
 20
-134.7204710774309
 30
0.0
  0
VERTEX
  5
CC
330
CA
100
AcDbEntity
  8
_U+30EC_U+30A4_U+30E4_U+30FC 1
 62
   179
420
  2234388
370
     9
100
AcDbVertex
100
AcDb2dVertex
 10
109.9791777502831
 20
-134.7204710774309
 30
0.0
  0
SEQEND
  5
CD
330
CA
100
AcDbEntity
  8
_U+30EC_U+30A4_U+30E4_U+30FC 1
 62
   179
420
  2234388
370
     9
  0
POLYLINE
  5
CE
330
1F
100
AcDbEntity
  8
_U+30EC_U+30A4_U+30E4_U+30FC 1
 62
   179
420
  2234388
370
     9
100
AcDb2dPolyline
 66
     1
 10
0.0
 20
0.0
 30
0.0
  0
VERTEX
  5
CF
330
CE
100
AcDbEntity
  8
_U+30EC_U+30A4_U+30E4_U+30FC 1
 62
   179
420
  2234388
370
     9
100
AcDbVertex
100
AcDb2dVertex
 10
97.71873886445907
 20
-108.7203255283756
 30
0.0
  0
VERTEX
  5
D0
330
CE
100
AcDbEntity
  8
_U+30EC_U+30A4_U+30E4_U+30FC 1
 62
   179
420
  2234388
370
     9
100
AcDbVertex
100
AcDb2dVertex
 10
109.9791777502831
 20
-108.7203255283756
 30
0.0
  0
SEQEND
  5
D1
330
CE
100
AcDbEntity
  8
_U+30EC_U+30A4_U+30E4_U+30FC 1
 62
   179
420
  2234388
370
     9
  0
POLYLINE
  5
D2
330
1F
100
AcDbEntity
  8
_U+30EC_U+30A4_U+30E4_U+30FC 1
 62
   179
420
  2234388
370
     9
100
AcDb2dPolyline
 66
     1
 10
0.0
 20
0.0
 30
0.0
  0
VERTEX
  5
D3
330
D2
100
AcDbEntity
  8
_U+30EC_U+30A4_U+30E4_U+30FC 1
 62
   179
420
  2234388
370
     9
100
AcDbVertex
100
AcDb2dVertex
 10
108.9794055283106
 20
-147.7201910741809
 30
0.0
  0
VERTEX
  5
D4
330
D2
100
AcDbEntity
  8
_U+30EC_U+30A4_U+30E4_U+30FC 1
 62
   179
420
  2234388
370
     9
100
AcDbVertex
100
AcDb2dVertex
 10
108.9794055283106
 20
-134.7204710774309
 30
0.0
  0
SEQEND
  5
D5
330
D2
100
AcDbEntity
  8
_U+30EC_U+30A4_U+30E4_U+30FC 1
 62
   179
420
  2234388
370
     9
  0
POLYLINE
  5
D6
330
1F
100
AcDbEntity
  8
_U+30EC_U+30A4_U+30E4_U+30FC 1
 62
   179
420
  2234388
370
     9
100
AcDb2dPolyline
 66
     1
 10
0.0
 20
0.0
 30
0.0
  0
VERTEX
  5
D7
330
D6
100
AcDbEntity
  8
_U+30EC_U+30A4_U+30E4_U+30FC 1
 62
   179
420
  2234388
370
     9
100
AcDbVertex
100
AcDb2dVertex
 10
107.5190086458504
 20
-147.7201910741809
 30
0.0
  0
VERTEX
  5
D8
330
D6
100
AcDbEntity
  8
_U+30EC_U+30A4_U+30E4_U+30FC 1
 62
   179
420
  2234388
370
     9
100
AcDbVertex
100
AcDb2dVertex
 10
109.9791777502831
 20
-147.7201910741809
 30
0.0
  0
SEQEND
  5
D9
330
D6
100
AcDbEntity
  8
_U+30EC_U+30A4_U+30E4_U+30FC 1
 62
   179
420
  2234388
370
     9
  0
POLYLINE
  5
DA
330
1F
100
AcDbEntity
  8
_U+30EC_U+30A4_U+30E4_U+30FC 1
 62
   179
420
  2234388
370
     9
100
AcDb2dPolyline
 66
     1
 10
0.0
 20
0.0
 30
0.0
  0
VERTEX
  5
DB
330
DA
100
AcDbEntity
  8
_U+30EC_U+30A4_U+30E4_U+30FC 1
 62
   179
420
  2234388
370
     9
100
AcDbVertex
100
AcDb2dVertex
 10
108.9794055283106
 20
-151.7199502398477
 30
0.0
  0
VERTEX
  5
DC
330
DA
100
AcDbEntity
  8
_U+30EC_U+30A4_U+30E4_U+30FC 1
 62
   179
420
  2234388
370
     9
100
AcDbVertex
100
AcDb2dVertex
 10
108.9794055283106
 20
-147.7201910741809
 30
0.0
  0
SEQEND
  5
DD
330
DA
100
AcDbEntity
  8
_U+30EC_U+30A4_U+30E4_U+30FC 1
 62
   179
420
  2234388
370
     9
  0
POLYLINE
  5
DE
330
1F
100
AcDbEntity
  8
_U+30EC_U+30A4_U+30E4_U+30FC 1
 62
   179
420
  2234388
370
     9
100
AcDb2dPolyline
 66
     1
 10
0.0
 20
0.0
 30
0.0
  0
VERTEX
  5
DF
330
DE
100
AcDbEntity
  8
_U+30EC_U+30A4_U+30E4_U+30FC 1
 62
   179
420
  2234388
370
     9
100
AcDbVertex
100
AcDb2dVertex
 10
107.5190086458504
 20
-151.7199502398477
 30
0.0
  0
VERTEX
  5
E0
330
DE
100
AcDbEntity
  8
_U+30EC_U+30A4_U+30E4_U+30FC 1
 62
   179
420
  2234388
370
     9
100
AcDbVertex
100
AcDb2dVertex
 10
109.9791777502831
 20
-151.7199502398477
 30
0.0
  0
SEQEND
  5
E1
330
DE
100
AcDbEntity
  8
_U+30EC_U+30A4_U+30E4_U+30FC 1
 62
   179
420
  2234388
370
     9
  0
POLYLINE
  5
E2
330
1F
100
AcDbEntity
  8
_U+30EC_U+30A4_U+30E4_U+30FC 1
 62
   179
420
  2234388
370
     9
100
AcDb2dPolyline
 66
     1
 10
0.0
 20
0.0
 30
0.0
  0
VERTEX
  5
E3
330
E2
100
AcDbEntity
  8
_U+30EC_U+30A4_U+30E4_U+30FC 1
 62
   179
420
  2234388
370
     9
100
AcDbVertex
100
AcDb2dVertex
 10
104.9785853773287
 20
-155.720379683292
 30
0.0
  0
VERTEX
  5
E4
330
E2
100
AcDbEntity
  8
_U+30EC_U+30A4_U+30E4_U+30FC 1
 62
   179
420
  2234388
370
     9
100
AcDbVertex
100
AcDb2dVertex
 10
79.9787418484612
 20
-155.720379683292
 30
0.0
  0
SEQEND
  5
E5
330
E2
100
AcDbEntity
  8
_U+30EC_U+30A4_U+30E4_U+30FC 1
 62
   179
420
  2234388
370
     9
  0
POLYLINE
  5
E6
330
1F
100
AcDbEntity
  8
_U+30EC_U+30A4_U+30E4_U+30FC 1
 62
   179
420
  2234388
370
     9
100
AcDb2dPolyline
 66
     1
 10
0.0
 20
0.0
 30
0.0
  0
VERTEX
  5
E7
330
E6
100
AcDbEntity
  8
_U+30EC_U+30A4_U+30E4_U+30FC 1
 62
   179
420
  2234388
370
     9
100
AcDbVertex
100
AcDb2dVertex
 10
104.9785853773287
 20
-154.2603382947683
 30
0.0
  0
VERTEX
  5
E8
330
E6
100
AcDbEntity
  8
_U+30EC_U+30A4_U+30E4_U+30FC 1
 62
   179
420
  2234388
370
     9
100
AcDbVertex
100
AcDb2dVertex
 10
104.9785853773287
 20
-156.7201519052645
 30
0.0
  0
SEQEND
  5
E9
330
E6
100
AcDbEntity
  8
_U+30EC_U+30A4_U+30E4_U+30FC 1
 62
   179
420
  2234388
370
     9
  0
POLYLINE
  5
EA
330
1F
100
AcDbEntity
  8
_U+30EC_U+30A4_U+30E4_U+30FC 1
 62
   179
420
  2234388
370
     9
100
AcDb2dPolyline
 66
     1
 10
0.0
 20
0.0
 30
0.0
  0
VERTEX
  5
EB
330
EA
100
AcDbEntity
  8
_U+30EC_U+30A4_U+30E4_U+30FC 1
 62
   179
420
  2234388
370
     9
100
AcDbVertex
100
AcDb2dVertex
 10
79.9787418484612
 20
-154.2603382947683
 30
0.0
  0
VERTEX
  5
EC
330
EA
100
AcDbEntity
  8
_U+30EC_U+30A4_U+30E4_U+30FC 1
 62
   179
420
  2234388
370
     9
100
AcDbVertex
100
AcDb2dVertex
 10
79.9787418484612
 20
-156.7201519052645
 30
0.0
  0
SEQEND
  5
ED
330
EA
100
AcDbEntity
  8
_U+30EC_U+30A4_U+30E4_U+30FC 1
 62
   179
420
  2234388
370
     9
  0
POLYLINE
  5
EE
330
1F
100
AcDbEntity
  8
_U+30EC_U+30A4_U+30E4_U+30FC 1
 62
   179
420
  2234388
370
     9
100
AcDb2dPolyline
 66
     1
 10
0.0
 20
0.0
 30
0.0
  0
VERTEX
  5
EF
330
EE
100
AcDbEntity
  8
_U+30EC_U+30A4_U+30E4_U+30FC 1
 62
   179
420
  2234388
370
     9
100
AcDbVertex
100
AcDb2dVertex
 10
75.97898278383688
 20
-131.7204841337366
 30
0.0
  0
VERTEX
  5
F0
330
EE
100
AcDbEntity
  8
_U+30EC_U+30A4_U+30E4_U+30FC 1
 62
   179
420
  2234388
370
     9
100
AcDbVertex
100
AcDb2dVertex
 10
75.97898278383688
 20
-151.7199502398477
 30
0.0
  0
SEQEND
  5
F1
330
EE
100
AcDbEntity
  8
_U+30EC_U+30A4_U+30E4_U+30FC 1
 62
   179
420
  2234388
370
     9
  0
POLYLINE
  5
F2
330
1F
100
AcDbEntity
  8
_U+30EC_U+30A4_U+30E4_U+30FC 1
 62
   179
420
  2234388
370
     9
100
AcDb2dPolyline
 66
     1
 10
0.0
 20
0.0
 30
0.0
  0
VERTEX
  5
F3
330
F2
100
AcDbEntity
  8
_U+30EC_U+30A4_U+30E4_U+30FC 1
 62
   179
420
  2234388
370
     9
100
AcDbVertex
100
AcDb2dVertex
 10
77.43902413547701
 20
-131.7204841337366
 30
0.0
  0
VERTEX
  5
F4
330
F2
100
AcDbEntity
  8
_U+30EC_U+30A4_U+30E4_U+30FC 1
 62
   179
420
  2234388
370
     9
100
AcDbVertex
100
AcDb2dVertex
 10
74.9785403093603
 20
-131.7204841337366
 30
0.0
  0
SEQEND
  5
F5
330
F2
100
AcDbEntity
  8
_U+30EC_U+30A4_U+30E4_U+30FC 1
 62
   179
420
  2234388
370
     9
  0
POLYLINE
  5
F6
330
1F
100
AcDbEntity
  8
_U+30EC_U+30A4_U+30E4_U+30FC 1
 62
   179
420
  2234388
370
     9
100
AcDb2dPolyline
 66
     1
 10
0.0
 20
0.0
 30
0.0
  0
VERTEX
  5
F7
330
F6
100
AcDbEntity
  8
_U+30EC_U+30A4_U+30E4_U+30FC 1
 62
   179
420
  2234388
370
     9
100
AcDbVertex
100
AcDb2dVertex
 10
77.43902413547701
 20
-151.7199502398477
 30
0.0
  0
VERTEX
  5
F8
330
F6
100
AcDbEntity
  8
_U+30EC_U+30A4_U+30E4_U+30FC 1
 62
   179
420
  2234388
370
     9
100
AcDbVertex
100
AcDb2dVertex
 10
74.9785403093603
 20
-151.7199502398477
 30
0.0
  0
SEQEND
  5
F9
330
F6
100
AcDbEntity
  8
_U+30EC_U+30A4_U+30E4_U+30FC 1
 62
   179
420
  2234388
370
     9
  0
POLYLINE
  5
FA
330
1F
100
AcDbEntity
  8
_U+30EC_U+30A4_U+30E4_U+30FC 1
 62
   179
420
  2234388
370
     9
100
AcDb2dPolyline
 66
     1
 10
0.0
 20
0.0
 30
0.0
  0
VERTEX
  5
FB
330
FA
100
AcDbEntity
  8
_U+30EC_U+30A4_U+30E4_U+30FC 1
 62
   179
420
  2234388
370
     9
100
AcDbVertex
100
AcDb2dVertex
 10
93.97876288017979
 20
-127.7207249680697
 30
0.0
  0
VERTEX
  5
FC
330
FA
100
AcDbEntity
  8
_U+30EC_U+30A4_U+30E4_U+30FC 1
 62
   179
420
  2234388
370
     9
100
AcDbVertex
100
AcDb2dVertex
 10
80.9785140451771
 20
-127.7207249680697
 30
0.0
  0
SEQEND
  5
FD
330
FA
100
AcDbEntity
  8
_U+30EC_U+30A4_U+30E4_U+30FC 1
 62
   179
420
  2234388
370
     9
  0
POLYLINE
  5
FE
330
1F
100
AcDbEntity
  8
_U+30EC_U+30A4_U+30E4_U+30FC 1
 62
   179
420
  2234388
370
     9
100
AcDb2dPolyline
 66
     1
 10
0.0
 20
0.0
 30
0.0
  0
VERTEX
  5
FF
330
FE
100
AcDbEntity
  8
_U+30EC_U+30A4_U+30E4_U+30FC 1
 62
   179
420
  2234388
370
     9
100
AcDbVertex
100
AcDb2dVertex
 10
80.9785140451771
 20
-129.1807310788159
 30
0.0
  0
VERTEX
  5
100
330
FE
100
AcDbEntity
  8
_U+30EC_U+30A4_U+30E4_U+30FC 1
 62
   179
420
  2234388
370
     9
100
AcDbVertex
100
AcDb2dVertex
 10
80.9785140451771
 20
-126.7202471905423
 30
0.0
  0
SEQEND
  5
101
330
FE
100
AcDbEntity
  8
_U+30EC_U+30A4_U+30E4_U+30FC 1
 62
   179
420
  2234388
370
     9
  0
INSERT
  5
103
330
1F
100
AcDbEntity
  8
_U+30EC_U+30A4_U+30E4_U+30FC 1
100
AcDbBlockReference
  2
block 2
 10
0.0
 20
0.0
 30
0.0
  0
INSERT
  5
113
330
1F
100
AcDbEntity
  8
_U+30EC_U+30A4_U+30E4_U+30FC 1
100
AcDbBlockReference
  2
block 3
 10
0.0
 20
0.0
 30
0.0
  0
INSERT
  5
11C
330
1F
100
AcDbEntity
  8
_U+30EC_U+30A4_U+30E4_U+30FC 1
100
AcDbBlockReference
  2
block 4
 10
0.0
 20
0.0
 30
0.0
  0
INSERT
  5
124
330
1F
100
AcDbEntity
  8
_U+30EC_U+30A4_U+30E4_U+30FC 1
100
AcDbBlockReference
  2
block 5
 10
0.0
 20
0.0
 30
0.0
  0
INSERT
  5
13D
330
1F
100
AcDbEntity
  8
_U+30EC_U+30A4_U+30E4_U+30FC 1
100
AcDbBlockReference
  2
block 6
 10
0.0
 20
0.0
 30
0.0
  0
INSERT
  5
145
330
1F
100
AcDbEntity
  8
_U+30EC_U+30A4_U+30E4_U+30FC 1
100
AcDbBlockReference
  2
block 7
 10
0.0
 20
0.0
 30
0.0
  0
INSERT
  5
14E
330
1F
100
AcDbEntity
  8
_U+30EC_U+30A4_U+30E4_U+30FC 1
100
AcDbBlockReference
  2
block 8
 10
0.0
 20
0.0
 30
0.0
  0
INSERT
  5
156
330
1F
100
AcDbEntity
  8
_U+30EC_U+30A4_U+30E4_U+30FC 1
100
AcDbBlockReference
  2
block 9
 10
0.0
 20
0.0
 30
0.0
  0
ENDSEC
  0
SECTION
  2
OBJECTS
  0
DICTIONARY
  5
C
330
0
100
AcDbDictionary
281
     1
  3
ACAD_GROUP
350
D
  3
ACAD_LAYOUT
350
1A
  3
ACAD_MATERIAL
350
3B
  3
ACAD_MLEADERSTYLE
350
16E
  3
ACAD_MLINESTYLE
350
17
  3
ACAD_PLOTSETTINGS
350
19
  3
ACAD_PLOTSTYLENAME
350
E
  3
ACAD_TABLESTYLE
350
16D
  3
ACAD_VISUALSTYLE
350
2A
  0
SUN
  5
3F
330
29
100
AcDbSun
 90
        1
290
     0
 63
     7
421
 16777215
 40
1.0
291
     1
 91
  2455826
 92
 54000000
292
     0
 70
     2
 71
   256
280
     1
  0
DICTIONARY
  5
D
102
{ACAD_REACTORS
330
C
102
}
330
C
100
AcDbDictionary
281
     1
  0
DICTIONARY
  5
1A
102
{ACAD_REACTORS
330
C
102
}
330
C
100
AcDbDictionary
281
     1
  3
Layout1
350
1E
  3
Layout2
350
26
  3
Model
350
22
  0
DICTIONARY
  5
3B
102
{ACAD_REACTORS
330
C
102
}
330
C
100
AcDbDictionary
281
     1
  3
ByBlock
350
3D
  3
ByLayer
350
3C
  3
Global
350
3E
  0
DICTIONARY
  5
16E
102
{ACAD_REACTORS
330
C
102
}
330
C
100
AcDbDictionary
281
     1
  0
DICTIONARY
  5
17
102
{ACAD_REACTORS
330
C
102
}
330
C
100
AcDbDictionary
281
     1
  3
Standard
350
18
  0
DICTIONARY
  5
19
102
{ACAD_REACTORS
330
C
102
}
330
C
100
AcDbDictionary
281
     1
  0
ACDBDICTIONARYWDFLT
  5
E
102
{ACAD_REACTORS
330
C
102
}
330
C
100
AcDbDictionary
281
     1
  3
Normal
350
F
100
AcDbDictionaryWithDefault
340
F
  0
DICTIONARY
  5
16D
102
{ACAD_REACTORS
330
C
102
}
330
C
100
AcDbDictionary
281
     1
  0
DICTIONARY
  5
2A
102
{ACAD_REACTORS
330
C
102
}
330
C
100
AcDbDictionary
281
     1
  3
2dWireframe
350
2F
  3
3D Hidden
350
31
  3
3dWireframe
350
30
  3
Basic
350
32
  3
Brighten
350
36
  3
ColorChange
350
3A
  3
Conceptual
350
34
  3
Dim
350
35
  3
Facepattern
350
39
  3
Flat
350
2B
  3
FlatWithEdges
350
2C
  3
Gouraud
350
2D
  3
GouraudWithEdges
350
2E
  3
Linepattern
350
38
  3
Realistic
350
33
  3
Thicken
350
37
  0
LAYOUT
  5
1E
102
{ACAD_REACTORS
330
1A
102
}
330
1A
100
AcDbPlotSettings
  1

  2
none_device
  4

  6

 40
0.0
 41
0.0
 42
0.0
 43
0.0
 44
0.0
 45
0.0
 46
0.0
 47
0.0
 48
0.0
 49
0.0
140
0.0
141
0.0
142
1.0
143
1.0
 70
   688
 72
     0
 73
     0
 74
     5
  7

 75
    16
 76
     0
 77
     2
 78
   300
147
1.0
148
0.0
149
0.0
100
AcDbLayout
  1
Layout1
 70
     1
 71
     1
 10
0.0
 20
0.0
 11
12.0
 21
9.0
 12
0.0
 22
0.0
 32
0.0
 14
1.000000000000000E+20
 24
1.000000000000000E+20
 34
1.000000000000000E+20
 15
-1.000000000000000E+20
 25
-1.000000000000000E+20
 35
-1.000000000000000E+20
146
0.0
 13
0.0
 23
0.0
 33
0.0
 16
1.0
 26
0.0
 36
0.0
 17
0.0
 27
1.0
 37
0.0
 76
     0
330
1B
  0
LAYOUT
  5
26
102
{ACAD_REACTORS
330
1A
102
}
330
1A
100
AcDbPlotSettings
  1

  2
none_device
  4

  6

 40
0.0
 41
0.0
 42
0.0
 43
0.0
 44
0.0
 45
0.0
 46
0.0
 47
0.0
 48
0.0
 49
0.0
140
0.0
141
0.0
142
1.0
143
1.0
 70
   688
 72
     0
 73
     0
 74
     5
  7

 75
    16
 76
     0
 77
     2
 78
   300
147
1.0
148
0.0
149
0.0
100
AcDbLayout
  1
Layout2
 70
     1
 71
     2
 10
0.0
 20
0.0
 11
0.0
 21
0.0
 12
0.0
 22
0.0
 32
0.0
 14
0.0
 24
0.0
 34
0.0
 15
0.0
 25
0.0
 35
0.0
146
0.0
 13
0.0
 23
0.0
 33
0.0
 16
1.0
 26
0.0
 36
0.0
 17
0.0
 27
1.0
 37
0.0
 76
     0
330
23
  0
LAYOUT
  5
22
102
{ACAD_REACTORS
330
1A
102
}
330
1A
100
AcDbPlotSettings
  1

  2
none_device
  4

  6

 40
0.0
 41
0.0
 42
0.0
 43
0.0
 44
0.0
 45
0.0
 46
0.0
 47
0.0
 48
0.0
 49
0.0
140
0.0
141
0.0
142
1.0
143
1.0
 70
  1712
 72
     0
 73
     0
 74
     0
  7

 75
     0
 76
     0
 77
     2
 78
   300
147
1.0
148
0.0
149
0.0
100
AcDbLayout
  1
Model
 70
     1
 71
     0
 10
0.0
 20
0.0
 11
12.0
 21
9.0
 12
0.0
 22
0.0
 32
0.0
 14
1.000000000000000E+20
 24
1.000000000000000E+20
 34
1.000000000000000E+20
 15
-1.000000000000000E+20
 25
-1.000000000000000E+20
 35
-1.000000000000000E+20
146
0.0
 13
0.0
 23
0.0
 33
0.0
 16
1.0
 26
0.0
 36
0.0
 17
0.0
 27
1.0
 37
0.0
 76
     0
330
1F
331
29
  0
MATERIAL
  5
3D
102
{ACAD_REACTORS
330
3B
102
}
330
3B
100
AcDbMaterial
  1
ByBlock
 72
     1
 94
      127
  0
MATERIAL
  5
3C
102
{ACAD_REACTORS
330
3B
102
}
330
3B
100
AcDbMaterial
  1
ByLayer
 72
     1
 94
      127
  0
MATERIAL
  5
3E
102
{ACAD_REACTORS
330
3B
102
}
330
3B
100
AcDbMaterial
  1
Global
 72
     1
 94
      127
  0
MLINESTYLE
  5
18
102
{ACAD_REACTORS
330
17
102
}
330
17
100
AcDbMlineStyle
  2
Standard
 70
     0
  3

 62
   256
 51
90.0
 52
90.0
 71
     2
 49
0.5
 62
   256
  6
BYLAYER
 49
-0.5
 62
   256
  6
BYLAYER
  0
ACDBPLACEHOLDER
  5
F
102
{ACAD_REACTORS
330
E
102
}
330
E
  0
VISUALSTYLE
  5
2F
102
{ACAD_REACTORS
330
2A
102
}
330
2A
100
AcDbVisualStyle
  2
2dWireframe
 70
     4
177
     2
291
     0
 71
     0
176
     1
 72
     2
176
     1
 73
     0
176
     1
 90
        0
176
     1
 40
-0.6
176
     1
 41
-30.0
176
     1
 62
     5
 63
     7
421
 16777215
176
     1
 74
     1
176
     1
 91
        4
176
     1
 64
     7
176
     1
 65
   257
176
     1
 75
     1
176
     1
175
     1
176
     1
 42
1.0
176
     1
 92
        0
176
     1
 66
   257
176
     1
 43
1.0
176
     1
 76
     1
176
     1
 77
     6
176
     1
 78
     2
176
     1
 67
     7
176
     1
 79
     5
176
     1
170
     0
176
     1
171
     0
176
     1
290
     0
176
     1
 93
        1
176
     1
 44
0.0
176
     1
173
     0
176
     1
  0
VISUALSTYLE
  5
31
102
{ACAD_REACTORS
330
2A
102
}
330
2A
100
AcDbVisualStyle
  2
3D Hidden
 70
     6
177
     2
291
     0
 71
     1
176
     1
 72
     2
176
     1
 73
     2
176
     1
 90
        0
176
     1
 40
-0.6
176
     1
 41
-30.0
176
     1
 62
     5
 63
     7
421
 16777215
176
     1
 74
     2
176
     1
 91
        2
176
     1
 64
     7
176
     1
 65
   257
176
     1
 75
     2
176
     1
175
     1
176
     1
 42
40.0
176
     1
 92
        0
176
     1
 66
   257
176
     1
 43
1.0
176
     1
 76
     1
176
     1
 77
     6
176
     1
 78
     2
176
     1
 67
     7
176
     1
 79
     3
176
     1
170
     0
176
     1
171
     0
176
     1
290
     0
176
     1
 93
        1
176
     1
 44
0.0
176
     1
173
     0
176
     1
  0
VISUALSTYLE
  5
30
102
{ACAD_REACTORS
330
2A
102
}
330
2A
100
AcDbVisualStyle
  2
3dWireframe
 70
     5
177
     2
291
     0
 71
     0
176
     1
 72
     2
176
     1
 73
     0
176
     1
 90
        0
176
     1
 40
-0.6
176
     1
 41
-30.0
176
     1
 62
     5
 63
     7
421
 16777215
176
     1
 74
     1
176
     1
 91
        4
176
     1
 64
     7
176
     1
 65
   257
176
     1
 75
     1
176
     1
175
     1
176
     1
 42
1.0
176
     1
 92
        0
176
     1
 66
   257
176
     1
 43
1.0
176
     1
 76
     1
176
     1
 77
     6
176
     1
 78
     2
176
     1
 67
     7
176
     1
 79
     5
176
     1
170
     0
176
     1
171
     0
176
     1
290
     0
176
     1
 93
        1
176
     1
 44
0.0
176
     1
173
     0
176
     1
  0
VISUALSTYLE
  5
32
102
{ACAD_REACTORS
330
2A
102
}
330
2A
100
AcDbVisualStyle
  2
Basic
 70
     7
177
     2
291
     1
 71
     1
176
     1
 72
     0
176
     1
 73
     1
176
     1
 90
        0
176
     1
 40
-0.6
176
     1
 41
-30.0
176
     1
 62
     5
 63
     7
421
 16777215
176
     1
 74
     0
176
     1
 91
        4
176
     1
 64
     7
176
     1
 65
   257
176
     1
 75
     1
176
     1
175
     1
176
     1
 42
1.0
176
     1
 92
        8
176
     1
 66
     7
176
     1
 43
1.0
176
     1
 76
     1
176
     1
 77
     6
176
     1
 78
     2
176
     1
 67
     7
176
     1
 79
     5
176
     1
170
     0
176
     1
171
     0
176
     1
290
     0
176
     1
 93
        1
176
     1
 44
0.0
176
     1
173
     0
176
     1
  0
VISUALSTYLE
  5
36
102
{ACAD_REACTORS
330
2A
102
}
330
2A
100
AcDbVisualStyle
  2
Brighten
 70
    12
177
     2
291
     1
 71
     2
176
     1
 72
     2
176
     1
 73
     0
176
     1
 90
        0
176
     1
 40
-0.6
176
     1
 41
-30.0
176
     1
 62
     5
 63
     7
421
 16777215
176
     1
 74
     1
176
     1
 91
        4
176
     1
 64
     7
176
     1
 65
   257
176
     1
 75
     1
176
     1
175
     1
176
     1
 42
1.0
176
     1
 92
        8
176
     1
 66
     7
176
     1
 43
1.0
176
     1
 76
     1
176
     1
 77
     6
176
     1
 78
     2
176
     1
 67
     7
176
     1
 79
     5
176
     1
170
     0
176
     1
171
     0
176
     1
290
     0
176
     1
 93
        1
176
     1
 44
50.0
176
     1
173
     0
176
     1
  0
VISUALSTYLE
  5
3A
102
{ACAD_REACTORS
330
2A
102
}
330
2A
100
AcDbVisualStyle
  2
ColorChange
 70
    16
177
     2
291
     1
 71
     2
176
     1
 72
     2
176
     1
 73
     3
176
     1
 90
        0
176
     1
 40
-0.6
176
     1
 41
-30.0
176
     1
 62
     5
 63
     8
421
  8421504
176
     1
 74
     1
176
     1
 91
        4
176
     1
 64
     7
176
     1
 65
   257
176
     1
 75
     1
176
     1
175
     1
176
     1
 42
1.0
176
     1
 92
        8
176
     1
 66
     8
424
  8421504
176
     1
 43
1.0
176
     1
 76
     1
176
     1
 77
     6
176
     1
 78
     2
176
     1
 67
     7
176
     1
 79
     5
176
     1
170
     0
176
     1
171
     0
176
     1
290
     0
176
     1
 93
        1
176
     1
 44
0.0
176
     1
173
     0
176
     1
  0
VISUALSTYLE
  5
34
102
{ACAD_REACTORS
330
2A
102
}
330
2A
100
AcDbVisualStyle
  2
Conceptual
 70
     9
177
     2
291
     0
 71
     3
176
     1
 72
     2
176
     1
 73
     0
176
     1
 90
        0
176
     1
 40
-0.6
176
     1
 41
-30.0
176
     1
 62
     5
 63
     7
421
 16777215
176
     1
 74
     2
176
     1
 91
        2
176
     1
 64
     7
176
     1
 65
   257
176
     1
 75
     1
176
     1
175
     1
176
     1
 42
40.0
176
     1
 92
        8
176
     1
 66
     7
176
     1
 43
1.0
176
     1
 76
     1
176
     1
 77
     6
176
     1
 78
     2
176
     1
 67
     7
176
     1
 79
     3
176
     1
170
     0
176
     1
171
     0
176
     1
290
     0
176
     1
 93
        1
176
     1
 44
0.0
176
     1
173
     0
176
     1
  0
VISUALSTYLE
  5
35
102
{ACAD_REACTORS
330
2A
102
}
330
2A
100
AcDbVisualStyle
  2
Dim
 70
    11
177
     2
291
     1
 71
     2
176
     1
 72
     2
176
     1
 73
     0
176
     1
 90
        0
176
     1
 40
-0.6
176
     1
 41
-30.0
176
     1
 62
     5
 63
     7
421
 16777215
176
     1
 74
     1
176
     1
 91
        4
176
     1
 64
     7
176
     1
 65
   257
176
     1
 75
     1
176
     1
175
     1
176
     1
 42
1.0
176
     1
 92
        8
176
     1
 66
     7
176
     1
 43
1.0
176
     1
 76
     1
176
     1
 77
     6
176
     1
 78
     2
176
     1
 67
     7
176
     1
 79
     5
176
     1
170
     0
176
     1
171
     0
176
     1
290
     0
176
     1
 93
        1
176
     1
 44
-50.0
176
     1
173
     0
176
     1
  0
VISUALSTYLE
  5
39
102
{ACAD_REACTORS
330
2A
102
}
330
2A
100
AcDbVisualStyle
  2
Facepattern
 70
    15
177
     2
291
     1
 71
     2
176
     1
 72
     2
176
     1
 73
     0
176
     1
 90
        0
176
     1
 40
-0.6
176
     1
 41
-30.0
176
     1
 62
     5
 63
     7
421
 16777215
176
     1
 74
     1
176
     1
 91
        4
176
     1
 64
     7
176
     1
 65
   257
176
     1
 75
     1
176
     1
175
     1
176
     1
 42
1.0
176
     1
 92
        8
176
     1
 66
     7
176
     1
 43
1.0
176
     1
 76
     1
176
     1
 77
     6
176
     1
 78
     2
176
     1
 67
     7
176
     1
 79
     5
176
     1
170
     0
176
     1
171
     0
176
     1
290
     0
176
     1
 93
        1
176
     1
 44
0.0
176
     1
173
     0
176
     1
  0
VISUALSTYLE
  5
2B
102
{ACAD_REACTORS
330
2A
102
}
330
2A
100
AcDbVisualStyle
  2
Flat
 70
     0
177
     2
291
     1
 71
     2
176
     1
 72
     1
176
     1
 73
     1
176
     1
 90
        2
176
     1
 40
-0.6
176
     1
 41
30.0
176
     1
 62
     5
 63
     7
421
 16777215
176
     1
 74
     0
176
     1
 91
        4
176
     1
 64
     7
176
     1
 65
   257
176
     1
 75
     1
176
     1
175
     1
176
     1
 42
1.0
176
     1
 92
        8
176
     1
 66
     7
176
     1
 43
1.0
176
     1
 76
     1
176
     1
 77
     6
176
     1
 78
     2
176
     1
 67
     7
176
     1
 79
     5
176
     1
170
     0
176
     1
171
     0
176
     1
290
     0
176
     1
 93
       13
176
     1
 44
0.0
176
     1
173
     0
176
     1
  0
VISUALSTYLE
  5
2C
102
{ACAD_REACTORS
330
2A
102
}
330
2A
100
AcDbVisualStyle
  2
FlatWithEdges
 70
     1
177
     2
291
     1
 71
     2
176
     1
 72
     1
176
     1
 73
     1
176
     1
 90
        2
176
     1
 40
-0.6
176
     1
 41
30.0
176
     1
 62
     5
 63
     7
421
 16777215
176
     1
 74
     1
176
     1
 91
        4
176
     1
 64
     7
176
     1
 65
   257
176
     1
 75
     1
176
     1
175
     1
176
     1
 42
1.0
176
     1
 92
        0
176
     1
 66
   257
176
     1
 43
1.0
176
     1
 76
     1
176
     1
 77
     6
176
     1
 78
     2
176
     1
 67
     7
176
     1
 79
     5
176
     1
170
     0
176
     1
171
     0
176
     1
290
     0
176
     1
 93
       13
176
     1
 44
0.0
176
     1
173
     0
176
     1
  0
VISUALSTYLE
  5
2D
102
{ACAD_REACTORS
330
2A
102
}
330
2A
100
AcDbVisualStyle
  2
Gouraud
 70
     2
177
     2
291
     1
 71
     2
176
     1
 72
     2
176
     1
 73
     1
176
     1
 90
        2
176
     1
 40
-0.6
176
     1
 41
30.0
176
     1
 62
     5
 63
     7
421
 16777215
176
     1
 74
     0
176
     1
 91
        4
176
     1
 64
     7
176
     1
 65
   257
176
     1
 75
     1
176
     1
175
     1
176
     1
 42
1.0
176
     1
 92
        0
176
     1
 66
     7
176
     1
 43
1.0
176
     1
 76
     1
176
     1
 77
     6
176
     1
 78
     2
176
     1
 67
     7
176
     1
 79
     5
176
     1
170
     0
176
     1
171
     0
176
     1
290
     0
176
     1
 93
       13
176
     1
 44
0.0
176
     1
173
     0
176
     1
  0
VISUALSTYLE
  5
2E
102
{ACAD_REACTORS
330
2A
102
}
330
2A
100
AcDbVisualStyle
  2
GouraudWithEdges
 70
     3
177
     2
291
     1
 71
     2
176
     1
 72
     2
176
     1
 73
     1
176
     1
 90
        2
176
     1
 40
-0.6
176
     1
 41
30.0
176
     1
 62
     5
 63
     7
421
 16777215
176
     1
 74
     1
176
     1
 91
        4
176
     1
 64
     7
176
     1
 65
   257
176
     1
 75
     1
176
     1
175
     1
176
     1
 42
1.0
176
     1
 92
        0
176
     1
 66
   257
176
     1
 43
1.0
176
     1
 76
     1
176
     1
 77
     6
176
     1
 78
     2
176
     1
 67
     7
176
     1
 79
     5
176
     1
170
     0
176
     1
171
     0
176
     1
290
     0
176
     1
 93
       13
176
     1
 44
0.0
176
     1
173
     0
176
     1
  0
VISUALSTYLE
  5
38
102
{ACAD_REACTORS
330
2A
102
}
330
2A
100
AcDbVisualStyle
  2
Linepattern
 70
    14
177
     2
291
     1
 71
     2
176
     1
 72
     2
176
     1
 73
     0
176
     1
 90
        0
176
     1
 40
-0.6
176
     1
 41
-30.0
176
     1
 62
     5
 63
     7
421
 16777215
176
     1
 74
     1
176
     1
 91
        4
176
     1
 64
     7
176
     1
 65
   257
176
     1
 75
     7
176
     1
175
     7
176
     1
 42
1.0
176
     1
 92
        8
176
     1
 66
     7
176
     1
 43
1.0
176
     1
 76
     1
176
     1
 77
     6
176
     1
 78
     2
176
     1
 67
     7
176
     1
 79
     5
176
     1
170
     0
176
     1
171
     0
176
     1
290
     0
176
     1
 93
        1
176
     1
 44
0.0
176
     1
173
     0
176
     1
  0
VISUALSTYLE
  5
33
102
{ACAD_REACTORS
330
2A
102
}
330
2A
100
AcDbVisualStyle
  2
Realistic
 70
     8
177
     2
291
     0
 71
     2
176
     1
 72
     2
176
     1
 73
     0
176
     1
 90
        0
176
     1
 40
-0.6
176
     1
 41
-30.0
176
     1
 62
     5
 63
     7
421
 16777215
176
     1
 74
     1
176
     1
 91
        0
176
     1
 64
     7
176
     1
 65
   257
176
     1
 75
     1
176
     1
175
     1
176
     1
 42
1.0
176
     1
 92
        8
176
     1
 66
     8
424
  7895160
176
     1
 43
1.0
176
     1
 76
     1
176
     1
 77
     6
176
     1
 78
     2
176
     1
 67
     7
176
     1
 79
     5
176
     1
170
     0
176
     1
171
     0
176
     1
290
     0
176
     1
 93
       13
176
     1
 44
0.0
176
     1
173
     0
176
     1
  0
VISUALSTYLE
  5
37
102
{ACAD_REACTORS
330
2A
102
}
330
2A
100
AcDbVisualStyle
  2
Thicken
 70
    13
177
     2
291
     1
 71
     2
176
     1
 72
     2
176
     1
 73
     0
176
     1
 90
        0
176
     1
 40
-0.6
176
     1
 41
-30.0
176
     1
 62
     5
 63
     7
421
 16777215
176
     1
 74
     1
176
     1
 91
        4
176
     1
 64
     7
176
     1
 65
   257
176
     1
 75
     1
176
     1
175
     1
176
     1
 42
1.0
176
     1
 92
       12
176
     1
 66
     7
176
     1
 43
1.0
176
     1
 76
     1
176
     1
 77
     6
176
     1
 78
     2
176
     1
 67
     7
176
     1
 79
     5
176
     1
170
     0
176
     1
171
     0
176
     1
290
     0
176
     1
 93
        1
176
     1
 44
0.0
176
     1
173
     0
176
     1
  0
ENDSEC
  0
EOF
