  0
SECTION
  2
HEADER
  9
$ACADVER
  1
AC1024
  9
$ACADMAINTVER
 70
     6
  9
$DWGCODEPAGE
  3
UNDEFINED
  9
$INSBASE
 10
0.0
 20
0.0
 30
0.0
  9
$EXTMIN
 10
1.000000000000000E+20
 20
1.000000000000000E+20
 30
1.000000000000000E+20
  9
$EXTMAX
 10
-1.000000000000000E+20
 20
-1.000000000000000E+20
 30
-1.000000000000000E+20
  9
$LIMMIN
 10
0.0
 20
0.0
  9
$LIMMAX
 10
12.0
 20
9.0
  9
$ORTHOMODE
 70
     0
  9
$REGENMODE
 70
     1
  9
$FILLMODE
 70
     1
  9
$QTEXTMODE
 70
     0
  9
$MIRRTEXT
 70
     1
  9
$LTSCALE
 40
1.0
  9
$ATTMODE
 70
     1
  9
$TEXTSIZE
 40
0.2
  9
$TRACEWID
 40
0.05
  9
$TEXTSTYLE
  7
Standard
  9
$CLAYER
  8
0
  9
$CELTYPE
  6
ByLayer
  9
$CECOLOR
 62
   256
  9
$CELTSCALE
 40
1.0
  9
$DISPSILH
 70
     0
  9
$DIMSCALE
 40
1.0
  9
$DIMASZ
 40
0.18
  9
$DIMEXO
 40
0.0625
  9
$DIMDLI
 40
0.38
  9
$DIMRND
 40
0.0
  9
$DIMDLE
 40
0.0
  9
$DIMEXE
 40
0.18
  9
$DIMTP
 40
0.0
  9
$DIMTM
 40
0.0
  9
$DIMTXT
 40
0.18
  9
$DIMCEN
 40
0.09
  9
$DIMTSZ
 40
0.0
  9
$DIMTOL
 70
     0
  9
$DIMLIM
 70
     0
  9
$DIMTIH
 70
     1
  9
$DIMTOH
 70
     1
  9
$DIMSE1
 70
     0
  9
$DIMSE2
 70
     0
  9
$DIMTAD
 70
     0
  9
$DIMZIN
 70
     0
  9
$DIMBLK
  1

  9
$DIMASO
 70
     1
  9
$DIMSHO
 70
     1
  9
$DIMPOST
  1

  9
$DIMAPOST
  1

  9
$DIMALT
 70
     0
  9
$DIMALTD
 70
     2
  9
$DIMALTF
 40
25.4
  9
$DIMLFAC
 40
1.0
  9
$DIMTOFL
 70
     0
  9
$DIMTVP
 40
0.0
  9
$DIMTIX
 70
     0
  9
$DIMSOXD
 70
     0
  9
$DIMSAH
 70
     0
  9
$DIMBLK1
  1

  9
$DIMBLK2
  1

  9
$DIMSTYLE
  2
Standard
  9
$DIMCLRD
 70
     0
  9
$DIMCLRE
 70
     0
  9
$DIMCLRT
 70
     0
  9
$DIMTFAC
 40
1.0
  9
$DIMGAP
 40
0.09
  9
$DIMJUST
 70
     0
  9
$DIMSD1
 70
     0
  9
$DIMSD2
 70
     0
  9
$DIMTOLJ
 70
     1
  9
$DIMTZIN
 70
     0
  9
$DIMALTZ
 70
     0
  9
$DIMALTTZ
 70
     0
  9
$DIMUPT
 70
     0
  9
$DIMDEC
 70
     4
  9
$DIMTDEC
 70
     4
  9
$DIMALTU
 70
     2
  9
$DIMALTTD
 70
     2
  9
$DIMTXSTY
  7
Standard
  9
$DIMAUNIT
 70
     0
  9
$DIMADEC
 70
     0
  9
$DIMALTRND
 40
0.0
  9
$DIMAZIN
 70
     0
  9
$DIMDSEP
 70
    46
  9
$DIMATFIT
 70
     3
  9
$DIMFRAC
 70
     0
  9
$DIMLDRBLK
  1

  9
$DIMLUNIT
 70
     2
  9
$DIMLWD
 70
    -2
  9
$DIMLWE
 70
    -2
  9
$DIMTMOVE
 70
     0
  9
$DIMFXL
 40
1.0
  9
$DIMFXLON
 70
     0
  9
$DIMJOGANG
 40
0.7853981633974483
  9
$DIMTFILL
 70
     0
  9
$DIMTFILLCLR
 70
     0
  9
$DIMARCSYM
 70
     0
  9
$DIMLTYPE
  6

  9
$DIMLTEX1
  6

  9
$DIMLTEX2
  6

  9
$DIMTXTDIRECTION
 70
     0
  9
$LUNITS
 70
     2
  9
$LUPREC
 70
     4
  9
$SKETCHINC
 40
0.1
  9
$FILLETRAD
 40
0.5
  9
$AUNITS
 70
     0
  9
$AUPREC
 70
     0
  9
$MENU
  1
.
  9
$ELEVATION
 40
0.0
  9
$PELEVATION
 40
0.0
  9
$THICKNESS
 40
0.0
  9
$LIMCHECK
 70
     0
  9
$CHAMFERA
 40
0.5
  9
$CHAMFERB
 40
0.5
  9
$CHAMFERC
 40
1.0
  9
$CHAMFERD
 40
0.0
  9
$SKPOLY
 70
     0
  9
$TDCREATE
 40
2457917.613553241
  9
$TDUCREATE
 40
2457917.238553241
  9
$TDUPDATE
 40
2457917.613553241
  9
$TDUUPDATE
 40
2457917.238553241
  9
$TDINDWG
 40
0.0000000116
  9
$TDUSRTIMER
 40
0.0000000116
  9
$USRTIMER
 70
     1
  9
$ANGBASE
 50
0.0
  9
$ANGDIR
 70
     0
  9
$PDMODE
 70
     0
  9
$PDSIZE
 40
0.0
  9
$PLINEWID
 40
0.0
  9
$SPLFRAME
 70
     0
  9
$SPLINETYPE
 70
     6
  9
$SPLINESEGS
 70
     8
  9
$HANDSEED
  5
11A
  9
$SURFTAB1
 70
     6
  9
$SURFTAB2
 70
     6
  9
$SURFTYPE
 70
     6
  9
$SURFU
 70
     6
  9
$SURFV
 70
     6
  9
$UCSBASE
  2

  9
$UCSNAME
  2

  9
$UCSORG
 10
0.0
 20
0.0
 30
0.0
  9
$UCSXDIR
 10
1.0
 20
0.0
 30
0.0
  9
$UCSYDIR
 10
0.0
 20
1.0
 30
0.0
  9
$UCSORTHOREF
  2

  9
$UCSORTHOVIEW
 70
     0
  9
$UCSORGTOP
 10
0.0
 20
0.0
 30
0.0
  9
$UCSORGBOTTOM
 10
0.0
 20
0.0
 30
0.0
  9
$UCSORGLEFT
 10
0.0
 20
0.0
 30
0.0
  9
$UCSORGRIGHT
 10
0.0
 20
0.0
 30
0.0
  9
$UCSORGFRONT
 10
0.0
 20
0.0
 30
0.0
  9
$UCSORGBACK
 10
0.0
 20
0.0
 30
0.0
  9
$PUCSBASE
  2

  9
$PUCSNAME
  2

  9
$PUCSORG
 10
0.0
 20
0.0
 30
0.0
  9
$PUCSXDIR
 10
1.0
 20
0.0
 30
0.0
  9
$PUCSYDIR
 10
0.0
 20
1.0
 30
0.0
  9
$PUCSORTHOREF
  2

  9
$PUCSORTHOVIEW
 70
     0
  9
$PUCSORGTOP
 10
0.0
 20
0.0
 30
0.0
  9
$PUCSORGBOTTOM
 10
0.0
 20
0.0
 30
0.0
  9
$PUCSORGLEFT
 10
0.0
 20
0.0
 30
0.0
  9
$PUCSORGRIGHT
 10
0.0
 20
0.0
 30
0.0
  9
$PUCSORGFRONT
 10
0.0
 20
0.0
 30
0.0
  9
$PUCSORGBACK
 10
0.0
 20
0.0
 30
0.0
  9
$USERI1
 70
     0
  9
$USERI2
 70
     0
  9
$USERI3
 70
     0
  9
$USERI4
 70
     0
  9
$USERI5
 70
     0
  9
$USERR1
 40
0.0
  9
$USERR2
 40
0.0
  9
$USERR3
 40
0.0
  9
$USERR4
 40
0.0
  9
$USERR5
 40
0.0
  9
$WORLDVIEW
 70
     1
  9
$SHADEDGE
 70
     3
  9
$SHADEDIF
 70
    70
  9
$TILEMODE
 70
     1
  9
$MAXACTVP
 70
    64
  9
$PINSBASE
 10
0.0
 20
0.0
 30
0.0
  9
$PLIMCHECK
 70
     0
  9
$PEXTMIN
 10
1.000000000000000E+20
 20
1.000000000000000E+20
 30
1.000000000000000E+20
  9
$PEXTMAX
 10
-1.000000000000000E+20
 20
-1.000000000000000E+20
 30
-1.000000000000000E+20
  9
$PLIMMIN
 10
0.0
 20
0.0
  9
$PLIMMAX
 10
12.0
 20
9.0
  9
$UNITMODE
 70
     0
  9
$VISRETAIN
 70
     1
  9
$PLINEGEN
 70
     0
  9
$PSLTSCALE
 70
     1
  9
$TREEDEPTH
 70
  3020
  9
$CMLSTYLE
  2
Standard
  9
$CMLJUST
 70
     0
  9
$CMLSCALE
 40
1.0
  9
$PROXYGRAPHICS
 70
     1
  9
$MEASUREMENT
 70
     0
  9
$CELWEIGHT
370
    -1
  9
$ENDCAPS
280
     0
  9
$JOINSTYLE
280
     0
  9
$LWDISPLAY
290
     1
  9
$INSUNITS
 70
     1
  9
$HYPERLINKBASE
  1

  9
$STYLESHEET
  1

  9
$XEDIT
290
     1
  9
$CEPSNTYPE
380
     0
  9
$PSTYLEMODE
290
     1
  9
$FINGERPRINTGUID
  2
{879FFA79-4943-7258-308C-DC6BE42ADAC4}
  9
$VERSIONGUID
  2
{FAEB1C32-E019-11D5-929B-00C0DF256EC4}
  9
$EXTNAMES
290
     1
  9
$PSVPSCALE
 40
0.0
  9
$OLESTARTUP
290
     0
  9
$SORTENTS
280
   127
  9
$INDEXCTL
280
     0
  9
$HIDETEXT
280
     1
  9
$XCLIPFRAME
280
     2
  9
$HALOGAP
280
     0
  9
$OBSCOLOR
 70
   257
  9
$OBSLTYPE
280
     0
  9
$INTERSECTIONDISPLAY
280
     0
  9
$INTERSECTIONCOLOR
 70
   257
  9
$DIMASSOC
280
     2
  9
$PROJECTNAME
  1

  9
$CAMERADISPLAY
290
     0
  9
$LENSLENGTH
 40
50.0
  9
$CAMERAHEIGHT
 40
0.0
  9
$STEPSPERSEC
 40
2.0
  9
$STEPSIZE
 40
6.0
  9
$3DDWFPREC
 40
2.0
  9
$PSOLWIDTH
 40
0.25
  9
$PSOLHEIGHT
 40
4.0
  9
$LOFTANG1
 40
1.570796326794897
  9
$LOFTANG2
 40
1.570796326794897
  9
$LOFTMAG1
 40
0.0
  9
$LOFTMAG2
 40
0.0
  9
$LOFTPARAM
 70
     7
  9
$LOFTNORMALS
280
     1
  9
$LATITUDE
 40
37.795
  9
$LONGITUDE
 40
-122.394
  9
$NORTHDIRECTION
 40
0.0
  9
$TIMEZONE
 70
 -8000
  9
$LIGHTGLYPHDISPLAY
280
     1
  9
$TILEMODELIGHTSYNCH
280
     1
  9
$CMATERIAL
347
3C
  9
$SOLIDHIST
280
     1
  9
$SHOWHIST
280
     1
  9
$DWFFRAME
280
     2
  9
$DGNFRAME
280
     2
  9
$REALWORLDSCALE
290
     1
  9
$INTERFERECOLOR
 62
   256
  9
$CSHADOW
280
     0
  9
$SHADOWPLANELOCATION
 40
0.0
  0
ENDSEC
  0
SECTION
  2
CLASSES
  0
CLASS
  1
ACDBDICTIONARYWDFLT
  2
AcDbDictionaryWithDefault
  3
ObjectDBX Classes
 90
        0
 91
        4
280
     0
281
     0
  0
CLASS
  1
VISUALSTYLE
  2
AcDbVisualStyle
  3
ObjectDBX Classes
 90
     4095
 91
        4
280
     0
281
     0
  0
CLASS
  1
MATERIAL
  2
AcDbMaterial
  3
ObjectDBX Classes
 90
     1153
 91
        4
280
     0
281
     0
  0
CLASS
  1
SUN
  2
AcDbSun
  3
SCENEOE
 90
     1024
 91
        4
280
     0
281
     0
  0
ENDSEC
  0
SECTION
  2
TABLES
  0
TABLE
  2
VPORT
  5
8
330
0
100
AcDbSymbolTable
 70
     1
  0
VPORT
  5
29
330
8
100
AcDbSymbolTableRecord
100
AcDbViewportTableRecord
  2
*Active
 70
     0
 10
0.0
 20
0.0
 11
1.0
 21
1.0
 12
0.0
 22
0.0
 13
0.0
 23
0.0
 14
0.5
 24
0.5
 15
0.5
 25
0.5
 16
0.0
 26
0.0
 36
1.0
 17
91.00082462281999
 27
-128.4993055234307
 37
0.0
 40
256.9986110468615
 41
0.7081814508812795
 42
50.0
 43
0.0
 44
0.0
 50
0.0
 51
0.0
 71
     0
 72
   100
 73
     1
 74
     3
 75
     0
 76
     0
 77
     0
 78
     0
281
     0
 65
     1
110
0.0
120
0.0
130
0.0
111
1.0
121
0.0
131
0.0
112
0.0
122
1.0
132
0.0
 79
     0
146
0.0
 60
     3
 61
     5
292
     1
282
     1
141
0.0
142
0.0
 63
   250
361
3F
  0
ENDTAB
  0
TABLE
  2
LTYPE
  5
5
330
0
100
AcDbSymbolTable
 70
     1
  0
LTYPE
  5
14
330
5
100
AcDbSymbolTableRecord
100
AcDbLinetypeTableRecord
  2
ByBlock
 70
     0
  3

 72
    65
 73
     0
 40
0.0
  0
LTYPE
  5
15
330
5
100
AcDbSymbolTableRecord
100
AcDbLinetypeTableRecord
  2
ByLayer
 70
     0
  3

 72
    65
 73
     0
 40
0.0
  0
LTYPE
  5
16
330
5
100
AcDbSymbolTableRecord
100
AcDbLinetypeTableRecord
  2
Continuous
 70
     0
  3
Solid line
 72
    65
 73
     0
 40
0.0
  0
ENDTAB
  0
TABLE
  2
LAYER
  5
2
330
0
100
AcDbSymbolTable
 70
     2
  0
LAYER
  5
10
330
2
100
AcDbSymbolTableRecord
100
AcDbLayerTableRecord
  2
0
 70
     0
 62
     7
  6
Continuous
370
    -3
390
F
347
3E
  0
LAYER
  5
40
330
2
100
AcDbSymbolTableRecord
100
AcDbLayerTableRecord
  2
_U+30EC_U+30A4_U+30E4_U+30FC 1
 70
     0
 62
     7
  6
Continuous
370
    -3
390
F
347
3E
  0
ENDTAB
  0
TABLE
  2
STYLE
  5
3
330
0
100
AcDbSymbolTable
 70
     1
  0
STYLE
  5
11
330
3
100
AcDbSymbolTableRecord
100
AcDbTextStyleTableRecord
  2
Standard
 70
     0
 40
0.0
 41
1.0
 50
0.0
 71
     0
 42
0.2
  3
txt
  4

  0
ENDTAB
  0
TABLE
  2
VIEW
  5
6
330
0
100
AcDbSymbolTable
 70
     0
  0
ENDTAB
  0
TABLE
  2
UCS
  5
7
330
0
100
AcDbSymbolTable
 70
     0
  0
ENDTAB
  0
TABLE
  2
APPID
  5
9
330
0
100
AcDbSymbolTable
 70
     1
  0
APPID
  5
12
330
9
100
AcDbSymbolTableRecord
100
AcDbRegAppTableRecord
  2
ACAD
 70
     0
  0
ENDTAB
  0
TABLE
  2
DIMSTYLE
  5
A
330
0
100
AcDbSymbolTable
 70
     1
100
AcDbDimStyleTable
  0
DIMSTYLE
105
27
330
A
100
AcDbSymbolTableRecord
100
AcDbDimStyleTableRecord
  2
Standard
 70
     0
178
     0
340
11
  0
ENDTAB
  0
TABLE
  2
BLOCK_RECORD
  5
1
330
0
100
AcDbSymbolTable
 70
    10
  0
BLOCK_RECORD
  5
1F
330
1
100
AcDbSymbolTableRecord
100
AcDbBlockTableRecord
  2
*Model_Space
340
22
 70
     0
280
     1
281
     0
  0
BLOCK_RECORD
  5
1B
330
1
100
AcDbSymbolTableRecord
100
AcDbBlockTableRecord
  2
*Paper_Space
340
1E
 70
     0
280
     1
281
     0
  0
BLOCK_RECORD
  5
23
330
1
100
AcDbSymbolTableRecord
100
AcDbBlockTableRecord
  2
*Paper_Space0
340
26
 70
     0
280
     1
281
     0
  0
BLOCK_RECORD
  5
41
330
1
100
AcDbSymbolTableRecord
100
AcDbBlockTableRecord
  2
block 2
340
0
102
{BLKREFS
331
42
102
}
 70
     0
280
     1
281
     0
  0
BLOCK_RECORD
  5
D1
330
1
100
AcDbSymbolTableRecord
100
AcDbBlockTableRecord
  2
block 3
340
0
102
{BLKREFS
331
D2
102
}
 70
     0
280
     1
281
     0
  0
BLOCK_RECORD
  5
E1
330
1
100
AcDbSymbolTableRecord
100
AcDbBlockTableRecord
  2
block 4
340
0
102
{BLKREFS
331
E2
102
}
 70
     0
280
     1
281
     0
  0
BLOCK_RECORD
  5
EA
330
1
100
AcDbSymbolTableRecord
100
AcDbBlockTableRecord
  2
block 5
340
0
102
{BLKREFS
331
EB
102
}
 70
     0
280
     1
281
     0
  0
BLOCK_RECORD
  5
F3
330
1
100
AcDbSymbolTableRecord
100
AcDbBlockTableRecord
  2
block 6
340
0
102
{BLKREFS
331
F4
102
}
 70
     0
280
     1
281
     0
  0
BLOCK_RECORD
  5
F9
330
1
100
AcDbSymbolTableRecord
100
AcDbBlockTableRecord
  2
block 7
340
0
102
{BLKREFS
331
FA
102
}
 70
     0
280
     1
281
     0
  0
BLOCK_RECORD
  5
101
330
1
100
AcDbSymbolTableRecord
100
AcDbBlockTableRecord
  2
block 8
340
0
102
{BLKREFS
331
102
102
}
 70
     0
280
     1
281
     0
  0
BLOCK_RECORD
  5
107
330
1
100
AcDbSymbolTableRecord
100
AcDbBlockTableRecord
  2
block 9
340
0
102
{BLKREFS
331
108
102
}
 70
     0
280
     1
281
     0
  0
BLOCK_RECORD
  5
110
330
1
100
AcDbSymbolTableRecord
100
AcDbBlockTableRecord
  2
block 10
340
0
102
{BLKREFS
331
111
102
}
 70
     0
280
     1
281
     0
  0
ENDTAB
  0
ENDSEC
  0
SECTION
  2
BLOCKS
  0
BLOCK
  5
20
330
1F
100
AcDbEntity
  8
0
100
AcDbBlockBegin
  2
*Model_Space
 70
     0
 10
0.0
 20
0.0
 30
0.0
  3
*Model_Space
  1

  0
ENDBLK
  5
21
330
1F
100
AcDbEntity
  8
0
100
AcDbBlockEnd
  0
BLOCK
  5
1C
330
1B
100
AcDbEntity
 67
     1
  8
0
100
AcDbBlockBegin
  2
*Paper_Space
 70
     0
 10
0.0
 20
0.0
 30
0.0
  3
*Paper_Space
  1

  0
ENDBLK
  5
1D
330
1B
100
AcDbEntity
 67
     1
  8
0
100
AcDbBlockEnd
  0
BLOCK
  5
24
330
23
100
AcDbEntity
  8
0
100
AcDbBlockBegin
  2
*Paper_Space0
 70
     0
 10
0.0
 20
0.0
 30
0.0
  3
*Paper_Space0
  1

  0
ENDBLK
  5
25
330
23
100
AcDbEntity
  8
0
100
AcDbBlockEnd
  0
BLOCK
  5
43
330
41
100
AcDbEntity
  8
0
100
AcDbBlockBegin
  2
block 2
 70
     0
 10
0.0
 20
0.0
 30
0.0
  3
block 2
  1

  0
POLYLINE
  5
45
330
41
100
AcDbEntity
  8
_U+30EC_U+30A4_U+30E4_U+30FC 1
370
     0
100
AcDb2dPolyline
 66
     1
 10
0.0
 20
0.0
 30
0.0
  0
VERTEX
  5
46
330
45
100
AcDbEntity
  8
_U+30EC_U+30A4_U+30E4_U+30FC 1
370
     0
100
AcDbVertex
100
AcDb2dVertex
 10
92.89150179680702
 20
-147.5386163520041
 30
0.0
  0
VERTEX
  5
47
330
45
100
AcDbEntity
  8
_U+30EC_U+30A4_U+30E4_U+30FC 1
370
     0
100
AcDbVertex
100
AcDb2dVertex
 10
92.89150179680702
 20
-98.73883108642656
 30
0.0
  0
VERTEX
  5
48
330
45
100
AcDbEntity
  8
_U+30EC_U+30A4_U+30E4_U+30FC 1
370
     0
100
AcDbVertex
100
AcDb2dVertex
 10
94.09175759951928
 20
-98.73883108642656
 30
0.0
  0
VERTEX
  5
49
330
45
100
AcDbEntity
  8
_U+30EC_U+30A4_U+30E4_U+30FC 1
370
     0
100
AcDbVertex
100
AcDb2dVertex
 10
94.09175759951928
 20
-148.7385546850377
 30
0.0
  0
VERTEX
  5
4A
330
45
100
AcDbEntity
  8
_U+30EC_U+30A4_U+30E4_U+30FC 1
370
     0
100
AcDbVertex
100
AcDb2dVertex
 10
81.09168515340097
 20
-148.7385546850377
 30
0.0
  0
VERTEX
  5
4B
330
45
100
AcDbEntity
  8
_U+30EC_U+30A4_U+30E4_U+30FC 1
370
     0
100
AcDbVertex
100
AcDb2dVertex
 10
81.09150876451659
 20
-148.7385546850377
 30
0.0
  0
VERTEX
  5
4C
330
45
100
AcDbEntity
  8
_U+30EC_U+30A4_U+30E4_U+30FC 1
370
     0
100
AcDbVertex
100
AcDb2dVertex
 10
81.09150876451659
 20
-160.5386891265318
 30
0.0
  0
VERTEX
  5
4D
330
45
100
AcDbEntity
  8
_U+30EC_U+30A4_U+30E4_U+30FC 1
370
     0
100
AcDbVertex
100
AcDb2dVertex
 10
81.09168515340097
 20
-160.5386891265318
 30
0.0
  0
VERTEX
  5
4E
330
45
100
AcDbEntity
  8
_U+30EC_U+30A4_U+30E4_U+30FC 1
370
     0
100
AcDbVertex
100
AcDb2dVertex
 10
103.6915109657203
 20
-160.5386891265318
 30
0.0
  0
VERTEX
  5
4F
330
45
100
AcDbEntity
  8
_U+30EC_U+30A4_U+30E4_U+30FC 1
370
     0
100
AcDbVertex
100
AcDb2dVertex
 10
103.6915109657203
 20
-158.7382877380933
 30
0.0
  0
VERTEX
  5
50
330
45
100
AcDbEntity
  8
_U+30EC_U+30A4_U+30E4_U+30FC 1
370
     0
100
AcDbVertex
100
AcDb2dVertex
 10
104.8914492684406
 20
-158.7382877380933
 30
0.0
  0
VERTEX
  5
51
330
45
100
AcDbEntity
  8
_U+30EC_U+30A4_U+30E4_U+30FC 1
370
     0
100
AcDbVertex
100
AcDb2dVertex
 10
104.8914492684406
 20
-161.7386274595654
 30
0.0
  0
VERTEX
  5
52
330
45
100
AcDbEntity
  8
_U+30EC_U+30A4_U+30E4_U+30FC 1
370
     0
100
AcDbVertex
100
AcDb2dVertex
 10
79.89142935068872
 20
-161.7386274595654
 30
0.0
  0
VERTEX
  5
53
330
45
100
AcDbEntity
  8
_U+30EC_U+30A4_U+30E4_U+30FC 1
370
     0
100
AcDbVertex
100
AcDb2dVertex
 10
79.89142935068872
 20
-136.7389244102599
 30
0.0
  0
VERTEX
  5
54
330
45
100
AcDbEntity
  8
_U+30EC_U+30A4_U+30E4_U+30FC 1
370
     0
100
AcDbVertex
100
AcDb2dVertex
 10
82.89159260748151
 20
-136.7389244102599
 30
0.0
  0
VERTEX
  5
55
330
45
100
AcDbEntity
  8
_U+30EC_U+30A4_U+30E4_U+30FC 1
370
     0
100
AcDbVertex
100
AcDb2dVertex
 10
82.89159260748151
 20
-137.9388627432929
 30
0.0
  0
VERTEX
  5
56
330
45
100
AcDbEntity
  8
_U+30EC_U+30A4_U+30E4_U+30FC 1
370
     0
100
AcDbVertex
100
AcDb2dVertex
 10
81.09150876451659
 20
-137.9388627432929
 30
0.0
  0
VERTEX
  5
57
330
45
100
AcDbEntity
  8
_U+30EC_U+30A4_U+30E4_U+30FC 1
370
     0
100
AcDbVertex
100
AcDb2dVertex
 10
81.09150876451659
 20
-147.5386163520041
 30
0.0
  0
VERTEX
  5
58
330
45
100
AcDbEntity
  8
_U+30EC_U+30A4_U+30E4_U+30FC 1
370
     0
100
AcDbVertex
100
AcDb2dVertex
 10
92.89150179680702
 20
-147.5386163520041
 30
0.0
  0
SEQEND
  5
5A
330
45
100
AcDbEntity
  8
_U+30EC_U+30A4_U+30E4_U+30FC 1
370
     0
  0
HATCH
  5
59
330
41
100
AcDbEntity
  8
_U+30EC_U+30A4_U+30E4_U+30FC 1
 62
   253
420
 11711154
100
AcDbHatch
 10
0.0
 20
0.0
 30
0.0
210
0.0
220
0.0
230
1.0
  2
SOLID
 70
     1
 71
     0
 91
        1
 92
        1
 93
       18
 72
     1
 10
92.89150179680702
 20
-147.5386163520041
 11
92.89150179680702
 21
-98.73883108642656
 72
     1
 10
92.89150179680702
 20
-98.73883108642656
 11
94.09175759951928
 21
-98.73883108642656
 72
     1
 10
94.09175759951928
 20
-98.73883108642656
 11
94.09175759951928
 21
-148.7385546850377
 72
     1
 10
94.09175759951928
 20
-148.7385546850377
 11
81.09168515340097
 21
-148.7385546850377
 72
     1
 10
81.09168515340097
 20
-148.7385546850377
 11
81.09150876451659
 21
-148.7385546850377
 72
     1
 10
81.09150876451659
 20
-148.7385546850377
 11
81.09150876451659
 21
-160.5386891265318
 72
     1
 10
81.09150876451659
 20
-160.5386891265318
 11
81.09168515340097
 21
-160.5386891265318
 72
     1
 10
81.09168515340097
 20
-160.5386891265318
 11
103.6915109657203
 21
-160.5386891265318
 72
     1
 10
103.6915109657203
 20
-160.5386891265318
 11
103.6915109657203
 21
-158.7382877380933
 72
     1
 10
103.6915109657203
 20
-158.7382877380933
 11
104.8914492684406
 21
-158.7382877380933
 72
     1
 10
104.8914492684406
 20
-158.7382877380933
 11
104.8914492684406
 21
-161.7386274595654
 72
     1
 10
104.8914492684406
 20
-161.7386274595654
 11
79.89142935068872
 21
-161.7386274595654
 72
     1
 10
79.89142935068872
 20
-161.7386274595654
 11
79.89142935068872
 21
-136.7389244102599
 72
     1
 10
79.89142935068872
 20
-136.7389244102599
 11
82.89159260748151
 21
-136.7389244102599
 72
     1
 10
82.89159260748151
 20
-136.7389244102599
 11
82.89159260748151
 21
-137.9388627432929
 72
     1
 10
82.89159260748151
 20
-137.9388627432929
 11
81.09150876451659
 21
-137.9388627432929
 72
     1
 10
81.09150876451659
 20
-137.9388627432929
 11
81.09150876451659
 21
-147.5386163520041
 72
     1
 10
81.09150876451659
 20
-147.5386163520041
 11
92.89150179680702
 21
-147.5386163520041
 97
        0
 75
     2
 76
     1
 98
        0
  0
POLYLINE
  5
5B
330
41
100
AcDbEntity
  8
_U+30EC_U+30A4_U+30E4_U+30FC 1
 62
     7
420
 16777215
370
    25
100
AcDb2dPolyline
 66
     1
 10
0.0
 20
0.0
 30
0.0
  0
VERTEX
  5
5C
330
5B
100
AcDbEntity
  8
_U+30EC_U+30A4_U+30E4_U+30FC 1
 62
     7
420
 16777215
370
    25
100
AcDbVertex
100
AcDb2dVertex
 10
92.89150179680702
 20
-147.5386163520041
 30
0.0
  0
VERTEX
  5
5D
330
5B
100
AcDbEntity
  8
_U+30EC_U+30A4_U+30E4_U+30FC 1
 62
     7
420
 16777215
370
    25
100
AcDbVertex
100
AcDb2dVertex
 10
92.89150179680702
 20
-98.73883108642656
 30
0.0
  0
VERTEX
  5
5E
330
5B
100
AcDbEntity
  8
_U+30EC_U+30A4_U+30E4_U+30FC 1
 62
     7
420
 16777215
370
    25
100
AcDbVertex
100
AcDb2dVertex
 10
94.09175759951928
 20
-98.73883108642656
 30
0.0
  0
VERTEX
  5
5F
330
5B
100
AcDbEntity
  8
_U+30EC_U+30A4_U+30E4_U+30FC 1
 62
     7
420
 16777215
370
    25
100
AcDbVertex
100
AcDb2dVertex
 10
94.09175759951928
 20
-148.7385546850377
 30
0.0
  0
VERTEX
  5
60
330
5B
100
AcDbEntity
  8
_U+30EC_U+30A4_U+30E4_U+30FC 1
 62
     7
420
 16777215
370
    25
100
AcDbVertex
100
AcDb2dVertex
 10
81.09168515340097
 20
-148.7385546850377
 30
0.0
  0
VERTEX
  5
61
330
5B
100
AcDbEntity
  8
_U+30EC_U+30A4_U+30E4_U+30FC 1
 62
     7
420
 16777215
370
    25
100
AcDbVertex
100
AcDb2dVertex
 10
81.09150876451659
 20
-148.7385546850377
 30
0.0
  0
VERTEX
  5
62
330
5B
100
AcDbEntity
  8
_U+30EC_U+30A4_U+30E4_U+30FC 1
 62
     7
420
 16777215
370
    25
100
AcDbVertex
100
AcDb2dVertex
 10
81.09150876451659
 20
-160.5386891265318
 30
0.0
  0
VERTEX
  5
63
330
5B
100
AcDbEntity
  8
_U+30EC_U+30A4_U+30E4_U+30FC 1
 62
     7
420
 16777215
370
    25
100
AcDbVertex
100
AcDb2dVertex
 10
81.09168515340097
 20
-160.5386891265318
 30
0.0
  0
VERTEX
  5
64
330
5B
100
AcDbEntity
  8
_U+30EC_U+30A4_U+30E4_U+30FC 1
 62
     7
420
 16777215
370
    25
100
AcDbVertex
100
AcDb2dVertex
 10
103.6915109657203
 20
-160.5386891265318
 30
0.0
  0
VERTEX
  5
65
330
5B
100
AcDbEntity
  8
_U+30EC_U+30A4_U+30E4_U+30FC 1
 62
     7
420
 16777215
370
    25
100
AcDbVertex
100
AcDb2dVertex
 10
103.6915109657203
 20
-158.7382877380933
 30
0.0
  0
VERTEX
  5
66
330
5B
100
AcDbEntity
  8
_U+30EC_U+30A4_U+30E4_U+30FC 1
 62
     7
420
 16777215
370
    25
100
AcDbVertex
100
AcDb2dVertex
 10
104.8914492684406
 20
-158.7382877380933
 30
0.0
  0
VERTEX
  5
67
330
5B
100
AcDbEntity
  8
_U+30EC_U+30A4_U+30E4_U+30FC 1
 62
     7
420
 16777215
370
    25
100
AcDbVertex
100
AcDb2dVertex
 10
104.8914492684406
 20
-161.7386274595654
 30
0.0
  0
VERTEX
  5
68
330
5B
100
AcDbEntity
  8
_U+30EC_U+30A4_U+30E4_U+30FC 1
 62
     7
420
 16777215
370
    25
100
AcDbVertex
100
AcDb2dVertex
 10
79.89142935068872
 20
-161.7386274595654
 30
0.0
  0
VERTEX
  5
69
330
5B
100
AcDbEntity
  8
_U+30EC_U+30A4_U+30E4_U+30FC 1
 62
     7
420
 16777215
370
    25
100
AcDbVertex
100
AcDb2dVertex
 10
79.89142935068872
 20
-136.7389244102599
 30
0.0
  0
VERTEX
  5
6A
330
5B
100
AcDbEntity
  8
_U+30EC_U+30A4_U+30E4_U+30FC 1
 62
     7
420
 16777215
370
    25
100
AcDbVertex
100
AcDb2dVertex
 10
82.89159260748151
 20
-136.7389244102599
 30
0.0
  0
VERTEX
  5
6B
330
5B
100
AcDbEntity
  8
_U+30EC_U+30A4_U+30E4_U+30FC 1
 62
     7
420
 16777215
370
    25
100
AcDbVertex
100
AcDb2dVertex
 10
82.89159260748151
 20
-137.9388627432929
 30
0.0
  0
VERTEX
  5
6C
330
5B
100
AcDbEntity
  8
_U+30EC_U+30A4_U+30E4_U+30FC 1
 62
     7
420
 16777215
370
    25
100
AcDbVertex
100
AcDb2dVertex
 10
81.09150876451659
 20
-137.9388627432929
 30
0.0
  0
VERTEX
  5
6D
330
5B
100
AcDbEntity
  8
_U+30EC_U+30A4_U+30E4_U+30FC 1
 62
     7
420
 16777215
370
    25
100
AcDbVertex
100
AcDb2dVertex
 10
81.09150876451659
 20
-147.5386163520041
 30
0.0
  0
VERTEX
  5
6E
330
5B
100
AcDbEntity
  8
_U+30EC_U+30A4_U+30E4_U+30FC 1
 62
     7
420
 16777215
370
    25
100
AcDbVertex
100
AcDb2dVertex
 10
92.89150179680702
 20
-147.5386163520041
 30
0.0
  0
SEQEND
  5
6F
330
5B
100
AcDbEntity
  8
_U+30EC_U+30A4_U+30E4_U+30FC 1
 62
     7
420
 16777215
370
    25
  0
SPLINE
  5
70
330
41
100
AcDbEntity
  8
_U+30EC_U+30A4_U+30E4_U+30FC 1
 62
     7
420
 16777215
370
     9
100
AcDbSpline
210
0.0
220
0.0
230
1.0
 70
    11
 71
     3
 72
    17
 73
    13
 74
     0
 42
0.0000000001
 43
0.0000000001
 12
1.0
 22
0.0
 32
0.0
 13
1.0
 23
0.0
 33
0.0
 40
0.0
 40
0.0
 40
0.0
 40
0.0
 40
1.0
 40
1.0
 40
1.0
 40
2.0
 40
2.0
 40
2.0
 40
3.0
 40
3.0
 40
3.0
 40
4.0
 40
4.0
 40
4.0
 40
4.0
 10
92.79159513268918
 20
-94.738401642982
 30
0.0
 10
92.79159513268918
 20
-94.68329775410707
 30
0.0
 10
92.83636263154708
 20
-94.63849497634035
 30
0.0
 10
92.89150179680702
 20
-94.63849497634035
 30
0.0
 10
92.94660568429009
 20
-94.63849497634035
 30
0.0
 10
92.99140846092486
 20
-94.68329775410707
 30
0.0
 10
92.99140846092486
 20
-94.738401642982
 30
0.0
 10
92.99140846092486
 20
-94.79354080963508
 30
0.0
 10
92.94660568429009
 20
-94.83830830962363
 30
0.0
 10
92.89150179680702
 20
-94.83830830962363
 30
0.0
 10
92.83636263154708
 20
-94.83830830962363
 30
0.0
 10
92.79159513268918
 20
-94.79354080963508
 30
0.0
 10
92.79159513268918
 20
-94.738401642982
 30
0.0
  0
SPLINE
  5
71
330
41
100
AcDbEntity
  8
_U+30EC_U+30A4_U+30E4_U+30FC 1
 62
     7
420
 16777215
370
     9
100
AcDbSpline
210
0.0
220
0.0
230
1.0
 70
    11
 71
     3
 72
    17
 73
    13
 74
     0
 42
0.0000000001
 43
0.0000000001
 12
1.0
 22
0.0
 32
0.0
 13
1.0
 23
0.0
 33
0.0
 40
0.0
 40
0.0
 40
0.0
 40
0.0
 40
1.0
 40
1.0
 40
1.0
 40
2.0
 40
2.0
 40
2.0
 40
3.0
 40
3.0
 40
3.0
 40
4.0
 40
4.0
 40
4.0
 40
4.0
 10
93.99185093540144
 20
-94.738401642982
 30
0.0
 10
93.99185093540144
 20
-94.68329775410707
 30
0.0
 10
94.03661843425932
 20
-94.63849497634035
 30
0.0
 10
94.09175759951928
 20
-94.63849497634035
 30
0.0
 10
94.14686386535203
 20
-94.63849497634035
 30
0.0
 10
94.19166664311875
 20
-94.68329775410707
 30
0.0
 10
94.19166664311875
 20
-94.738401642982
 30
0.0
 10
94.19166664311875
 20
-94.79354080963508
 30
0.0
 10
94.14686386535203
 20
-94.83830830962363
 30
0.0
 10
94.09175759951928
 20
-94.83830830962363
 30
0.0
 10
94.03661843425932
 20
-94.83830830962363
 30
0.0
 10
93.99185093540144
 20
-94.79354080963508
 30
0.0
 10
93.99185093540144
 20
-94.738401642982
 30
0.0
  0
SPLINE
  5
72
330
41
100
AcDbEntity
  8
_U+30EC_U+30A4_U+30E4_U+30FC 1
 62
     7
420
 16777215
370
     9
100
AcDbSpline
210
0.0
220
0.0
230
1.0
 70
    11
 71
     3
 72
    17
 73
    13
 74
     0
 42
0.0000000001
 43
0.0000000001
 12
1.0
 22
0.0
 32
0.0
 13
1.0
 23
0.0
 33
0.0
 40
0.0
 40
0.0
 40
0.0
 40
0.0
 40
1.0
 40
1.0
 40
1.0
 40
2.0
 40
2.0
 40
2.0
 40
3.0
 40
3.0
 40
3.0
 40
4.0
 40
4.0
 40
4.0
 40
4.0
 10
79.79152268657089
 20
-132.7384949668157
 30
0.0
 10
79.79152268657089
 20
-132.6833910779401
 30
0.0
 10
79.83629018542877
 20
-132.6385883001734
 30
0.0
 10
79.89142935068872
 20
-132.6385883001734
 30
0.0
 10
79.94688601594058
 20
-132.6385883001734
 30
0.0
 10
79.9916555355575
 20
-132.6833910779401
 30
0.0
 10
79.9916555355575
 20
-132.7384949668157
 30
0.0
 10
79.9916555355575
 20
-132.7936341334681
 30
0.0
 10
79.94688601594058
 20
-132.8384016334573
 30
0.0
 10
79.89142935068872
 20
-132.8384016334573
 30
0.0
 10
79.83629018542877
 20
-132.8384016334573
 30
0.0
 10
79.79152268657089
 20
-132.7936341334681
 30
0.0
 10
79.79152268657089
 20
-132.7384949668157
 30
0.0
  0
SPLINE
  5
73
330
41
100
AcDbEntity
  8
_U+30EC_U+30A4_U+30E4_U+30FC 1
 62
     7
420
 16777215
370
     9
100
AcDbSpline
210
0.0
220
0.0
230
1.0
 70
    11
 71
     3
 72
    17
 73
    13
 74
     0
 42
0.0000000001
 43
0.0000000001
 12
1.0
 22
0.0
 32
0.0
 13
1.0
 23
0.0
 33
0.0
 40
0.0
 40
0.0
 40
0.0
 40
0.0
 40
1.0
 40
1.0
 40
1.0
 40
2.0
 40
2.0
 40
2.0
 40
3.0
 40
3.0
 40
3.0
 40
4.0
 40
4.0
 40
4.0
 40
4.0
 10
82.79168594336367
 20
-132.7384949668157
 30
0.0
 10
82.79168594336367
 20
-132.6833910779401
 30
0.0
 10
82.83645553484641
 20
-132.6385883001734
 30
0.0
 10
82.89159260748151
 20
-132.6385883001734
 30
0.0
 10
82.94669649496458
 20
-132.6385883001734
 30
0.0
 10
82.99149927159935
 20
-132.6833910779401
 30
0.0
 10
82.99149927159935
 20
-132.7384949668157
 30
0.0
 10
82.99149927159935
 20
-132.7936341334681
 30
0.0
 10
82.94669649496458
 20
-132.8384016334573
 30
0.0
 10
82.89159260748151
 20
-132.8384016334573
 30
0.0
 10
82.83645553484641
 20
-132.8384016334573
 30
0.0
 10
82.79168594336367
 20
-132.7936341334681
 30
0.0
 10
82.79168594336367
 20
-132.7384949668157
 30
0.0
  0
SPLINE
  5
74
330
41
100
AcDbEntity
  8
_U+30EC_U+30A4_U+30E4_U+30FC 1
 62
     7
420
 16777215
370
     9
100
AcDbSpline
210
0.0
220
0.0
230
1.0
 70
    11
 71
     3
 72
    17
 73
    13
 74
     0
 42
0.0000000001
 43
0.0000000001
 12
1.0
 22
0.0
 32
0.0
 13
1.0
 23
0.0
 33
0.0
 40
0.0
 40
0.0
 40
0.0
 40
0.0
 40
1.0
 40
1.0
 40
1.0
 40
2.0
 40
2.0
 40
2.0
 40
3.0
 40
3.0
 40
3.0
 40
4.0
 40
4.0
 40
4.0
 40
4.0
 10
92.79159513268918
 20
-132.7384949668157
 30
0.0
 10
92.79159513268918
 20
-132.6833910779401
 30
0.0
 10
92.83636263154708
 20
-132.6385883001734
 30
0.0
 10
92.89150179680702
 20
-132.6385883001734
 30
0.0
 10
92.94660568429009
 20
-132.6385883001734
 30
0.0
 10
92.99140846092486
 20
-132.6833910779401
 30
0.0
 10
92.99140846092486
 20
-132.7384949668157
 30
0.0
 10
92.99140846092486
 20
-132.7936341334681
 30
0.0
 10
92.94660568429009
 20
-132.8384016334573
 30
0.0
 10
92.89150179680702
 20
-132.8384016334573
 30
0.0
 10
92.83636263154708
 20
-132.8384016334573
 30
0.0
 10
92.79159513268918
 20
-132.7936341334681
 30
0.0
 10
92.79159513268918
 20
-132.7384949668157
 30
0.0
  0
SPLINE
  5
75
330
41
100
AcDbEntity
  8
_U+30EC_U+30A4_U+30E4_U+30FC 1
 62
     7
420
 16777215
370
     9
100
AcDbSpline
210
0.0
220
0.0
230
1.0
 70
    11
 71
     3
 72
    17
 73
    13
 74
     0
 42
0.0000000001
 43
0.0000000001
 12
1.0
 22
0.0
 32
0.0
 13
1.0
 23
0.0
 33
0.0
 40
0.0
 40
0.0
 40
0.0
 40
0.0
 40
1.0
 40
1.0
 40
1.0
 40
2.0
 40
2.0
 40
2.0
 40
3.0
 40
3.0
 40
3.0
 40
4.0
 40
4.0
 40
4.0
 40
4.0
 10
75.7914108441778
 20
-161.7386274595654
 30
0.0
 10
75.7914108441778
 20
-161.6834882929123
 30
0.0
 10
75.83621362081256
 20
-161.6387207929237
 30
0.0
 10
75.89167220324939
 20
-161.6387207929237
 30
0.0
 10
75.94677417354748
 20
-161.6387207929237
 30
0.0
 10
75.99157695018225
 20
-161.6834882929123
 30
0.0
 10
75.99157695018225
 20
-161.7386274595654
 30
0.0
 10
75.99157695018225
 20
-161.7937313484403
 30
0.0
 10
75.94677417354748
 20
-161.838534126207
 30
0.0
 10
75.89167220324939
 20
-161.838534126207
 30
0.0
 10
75.83621362081256
 20
-161.838534126207
 30
0.0
 10
75.7914108441778
 20
-161.7937313484403
 30
0.0
 10
75.7914108441778
 20
-161.7386274595654
 30
0.0
  0
SPLINE
  5
76
330
41
100
AcDbEntity
  8
_U+30EC_U+30A4_U+30E4_U+30FC 1
 62
     7
420
 16777215
370
     9
100
AcDbSpline
210
0.0
220
0.0
230
1.0
 70
    11
 71
     3
 72
    17
 73
    13
 74
     0
 42
0.0000000001
 43
0.0000000001
 12
1.0
 22
0.0
 32
0.0
 13
1.0
 23
0.0
 33
0.0
 40
0.0
 40
0.0
 40
0.0
 40
0.0
 40
1.0
 40
1.0
 40
1.0
 40
2.0
 40
2.0
 40
2.0
 40
3.0
 40
3.0
 40
3.0
 40
4.0
 40
4.0
 40
4.0
 40
4.0
 10
75.7914108441778
 20
-136.7389244102599
 30
0.0
 10
75.7914108441778
 20
-136.6838205213844
 30
0.0
 10
75.83621362081256
 20
-136.6390177436183
 30
0.0
 10
75.89167220324939
 20
-136.6390177436183
 30
0.0
 10
75.94677417354748
 20
-136.6390177436183
 30
0.0
 10
75.99157695018225
 20
-136.6838205213844
 30
0.0
 10
75.99157695018225
 20
-136.7389244102599
 30
0.0
 10
75.99157695018225
 20
-136.7940635769124
 30
0.0
 10
75.94677417354748
 20
-136.8388310769016
 30
0.0
 10
75.89167220324939
 20
-136.8388310769016
 30
0.0
 10
75.83621362081256
 20
-136.8388310769016
 30
0.0
 10
75.7914108441778
 20
-136.7940635769124
 30
0.0
 10
75.7914108441778
 20
-136.7389244102599
 30
0.0
  0
SPLINE
  5
77
330
41
100
AcDbEntity
  8
_U+30EC_U+30A4_U+30E4_U+30FC 1
 62
     7
420
 16777215
370
     9
100
AcDbSpline
210
0.0
220
0.0
230
1.0
 70
    11
 71
     3
 72
    17
 73
    13
 74
     0
 42
0.0000000001
 43
0.0000000001
 12
1.0
 22
0.0
 32
0.0
 13
1.0
 23
0.0
 33
0.0
 40
0.0
 40
0.0
 40
0.0
 40
0.0
 40
1.0
 40
1.0
 40
1.0
 40
2.0
 40
2.0
 40
2.0
 40
3.0
 40
3.0
 40
3.0
 40
4.0
 40
4.0
 40
4.0
 40
4.0
 10
79.79152268657089
 20
-165.7390569030096
 30
0.0
 10
79.79152268657089
 20
-165.6832474585792
 30
0.0
 10
79.83629018542877
 20
-165.6384799585906
 30
0.0
 10
79.89142935068872
 20
-165.6384799585906
 30
0.0
 10
79.94688601594058
 20
-165.6384799585906
 30
0.0
 10
79.9916555355575
 20
-165.6832474585792
 30
0.0
 10
79.9916555355575
 20
-165.7390569030096
 30
0.0
 10
79.9916555355575
 20
-165.7941960696627
 30
0.0
 10
79.94688601594058
 20
-165.8389635696512
 30
0.0
 10
79.89142935068872
 20
-165.8389635696512
 30
0.0
 10
79.83629018542877
 20
-165.8389635696512
 30
0.0
 10
79.79152268657089
 20
-165.7941960696627
 30
0.0
 10
79.79152268657089
 20
-165.7390569030096
 30
0.0
  0
SPLINE
  5
78
330
41
100
AcDbEntity
  8
_U+30EC_U+30A4_U+30E4_U+30FC 1
 62
     7
420
 16777215
370
     9
100
AcDbSpline
210
0.0
220
0.0
230
1.0
 70
    11
 71
     3
 72
    17
 73
    13
 74
     0
 42
0.0000000001
 43
0.0000000001
 12
1.0
 22
0.0
 32
0.0
 13
1.0
 23
0.0
 33
0.0
 40
0.0
 40
0.0
 40
0.0
 40
0.0
 40
1.0
 40
1.0
 40
1.0
 40
2.0
 40
2.0
 40
2.0
 40
3.0
 40
3.0
 40
3.0
 40
4.0
 40
4.0
 40
4.0
 40
4.0
 10
108.791619168939
 20
-161.7386274595654
 30
0.0
 10
108.791619168939
 20
-161.6834882929123
 30
0.0
 10
108.836069167805
 20
-161.6387207929237
 30
0.0
 10
108.8915258330568
 20
-161.6387207929237
 30
0.0
 10
108.9470177760856
 20
-161.6387207929237
 30
0.0
 10
108.9917852749435
 20
-161.6834882929123
 30
0.0
 10
108.9917852749435
 20
-161.7386274595654
 30
0.0
 10
108.9917852749435
 20
-161.7937313484403
 30
0.0
 10
108.9470177760856
 20
-161.838534126207
 30
0.0
 10
108.8915258330568
 20
-161.838534126207
 30
0.0
 10
108.836069167805
 20
-161.838534126207
 30
0.0
 10
108.791619168939
 20
-161.7937313484403
 30
0.0
 10
108.791619168939
 20
-161.7386274595654
 30
0.0
  0
SPLINE
  5
79
330
41
100
AcDbEntity
  8
_U+30EC_U+30A4_U+30E4_U+30FC 1
 62
     7
420
 16777215
370
     9
100
AcDbSpline
210
0.0
220
0.0
230
1.0
 70
    11
 71
     3
 72
    17
 73
    13
 74
     0
 42
0.0000000001
 43
0.0000000001
 12
1.0
 22
0.0
 32
0.0
 13
1.0
 23
0.0
 33
0.0
 40
0.0
 40
0.0
 40
0.0
 40
0.0
 40
1.0
 40
1.0
 40
1.0
 40
2.0
 40
2.0
 40
2.0
 40
3.0
 40
3.0
 40
3.0
 40
4.0
 40
4.0
 40
4.0
 40
4.0
 10
108.791619168939
 20
-158.7382877380933
 30
0.0
 10
108.791619168939
 20
-158.6831485714402
 30
0.0
 10
108.836069167805
 20
-158.6383810714516
 30
0.0
 10
108.8915258330568
 20
-158.6383810714516
 30
0.0
 10
108.9470177760856
 20
-158.6383810714516
 30
0.0
 10
108.9917852749435
 20
-158.6831485714402
 30
0.0
 10
108.9917852749435
 20
-158.7382877380933
 30
0.0
 10
108.9917852749435
 20
-158.7940971825237
 30
0.0
 10
108.9470177760856
 20
-158.8388999602904
 30
0.0
 10
108.8915258330568
 20
-158.8388999602904
 30
0.0
 10
108.836069167805
 20
-158.8388999602904
 30
0.0
 10
108.791619168939
 20
-158.7940971825237
 30
0.0
 10
108.791619168939
 20
-158.7382877380933
 30
0.0
  0
SPLINE
  5
7A
330
41
100
AcDbEntity
  8
_U+30EC_U+30A4_U+30E4_U+30FC 1
 62
     7
420
 16777215
370
     9
100
AcDbSpline
210
0.0
220
0.0
230
1.0
 70
    11
 71
     3
 72
    17
 73
    13
 74
     0
 42
0.0000000001
 43
0.0000000001
 12
1.0
 22
0.0
 32
0.0
 13
1.0
 23
0.0
 33
0.0
 40
0.0
 40
0.0
 40
0.0
 40
0.0
 40
1.0
 40
1.0
 40
1.0
 40
2.0
 40
2.0
 40
2.0
 40
3.0
 40
3.0
 40
3.0
 40
4.0
 40
4.0
 40
4.0
 40
4.0
 10
104.7915426043228
 20
-165.7390569030096
 30
0.0
 10
104.7915426043228
 20
-165.6832474585792
 30
0.0
 10
104.8363101031807
 20
-165.6384799585906
 30
0.0
 10
104.8914492684406
 20
-165.6384799585906
 30
0.0
 10
104.9465531559237
 20
-165.6384799585906
 30
0.0
 10
104.9913559325585
 20
-165.6832474585792
 30
0.0
 10
104.9913559325585
 20
-165.7390569030096
 30
0.0
 10
104.9913559325585
 20
-165.7941960696627
 30
0.0
 10
104.9465531559237
 20
-165.8389635696512
 30
0.0
 10
104.8914492684406
 20
-165.8389635696512
 30
0.0
 10
104.8363101031807
 20
-165.8389635696512
 30
0.0
 10
104.7915426043228
 20
-165.7941960696627
 30
0.0
 10
104.7915426043228
 20
-165.7390569030096
 30
0.0
  0
SPLINE
  5
7B
330
41
100
AcDbEntity
  8
_U+30EC_U+30A4_U+30E4_U+30FC 1
 62
     7
420
 16777215
370
     9
100
AcDbSpline
210
0.0
220
0.0
230
1.0
 70
    11
 71
     3
 72
    17
 73
    13
 74
     0
 42
0.0000000001
 43
0.0000000001
 12
1.0
 22
0.0
 32
0.0
 13
1.0
 23
0.0
 33
0.0
 40
0.0
 40
0.0
 40
0.0
 40
0.0
 40
1.0
 40
1.0
 40
1.0
 40
2.0
 40
2.0
 40
2.0
 40
3.0
 40
3.0
 40
3.0
 40
4.0
 40
4.0
 40
4.0
 40
4.0
 10
108.791619168939
 20
-148.7385546850377
 30
0.0
 10
108.791619168939
 20
-148.6834155183846
 30
0.0
 10
108.836069167805
 20
-148.6386480183961
 30
0.0
 10
108.8915258330568
 20
-148.6386480183961
 30
0.0
 10
108.9470177760856
 20
-148.6386480183961
 30
0.0
 10
108.9917852749435
 20
-148.6834155183846
 30
0.0
 10
108.9917852749435
 20
-148.7385546850377
 30
0.0
 10
108.9917852749435
 20
-148.7936585739126
 30
0.0
 10
108.9470177760856
 20
-148.8384613516793
 30
0.0
 10
108.8915258330568
 20
-148.8384613516793
 30
0.0
 10
108.836069167805
 20
-148.8384613516793
 30
0.0
 10
108.791619168939
 20
-148.7936585739126
 30
0.0
 10
108.791619168939
 20
-148.7385546850377
 30
0.0
  0
SPLINE
  5
7C
330
41
100
AcDbEntity
  8
_U+30EC_U+30A4_U+30E4_U+30FC 1
 62
     7
420
 16777215
370
     9
100
AcDbSpline
210
0.0
220
0.0
230
1.0
 70
    11
 71
     3
 72
    17
 73
    13
 74
     0
 42
0.0000000001
 43
0.0000000001
 12
1.0
 22
0.0
 32
0.0
 13
1.0
 23
0.0
 33
0.0
 40
0.0
 40
0.0
 40
0.0
 40
0.0
 40
1.0
 40
1.0
 40
1.0
 40
2.0
 40
2.0
 40
2.0
 40
3.0
 40
3.0
 40
3.0
 40
4.0
 40
4.0
 40
4.0
 40
4.0
 10
108.791619168939
 20
-98.73883108642656
 30
0.0
 10
108.791619168939
 20
-98.68372719755132
 30
0.0
 10
108.836069167805
 20
-98.6389244197846
 30
0.0
 10
108.8915258330568
 20
-98.6389244197846
 30
0.0
 10
108.9470177760856
 20
-98.6389244197846
 30
0.0
 10
108.9917852749435
 20
-98.68372719755132
 30
0.0
 10
108.9917852749435
 20
-98.73883108642656
 30
0.0
 10
108.9917852749435
 20
-98.79397025307932
 30
0.0
 10
108.9470177760856
 20
-98.83877303084572
 30
0.0
 10
108.8915258330568
 20
-98.83877303084572
 30
0.0
 10
108.836069167805
 20
-98.83877303084572
 30
0.0
 10
108.791619168939
 20
-98.79397025307932
 30
0.0
 10
108.791619168939
 20
-98.73883108642656
 30
0.0
  0
POLYLINE
  5
7D
330
41
100
AcDbEntity
  8
_U+30EC_U+30A4_U+30E4_U+30FC 1
 62
     7
420
 16777215
370
     9
100
AcDb2dPolyline
 66
     1
 10
0.0
 20
0.0
 30
0.0
  0
VERTEX
  5
7E
330
7D
100
AcDbEntity
  8
_U+30EC_U+30A4_U+30E4_U+30FC 1
 62
     7
420
 16777215
370
     9
100
AcDbVertex
100
AcDb2dVertex
 10
94.09175759951928
 20
-94.738401642982
 30
0.0
  0
VERTEX
  5
7F
330
7D
100
AcDbEntity
  8
_U+30EC_U+30A4_U+30E4_U+30FC 1
 62
     7
420
 16777215
370
     9
100
AcDbVertex
100
AcDb2dVertex
 10
99.34931052094349
 20
-94.738401642982
 30
0.0
  0
SEQEND
  5
80
330
7D
100
AcDbEntity
  8
_U+30EC_U+30A4_U+30E4_U+30FC 1
 62
     7
420
 16777215
370
     9
  0
POLYLINE
  5
81
330
41
100
AcDbEntity
  8
_U+30EC_U+30A4_U+30E4_U+30FC 1
 62
     7
420
 16777215
370
     9
100
AcDb2dPolyline
 66
     1
 10
0.0
 20
0.0
 30
0.0
  0
VERTEX
  5
82
330
81
100
AcDbEntity
  8
_U+30EC_U+30A4_U+30E4_U+30FC 1
 62
     7
420
 16777215
370
     9
100
AcDbVertex
100
AcDb2dVertex
 10
94.09175759951928
 20
-94.738401642982
 30
0.0
  0
VERTEX
  5
83
330
81
100
AcDbEntity
  8
_U+30EC_U+30A4_U+30E4_U+30FC 1
 62
     7
420
 16777215
370
     9
100
AcDbVertex
100
AcDb2dVertex
 10
91.89172960009111
 20
-94.738401642982
 30
0.0
  0
SEQEND
  5
84
330
81
100
AcDbEntity
  8
_U+30EC_U+30A4_U+30E4_U+30FC 1
 62
     7
420
 16777215
370
     9
  0
POLYLINE
  5
85
330
41
100
AcDbEntity
  8
_U+30EC_U+30A4_U+30E4_U+30FC 1
 62
     7
420
 16777215
370
     9
100
AcDb2dPolyline
 66
     1
 10
0.0
 20
0.0
 30
0.0
  0
VERTEX
  5
86
330
85
100
AcDbEntity
  8
_U+30EC_U+30A4_U+30E4_U+30FC 1
 62
     7
420
 16777215
370
     9
100
AcDbVertex
100
AcDb2dVertex
 10
94.09175759951928
 20
-96.19844303150602
 30
0.0
  0
VERTEX
  5
87
330
85
100
AcDbEntity
  8
_U+30EC_U+30A4_U+30E4_U+30FC 1
 62
     7
420
 16777215
370
     9
100
AcDbVertex
100
AcDb2dVertex
 10
94.09175759951928
 20
-93.73862942100978
 30
0.0
  0
SEQEND
  5
88
330
85
100
AcDbEntity
  8
_U+30EC_U+30A4_U+30E4_U+30FC 1
 62
     7
420
 16777215
370
     9
  0
POLYLINE
  5
89
330
41
100
AcDbEntity
  8
_U+30EC_U+30A4_U+30E4_U+30FC 1
 62
     7
420
 16777215
370
     9
100
AcDb2dPolyline
 66
     1
 10
0.0
 20
0.0
 30
0.0
  0
VERTEX
  5
8A
330
89
100
AcDbEntity
  8
_U+30EC_U+30A4_U+30E4_U+30FC 1
 62
     7
420
 16777215
370
     9
100
AcDbVertex
100
AcDb2dVertex
 10
92.89150179680702
 20
-96.19844303150602
 30
0.0
  0
VERTEX
  5
8B
330
89
100
AcDbEntity
  8
_U+30EC_U+30A4_U+30E4_U+30FC 1
 62
     7
420
 16777215
370
     9
100
AcDbVertex
100
AcDb2dVertex
 10
92.89150179680702
 20
-93.73862942100978
 30
0.0
  0
SEQEND
  5
8C
330
89
100
AcDbEntity
  8
_U+30EC_U+30A4_U+30E4_U+30FC 1
 62
     7
420
 16777215
370
     9
  0
POLYLINE
  5
8D
330
41
100
AcDbEntity
  8
_U+30EC_U+30A4_U+30E4_U+30FC 1
 62
     7
420
 16777215
370
     9
100
AcDb2dPolyline
 66
     1
 10
0.0
 20
0.0
 30
0.0
  0
VERTEX
  5
8E
330
8D
100
AcDbEntity
  8
_U+30EC_U+30A4_U+30E4_U+30FC 1
 62
     7
420
 16777215
370
     9
100
AcDbVertex
100
AcDb2dVertex
 10
108.8915258330568
 20
-148.7385546850377
 30
0.0
  0
VERTEX
  5
8F
330
8D
100
AcDbEntity
  8
_U+30EC_U+30A4_U+30E4_U+30FC 1
 62
     7
420
 16777215
370
     9
100
AcDbVertex
100
AcDb2dVertex
 10
108.8915258330568
 20
-98.73883108642656
 30
0.0
  0
SEQEND
  5
90
330
8D
100
AcDbEntity
  8
_U+30EC_U+30A4_U+30E4_U+30FC 1
 62
     7
420
 16777215
370
     9
  0
POLYLINE
  5
91
330
41
100
AcDbEntity
  8
_U+30EC_U+30A4_U+30E4_U+30FC 1
 62
     7
420
 16777215
370
     9
100
AcDb2dPolyline
 66
     1
 10
0.0
 20
0.0
 30
0.0
  0
VERTEX
  5
92
330
91
100
AcDbEntity
  8
_U+30EC_U+30A4_U+30E4_U+30FC 1
 62
     7
420
 16777215
370
     9
100
AcDbVertex
100
AcDb2dVertex
 10
96.63147775361965
 20
-148.7385546850377
 30
0.0
  0
VERTEX
  5
93
330
91
100
AcDbEntity
  8
_U+30EC_U+30A4_U+30E4_U+30FC 1
 62
     7
420
 16777215
370
     9
100
AcDbVertex
100
AcDb2dVertex
 10
109.8916508075415
 20
-148.7385546850377
 30
0.0
  0
SEQEND
  5
94
330
91
100
AcDbEntity
  8
_U+30EC_U+30A4_U+30E4_U+30FC 1
 62
     7
420
 16777215
370
     9
  0
POLYLINE
  5
95
330
41
100
AcDbEntity
  8
_U+30EC_U+30A4_U+30E4_U+30FC 1
 62
     7
420
 16777215
370
     9
100
AcDb2dPolyline
 66
     1
 10
0.0
 20
0.0
 30
0.0
  0
VERTEX
  5
96
330
95
100
AcDbEntity
  8
_U+30EC_U+30A4_U+30E4_U+30FC 1
 62
     7
420
 16777215
370
     9
100
AcDbVertex
100
AcDb2dVertex
 10
96.63147775361965
 20
-98.73883108642656
 30
0.0
  0
VERTEX
  5
97
330
95
100
AcDbEntity
  8
_U+30EC_U+30A4_U+30E4_U+30FC 1
 62
     7
420
 16777215
370
     9
100
AcDbVertex
100
AcDb2dVertex
 10
109.8916508075415
 20
-98.73883108642656
 30
0.0
  0
SEQEND
  5
98
330
95
100
AcDbEntity
  8
_U+30EC_U+30A4_U+30E4_U+30FC 1
 62
     7
420
 16777215
370
     9
  0
POLYLINE
  5
99
330
41
100
AcDbEntity
  8
_U+30EC_U+30A4_U+30E4_U+30FC 1
 62
     7
420
 16777215
370
     9
100
AcDb2dPolyline
 66
     1
 10
0.0
 20
0.0
 30
0.0
  0
VERTEX
  5
9A
330
99
100
AcDbEntity
  8
_U+30EC_U+30A4_U+30E4_U+30FC 1
 62
     7
420
 16777215
370
     9
100
AcDbVertex
100
AcDb2dVertex
 10
108.8915258330568
 20
-158.7382877380933
 30
0.0
  0
VERTEX
  5
9B
330
99
100
AcDbEntity
  8
_U+30EC_U+30A4_U+30E4_U+30FC 1
 62
     7
420
 16777215
370
     9
100
AcDbVertex
100
AcDb2dVertex
 10
108.8915258330568
 20
-148.7385546850377
 30
0.0
  0
SEQEND
  5
9C
330
99
100
AcDbEntity
  8
_U+30EC_U+30A4_U+30E4_U+30FC 1
 62
     7
420
 16777215
370
     9
  0
POLYLINE
  5
9D
330
41
100
AcDbEntity
  8
_U+30EC_U+30A4_U+30E4_U+30FC 1
 62
     7
420
 16777215
370
     9
100
AcDb2dPolyline
 66
     1
 10
0.0
 20
0.0
 30
0.0
  0
VERTEX
  5
9E
330
9D
100
AcDbEntity
  8
_U+30EC_U+30A4_U+30E4_U+30FC 1
 62
     7
420
 16777215
370
     9
100
AcDbVertex
100
AcDb2dVertex
 10
107.4315197591936
 20
-158.7382877380933
 30
0.0
  0
VERTEX
  5
9F
330
9D
100
AcDbEntity
  8
_U+30EC_U+30A4_U+30E4_U+30FC 1
 62
     7
420
 16777215
370
     9
100
AcDbVertex
100
AcDb2dVertex
 10
109.8916508075415
 20
-158.7382877380933
 30
0.0
  0
SEQEND
  5
A0
330
9D
100
AcDbEntity
  8
_U+30EC_U+30A4_U+30E4_U+30FC 1
 62
     7
420
 16777215
370
     9
  0
POLYLINE
  5
A1
330
41
100
AcDbEntity
  8
_U+30EC_U+30A4_U+30E4_U+30FC 1
 62
     7
420
 16777215
370
     9
100
AcDb2dPolyline
 66
     1
 10
0.0
 20
0.0
 30
0.0
  0
VERTEX
  5
A2
330
A1
100
AcDbEntity
  8
_U+30EC_U+30A4_U+30E4_U+30FC 1
 62
     7
420
 16777215
370
     9
100
AcDbVertex
100
AcDb2dVertex
 10
108.8915258330568
 20
-158.7382877380933
 30
0.0
  0
VERTEX
  5
A3
330
A1
100
AcDbEntity
  8
_U+30EC_U+30A4_U+30E4_U+30FC 1
 62
     7
420
 16777215
370
     9
100
AcDbVertex
100
AcDb2dVertex
 10
108.8915258330568
 20
-161.7386274595654
 30
0.0
  0
SEQEND
  5
A4
330
A1
100
AcDbEntity
  8
_U+30EC_U+30A4_U+30E4_U+30FC 1
 62
     7
420
 16777215
370
     9
  0
POLYLINE
  5
A5
330
41
100
AcDbEntity
  8
_U+30EC_U+30A4_U+30E4_U+30FC 1
 62
     7
420
 16777215
370
     9
100
AcDb2dPolyline
 66
     1
 10
0.0
 20
0.0
 30
0.0
  0
VERTEX
  5
A6
330
A5
100
AcDbEntity
  8
_U+30EC_U+30A4_U+30E4_U+30FC 1
 62
     7
420
 16777215
370
     9
100
AcDbVertex
100
AcDb2dVertex
 10
107.4315197591936
 20
-161.7386274595654
 30
0.0
  0
VERTEX
  5
A7
330
A5
100
AcDbEntity
  8
_U+30EC_U+30A4_U+30E4_U+30FC 1
 62
     7
420
 16777215
370
     9
100
AcDbVertex
100
AcDb2dVertex
 10
109.8916508075415
 20
-161.7386274595654
 30
0.0
  0
SEQEND
  5
A8
330
A5
100
AcDbEntity
  8
_U+30EC_U+30A4_U+30E4_U+30FC 1
 62
     7
420
 16777215
370
     9
  0
POLYLINE
  5
A9
330
41
100
AcDbEntity
  8
_U+30EC_U+30A4_U+30E4_U+30FC 1
 62
     7
420
 16777215
370
     9
100
AcDb2dPolyline
 66
     1
 10
0.0
 20
0.0
 30
0.0
  0
VERTEX
  5
AA
330
A9
100
AcDbEntity
  8
_U+30EC_U+30A4_U+30E4_U+30FC 1
 62
     7
420
 16777215
370
     9
100
AcDbVertex
100
AcDb2dVertex
 10
75.89167220324939
 20
-136.7389244102599
 30
0.0
  0
VERTEX
  5
AB
330
A9
100
AcDbEntity
  8
_U+30EC_U+30A4_U+30E4_U+30FC 1
 62
     7
420
 16777215
370
     9
100
AcDbVertex
100
AcDb2dVertex
 10
75.89167220324939
 20
-161.7386274595654
 30
0.0
  0
SEQEND
  5
AC
330
A9
100
AcDbEntity
  8
_U+30EC_U+30A4_U+30E4_U+30FC 1
 62
     7
420
 16777215
370
     9
  0
POLYLINE
  5
AD
330
41
100
AcDbEntity
  8
_U+30EC_U+30A4_U+30E4_U+30FC 1
 62
     7
420
 16777215
370
     9
100
AcDb2dPolyline
 66
     1
 10
0.0
 20
0.0
 30
0.0
  0
VERTEX
  5
AE
330
AD
100
AcDbEntity
  8
_U+30EC_U+30A4_U+30E4_U+30FC 1
 62
     7
420
 16777215
370
     9
100
AcDbVertex
100
AcDb2dVertex
 10
77.35167635992767
 20
-136.7389244102599
 30
0.0
  0
VERTEX
  5
AF
330
AD
100
AcDbEntity
  8
_U+30EC_U+30A4_U+30E4_U+30FC 1
 62
     7
420
 16777215
370
     9
100
AcDbVertex
100
AcDb2dVertex
 10
74.8915472034994
 20
-136.7389244102599
 30
0.0
  0
SEQEND
  5
B0
330
AD
100
AcDbEntity
  8
_U+30EC_U+30A4_U+30E4_U+30FC 1
 62
     7
420
 16777215
370
     9
  0
POLYLINE
  5
B1
330
41
100
AcDbEntity
  8
_U+30EC_U+30A4_U+30E4_U+30FC 1
 62
     7
420
 16777215
370
     9
100
AcDb2dPolyline
 66
     1
 10
0.0
 20
0.0
 30
0.0
  0
VERTEX
  5
B2
330
B1
100
AcDbEntity
  8
_U+30EC_U+30A4_U+30E4_U+30FC 1
 62
     7
420
 16777215
370
     9
100
AcDbVertex
100
AcDb2dVertex
 10
77.35167635992767
 20
-161.7386274595654
 30
0.0
  0
VERTEX
  5
B3
330
B1
100
AcDbEntity
  8
_U+30EC_U+30A4_U+30E4_U+30FC 1
 62
     7
420
 16777215
370
     9
100
AcDbVertex
100
AcDb2dVertex
 10
74.8915472034994
 20
-161.7386274595654
 30
0.0
  0
SEQEND
  5
B4
330
B1
100
AcDbEntity
  8
_U+30EC_U+30A4_U+30E4_U+30FC 1
 62
     7
420
 16777215
370
     9
  0
POLYLINE
  5
B5
330
41
100
AcDbEntity
  8
_U+30EC_U+30A4_U+30E4_U+30FC 1
 62
     7
420
 16777215
370
     9
100
AcDb2dPolyline
 66
     1
 10
0.0
 20
0.0
 30
0.0
  0
VERTEX
  5
B6
330
B5
100
AcDbEntity
  8
_U+30EC_U+30A4_U+30E4_U+30FC 1
 62
     7
420
 16777215
370
     9
100
AcDbVertex
100
AcDb2dVertex
 10
82.89159260748151
 20
-132.7384949668157
 30
0.0
  0
VERTEX
  5
B7
330
B5
100
AcDbEntity
  8
_U+30EC_U+30A4_U+30E4_U+30FC 1
 62
     7
420
 16777215
370
     9
100
AcDbVertex
100
AcDb2dVertex
 10
79.89142935068872
 20
-132.7384949668157
 30
0.0
  0
SEQEND
  5
B8
330
B5
100
AcDbEntity
  8
_U+30EC_U+30A4_U+30E4_U+30FC 1
 62
     7
420
 16777215
370
     9
  0
POLYLINE
  5
B9
330
41
100
AcDbEntity
  8
_U+30EC_U+30A4_U+30E4_U+30FC 1
 62
     7
420
 16777215
370
     9
100
AcDb2dPolyline
 66
     1
 10
0.0
 20
0.0
 30
0.0
  0
VERTEX
  5
BA
330
B9
100
AcDbEntity
  8
_U+30EC_U+30A4_U+30E4_U+30FC 1
 62
     7
420
 16777215
370
     9
100
AcDbVertex
100
AcDb2dVertex
 10
82.89159260748151
 20
-134.1985363553394
 30
0.0
  0
VERTEX
  5
BB
330
B9
100
AcDbEntity
  8
_U+30EC_U+30A4_U+30E4_U+30FC 1
 62
     7
420
 16777215
370
     9
100
AcDbVertex
100
AcDb2dVertex
 10
82.89159260748151
 20
-131.7387227448431
 30
0.0
  0
SEQEND
  5
BC
330
B9
100
AcDbEntity
  8
_U+30EC_U+30A4_U+30E4_U+30FC 1
 62
     7
420
 16777215
370
     9
  0
POLYLINE
  5
BD
330
41
100
AcDbEntity
  8
_U+30EC_U+30A4_U+30E4_U+30FC 1
 62
     7
420
 16777215
370
     9
100
AcDb2dPolyline
 66
     1
 10
0.0
 20
0.0
 30
0.0
  0
VERTEX
  5
BE
330
BD
100
AcDbEntity
  8
_U+30EC_U+30A4_U+30E4_U+30FC 1
 62
     7
420
 16777215
370
     9
100
AcDbVertex
100
AcDb2dVertex
 10
79.89142935068872
 20
-134.1985363553394
 30
0.0
  0
VERTEX
  5
BF
330
BD
100
AcDbEntity
  8
_U+30EC_U+30A4_U+30E4_U+30FC 1
 62
     7
420
 16777215
370
     9
100
AcDbVertex
100
AcDb2dVertex
 10
79.89142935068872
 20
-131.7387227448431
 30
0.0
  0
SEQEND
  5
C0
330
BD
100
AcDbEntity
  8
_U+30EC_U+30A4_U+30E4_U+30FC 1
 62
     7
420
 16777215
370
     9
  0
POLYLINE
  5
C1
330
41
100
AcDbEntity
  8
_U+30EC_U+30A4_U+30E4_U+30FC 1
 62
     7
420
 16777215
370
     9
100
AcDb2dPolyline
 66
     1
 10
0.0
 20
0.0
 30
0.0
  0
VERTEX
  5
C2
330
C1
100
AcDbEntity
  8
_U+30EC_U+30A4_U+30E4_U+30FC 1
 62
     7
420
 16777215
370
     9
100
AcDbVertex
100
AcDb2dVertex
 10
82.89159260748151
 20
-132.7384949668157
 30
0.0
  0
VERTEX
  5
C3
330
C1
100
AcDbEntity
  8
_U+30EC_U+30A4_U+30E4_U+30FC 1
 62
     7
420
 16777215
370
     9
100
AcDbVertex
100
AcDb2dVertex
 10
92.89150179680702
 20
-132.7384949668157
 30
0.0
  0
SEQEND
  5
C4
330
C1
100
AcDbEntity
  8
_U+30EC_U+30A4_U+30E4_U+30FC 1
 62
     7
420
 16777215
370
     9
  0
POLYLINE
  5
C5
330
41
100
AcDbEntity
  8
_U+30EC_U+30A4_U+30E4_U+30FC 1
 62
     7
420
 16777215
370
     9
100
AcDb2dPolyline
 66
     1
 10
0.0
 20
0.0
 30
0.0
  0
VERTEX
  5
C6
330
C5
100
AcDbEntity
  8
_U+30EC_U+30A4_U+30E4_U+30FC 1
 62
     7
420
 16777215
370
     9
100
AcDbVertex
100
AcDb2dVertex
 10
104.8914492684406
 20
-165.7390569030096
 30
0.0
  0
VERTEX
  5
C7
330
C5
100
AcDbEntity
  8
_U+30EC_U+30A4_U+30E4_U+30FC 1
 62
     7
420
 16777215
370
     9
100
AcDbVertex
100
AcDb2dVertex
 10
79.89142935068872
 20
-165.7390569030096
 30
0.0
  0
SEQEND
  5
C8
330
C5
100
AcDbEntity
  8
_U+30EC_U+30A4_U+30E4_U+30FC 1
 62
     7
420
 16777215
370
     9
  0
POLYLINE
  5
C9
330
41
100
AcDbEntity
  8
_U+30EC_U+30A4_U+30E4_U+30FC 1
 62
     7
420
 16777215
370
     9
100
AcDb2dPolyline
 66
     1
 10
0.0
 20
0.0
 30
0.0
  0
VERTEX
  5
CA
330
C9
100
AcDbEntity
  8
_U+30EC_U+30A4_U+30E4_U+30FC 1
 62
     7
420
 16777215
370
     9
100
AcDbVertex
100
AcDb2dVertex
 10
104.8914492684406
 20
-164.2790507922634
 30
0.0
  0
VERTEX
  5
CB
330
C9
100
AcDbEntity
  8
_U+30EC_U+30A4_U+30E4_U+30FC 1
 62
     7
420
 16777215
370
     9
100
AcDbVertex
100
AcDb2dVertex
 10
104.8914492684406
 20
-166.7388291249821
 30
0.0
  0
SEQEND
  5
CC
330
C9
100
AcDbEntity
  8
_U+30EC_U+30A4_U+30E4_U+30FC 1
 62
     7
420
 16777215
370
     9
  0
POLYLINE
  5
CD
330
41
100
AcDbEntity
  8
_U+30EC_U+30A4_U+30E4_U+30FC 1
 62
     7
420
 16777215
370
     9
100
AcDb2dPolyline
 66
     1
 10
0.0
 20
0.0
 30
0.0
  0
VERTEX
  5
CE
330
CD
100
AcDbEntity
  8
_U+30EC_U+30A4_U+30E4_U+30FC 1
 62
     7
420
 16777215
370
     9
100
AcDbVertex
100
AcDb2dVertex
 10
79.89142935068872
 20
-164.2790507922634
 30
0.0
  0
VERTEX
  5
CF
330
CD
100
AcDbEntity
  8
_U+30EC_U+30A4_U+30E4_U+30FC 1
 62
     7
420
 16777215
370
     9
100
AcDbVertex
100
AcDb2dVertex
 10
79.89142935068872
 20
-166.7388291249821
 30
0.0
  0
SEQEND
  5
D0
330
CD
100
AcDbEntity
  8
_U+30EC_U+30A4_U+30E4_U+30FC 1
 62
     7
420
 16777215
370
     9
  0
INSERT
  5
D2
330
41
100
AcDbEntity
  8
_U+30EC_U+30A4_U+30E4_U+30FC 1
100
AcDbBlockReference
  2
block 3
 10
0.0
 20
0.0
 30
0.0
  0
INSERT
  5
E2
330
41
100
AcDbEntity
  8
_U+30EC_U+30A4_U+30E4_U+30FC 1
100
AcDbBlockReference
  2
block 4
 10
0.0
 20
0.0
 30
0.0
  0
INSERT
  5
EB
330
41
100
AcDbEntity
  8
_U+30EC_U+30A4_U+30E4_U+30FC 1
100
AcDbBlockReference
  2
block 5
 10
0.0
 20
0.0
 30
0.0
  0
INSERT
  5
F4
330
41
100
AcDbEntity
  8
_U+30EC_U+30A4_U+30E4_U+30FC 1
100
AcDbBlockReference
  2
block 6
 10
0.0
 20
0.0
 30
0.0
  0
INSERT
  5
FA
330
41
100
AcDbEntity
  8
_U+30EC_U+30A4_U+30E4_U+30FC 1
100
AcDbBlockReference
  2
block 7
 10
0.0
 20
0.0
 30
0.0
  0
INSERT
  5
102
330
41
100
AcDbEntity
  8
_U+30EC_U+30A4_U+30E4_U+30FC 1
100
AcDbBlockReference
  2
block 8
 10
0.0
 20
0.0
 30
0.0
  0
INSERT
  5
108
330
41
100
AcDbEntity
  8
_U+30EC_U+30A4_U+30E4_U+30FC 1
100
AcDbBlockReference
  2
block 9
 10
0.0
 20
0.0
 30
0.0
  0
INSERT
  5
111
330
41
100
AcDbEntity
  8
_U+30EC_U+30A4_U+30E4_U+30FC 1
100
AcDbBlockReference
  2
block 10
 10
0.0
 20
0.0
 30
0.0
  0
ENDBLK
  5
44
330
41
100
AcDbEntity
  8
0
100
AcDbBlockEnd
  0
BLOCK
  5
D3
330
D1
100
AcDbEntity
  8
0
100
AcDbBlockBegin
  2
block 3
 70
     0
 10
0.0
 20
0.0
 30
0.0
  3
block 3
  1

  0
SPLINE
  5
D5
330
D1
100
AcDbEntity
  8
_U+30EC_U+30A4_U+30E4_U+30FC 1
370
     0
100
AcDbSpline
210
0.0
220
0.0
230
1.0
 70
    11
 71
     3
 72
    26
 73
    22
 74
     0
 42
0.0000000001
 43
0.0000000001
 12
1.0
 22
0.0
 32
0.0
 13
1.0
 23
0.0
 33
0.0
 40
0.0
 40
0.0
 40
0.0
 40
0.0
 40
1.0
 40
1.0
 40
1.0
 40
2.0
 40
2.0
 40
2.0
 40
3.0
 40
3.0
 40
3.0
 40
4.0
 40
4.0
 40
4.0
 40
5.0
 40
5.0
 40
5.0
 40
6.0
 40
6.0
 40
6.0
 40
7.0
 40
7.0
 40
7.0
 40
7.0
 10
92.41709795866656
 20
-93.38723684731292
 30
0.0
 10
92.41709795866656
 20
-93.38723684731292
 30
0.0
 10
92.41709795866656
 20
-92.28291148951608
 30
0.0
 10
92.41709795866656
 20
-92.28291148951608
 30
0.0
 10
92.41709795866656
 20
-92.28291148951608
 30
0.0
 10
92.08705781117963
 20
-92.28291148951608
 30
0.0
 10
92.08705781117963
 20
-92.28291148951608
 30
0.0
 10
92.08705781117963
 20
-92.28291148951608
 30
0.0
 10
92.08705781117963
 20
-92.1349446384246
 30
0.0
 10
92.08705781117963
 20
-92.1349446384246
 30
0.0
 10
92.41916501595772
 20
-92.12013072783803
 30
0.0
 10
92.46567380500859
 20
-91.95717771138571
 30
0.0
 10
92.49530162618173
 20
-91.84297279604968
 30
0.0
 10
92.49530162618173
 20
-91.84297279604968
 30
0.0
 10
92.64137367475632
 20
-91.84297279604968
 30
0.0
 10
92.64137367475632
 20
-91.84297279604968
 30
0.0
 10
92.64137367475632
 20
-91.84297279604968
 30
0.0
 10
92.64137367475632
 20
-93.38723684731292
 30
0.0
 10
92.64137367475632
 20
-93.38723684731292
 30
0.0
 10
92.64137367475632
 20
-93.38723684731292
 30
0.0
 10
92.41709795866656
 20
-93.38723684731292
 30
0.0
 10
92.41709795866656
 20
-93.38723684731292
 30
0.0
  0
HATCH
  5
D6
330
D1
100
AcDbEntity
  8
_U+30EC_U+30A4_U+30E4_U+30FC 1
 62
     7
420
 16777215
100
AcDbHatch
 10
0.0
 20
0.0
 30
0.0
210
0.0
220
0.0
230
1.0
  2
SOLID
 70
     1
 71
     0
 91
        1
 92
        1
 93
        1
 72
     4
 94
        3
 73
     0
 74
     1
 95
       26
 96
       22
 40
0.0
 40
0.0
 40
0.0
 40
0.0
 40
1.0
 40
1.0
 40
1.0
 40
2.0
 40
2.0
 40
2.0
 40
3.0
 40
3.0
 40
3.0
 40
4.0
 40
4.0
 40
4.0
 40
5.0
 40
5.0
 40
5.0
 40
6.0
 40
6.0
 40
6.0
 40
7.0
 40
7.0
 40
7.0
 40
7.0
 10
92.41709795866656
 20
-93.38723684731292
 10
92.41709795866656
 20
-93.38723684731292
 10
92.41709795866656
 20
-92.28291148951608
 10
92.41709795866656
 20
-92.28291148951608
 10
92.41709795866656
 20
-92.28291148951608
 10
92.08705781117963
 20
-92.28291148951608
 10
92.08705781117963
 20
-92.28291148951608
 10
92.08705781117963
 20
-92.28291148951608
 10
92.08705781117963
 20
-92.1349446384246
 10
92.08705781117963
 20
-92.1349446384246
 10
92.41916501595772
 20
-92.12013072783803
 10
92.46567380500859
 20
-91.95717771138571
 10
92.49530162618173
 20
-91.84297279604968
 10
92.49530162618173
 20
-91.84297279604968
 10
92.64137367475632
 20
-91.84297279604968
 10
92.64137367475632
 20
-91.84297279604968
 10
92.64137367475632
 20
-91.84297279604968
 10
92.64137367475632
 20
-93.38723684731292
 10
92.64137367475632
 20
-93.38723684731292
 10
92.64137367475632
 20
-93.38723684731292
 10
92.41709795866656
 20
-93.38723684731292
 10
92.41709795866656
 20
-93.38723684731292
 97
        0
 97
        0
 75
     2
 76
     1
 98
        0
  0
POLYLINE
  5
D7
330
D1
100
AcDbEntity
  8
_U+30EC_U+30A4_U+30E4_U+30FC 1
370
     0
100
AcDb2dPolyline
 66
     1
 10
0.0
 20
0.0
 30
0.0
  0
VERTEX
  5
D8
330
D7
100
AcDbEntity
  8
_U+30EC_U+30A4_U+30E4_U+30FC 1
370
     0
100
AcDbVertex
100
AcDb2dVertex
 10
93.20257972930352
 20
-93.38723684731292
 30
0.0
  0
VERTEX
  5
D9
330
D7
100
AcDbEntity
  8
_U+30EC_U+30A4_U+30E4_U+30FC 1
370
     0
100
AcDbVertex
100
AcDb2dVertex
 10
93.20257972930352
 20
-93.13557262211542
 30
0.0
  0
VERTEX
  5
DA
330
D7
100
AcDbEntity
  8
_U+30EC_U+30A4_U+30E4_U+30FC 1
370
     0
100
AcDbVertex
100
AcDb2dVertex
 10
93.4544162092753
 20
-93.13557262211542
 30
0.0
  0
VERTEX
  5
DB
330
D7
100
AcDbEntity
  8
_U+30EC_U+30A4_U+30E4_U+30FC 1
370
     0
100
AcDbVertex
100
AcDb2dVertex
 10
93.4544162092753
 20
-93.38723684731292
 30
0.0
  0
VERTEX
  5
DC
330
D7
100
AcDbEntity
  8
_U+30EC_U+30A4_U+30E4_U+30FC 1
370
     0
100
AcDbVertex
100
AcDb2dVertex
 10
93.20257972930352
 20
-93.38723684731292
 30
0.0
  0
SEQEND
  5
DD
330
D7
100
AcDbEntity
  8
_U+30EC_U+30A4_U+30E4_U+30FC 1
370
     0
  0
HATCH
  5
DE
330
D1
100
AcDbEntity
  8
_U+30EC_U+30A4_U+30E4_U+30FC 1
 62
     7
420
 16777215
100
AcDbHatch
 10
0.0
 20
0.0
 30
0.0
210
0.0
220
0.0
230
1.0
  2
SOLID
 70
     1
 71
     0
 91
        1
 92
        1
 93
        4
 72
     1
 10
93.20257972930352
 20
-93.38723684731292
 11
93.20257972930352
 21
-93.13557262211542
 72
     1
 10
93.20257972930352
 20
-93.13557262211542
 11
93.4544162092753
 21
-93.13557262211542
 72
     1
 10
93.4544162092753
 20
-93.13557262211542
 11
93.4544162092753
 21
-93.38723684731292
 72
     1
 10
93.4544162092753
 20
-93.38723684731292
 11
93.20257972930352
 21
-93.38723684731292
 97
        0
 75
     2
 76
     1
 98
        0
  0
SPLINE
  5
DF
330
D1
100
AcDbEntity
  8
_U+30EC_U+30A4_U+30E4_U+30FC 1
370
     0
100
AcDbSpline
210
0.0
220
0.0
230
1.0
 70
    11
 71
     3
 72
    44
 73
    40
 74
     0
 42
0.0000000001
 43
0.0000000001
 12
1.0
 22
0.0
 32
0.0
 13
1.0
 23
0.0
 33
0.0
 40
0.0
 40
0.0
 40
0.0
 40
0.0
 40
1.0
 40
1.0
 40
1.0
 40
2.0
 40
2.0
 40
2.0
 40
3.0
 40
3.0
 40
3.0
 40
4.0
 40
4.0
 40
4.0
 40
5.0
 40
5.0
 40
5.0
 40
6.0
 40
6.0
 40
6.0
 40
7.0
 40
7.0
 40
7.0
 40
8.0
 40
8.0
 40
8.0
 40
9.0
 40
9.0
 40
9.0
 40
10.0
 40
10.0
 40
10.0
 40
11.0
 40
11.0
 40
11.0
 40
12.0
 40
12.0
 40
12.0
 40
13.0
 40
13.0
 40
13.0
 40
13.0
 10
94.28399520212345
 20
-92.80553247462848
 30
0.0
 10
94.06592065790714
 20
-92.96417912172424
 30
0.0
 10
93.97290307980539
 20
-93.03824867465711
 30
0.0
 10
93.92432723346337
 20
-93.1820814111663
 30
0.0
 10
93.92432723346337
 20
-93.1820814111663
 30
0.0
 10
94.7025743035813
 20
-93.1820814111663
 30
0.0
 10
94.7025743035813
 20
-93.1820814111663
 30
0.0
 10
94.7025743035813
 20
-93.1820814111663
 30
0.0
 10
94.7025743035813
 20
-93.38723684731292
 30
0.0
 10
94.7025743035813
 20
-93.38723684731292
 30
0.0
 10
94.7025743035813
 20
-93.38723684731292
 30
0.0
 10
93.67455781078276
 20
-93.38723684731292
 30
0.0
 10
93.67455781078276
 20
-93.38723684731292
 30
0.0
 10
93.70625268924705
 20
-93.02963593594399
 30
0.0
 10
93.7717095034668
 20
-92.95143226842882
 30
0.0
 10
94.15687117871774
 20
-92.65308699940617
 30
0.0
 10
94.4128417732718
 20
-92.45430498990726
 30
0.0
 10
94.47829858749154
 20
-92.3866088636221
 30
0.0
 10
94.47829858749154
 20
-92.24914955376063
 30
0.0
 10
94.47829858749154
 20
-92.13063826906804
 30
0.0
 10
94.40664060139835
 20
-91.99955238585429
 30
0.0
 10
94.20992564919058
 20
-91.99955238585429
 30
0.0
 10
93.9494764305057
 20
-91.99955238585429
 30
0.0
 10
93.9412082013411
 20
-92.2300292738175
 30
0.0
 10
93.93672957721027
 20
-92.34647350121894
 30
0.0
 10
93.93672957721027
 20
-92.34647350121894
 30
0.0
 10
93.71279837066902
 20
-92.34647350121894
 30
0.0
 10
93.71279837066902
 20
-92.34647350121894
 30
0.0
 10
93.72106659983362
 20
-92.21952173258748
 30
0.0
 10
93.7317463958379
 20
-92.1073838745426
 30
0.0
 10
93.81201712064423
 20
-91.98887258985
 30
0.0
 10
93.92191566662369
 20
-91.8281588854631
 30
0.0
 10
94.1082953323757
 20
-91.79422469493339
 30
0.0
 10
94.22473955977715
 20
-91.79422469493339
 30
0.0
 10
94.50172523679124
 20
-91.79422469493339
 30
0.0
 10
94.70911998500328
 20
-91.97836504861999
 30
0.0
 10
94.70911998500328
 20
-92.25121661105179
 30
0.0
 10
94.70911998500328
 20
-92.47962644172385
 30
0.0
 10
94.59267575760184
 20
-92.57918970124757
 30
0.0
 10
94.28399520212345
 20
-92.80553247462848
 30
0.0
  0
HATCH
  5
E0
330
D1
100
AcDbEntity
  8
_U+30EC_U+30A4_U+30E4_U+30FC 1
 62
     7
420
 16777215
100
AcDbHatch
 10
0.0
 20
0.0
 30
0.0
210
0.0
220
0.0
230
1.0
  2
SOLID
 70
     1
 71
     0
 91
        1
 92
        1
 93
        1
 72
     4
 94
        3
 73
     0
 74
     1
 95
       44
 96
       40
 40
0.0
 40
0.0
 40
0.0
 40
0.0
 40
1.0
 40
1.0
 40
1.0
 40
2.0
 40
2.0
 40
2.0
 40
3.0
 40
3.0
 40
3.0
 40
4.0
 40
4.0
 40
4.0
 40
5.0
 40
5.0
 40
5.0
 40
6.0
 40
6.0
 40
6.0
 40
7.0
 40
7.0
 40
7.0
 40
8.0
 40
8.0
 40
8.0
 40
9.0
 40
9.0
 40
9.0
 40
10.0
 40
10.0
 40
10.0
 40
11.0
 40
11.0
 40
11.0
 40
12.0
 40
12.0
 40
12.0
 40
13.0
 40
13.0
 40
13.0
 40
13.0
 10
94.28399520212345
 20
-92.80553247462848
 10
94.06592065790714
 20
-92.96417912172424
 10
93.97290307980539
 20
-93.03824867465711
 10
93.92432723346337
 20
-93.1820814111663
 10
93.92432723346337
 20
-93.1820814111663
 10
94.7025743035813
 20
-93.1820814111663
 10
94.7025743035813
 20
-93.1820814111663
 10
94.7025743035813
 20
-93.1820814111663
 10
94.7025743035813
 20
-93.38723684731292
 10
94.7025743035813
 20
-93.38723684731292
 10
94.7025743035813
 20
-93.38723684731292
 10
93.67455781078276
 20
-93.38723684731292
 10
93.67455781078276
 20
-93.38723684731292
 10
93.70625268924705
 20
-93.02963593594399
 10
93.7717095034668
 20
-92.95143226842882
 10
94.15687117871774
 20
-92.65308699940617
 10
94.4128417732718
 20
-92.45430498990726
 10
94.47829858749154
 20
-92.3866088636221
 10
94.47829858749154
 20
-92.24914955376063
 10
94.47829858749154
 20
-92.13063826906804
 10
94.40664060139835
 20
-91.99955238585429
 10
94.20992564919058
 20
-91.99955238585429
 10
93.9494764305057
 20
-91.99955238585429
 10
93.9412082013411
 20
-92.2300292738175
 10
93.93672957721027
 20
-92.34647350121894
 10
93.93672957721027
 20
-92.34647350121894
 10
93.71279837066902
 20
-92.34647350121894
 10
93.71279837066902
 20
-92.34647350121894
 10
93.72106659983362
 20
-92.21952173258748
 10
93.7317463958379
 20
-92.1073838745426
 10
93.81201712064423
 20
-91.98887258985
 10
93.92191566662369
 20
-91.8281588854631
 10
94.1082953323757
 20
-91.79422469493339
 10
94.22473955977715
 20
-91.79422469493339
 10
94.50172523679124
 20
-91.79422469493339
 10
94.70911998500328
 20
-91.97836504861999
 10
94.70911998500328
 20
-92.25121661105179
 10
94.70911998500328
 20
-92.47962644172385
 10
94.59267575760184
 20
-92.57918970124757
 10
94.28399520212345
 20
-92.80553247462848
 97
        0
 97
        0
 75
     2
 76
     1
 98
        0
  0
ENDBLK
  5
D4
330
D1
100
AcDbEntity
  8
0
100
AcDbBlockEnd
  0
BLOCK
  5
E3
330
E1
100
AcDbEntity
  8
0
100
AcDbBlockBegin
  2
block 4
 70
     0
 10
0.0
 20
0.0
 30
0.0
  3
block 4
  1

  0
SPLINE
  5
E5
330
E1
100
AcDbEntity
  8
_U+30EC_U+30A4_U+30E4_U+30FC 1
370
     0
100
AcDbSpline
210
0.0
220
0.0
230
1.0
 70
    11
 71
     3
 72
    53
 73
    49
 74
     0
 42
0.0000000001
 43
0.0000000001
 12
1.0
 22
0.0
 32
0.0
 13
1.0
 23
0.0
 33
0.0
 40
0.0
 40
0.0
 40
0.0
 40
0.0
 40
1.0
 40
1.0
 40
1.0
 40
2.0
 40
2.0
 40
2.0
 40
3.0
 40
3.0
 40
3.0
 40
4.0
 40
4.0
 40
4.0
 40
5.0
 40
5.0
 40
5.0
 40
6.0
 40
6.0
 40
6.0
 40
7.0
 40
7.0
 40
7.0
 40
8.0
 40
8.0
 40
8.0
 40
9.0
 40
9.0
 40
9.0
 40
10.0
 40
10.0
 40
10.0
 40
11.0
 40
11.0
 40
11.0
 40
12.0
 40
12.0
 40
12.0
 40
13.0
 40
13.0
 40
13.0
 40
14.0
 40
14.0
 40
14.0
 40
15.0
 40
15.0
 40
15.0
 40
16.0
 40
16.0
 40
16.0
 40
16.0
 10
108.1436143392835
 20
-124.4468397041313
 30
0.0
 10
108.1436143392835
 20
-124.5250433716465
 30
0.0
 10
108.1267333714058
 20
-124.6266736884614
 30
0.0
 10
108.0633436144772
 20
-124.7283040052763
 30
0.0
 10
107.9534450684978
 20
-124.9015923081843
 30
0.0
 10
107.8221869305097
 20
-124.9229519001929
 30
0.0
 10
107.7143554418214
 20
-124.9418999253618
 30
0.0
 10
107.7143554418214
 20
-124.9418999253618
 30
0.0
 10
107.7143554418214
 20
-124.7196912665631
 30
0.0
 10
107.7143554418214
 20
-124.7196912665631
 30
0.0
 10
107.9131374513203
 20
-124.6649142483477
 30
0.0
 10
107.9427652724935
 20
-124.5377902249419
 30
0.0
 10
107.9427652724935
 20
-124.4447726468402
 30
0.0
 10
107.9427652724935
 20
-124.3052462796876
 30
0.0
 10
107.8432020129698
 20
-124.1529730592395
 30
0.0
 10
107.6106580677154
 20
-124.1529730592395
 30
0.0
 10
107.3546874731613
 20
-124.1529730592395
 30
0.0
 10
107.2847520348108
 20
-124.3328070435696
 30
0.0
 10
107.2847520348108
 20
-124.4533853855533
 30
0.0
 10
107.2847520348108
 20
-124.4850802640176
 30
0.0
 10
107.2847520348108
 20
-124.6266736884614
 30
0.0
 10
107.4139431155076
 20
-124.7155571519808
 30
0.0
 10
107.4139431155076
 20
-124.7155571519808
 30
0.0
 10
107.3949950903388
 20
-124.8912570217286
 30
0.0
 10
107.3949950903388
 20
-124.8912570217286
 30
0.0
 10
107.3949950903388
 20
-124.8912570217286
 30
0.0
 10
106.5485351296129
 20
-124.7706786797448
 30
0.0
 10
106.5485351296129
 20
-124.7706786797448
 30
0.0
 10
106.5485351296129
 20
-124.7706786797448
 30
0.0
 10
106.5485351296129
 20
-123.9920871000784
 30
0.0
 10
106.5485351296129
 20
-123.9920871000784
 30
0.0
 10
106.5485351296129
 20
-123.9920871000784
 30
0.0
 10
106.7431830245295
 20
-123.9920871000784
 30
0.0
 10
106.7431830245295
 20
-123.9920871000784
 30
0.0
 10
106.7431830245295
 20
-123.9920871000784
 30
0.0
 10
106.7431830245295
 20
-124.6077256632925
 30
0.0
 10
106.7431830245295
 20
-124.6077256632925
 30
0.0
 10
106.7431830245295
 20
-124.6077256632925
 30
0.0
 10
107.1662407501182
 20
-124.6731824775123
 30
0.0
 10
107.1662407501182
 20
-124.6731824775123
 30
0.0
 10
107.1324788143627
 20
-124.6118597778748
 30
0.0
 10
107.0921711971853
 20
-124.5295219957773
 30
0.0
 10
107.0921711971853
 20
-124.4110107110848
 30
0.0
 10
107.0921711971853
 20
-124.1571071738218
 30
0.0
 10
107.2785508629373
 20
-123.9200846044367
 30
0.0
 10
107.5917100425465
 20
-123.9200846044367
 30
0.0
 10
107.909003336738
 20
-123.9200846044367
 30
0.0
 10
108.1436143392835
 20
-124.1443603205264
 30
0.0
 10
108.1436143392835
 20
-124.4468397041313
 30
0.0
  0
HATCH
  5
E6
330
E1
100
AcDbEntity
  8
_U+30EC_U+30A4_U+30E4_U+30FC 1
 62
     7
420
 16777215
100
AcDbHatch
 10
0.0
 20
0.0
 30
0.0
210
0.0
220
0.0
230
1.0
  2
SOLID
 70
     1
 71
     0
 91
        1
 92
        1
 93
        1
 72
     4
 94
        3
 73
     0
 74
     1
 95
       53
 96
       49
 40
0.0
 40
0.0
 40
0.0
 40
0.0
 40
1.0
 40
1.0
 40
1.0
 40
2.0
 40
2.0
 40
2.0
 40
3.0
 40
3.0
 40
3.0
 40
4.0
 40
4.0
 40
4.0
 40
5.0
 40
5.0
 40
5.0
 40
6.0
 40
6.0
 40
6.0
 40
7.0
 40
7.0
 40
7.0
 40
8.0
 40
8.0
 40
8.0
 40
9.0
 40
9.0
 40
9.0
 40
10.0
 40
10.0
 40
10.0
 40
11.0
 40
11.0
 40
11.0
 40
12.0
 40
12.0
 40
12.0
 40
13.0
 40
13.0
 40
13.0
 40
14.0
 40
14.0
 40
14.0
 40
15.0
 40
15.0
 40
15.0
 40
16.0
 40
16.0
 40
16.0
 40
16.0
 10
108.1436143392835
 20
-124.4468397041313
 10
108.1436143392835
 20
-124.5250433716465
 10
108.1267333714058
 20
-124.6266736884614
 10
108.0633436144772
 20
-124.7283040052763
 10
107.9534450684978
 20
-124.9015923081843
 10
107.8221869305097
 20
-124.9229519001929
 10
107.7143554418214
 20
-124.9418999253618
 10
107.7143554418214
 20
-124.9418999253618
 10
107.7143554418214
 20
-124.7196912665631
 10
107.7143554418214
 20
-124.7196912665631
 10
107.9131374513203
 20
-124.6649142483477
 10
107.9427652724935
 20
-124.5377902249419
 10
107.9427652724935
 20
-124.4447726468402
 10
107.9427652724935
 20
-124.3052462796876
 10
107.8432020129698
 20
-124.1529730592395
 10
107.6106580677154
 20
-124.1529730592395
 10
107.3546874731613
 20
-124.1529730592395
 10
107.2847520348108
 20
-124.3328070435696
 10
107.2847520348108
 20
-124.4533853855533
 10
107.2847520348108
 20
-124.4850802640176
 10
107.2847520348108
 20
-124.6266736884614
 10
107.4139431155076
 20
-124.7155571519808
 10
107.4139431155076
 20
-124.7155571519808
 10
107.3949950903388
 20
-124.8912570217286
 10
107.3949950903388
 20
-124.8912570217286
 10
107.3949950903388
 20
-124.8912570217286
 10
106.5485351296129
 20
-124.7706786797448
 10
106.5485351296129
 20
-124.7706786797448
 10
106.5485351296129
 20
-124.7706786797448
 10
106.5485351296129
 20
-123.9920871000784
 10
106.5485351296129
 20
-123.9920871000784
 10
106.5485351296129
 20
-123.9920871000784
 10
106.7431830245295
 20
-123.9920871000784
 10
106.7431830245295
 20
-123.9920871000784
 10
106.7431830245295
 20
-123.9920871000784
 10
106.7431830245295
 20
-124.6077256632925
 10
106.7431830245295
 20
-124.6077256632925
 10
106.7431830245295
 20
-124.6077256632925
 10
107.1662407501182
 20
-124.6731824775123
 10
107.1662407501182
 20
-124.6731824775123
 10
107.1324788143627
 20
-124.6118597778748
 10
107.0921711971853
 20
-124.5295219957773
 10
107.0921711971853
 20
-124.4110107110848
 10
107.0921711971853
 20
-124.1571071738218
 10
107.2785508629373
 20
-123.9200846044367
 10
107.5917100425465
 20
-123.9200846044367
 10
107.909003336738
 20
-123.9200846044367
 10
108.1436143392835
 20
-124.1443603205264
 10
108.1436143392835
 20
-124.4468397041313
 97
        0
 97
        0
 75
     2
 76
     1
 98
        0
  0
SPLINE
  5
E7
330
E1
100
AcDbEntity
  8
_U+30EC_U+30A4_U+30E4_U+30FC 1
370
     0
100
AcDbSpline
210
0.0
220
0.0
230
1.0
 70
    11
 71
     3
 72
    29
 73
    25
 74
     0
 42
0.0000000001
 43
0.0000000001
 12
1.0
 22
0.0
 32
0.0
 13
1.0
 23
0.0
 33
0.0
 40
0.0
 40
0.0
 40
0.0
 40
0.0
 40
1.0
 40
1.0
 40
1.0
 40
2.0
 40
2.0
 40
2.0
 40
3.0
 40
3.0
 40
3.0
 40
4.0
 40
4.0
 40
4.0
 40
5.0
 40
5.0
 40
5.0
 40
6.0
 40
6.0
 40
6.0
 40
7.0
 40
7.0
 40
7.0
 40
8.0
 40
8.0
 40
8.0
 40
8.0
 10
107.9152045086115
 20
-122.8531385326548
 30
0.0
 10
108.1246663141147
 20
-122.9613145308916
 30
0.0
 10
108.1436143392835
 20
-123.1346028337997
 30
0.0
 10
108.1436143392835
 20
-123.2510470612011
 30
0.0
 10
108.1436143392835
 20
-123.4119330203623
 30
0.0
 10
108.0971055502327
 20
-123.5535264448061
 30
0.0
 10
107.9152045086115
 20
-123.648611080199
 30
0.0
 10
107.7205566136949
 20
-123.752308454305
 30
0.0
 10
107.4835340443097
 20
-123.7712564794739
 30
0.0
 10
107.3209255374059
 20
-123.7712564794739
 30
0.0
 10
107.1769205461224
 20
-123.7712564794739
 30
0.0
 10
106.9250840661507
 20
-123.7543755115961
 30
0.0
 10
106.7263020566518
 20
-123.648611080199
 30
0.0
 10
106.5233859325705
 20
-123.5407795915106
 30
0.0
 10
106.4999592832709
 20
-123.3798936323495
 30
0.0
 10
106.4999592832709
 20
-123.2510470612011
 30
0.0
 10
106.4999592832709
 20
-123.0922281593311
 30
0.0
 10
106.5444010150306
 20
-122.9485676775962
 30
0.0
 10
106.7263020566518
 20
-122.8531385326548
 30
0.0
 10
106.9188828942772
 20
-122.7539197826796
 30
0.0
 10
107.1472927249493
 20
-122.7304931333799
 30
0.0
 10
107.3209255374059
 20
-122.7304931333799
 30
0.0
 10
107.4921467830228
 20
-122.7304931333799
 30
0.0
 10
107.722623670986
 20
-122.7518527253884
 30
0.0
 10
107.9152045086115
 20
-122.8531385326548
 30
0.0
  0
SPLINE
  5
E8
330
E1
100
AcDbEntity
  8
_U+30EC_U+30A4_U+30E4_U+30FC 1
370
     0
100
AcDbSpline
210
0.0
220
0.0
230
1.0
 70
    11
 71
     3
 72
    17
 73
    13
 74
     0
 42
0.0000000001
 43
0.0000000001
 12
1.0
 22
0.0
 32
0.0
 13
1.0
 23
0.0
 33
0.0
 40
0.0
 40
0.0
 40
0.0
 40
0.0
 40
1.0
 40
1.0
 40
1.0
 40
2.0
 40
2.0
 40
2.0
 40
3.0
 40
3.0
 40
3.0
 40
4.0
 40
4.0
 40
4.0
 40
4.0
 10
106.6925401208963
 20
-123.2510470612011
 30
0.0
 10
106.6925401208963
 20
-123.5004719743332
 30
0.0
 10
106.9760714793324
 20
-123.5473252729326
 30
0.0
 10
107.3209255374059
 20
-123.5473252729326
 30
0.0
 10
107.6402858888885
 20
-123.5473252729326
 30
0.0
 10
107.9489664443669
 20
-123.5111517703375
 30
0.0
 10
107.9489664443669
 20
-123.2510470612011
 30
0.0
 10
107.9489664443669
 20
-123.0033446958117
 30
0.0
 10
107.6678466527705
 20
-122.9547688494696
 30
0.0
 10
107.3209255374059
 20
-122.9547688494696
 30
0.0
 10
107.0012206763747
 20
-122.9547688494696
 30
0.0
 10
106.6925401208963
 20
-122.9930094093559
 30
0.0
 10
106.6925401208963
 20
-123.2510470612011
 30
0.0
  0
HATCH
  5
E9
330
E1
100
AcDbEntity
  8
_U+30EC_U+30A4_U+30E4_U+30FC 1
 62
     7
420
 16777215
100
AcDbHatch
 10
0.0
 20
0.0
 30
0.0
210
0.0
220
0.0
230
1.0
  2
SOLID
 70
     1
 71
     0
 91
        2
 92
        1
 93
        1
 72
     4
 94
        3
 73
     0
 74
     1
 95
       29
 96
       25
 40
0.0
 40
0.0
 40
0.0
 40
0.0
 40
1.0
 40
1.0
 40
1.0
 40
2.0
 40
2.0
 40
2.0
 40
3.0
 40
3.0
 40
3.0
 40
4.0
 40
4.0
 40
4.0
 40
5.0
 40
5.0
 40
5.0
 40
6.0
 40
6.0
 40
6.0
 40
7.0
 40
7.0
 40
7.0
 40
8.0
 40
8.0
 40
8.0
 40
8.0
 10
107.9152045086115
 20
-122.8531385326548
 10
108.1246663141147
 20
-122.9613145308916
 10
108.1436143392835
 20
-123.1346028337997
 10
108.1436143392835
 20
-123.2510470612011
 10
108.1436143392835
 20
-123.4119330203623
 10
108.0971055502327
 20
-123.5535264448061
 10
107.9152045086115
 20
-123.648611080199
 10
107.7205566136949
 20
-123.752308454305
 10
107.4835340443097
 20
-123.7712564794739
 10
107.3209255374059
 20
-123.7712564794739
 10
107.1769205461224
 20
-123.7712564794739
 10
106.9250840661507
 20
-123.7543755115961
 10
106.7263020566518
 20
-123.648611080199
 10
106.5233859325705
 20
-123.5407795915106
 10
106.4999592832709
 20
-123.3798936323495
 10
106.4999592832709
 20
-123.2510470612011
 10
106.4999592832709
 20
-123.0922281593311
 10
106.5444010150306
 20
-122.9485676775962
 10
106.7263020566518
 20
-122.8531385326548
 10
106.9188828942772
 20
-122.7539197826796
 10
107.1472927249493
 20
-122.7304931333799
 10
107.3209255374059
 20
-122.7304931333799
 10
107.4921467830228
 20
-122.7304931333799
 10
107.722623670986
 20
-122.7518527253884
 10
107.9152045086115
 20
-122.8531385326548
 97
        0
 97
        0
 92
        1
 93
        1
 72
     4
 94
        3
 73
     0
 74
     1
 95
       17
 96
       13
 40
0.0
 40
0.0
 40
0.0
 40
0.0
 40
1.0
 40
1.0
 40
1.0
 40
2.0
 40
2.0
 40
2.0
 40
3.0
 40
3.0
 40
3.0
 40
4.0
 40
4.0
 40
4.0
 40
4.0
 10
106.6925401208963
 20
-123.2510470612011
 10
106.6925401208963
 20
-123.5004719743332
 10
106.9760714793324
 20
-123.5473252729326
 10
107.3209255374059
 20
-123.5473252729326
 10
107.6402858888885
 20
-123.5473252729326
 10
107.9489664443669
 20
-123.5111517703375
 10
107.9489664443669
 20
-123.2510470612011
 10
107.9489664443669
 20
-123.0033446958117
 10
107.6678466527705
 20
-122.9547688494696
 10
107.3209255374059
 20
-122.9547688494696
 10
107.0012206763747
 20
-122.9547688494696
 10
106.6925401208963
 20
-122.9930094093559
 10
106.6925401208963
 20
-123.2510470612011
 97
        0
 97
        0
 75
     2
 76
     1
 98
        0
  0
ENDBLK
  5
E4
330
E1
100
AcDbEntity
  8
0
100
AcDbBlockEnd
  0
BLOCK
  5
EC
330
EA
100
AcDbEntity
  8
0
100
AcDbBlockBegin
  2
block 5
 70
     0
 10
0.0
 20
0.0
 30
0.0
  3
block 5
  1

  0
SPLINE
  5
EE
330
EA
100
AcDbEntity
  8
_U+30EC_U+30A4_U+30E4_U+30FC 1
370
     0
100
AcDbSpline
210
0.0
220
0.0
230
1.0
 70
    11
 71
     3
 72
    26
 73
    22
 74
     0
 42
0.0000000001
 43
0.0000000001
 12
1.0
 22
0.0
 32
0.0
 13
1.0
 23
0.0
 33
0.0
 40
0.0
 40
0.0
 40
0.0
 40
0.0
 40
1.0
 40
1.0
 40
1.0
 40
2.0
 40
2.0
 40
2.0
 40
3.0
 40
3.0
 40
3.0
 40
4.0
 40
4.0
 40
4.0
 40
5.0
 40
5.0
 40
5.0
 40
6.0
 40
6.0
 40
6.0
 40
7.0
 40
7.0
 40
7.0
 40
7.0
 10
108.0929714356504
 20
-154.3761067322393
 30
0.0
 10
108.0929714356504
 20
-154.3761067322393
 30
0.0
 10
106.9888183326278
 20
-154.3761067322393
 30
0.0
 10
106.9888183326278
 20
-154.3761067322393
 30
0.0
 10
106.9888183326278
 20
-154.3761067322393
 30
0.0
 10
106.9888183326278
 20
-154.7061468797262
 30
0.0
 10
106.9888183326278
 20
-154.7061468797262
 30
0.0
 10
106.9888183326278
 20
-154.7061468797262
 30
0.0
 10
106.8406792267621
 20
-154.7061468797262
 30
0.0
 10
106.8406792267621
 20
-154.7061468797262
 30
0.0
 10
106.8258653161755
 20
-154.3740396749482
 30
0.0
 10
106.6629122997232
 20
-154.3275308858973
 30
0.0
 10
106.5485351296129
 20
-154.2979030647242
 30
0.0
 10
106.5485351296129
 20
-154.2979030647242
 30
0.0
 10
106.5485351296129
 20
-154.1518310161495
 30
0.0
 10
106.5485351296129
 20
-154.1518310161495
 30
0.0
 10
106.5485351296129
 20
-154.1518310161495
 30
0.0
 10
108.0929714356504
 20
-154.1518310161495
 30
0.0
 10
108.0929714356504
 20
-154.1518310161495
 30
0.0
 10
108.0929714356504
 20
-154.1518310161495
 30
0.0
 10
108.0929714356504
 20
-154.3761067322393
 30
0.0
 10
108.0929714356504
 20
-154.3761067322393
 30
0.0
  0
HATCH
  5
EF
330
EA
100
AcDbEntity
  8
_U+30EC_U+30A4_U+30E4_U+30FC 1
 62
     7
420
 16777215
100
AcDbHatch
 10
0.0
 20
0.0
 30
0.0
210
0.0
220
0.0
230
1.0
  2
SOLID
 70
     1
 71
     0
 91
        1
 92
        1
 93
        1
 72
     4
 94
        3
 73
     0
 74
     1
 95
       26
 96
       22
 40
0.0
 40
0.0
 40
0.0
 40
0.0
 40
1.0
 40
1.0
 40
1.0
 40
2.0
 40
2.0
 40
2.0
 40
3.0
 40
3.0
 40
3.0
 40
4.0
 40
4.0
 40
4.0
 40
5.0
 40
5.0
 40
5.0
 40
6.0
 40
6.0
 40
6.0
 40
7.0
 40
7.0
 40
7.0
 40
7.0
 10
108.0929714356504
 20
-154.3761067322393
 10
108.0929714356504
 20
-154.3761067322393
 10
106.9888183326278
 20
-154.3761067322393
 10
106.9888183326278
 20
-154.3761067322393
 10
106.9888183326278
 20
-154.3761067322393
 10
106.9888183326278
 20
-154.7061468797262
 10
106.9888183326278
 20
-154.7061468797262
 10
106.9888183326278
 20
-154.7061468797262
 10
106.8406792267621
 20
-154.7061468797262
 10
106.8406792267621
 20
-154.7061468797262
 10
106.8258653161755
 20
-154.3740396749482
 10
106.6629122997232
 20
-154.3275308858973
 10
106.5485351296129
 20
-154.2979030647242
 10
106.5485351296129
 20
-154.2979030647242
 10
106.5485351296129
 20
-154.1518310161495
 10
106.5485351296129
 20
-154.1518310161495
 10
106.5485351296129
 20
-154.1518310161495
 10
108.0929714356504
 20
-154.1518310161495
 10
108.0929714356504
 20
-154.1518310161495
 10
108.0929714356504
 20
-154.1518310161495
 10
108.0929714356504
 20
-154.3761067322393
 10
108.0929714356504
 20
-154.3761067322393
 97
        0
 97
        0
 75
     2
 76
     1
 98
        0
  0
SPLINE
  5
F0
330
EA
100
AcDbEntity
  8
_U+30EC_U+30A4_U+30E4_U+30FC 1
370
     0
100
AcDbSpline
210
0.0
220
0.0
230
1.0
 70
    11
 71
     3
 72
    29
 73
    25
 74
     0
 42
0.0000000001
 43
0.0000000001
 12
1.0
 22
0.0
 32
0.0
 13
1.0
 23
0.0
 33
0.0
 40
0.0
 40
0.0
 40
0.0
 40
0.0
 40
1.0
 40
1.0
 40
1.0
 40
2.0
 40
2.0
 40
2.0
 40
3.0
 40
3.0
 40
3.0
 40
4.0
 40
4.0
 40
4.0
 40
5.0
 40
5.0
 40
5.0
 40
6.0
 40
6.0
 40
6.0
 40
7.0
 40
7.0
 40
7.0
 40
8.0
 40
8.0
 40
8.0
 40
8.0
 10
107.9152045086115
 20
-152.7527777395896
 30
0.0
 10
108.1246663141147
 20
-152.8609537378264
 30
0.0
 10
108.1436143392835
 20
-153.0342420407345
 30
0.0
 10
108.1436143392835
 20
-153.150686268136
 30
0.0
 10
108.1436143392835
 20
-153.3115722272971
 30
0.0
 10
108.0971055502327
 20
-153.4531656517409
 30
0.0
 10
107.9152045086115
 20
-153.5482502871338
 30
0.0
 10
107.7205566136949
 20
-153.6519476612398
 30
0.0
 10
107.4835340443097
 20
-153.6712401959572
 30
0.0
 10
107.3209255374059
 20
-153.6712401959572
 30
0.0
 10
107.1769205461224
 20
-153.6712401959572
 30
0.0
 10
106.9250840661507
 20
-153.654014718531
 30
0.0
 10
106.7263020566518
 20
-153.5482502871338
 30
0.0
 10
106.5233859325705
 20
-153.4404187984454
 30
0.0
 10
106.4999592832709
 20
-153.2795328392843
 30
0.0
 10
106.4999592832709
 20
-153.150686268136
 30
0.0
 10
106.4999592832709
 20
-152.9918673662659
 30
0.0
 10
106.5444010150306
 20
-152.848206884531
 30
0.0
 10
106.7263020566518
 20
-152.7527777395896
 30
0.0
 10
106.9188828942772
 20
-152.6535589896144
 30
0.0
 10
107.1472927249493
 20
-152.6301323403147
 30
0.0
 10
107.3209255374059
 20
-152.6301323403147
 30
0.0
 10
107.4921467830228
 20
-152.6301323403147
 30
0.0
 10
107.722623670986
 20
-152.6514919323232
 30
0.0
 10
107.9152045086115
 20
-152.7527777395896
 30
0.0
  0
SPLINE
  5
F1
330
EA
100
AcDbEntity
  8
_U+30EC_U+30A4_U+30E4_U+30FC 1
370
     0
100
AcDbSpline
210
0.0
220
0.0
230
1.0
 70
    11
 71
     3
 72
    17
 73
    13
 74
     0
 42
0.0000000001
 43
0.0000000001
 12
1.0
 22
0.0
 32
0.0
 13
1.0
 23
0.0
 33
0.0
 40
0.0
 40
0.0
 40
0.0
 40
0.0
 40
1.0
 40
1.0
 40
1.0
 40
2.0
 40
2.0
 40
2.0
 40
3.0
 40
3.0
 40
3.0
 40
4.0
 40
4.0
 40
4.0
 40
4.0
 10
106.6925401208963
 20
-153.150686268136
 30
0.0
 10
106.6925401208963
 20
-153.4004556908166
 30
0.0
 10
106.9760714793324
 20
-153.4469644798674
 30
0.0
 10
107.3209255374059
 20
-153.4469644798674
 30
0.0
 10
107.6402858888885
 20
-153.4469644798674
 30
0.0
 10
107.9489664443669
 20
-153.4107909772723
 30
0.0
 10
107.9489664443669
 20
-153.150686268136
 30
0.0
 10
107.9489664443669
 20
-152.9029839027465
 30
0.0
 10
107.6678466527705
 20
-152.8544080564045
 30
0.0
 10
107.3209255374059
 20
-152.8544080564045
 30
0.0
 10
107.0012206763747
 20
-152.8544080564045
 30
0.0
 10
106.6925401208963
 20
-152.8926486162907
 30
0.0
 10
106.6925401208963
 20
-153.150686268136
 30
0.0
  0
HATCH
  5
F2
330
EA
100
AcDbEntity
  8
_U+30EC_U+30A4_U+30E4_U+30FC 1
 62
     7
420
 16777215
100
AcDbHatch
 10
0.0
 20
0.0
 30
0.0
210
0.0
220
0.0
230
1.0
  2
SOLID
 70
     1
 71
     0
 91
        2
 92
        1
 93
        1
 72
     4
 94
        3
 73
     0
 74
     1
 95
       29
 96
       25
 40
0.0
 40
0.0
 40
0.0
 40
0.0
 40
1.0
 40
1.0
 40
1.0
 40
2.0
 40
2.0
 40
2.0
 40
3.0
 40
3.0
 40
3.0
 40
4.0
 40
4.0
 40
4.0
 40
5.0
 40
5.0
 40
5.0
 40
6.0
 40
6.0
 40
6.0
 40
7.0
 40
7.0
 40
7.0
 40
8.0
 40
8.0
 40
8.0
 40
8.0
 10
107.9152045086115
 20
-152.7527777395896
 10
108.1246663141147
 20
-152.8609537378264
 10
108.1436143392835
 20
-153.0342420407345
 10
108.1436143392835
 20
-153.150686268136
 10
108.1436143392835
 20
-153.3115722272971
 10
108.0971055502327
 20
-153.4531656517409
 10
107.9152045086115
 20
-153.5482502871338
 10
107.7205566136949
 20
-153.6519476612398
 10
107.4835340443097
 20
-153.6712401959572
 10
107.3209255374059
 20
-153.6712401959572
 10
107.1769205461224
 20
-153.6712401959572
 10
106.9250840661507
 20
-153.654014718531
 10
106.7263020566518
 20
-153.5482502871338
 10
106.5233859325705
 20
-153.4404187984454
 10
106.4999592832709
 20
-153.2795328392843
 10
106.4999592832709
 20
-153.150686268136
 10
106.4999592832709
 20
-152.9918673662659
 10
106.5444010150306
 20
-152.848206884531
 10
106.7263020566518
 20
-152.7527777395896
 10
106.9188828942772
 20
-152.6535589896144
 10
107.1472927249493
 20
-152.6301323403147
 10
107.3209255374059
 20
-152.6301323403147
 10
107.4921467830228
 20
-152.6301323403147
 10
107.722623670986
 20
-152.6514919323232
 10
107.9152045086115
 20
-152.7527777395896
 97
        0
 97
        0
 92
        1
 93
        1
 72
     4
 94
        3
 73
     0
 74
     1
 95
       17
 96
       13
 40
0.0
 40
0.0
 40
0.0
 40
0.0
 40
1.0
 40
1.0
 40
1.0
 40
2.0
 40
2.0
 40
2.0
 40
3.0
 40
3.0
 40
3.0
 40
4.0
 40
4.0
 40
4.0
 40
4.0
 10
106.6925401208963
 20
-153.150686268136
 10
106.6925401208963
 20
-153.4004556908166
 10
106.9760714793324
 20
-153.4469644798674
 10
107.3209255374059
 20
-153.4469644798674
 10
107.6402858888885
 20
-153.4469644798674
 10
107.9489664443669
 20
-153.4107909772723
 10
107.9489664443669
 20
-153.150686268136
 10
107.9489664443669
 20
-152.9029839027465
 10
107.6678466527705
 20
-152.8544080564045
 10
107.3209255374059
 20
-152.8544080564045
 10
107.0012206763747
 20
-152.8544080564045
 10
106.6925401208963
 20
-152.8926486162907
 10
106.6925401208963
 20
-153.150686268136
 97
        0
 97
        0
 75
     2
 76
     1
 98
        0
  0
ENDBLK
  5
ED
330
EA
100
AcDbEntity
  8
0
100
AcDbBlockEnd
  0
BLOCK
  5
F5
330
F3
100
AcDbEntity
  8
0
100
AcDbBlockBegin
  2
block 6
 70
     0
 10
0.0
 20
0.0
 30
0.0
  3
block 6
  1

  0
SPLINE
  5
F7
330
F3
100
AcDbEntity
  8
_U+30EC_U+30A4_U+30E4_U+30FC 1
370
     0
100
AcDbSpline
210
0.0
220
0.0
230
1.0
 70
    11
 71
     3
 72
    62
 73
    58
 74
     0
 42
0.0000000001
 43
0.0000000001
 12
1.0
 22
0.0
 32
0.0
 13
1.0
 23
0.0
 33
0.0
 40
0.0
 40
0.0
 40
0.0
 40
0.0
 40
1.0
 40
1.0
 40
1.0
 40
2.0
 40
2.0
 40
2.0
 40
3.0
 40
3.0
 40
3.0
 40
4.0
 40
4.0
 40
4.0
 40
5.0
 40
5.0
 40
5.0
 40
6.0
 40
6.0
 40
6.0
 40
7.0
 40
7.0
 40
7.0
 40
8.0
 40
8.0
 40
8.0
 40
9.0
 40
9.0
 40
9.0
 40
10.0
 40
10.0
 40
10.0
 40
11.0
 40
11.0
 40
11.0
 40
12.0
 40
12.0
 40
12.0
 40
13.0
 40
13.0
 40
13.0
 40
14.0
 40
14.0
 40
14.0
 40
15.0
 40
15.0
 40
15.0
 40
16.0
 40
16.0
 40
16.0
 40
17.0
 40
17.0
 40
17.0
 40
18.0
 40
18.0
 40
18.0
 40
19.0
 40
19.0
 40
19.0
 40
19.0
 10
108.1436143392835
 20
-160.246549439105
 30
0.0
 10
108.1436143392835
 20
-160.3419785840464
 30
0.0
 10
108.1225992568235
 20
-160.5597086187142
 30
0.0
 10
107.93656410062
 20
-160.6847655848288
 30
0.0
 10
107.8242539878009
 20
-160.7584906282132
 30
0.0
 10
107.7250352378257
 20
-160.762969252344
 30
0.0
 10
107.6402858888885
 20
-160.7671033669263
 30
0.0
 10
107.6402858888885
 20
-160.7671033669263
 30
0.0
 10
107.6402858888885
 20
-160.5469617654188
 30
0.0
 10
107.6402858888885
 20
-160.5469617654188
 30
0.0
 10
107.7143554418214
 20
-160.5448947081277
 30
0.0
 10
107.9489664443669
 20
-160.5345594216719
 30
0.0
 10
107.9489664443669
 20
-160.2510280632359
 30
0.0
 10
107.9489664443669
 20
-160.1135687533744
 30
0.0
 10
107.8793755155649
 20
-159.9609510233778
 30
0.0
 10
107.6509656848928
 20
-159.9609510233778
 30
0.0
 10
107.5345214574914
 20
-159.9609510233778
 30
0.0
 10
107.4859456111493
 20
-159.9991915832641
 30
0.0
 10
107.4542507326851
 20
-160.0308864617284
 30
0.0
 10
107.3801811797522
 20
-160.1049560146613
 30
0.0
 10
107.3674343264568
 20
-160.2214002420627
 30
0.0
 10
107.3674343264568
 20
-160.2761772602782
 30
0.0
 10
107.3674343264568
 20
-160.2954697949956
 30
0.0
 10
107.3695013837479
 20
-160.3312987880422
 30
0.0
 10
107.3736354983302
 20
-160.3588595519242
 30
0.0
 10
107.3736354983302
 20
-160.3588595519242
 30
0.0
 10
107.1789876034136
 20
-160.3588595519242
 30
0.0
 10
107.1789876034136
 20
-160.3588595519242
 30
0.0
 10
107.1855332848356
 20
-160.3206189920379
 30
0.0
 10
107.1876003421267
 20
-160.2785888271179
 30
0.0
 10
107.1876003421267
 20
-160.2720431456959
 30
0.0
 10
107.1876003421267
 20
-160.2065863314761
 30
0.0
 10
107.1662407501182
 20
-160.0078043219772
 30
0.0
 10
106.9295626902815
 20
-160.0078043219772
 30
0.0
 10
106.7517957632426
 20
-160.0078043219772
 30
0.0
 10
106.6966742354786
 20
-160.1387179504167
 30
0.0
 10
106.6966742354786
 20
-160.2489610059447
 30
0.0
 10
106.6966742354786
 20
-160.5131998296634
 30
0.0
 10
106.9295626902815
 20
-160.5218125683765
 30
0.0
 10
107.0012206763747
 20
-160.5259466829588
 30
0.0
 10
107.0012206763747
 20
-160.5259466829588
 30
0.0
 10
107.0012206763747
 20
-160.7292073165885
 30
0.0
 10
107.0012206763747
 20
-160.7292073165885
 30
0.0
 10
106.8765082198087
 20
-160.7205945778754
 30
0.0
 10
106.4999592832709
 20
-160.6930338139934
 30
0.0
 10
106.4999592832709
 20
-160.2362141526493
 30
0.0
 10
106.4999592832709
 20
-160.0119384365595
 30
0.0
 10
106.6270833066766
 20
-159.770781752592
 30
0.0
 10
106.9230170088595
 20
-159.770781752592
 30
0.0
 10
107.1093966746115
 20
-159.770781752592
 30
0.0
 10
107.191734456709
 20
-159.8658663879849
 30
0.0
 10
107.2530571563465
 20
-159.9654296475086
 30
0.0
 10
107.2806179202285
 20
-159.9041069478712
 30
0.0
 10
107.3608886450348
 20
-159.72220590625
 30
0.0
 10
107.6382188315974
 20
-159.72220590625
 30
0.0
 10
107.9765272082489
 20
-159.72220590625
 30
0.0
 10
108.1436143392835
 20
-159.969563762091
 30
0.0
 10
108.1436143392835
 20
-160.246549439105
 30
0.0
  0
HATCH
  5
F8
330
F3
100
AcDbEntity
  8
_U+30EC_U+30A4_U+30E4_U+30FC 1
 62
     7
420
 16777215
100
AcDbHatch
 10
0.0
 20
0.0
 30
0.0
210
0.0
220
0.0
230
1.0
  2
SOLID
 70
     1
 71
     0
 91
        1
 92
        1
 93
        1
 72
     4
 94
        3
 73
     0
 74
     1
 95
       62
 96
       58
 40
0.0
 40
0.0
 40
0.0
 40
0.0
 40
1.0
 40
1.0
 40
1.0
 40
2.0
 40
2.0
 40
2.0
 40
3.0
 40
3.0
 40
3.0
 40
4.0
 40
4.0
 40
4.0
 40
5.0
 40
5.0
 40
5.0
 40
6.0
 40
6.0
 40
6.0
 40
7.0
 40
7.0
 40
7.0
 40
8.0
 40
8.0
 40
8.0
 40
9.0
 40
9.0
 40
9.0
 40
10.0
 40
10.0
 40
10.0
 40
11.0
 40
11.0
 40
11.0
 40
12.0
 40
12.0
 40
12.0
 40
13.0
 40
13.0
 40
13.0
 40
14.0
 40
14.0
 40
14.0
 40
15.0
 40
15.0
 40
15.0
 40
16.0
 40
16.0
 40
16.0
 40
17.0
 40
17.0
 40
17.0
 40
18.0
 40
18.0
 40
18.0
 40
19.0
 40
19.0
 40
19.0
 40
19.0
 10
108.1436143392835
 20
-160.246549439105
 10
108.1436143392835
 20
-160.3419785840464
 10
108.1225992568235
 20
-160.5597086187142
 10
107.93656410062
 20
-160.6847655848288
 10
107.8242539878009
 20
-160.7584906282132
 10
107.7250352378257
 20
-160.762969252344
 10
107.6402858888885
 20
-160.7671033669263
 10
107.6402858888885
 20
-160.7671033669263
 10
107.6402858888885
 20
-160.5469617654188
 10
107.6402858888885
 20
-160.5469617654188
 10
107.7143554418214
 20
-160.5448947081277
 10
107.9489664443669
 20
-160.5345594216719
 10
107.9489664443669
 20
-160.2510280632359
 10
107.9489664443669
 20
-160.1135687533744
 10
107.8793755155649
 20
-159.9609510233778
 10
107.6509656848928
 20
-159.9609510233778
 10
107.5345214574914
 20
-159.9609510233778
 10
107.4859456111493
 20
-159.9991915832641
 10
107.4542507326851
 20
-160.0308864617284
 10
107.3801811797522
 20
-160.1049560146613
 10
107.3674343264568
 20
-160.2214002420627
 10
107.3674343264568
 20
-160.2761772602782
 10
107.3674343264568
 20
-160.2954697949956
 10
107.3695013837479
 20
-160.3312987880422
 10
107.3736354983302
 20
-160.3588595519242
 10
107.3736354983302
 20
-160.3588595519242
 10
107.1789876034136
 20
-160.3588595519242
 10
107.1789876034136
 20
-160.3588595519242
 10
107.1855332848356
 20
-160.3206189920379
 10
107.1876003421267
 20
-160.2785888271179
 10
107.1876003421267
 20
-160.2720431456959
 10
107.1876003421267
 20
-160.2065863314761
 10
107.1662407501182
 20
-160.0078043219772
 10
106.9295626902815
 20
-160.0078043219772
 10
106.7517957632426
 20
-160.0078043219772
 10
106.6966742354786
 20
-160.1387179504167
 10
106.6966742354786
 20
-160.2489610059447
 10
106.6966742354786
 20
-160.5131998296634
 10
106.9295626902815
 20
-160.5218125683765
 10
107.0012206763747
 20
-160.5259466829588
 10
107.0012206763747
 20
-160.5259466829588
 10
107.0012206763747
 20
-160.7292073165885
 10
107.0012206763747
 20
-160.7292073165885
 10
106.8765082198087
 20
-160.7205945778754
 10
106.4999592832709
 20
-160.6930338139934
 10
106.4999592832709
 20
-160.2362141526493
 10
106.4999592832709
 20
-160.0119384365595
 10
106.6270833066766
 20
-159.770781752592
 10
106.9230170088595
 20
-159.770781752592
 10
107.1093966746115
 20
-159.770781752592
 10
107.191734456709
 20
-159.8658663879849
 10
107.2530571563465
 20
-159.9654296475086
 10
107.2806179202285
 20
-159.9041069478712
 10
107.3608886450348
 20
-159.72220590625
 10
107.6382188315974
 20
-159.72220590625
 10
107.9765272082489
 20
-159.72220590625
 10
108.1436143392835
 20
-159.969563762091
 10
108.1436143392835
 20
-160.246549439105
 97
        0
 97
        0
 75
     2
 76
     1
 98
        0
  0
ENDBLK
  5
F6
330
F3
100
AcDbEntity
  8
0
100
AcDbBlockEnd
  0
BLOCK
  5
FB
330
F9
100
AcDbEntity
  8
0
100
AcDbBlockBegin
  2
block 7
 70
     0
 10
0.0
 20
0.0
 30
0.0
  3
block 7
  1

  0
SPLINE
  5
FD
330
F9
100
AcDbEntity
  8
_U+30EC_U+30A4_U+30E4_U+30FC 1
370
     0
100
AcDbSpline
210
0.0
220
0.0
230
1.0
 70
    11
 71
     3
 72
    44
 73
    40
 74
     0
 42
0.0000000001
 43
0.0000000001
 12
1.0
 22
0.0
 32
0.0
 13
1.0
 23
0.0
 33
0.0
 40
0.0
 40
0.0
 40
0.0
 40
0.0
 40
1.0
 40
1.0
 40
1.0
 40
2.0
 40
2.0
 40
2.0
 40
3.0
 40
3.0
 40
3.0
 40
4.0
 40
4.0
 40
4.0
 40
5.0
 40
5.0
 40
5.0
 40
6.0
 40
6.0
 40
6.0
 40
7.0
 40
7.0
 40
7.0
 40
8.0
 40
8.0
 40
8.0
 40
9.0
 40
9.0
 40
9.0
 40
10.0
 40
10.0
 40
10.0
 40
11.0
 40
11.0
 40
11.0
 40
12.0
 40
12.0
 40
12.0
 40
13.0
 40
13.0
 40
13.0
 40
13.0
 10
74.65866426084922
 20
-149.7345295849622
 30
0.0
 10
74.81748316271924
 20
-149.95225961963
 30
0.0
 10
74.89155271565211
 20
-150.0452771977317
 30
0.0
 10
75.03521319738704
 20
-150.0941975536223
 30
0.0
 10
75.03521319738704
 20
-150.0941975536223
 30
0.0
 10
75.03521319738704
 20
-149.3156059739558
 30
0.0
 10
75.03521319738704
 20
-149.3156059739558
 30
0.0
 10
75.03521319738704
 20
-149.3156059739558
 30
0.0
 10
75.24054088830792
 20
-149.3156059739558
 30
0.0
 10
75.24054088830792
 20
-149.3156059739558
 30
0.0
 10
75.24054088830792
 20
-149.3156059739558
 30
0.0
 10
75.24054088830792
 20
-150.3436224667544
 30
0.0
 10
75.24054088830792
 20
-150.3436224667544
 30
0.0
 10
74.88293997693899
 20
-150.3119275882901
 30
0.0
 10
74.80473630942382
 20
-150.2464707740703
 30
0.0
 10
74.50639104040118
 20
-149.8613090988194
 30
0.0
 10
74.30760903090227
 20
-149.6053385042653
 30
0.0
 10
74.23974064984284
 20
-149.5398816900456
 30
0.0
 10
74.10228133998137
 20
-149.5398816900456
 30
0.0
 10
73.98377005528879
 20
-149.5398816900456
 30
0.0
 10
73.85285642684929
 20
-149.6118841856873
 30
0.0
 10
73.85285642684929
 20
-149.8085991378951
 30
0.0
 10
73.85285642684929
 20
-150.0687038470314
 30
0.0
 10
74.0833333148125
 20
-150.0773165857446
 30
0.0
 10
74.19977754221395
 20
-150.0814507003269
 30
0.0
 10
74.19977754221395
 20
-150.0814507003269
 30
0.0
 10
74.19977754221395
 20
-150.3057264164166
 30
0.0
 10
74.19977754221395
 20
-150.3057264164166
 30
0.0
 10
74.07265351880822
 20
-150.2971136777035
 30
0.0
 10
73.9606879155376
 20
-150.2864338816992
 30
0.0
 10
73.84217663084502
 20
-150.2061631568929
 30
0.0
 10
73.68129067168385
 20
-150.0962646109134
 30
0.0
 10
73.6475287359284
 20
-149.9098849451614
 30
0.0
 10
73.6475287359284
 20
-149.7937852273085
 30
0.0
 10
73.6475287359284
 20
-149.5164550407459
 30
0.0
 10
73.83149683484073
 20
-149.3090602925338
 30
0.0
 10
74.10434839727253
 20
-149.3090602925338
 30
0.0
 10
74.33310273749312
 20
-149.3090602925338
 30
0.0
 10
74.43232148746831
 20
-149.4255045199353
 30
0.0
 10
74.65866426084922
 20
-149.7345295849622
 30
0.0
  0
HATCH
  5
FE
330
F9
100
AcDbEntity
  8
_U+30EC_U+30A4_U+30E4_U+30FC 1
 62
     7
420
 16777215
100
AcDbHatch
 10
0.0
 20
0.0
 30
0.0
210
0.0
220
0.0
230
1.0
  2
SOLID
 70
     1
 71
     0
 91
        1
 92
        1
 93
        1
 72
     4
 94
        3
 73
     0
 74
     1
 95
       44
 96
       40
 40
0.0
 40
0.0
 40
0.0
 40
0.0
 40
1.0
 40
1.0
 40
1.0
 40
2.0
 40
2.0
 40
2.0
 40
3.0
 40
3.0
 40
3.0
 40
4.0
 40
4.0
 40
4.0
 40
5.0
 40
5.0
 40
5.0
 40
6.0
 40
6.0
 40
6.0
 40
7.0
 40
7.0
 40
7.0
 40
8.0
 40
8.0
 40
8.0
 40
9.0
 40
9.0
 40
9.0
 40
10.0
 40
10.0
 40
10.0
 40
11.0
 40
11.0
 40
11.0
 40
12.0
 40
12.0
 40
12.0
 40
13.0
 40
13.0
 40
13.0
 40
13.0
 10
74.65866426084922
 20
-149.7345295849622
 10
74.81748316271924
 20
-149.95225961963
 10
74.89155271565211
 20
-150.0452771977317
 10
75.03521319738704
 20
-150.0941975536223
 10
75.03521319738704
 20
-150.0941975536223
 10
75.03521319738704
 20
-149.3156059739558
 10
75.03521319738704
 20
-149.3156059739558
 10
75.03521319738704
 20
-149.3156059739558
 10
75.24054088830792
 20
-149.3156059739558
 10
75.24054088830792
 20
-149.3156059739558
 10
75.24054088830792
 20
-149.3156059739558
 10
75.24054088830792
 20
-150.3436224667544
 10
75.24054088830792
 20
-150.3436224667544
 10
74.88293997693899
 20
-150.3119275882901
 10
74.80473630942382
 20
-150.2464707740703
 10
74.50639104040118
 20
-149.8613090988194
 10
74.30760903090227
 20
-149.6053385042653
 10
74.23974064984284
 20
-149.5398816900456
 10
74.10228133998137
 20
-149.5398816900456
 10
73.98377005528879
 20
-149.5398816900456
 10
73.85285642684929
 20
-149.6118841856873
 10
73.85285642684929
 20
-149.8085991378951
 10
73.85285642684929
 20
-150.0687038470314
 10
74.0833333148125
 20
-150.0773165857446
 10
74.19977754221395
 20
-150.0814507003269
 10
74.19977754221395
 20
-150.0814507003269
 10
74.19977754221395
 20
-150.3057264164166
 10
74.19977754221395
 20
-150.3057264164166
 10
74.07265351880822
 20
-150.2971136777035
 10
73.9606879155376
 20
-150.2864338816992
 10
73.84217663084502
 20
-150.2061631568929
 10
73.68129067168385
 20
-150.0962646109134
 10
73.6475287359284
 20
-149.9098849451614
 10
73.6475287359284
 20
-149.7937852273085
 10
73.6475287359284
 20
-149.5164550407459
 10
73.83149683484073
 20
-149.3090602925338
 10
74.10434839727253
 20
-149.3090602925338
 10
74.33310273749312
 20
-149.3090602925338
 10
74.43232148746831
 20
-149.4255045199353
 10
74.65866426084922
 20
-149.7345295849622
 97
        0
 97
        0
 75
     2
 76
     1
 98
        0
  0
SPLINE
  5
FF
330
F9
100
AcDbEntity
  8
_U+30EC_U+30A4_U+30E4_U+30FC 1
370
     0
100
AcDbSpline
210
0.0
220
0.0
230
1.0
 70
    11
 71
     3
 72
    53
 73
    49
 74
     0
 42
0.0000000001
 43
0.0000000001
 12
1.0
 22
0.0
 32
0.0
 13
1.0
 23
0.0
 33
0.0
 40
0.0
 40
0.0
 40
0.0
 40
0.0
 40
1.0
 40
1.0
 40
1.0
 40
2.0
 40
2.0
 40
2.0
 40
3.0
 40
3.0
 40
3.0
 40
4.0
 40
4.0
 40
4.0
 40
5.0
 40
5.0
 40
5.0
 40
6.0
 40
6.0
 40
6.0
 40
7.0
 40
7.0
 40
7.0
 40
8.0
 40
8.0
 40
8.0
 40
9.0
 40
9.0
 40
9.0
 40
10.0
 40
10.0
 40
10.0
 40
11.0
 40
11.0
 40
11.0
 40
12.0
 40
12.0
 40
12.0
 40
13.0
 40
13.0
 40
13.0
 40
14.0
 40
14.0
 40
14.0
 40
15.0
 40
15.0
 40
15.0
 40
16.0
 40
16.0
 40
16.0
 40
16.0
 10
75.2911837919411
 20
-148.6696505704715
 30
0.0
 10
75.2911837919411
 20
-148.7478542379866
 30
0.0
 10
75.27430282406337
 20
-148.8494845548015
 30
0.0
 10
75.21091306713477
 20
-148.9511148716164
 30
0.0
 10
75.1010145211553
 20
-149.1244031745245
 30
0.0
 10
74.96975638316728
 20
-149.145762766533
 30
0.0
 10
74.86192489447896
 20
-149.1647107917019
 30
0.0
 10
74.86192489447896
 20
-149.1647107917019
 30
0.0
 10
74.86192489447896
 20
-148.9425021329033
 30
0.0
 10
74.86192489447896
 20
-148.9425021329033
 30
0.0
 10
75.06070690397789
 20
-148.8877251146878
 30
0.0
 10
75.09033472515102
 20
-148.7606010912821
 30
0.0
 10
75.09033472515102
 20
-148.6675835131803
 30
0.0
 10
75.09033472515102
 20
-148.5280571460277
 30
0.0
 10
74.9907714656273
 20
-148.3757839255797
 30
0.0
 10
74.75822752037294
 20
-148.3757839255797
 30
0.0
 10
74.50225692581888
 20
-148.3757839255797
 30
0.0
 10
74.43232148746831
 20
-148.5556179099097
 30
0.0
 10
74.43232148746831
 20
-148.6761962518935
 30
0.0
 10
74.43232148746831
 20
-148.7078911303578
 30
0.0
 10
74.43232148746831
 20
-148.8494845548015
 30
0.0
 10
74.56151256816518
 20
-148.938368018321
 30
0.0
 10
74.56151256816518
 20
-148.938368018321
 30
0.0
 10
74.5425645429963
 20
-149.1140678880687
 30
0.0
 10
74.5425645429963
 20
-149.1140678880687
 30
0.0
 10
74.5425645429963
 20
-149.1140678880687
 30
0.0
 10
73.69610458227042
 20
-148.993489546085
 30
0.0
 10
73.69610458227042
 20
-148.993489546085
 30
0.0
 10
73.69610458227042
 20
-148.993489546085
 30
0.0
 10
73.69610458227042
 20
-148.2148979664185
 30
0.0
 10
73.69610458227042
 20
-148.2148979664185
 30
0.0
 10
73.69610458227042
 20
-148.2148979664185
 30
0.0
 10
73.89075247718704
 20
-148.2148979664185
 30
0.0
 10
73.89075247718704
 20
-148.2148979664185
 30
0.0
 10
73.89075247718704
 20
-148.2148979664185
 30
0.0
 10
73.89075247718704
 20
-148.8305365296326
 30
0.0
 10
73.89075247718704
 20
-148.8305365296326
 30
0.0
 10
73.89075247718704
 20
-148.8305365296326
 30
0.0
 10
74.31381020277571
 20
-148.8959933438524
 30
0.0
 10
74.31381020277571
 20
-148.8959933438524
 30
0.0
 10
74.28004826702026
 20
-148.834670644215
 30
0.0
 10
74.23974064984284
 20
-148.7523328621175
 30
0.0
 10
74.23974064984284
 20
-148.6338215774249
 30
0.0
 10
74.23974064984284
 20
-148.379918040162
 30
0.0
 10
74.42612031559486
 20
-148.1428954707768
 30
0.0
 10
74.73927949520407
 20
-148.1428954707768
 30
0.0
 10
75.05657278939559
 20
-148.1428954707768
 30
0.0
 10
75.2911837919411
 20
-148.3671711868666
 30
0.0
 10
75.2911837919411
 20
-148.6696505704715
 30
0.0
  0
HATCH
  5
100
330
F9
100
AcDbEntity
  8
_U+30EC_U+30A4_U+30E4_U+30FC 1
 62
     7
420
 16777215
100
AcDbHatch
 10
0.0
 20
0.0
 30
0.0
210
0.0
220
0.0
230
1.0
  2
SOLID
 70
     1
 71
     0
 91
        1
 92
        1
 93
        1
 72
     4
 94
        3
 73
     0
 74
     1
 95
       53
 96
       49
 40
0.0
 40
0.0
 40
0.0
 40
0.0
 40
1.0
 40
1.0
 40
1.0
 40
2.0
 40
2.0
 40
2.0
 40
3.0
 40
3.0
 40
3.0
 40
4.0
 40
4.0
 40
4.0
 40
5.0
 40
5.0
 40
5.0
 40
6.0
 40
6.0
 40
6.0
 40
7.0
 40
7.0
 40
7.0
 40
8.0
 40
8.0
 40
8.0
 40
9.0
 40
9.0
 40
9.0
 40
10.0
 40
10.0
 40
10.0
 40
11.0
 40
11.0
 40
11.0
 40
12.0
 40
12.0
 40
12.0
 40
13.0
 40
13.0
 40
13.0
 40
14.0
 40
14.0
 40
14.0
 40
15.0
 40
15.0
 40
15.0
 40
16.0
 40
16.0
 40
16.0
 40
16.0
 10
75.2911837919411
 20
-148.6696505704715
 10
75.2911837919411
 20
-148.7478542379866
 10
75.27430282406337
 20
-148.8494845548015
 10
75.21091306713477
 20
-148.9511148716164
 10
75.1010145211553
 20
-149.1244031745245
 10
74.96975638316728
 20
-149.145762766533
 10
74.86192489447896
 20
-149.1647107917019
 10
74.86192489447896
 20
-149.1647107917019
 10
74.86192489447896
 20
-148.9425021329033
 10
74.86192489447896
 20
-148.9425021329033
 10
75.06070690397789
 20
-148.8877251146878
 10
75.09033472515102
 20
-148.7606010912821
 10
75.09033472515102
 20
-148.6675835131803
 10
75.09033472515102
 20
-148.5280571460277
 10
74.9907714656273
 20
-148.3757839255797
 10
74.75822752037294
 20
-148.3757839255797
 10
74.50225692581888
 20
-148.3757839255797
 10
74.43232148746831
 20
-148.5556179099097
 10
74.43232148746831
 20
-148.6761962518935
 10
74.43232148746831
 20
-148.7078911303578
 10
74.43232148746831
 20
-148.8494845548015
 10
74.56151256816518
 20
-148.938368018321
 10
74.56151256816518
 20
-148.938368018321
 10
74.5425645429963
 20
-149.1140678880687
 10
74.5425645429963
 20
-149.1140678880687
 10
74.5425645429963
 20
-149.1140678880687
 10
73.69610458227042
 20
-148.993489546085
 10
73.69610458227042
 20
-148.993489546085
 10
73.69610458227042
 20
-148.993489546085
 10
73.69610458227042
 20
-148.2148979664185
 10
73.69610458227042
 20
-148.2148979664185
 10
73.69610458227042
 20
-148.2148979664185
 10
73.89075247718704
 20
-148.2148979664185
 10
73.89075247718704
 20
-148.2148979664185
 10
73.89075247718704
 20
-148.2148979664185
 10
73.89075247718704
 20
-148.8305365296326
 10
73.89075247718704
 20
-148.8305365296326
 10
73.89075247718704
 20
-148.8305365296326
 10
74.31381020277571
 20
-148.8959933438524
 10
74.31381020277571
 20
-148.8959933438524
 10
74.28004826702026
 20
-148.834670644215
 10
74.23974064984284
 20
-148.7523328621175
 10
74.23974064984284
 20
-148.6338215774249
 10
74.23974064984284
 20
-148.379918040162
 10
74.42612031559486
 20
-148.1428954707768
 10
74.73927949520407
 20
-148.1428954707768
 10
75.05657278939559
 20
-148.1428954707768
 10
75.2911837919411
 20
-148.3671711868666
 10
75.2911837919411
 20
-148.6696505704715
 97
        0
 97
        0
 75
     2
 76
     1
 98
        0
  0
ENDBLK
  5
FC
330
F9
100
AcDbEntity
  8
0
100
AcDbBlockEnd
  0
BLOCK
  5
103
330
101
100
AcDbEntity
  8
0
100
AcDbBlockBegin
  2
block 8
 70
     0
 10
0.0
 20
0.0
 30
0.0
  3
block 8
  1

  0
SPLINE
  5
105
330
101
100
AcDbEntity
  8
_U+30EC_U+30A4_U+30E4_U+30FC 1
370
     0
100
AcDbSpline
210
0.0
220
0.0
230
1.0
 70
    11
 71
     3
 72
    62
 73
    58
 74
     0
 42
0.0000000001
 43
0.0000000001
 12
1.0
 22
0.0
 32
0.0
 13
1.0
 23
0.0
 33
0.0
 40
0.0
 40
0.0
 40
0.0
 40
0.0
 40
1.0
 40
1.0
 40
1.0
 40
2.0
 40
2.0
 40
2.0
 40
3.0
 40
3.0
 40
3.0
 40
4.0
 40
4.0
 40
4.0
 40
5.0
 40
5.0
 40
5.0
 40
6.0
 40
6.0
 40
6.0
 40
7.0
 40
7.0
 40
7.0
 40
8.0
 40
8.0
 40
8.0
 40
9.0
 40
9.0
 40
9.0
 40
10.0
 40
10.0
 40
10.0
 40
11.0
 40
11.0
 40
11.0
 40
12.0
 40
12.0
 40
12.0
 40
13.0
 40
13.0
 40
13.0
 40
14.0
 40
14.0
 40
14.0
 40
15.0
 40
15.0
 40
15.0
 40
16.0
 40
16.0
 40
16.0
 40
17.0
 40
17.0
 40
17.0
 40
18.0
 40
18.0
 40
18.0
 40
19.0
 40
19.0
 40
19.0
 40
19.0
 10
81.38280162895985
 20
-132.2461913731885
 30
0.0
 10
81.28737248401843
 20
-132.2461913731885
 30
0.0
 10
81.06964244935065
 20
-132.2248317811799
 30
0.0
 10
80.94458548323608
 20
-132.0387966249764
 30
0.0
 10
80.87051593030321
 20
-131.9264865121573
 30
0.0
 10
80.86638181572091
 20
-131.8272677621821
 30
0.0
 10
80.86224770113861
 20
-131.7425184132449
 30
0.0
 10
80.86224770113861
 20
-131.7425184132449
 30
0.0
 10
81.08238930264608
 20
-131.7425184132449
 30
0.0
 10
81.08238930264608
 20
-131.7425184132449
 30
0.0
 10
81.08445635993722
 20
-131.8165879661778
 30
0.0
 10
81.09479164639298
 20
-132.0511989687233
 30
0.0
 10
81.37832300482903
 20
-132.0511989687233
 30
0.0
 10
81.5157823146905
 20
-132.0511989687233
 30
0.0
 10
81.66840004468708
 20
-131.9816080399213
 30
0.0
 10
81.66840004468708
 20
-131.7528536997007
 30
0.0
 10
81.66840004468708
 20
-131.6367539818478
 30
0.0
 10
81.6301594848008
 20
-131.5881781355057
 30
0.0
 10
81.59846460633649
 20
-131.5564832570414
 30
0.0
 10
81.52439505340362
 20
-131.48206919456
 30
0.0
 10
81.40795082600218
 20
-131.4696668508132
 30
0.0
 10
81.3531738077867
 20
-131.4696668508132
 30
0.0
 10
81.33388127306931
 20
-131.4696668508132
 30
0.0
 10
81.29805228002272
 20
-131.4717339081043
 30
0.0
 10
81.27049151614071
 20
-131.4758680226866
 30
0.0
 10
81.27049151614071
 20
-131.4758680226866
 30
0.0
 10
81.27049151614071
 20
-131.28122012777
 30
0.0
 10
81.27049151614071
 20
-131.28122012777
 30
0.0
 10
81.30873207602698
 20
-131.287765809192
 30
0.0
 10
81.35076224094703
 20
-131.2898328664831
 30
0.0
 10
81.357307922369
 20
-131.2898328664831
 30
0.0
 10
81.42276473658876
 20
-131.2898328664831
 30
0.0
 10
81.62154674608767
 20
-131.2684732744746
 30
0.0
 10
81.62154674608767
 20
-131.0314507050894
 30
0.0
 10
81.62154674608767
 20
-130.854028287599
 30
0.0
 10
81.49063311764817
 20
-130.798906759835
 30
0.0
 10
81.38039006212018
 20
-130.798906759835
 30
0.0
 10
81.11615123840153
 20
-130.798906759835
 30
0.0
 10
81.1075384996884
 20
-131.0314507050894
 30
0.0
 10
81.1034043851061
 20
-131.1037977102796
 30
0.0
 10
81.1034043851061
 20
-131.1037977102796
 30
0.0
 10
80.90014375147636
 20
-131.1037977102796
 30
0.0
 10
80.90014375147636
 20
-131.1037977102796
 30
0.0
 10
80.90875649018948
 20
-130.978740744165
 30
0.0
 10
80.93631725407148
 20
-130.6021918076272
 30
0.0
 10
81.39313691541561
 20
-130.6021918076272
 30
0.0
 10
81.61741263150537
 20
-130.6021918076272
 30
0.0
 10
81.85856931547286
 20
-130.7289713214844
 30
0.0
 10
81.85856931547286
 20
-131.0252495332159
 30
0.0
 10
81.85856931547286
 20
-131.2112846894194
 30
0.0
 10
81.76348468007997
 20
-131.2939669810654
 30
0.0
 10
81.66392142055625
 20
-131.3552896807028
 30
0.0
 10
81.7252441201937
 20
-131.3828504445848
 30
0.0
 10
81.90714516181488
 20
-131.4634656789397
 30
0.0
 10
81.90714516181488
 20
-131.7404513559538
 30
0.0
 10
81.90714516181488
 20
-132.0787597326053
 30
0.0
 10
81.65978730597395
 20
-132.2461913731885
 30
0.0
 10
81.38280162895985
 20
-132.2461913731885
 30
0.0
  0
HATCH
  5
106
330
101
100
AcDbEntity
  8
_U+30EC_U+30A4_U+30E4_U+30FC 1
 62
     7
420
 16777215
100
AcDbHatch
 10
0.0
 20
0.0
 30
0.0
210
0.0
220
0.0
230
1.0
  2
SOLID
 70
     1
 71
     0
 91
        1
 92
        1
 93
        1
 72
     4
 94
        3
 73
     0
 74
     1
 95
       62
 96
       58
 40
0.0
 40
0.0
 40
0.0
 40
0.0
 40
1.0
 40
1.0
 40
1.0
 40
2.0
 40
2.0
 40
2.0
 40
3.0
 40
3.0
 40
3.0
 40
4.0
 40
4.0
 40
4.0
 40
5.0
 40
5.0
 40
5.0
 40
6.0
 40
6.0
 40
6.0
 40
7.0
 40
7.0
 40
7.0
 40
8.0
 40
8.0
 40
8.0
 40
9.0
 40
9.0
 40
9.0
 40
10.0
 40
10.0
 40
10.0
 40
11.0
 40
11.0
 40
11.0
 40
12.0
 40
12.0
 40
12.0
 40
13.0
 40
13.0
 40
13.0
 40
14.0
 40
14.0
 40
14.0
 40
15.0
 40
15.0
 40
15.0
 40
16.0
 40
16.0
 40
16.0
 40
17.0
 40
17.0
 40
17.0
 40
18.0
 40
18.0
 40
18.0
 40
19.0
 40
19.0
 40
19.0
 40
19.0
 10
81.38280162895985
 20
-132.2461913731885
 10
81.28737248401843
 20
-132.2461913731885
 10
81.06964244935065
 20
-132.2248317811799
 10
80.94458548323608
 20
-132.0387966249764
 10
80.87051593030321
 20
-131.9264865121573
 10
80.86638181572091
 20
-131.8272677621821
 10
80.86224770113861
 20
-131.7425184132449
 10
80.86224770113861
 20
-131.7425184132449
 10
81.08238930264608
 20
-131.7425184132449
 10
81.08238930264608
 20
-131.7425184132449
 10
81.08445635993722
 20
-131.8165879661778
 10
81.09479164639298
 20
-132.0511989687233
 10
81.37832300482903
 20
-132.0511989687233
 10
81.5157823146905
 20
-132.0511989687233
 10
81.66840004468708
 20
-131.9816080399213
 10
81.66840004468708
 20
-131.7528536997007
 10
81.66840004468708
 20
-131.6367539818478
 10
81.6301594848008
 20
-131.5881781355057
 10
81.59846460633649
 20
-131.5564832570414
 10
81.52439505340362
 20
-131.48206919456
 10
81.40795082600218
 20
-131.4696668508132
 10
81.3531738077867
 20
-131.4696668508132
 10
81.33388127306931
 20
-131.4696668508132
 10
81.29805228002272
 20
-131.4717339081043
 10
81.27049151614071
 20
-131.4758680226866
 10
81.27049151614071
 20
-131.4758680226866
 10
81.27049151614071
 20
-131.28122012777
 10
81.27049151614071
 20
-131.28122012777
 10
81.30873207602698
 20
-131.287765809192
 10
81.35076224094703
 20
-131.2898328664831
 10
81.357307922369
 20
-131.2898328664831
 10
81.42276473658876
 20
-131.2898328664831
 10
81.62154674608767
 20
-131.2684732744746
 10
81.62154674608767
 20
-131.0314507050894
 10
81.62154674608767
 20
-130.854028287599
 10
81.49063311764817
 20
-130.798906759835
 10
81.38039006212018
 20
-130.798906759835
 10
81.11615123840153
 20
-130.798906759835
 10
81.1075384996884
 20
-131.0314507050894
 10
81.1034043851061
 20
-131.1037977102796
 10
81.1034043851061
 20
-131.1037977102796
 10
80.90014375147636
 20
-131.1037977102796
 10
80.90014375147636
 20
-131.1037977102796
 10
80.90875649018948
 20
-130.978740744165
 10
80.93631725407148
 20
-130.6021918076272
 10
81.39313691541561
 20
-130.6021918076272
 10
81.61741263150537
 20
-130.6021918076272
 10
81.85856931547286
 20
-130.7289713214844
 10
81.85856931547286
 20
-131.0252495332159
 10
81.85856931547286
 20
-131.2112846894194
 10
81.76348468007997
 20
-131.2939669810654
 10
81.66392142055625
 20
-131.3552896807028
 10
81.7252441201937
 20
-131.3828504445848
 10
81.90714516181488
 20
-131.4634656789397
 10
81.90714516181488
 20
-131.7404513559538
 10
81.90714516181488
 20
-132.0787597326053
 10
81.65978730597395
 20
-132.2461913731885
 10
81.38280162895985
 20
-132.2461913731885
 97
        0
 97
        0
 75
     2
 76
     1
 98
        0
  0
ENDBLK
  5
104
330
101
100
AcDbEntity
  8
0
100
AcDbBlockEnd
  0
BLOCK
  5
109
330
107
100
AcDbEntity
  8
0
100
AcDbBlockBegin
  2
block 9
 70
     0
 10
0.0
 20
0.0
 30
0.0
  3
block 9
  1

  0
SPLINE
  5
10B
330
107
100
AcDbEntity
  8
_U+30EC_U+30A4_U+30E4_U+30FC 1
370
     0
100
AcDbSpline
210
0.0
220
0.0
230
1.0
 70
    11
 71
     3
 72
    26
 73
    22
 74
     0
 42
0.0000000001
 43
0.0000000001
 12
1.0
 22
0.0
 32
0.0
 13
1.0
 23
0.0
 33
0.0
 40
0.0
 40
0.0
 40
0.0
 40
0.0
 40
1.0
 40
1.0
 40
1.0
 40
2.0
 40
2.0
 40
2.0
 40
3.0
 40
3.0
 40
3.0
 40
4.0
 40
4.0
 40
4.0
 40
5.0
 40
5.0
 40
5.0
 40
6.0
 40
6.0
 40
6.0
 40
7.0
 40
7.0
 40
7.0
 40
7.0
 10
87.2541056096969
 20
-132.1955484695553
 30
0.0
 10
87.2541056096969
 20
-132.1955484695553
 30
0.0
 10
87.2541056096969
 20
-131.0913953665327
 30
0.0
 10
87.2541056096969
 20
-131.0913953665327
 30
0.0
 10
87.2541056096969
 20
-131.0913953665327
 30
0.0
 10
86.92406546220997
 20
-131.0913953665327
 30
0.0
 10
86.92406546220997
 20
-131.0913953665327
 30
0.0
 10
86.92406546220997
 20
-131.0913953665327
 30
0.0
 10
86.92406546220997
 20
-130.943256260667
 30
0.0
 10
86.92406546220997
 20
-130.943256260667
 30
0.0
 10
87.25617266698805
 20
-130.9284423500804
 30
0.0
 10
87.30268145603891
 20
-130.7654893336281
 30
0.0
 10
87.33230927721206
 20
-130.6511121635178
 30
0.0
 10
87.33230927721206
 20
-130.6511121635178
 30
0.0
 10
87.47838132578666
 20
-130.6511121635178
 30
0.0
 10
87.47838132578666
 20
-130.6511121635178
 30
0.0
 10
87.47838132578666
 20
-130.6511121635178
 30
0.0
 10
87.47838132578666
 20
-132.1955484695553
 30
0.0
 10
87.47838132578666
 20
-132.1955484695553
 30
0.0
 10
87.47838132578666
 20
-132.1955484695553
 30
0.0
 10
87.2541056096969
 20
-132.1955484695553
 30
0.0
 10
87.2541056096969
 20
-132.1955484695553
 30
0.0
  0
HATCH
  5
10C
330
107
100
AcDbEntity
  8
_U+30EC_U+30A4_U+30E4_U+30FC 1
 62
     7
420
 16777215
100
AcDbHatch
 10
0.0
 20
0.0
 30
0.0
210
0.0
220
0.0
230
1.0
  2
SOLID
 70
     1
 71
     0
 91
        1
 92
        1
 93
        1
 72
     4
 94
        3
 73
     0
 74
     1
 95
       26
 96
       22
 40
0.0
 40
0.0
 40
0.0
 40
0.0
 40
1.0
 40
1.0
 40
1.0
 40
2.0
 40
2.0
 40
2.0
 40
3.0
 40
3.0
 40
3.0
 40
4.0
 40
4.0
 40
4.0
 40
5.0
 40
5.0
 40
5.0
 40
6.0
 40
6.0
 40
6.0
 40
7.0
 40
7.0
 40
7.0
 40
7.0
 10
87.2541056096969
 20
-132.1955484695553
 10
87.2541056096969
 20
-132.1955484695553
 10
87.2541056096969
 20
-131.0913953665327
 10
87.2541056096969
 20
-131.0913953665327
 10
87.2541056096969
 20
-131.0913953665327
 10
86.92406546220997
 20
-131.0913953665327
 10
86.92406546220997
 20
-131.0913953665327
 10
86.92406546220997
 20
-131.0913953665327
 10
86.92406546220997
 20
-130.943256260667
 10
86.92406546220997
 20
-130.943256260667
 10
87.25617266698805
 20
-130.9284423500804
 10
87.30268145603891
 20
-130.7654893336281
 10
87.33230927721206
 20
-130.6511121635178
 10
87.33230927721206
 20
-130.6511121635178
 10
87.47838132578666
 20
-130.6511121635178
 10
87.47838132578666
 20
-130.6511121635178
 10
87.47838132578666
 20
-130.6511121635178
 10
87.47838132578666
 20
-132.1955484695553
 10
87.47838132578666
 20
-132.1955484695553
 10
87.47838132578666
 20
-132.1955484695553
 10
87.2541056096969
 20
-132.1955484695553
 10
87.2541056096969
 20
-132.1955484695553
 97
        0
 97
        0
 75
     2
 76
     1
 98
        0
  0
SPLINE
  5
10D
330
107
100
AcDbEntity
  8
_U+30EC_U+30A4_U+30E4_U+30FC 1
370
     0
100
AcDbSpline
210
0.0
220
0.0
230
1.0
 70
    11
 71
     3
 72
    29
 73
    25
 74
     0
 42
0.0000000001
 43
0.0000000001
 12
1.0
 22
0.0
 32
0.0
 13
1.0
 23
0.0
 33
0.0
 40
0.0
 40
0.0
 40
0.0
 40
0.0
 40
1.0
 40
1.0
 40
1.0
 40
2.0
 40
2.0
 40
2.0
 40
3.0
 40
3.0
 40
3.0
 40
4.0
 40
4.0
 40
4.0
 40
5.0
 40
5.0
 40
5.0
 40
6.0
 40
6.0
 40
6.0
 40
7.0
 40
7.0
 40
7.0
 40
8.0
 40
8.0
 40
8.0
 40
8.0
 10
88.87743460234661
 20
-132.0177815425164
 30
0.0
 10
88.76925860410978
 20
-132.2272433480196
 30
0.0
 10
88.5959703012017
 20
-132.2461913731885
 30
0.0
 10
88.47952607380026
 20
-132.2461913731885
 30
0.0
 10
88.3186401146391
 20
-132.2461913731885
 30
0.0
 10
88.17704669019533
 20
-132.2000270936861
 30
0.0
 10
88.08196205480243
 20
-132.0177815425164
 30
0.0
 10
87.97826468069641
 20
-131.8231336475998
 30
0.0
 10
87.958972145979
 20
-131.5861110782146
 30
0.0
 10
87.958972145979
 20
-131.4235025713108
 30
0.0
 10
87.958972145979
 20
-131.2794975800274
 30
0.0
 10
87.97619762340526
 20
-131.0280056096041
 30
0.0
 10
88.08196205480243
 20
-130.8288790905567
 30
0.0
 10
88.18979354349075
 20
-130.6256184569269
 30
0.0
 10
88.35067950265191
 20
-130.6025363171757
 30
0.0
 10
88.47952607380026
 20
-130.6025363171757
 30
0.0
 10
88.63834497567028
 20
-130.6025363171757
 30
0.0
 10
88.78200545740519
 20
-130.6469780489355
 30
0.0
 10
88.87743460234661
 20
-130.8288790905567
 30
0.0
 10
88.97665335232182
 20
-131.0214599281821
 30
0.0
 10
89.00008000162151
 20
-131.2498697588542
 30
0.0
 10
89.00008000162151
 20
-131.4235025713108
 30
0.0
 10
89.00008000162151
 20
-131.5947238169277
 30
0.0
 10
88.97872040961296
 20
-131.8252007048909
 30
0.0
 10
88.87743460234661
 20
-132.0177815425164
 30
0.0
  0
SPLINE
  5
10E
330
107
100
AcDbEntity
  8
_U+30EC_U+30A4_U+30E4_U+30FC 1
370
     0
100
AcDbSpline
210
0.0
220
0.0
230
1.0
 70
    11
 71
     3
 72
    17
 73
    13
 74
     0
 42
0.0000000001
 43
0.0000000001
 12
1.0
 22
0.0
 32
0.0
 13
1.0
 23
0.0
 33
0.0
 40
0.0
 40
0.0
 40
0.0
 40
0.0
 40
1.0
 40
1.0
 40
1.0
 40
2.0
 40
2.0
 40
2.0
 40
3.0
 40
3.0
 40
3.0
 40
4.0
 40
4.0
 40
4.0
 40
4.0
 10
88.47952607380026
 20
-130.7951171548012
 30
0.0
 10
88.22975665111964
 20
-130.7951171548012
 30
0.0
 10
88.18324786206878
 20
-131.0786485132373
 30
0.0
 10
88.18324786206878
 20
-131.4235025713108
 30
0.0
 10
88.18324786206878
 20
-131.7428629227934
 30
0.0
 10
88.2194213646639
 20
-132.0518879878204
 30
0.0
 10
88.47952607380026
 20
-132.0518879878204
 30
0.0
 10
88.72722843918973
 20
-132.0518879878204
 30
0.0
 10
88.77580428553175
 20
-131.7700791771269
 30
0.0
 10
88.77580428553175
 20
-131.4235025713108
 30
0.0
 10
88.77580428553175
 20
-131.1037977102796
 30
0.0
 10
88.73756372564547
 20
-130.7951171548012
 30
0.0
 10
88.47952607380026
 20
-130.7951171548012
 30
0.0
  0
HATCH
  5
10F
330
107
100
AcDbEntity
  8
_U+30EC_U+30A4_U+30E4_U+30FC 1
 62
     7
420
 16777215
100
AcDbHatch
 10
0.0
 20
0.0
 30
0.0
210
0.0
220
0.0
230
1.0
  2
SOLID
 70
     1
 71
     0
 91
        2
 92
        1
 93
        1
 72
     4
 94
        3
 73
     0
 74
     1
 95
       29
 96
       25
 40
0.0
 40
0.0
 40
0.0
 40
0.0
 40
1.0
 40
1.0
 40
1.0
 40
2.0
 40
2.0
 40
2.0
 40
3.0
 40
3.0
 40
3.0
 40
4.0
 40
4.0
 40
4.0
 40
5.0
 40
5.0
 40
5.0
 40
6.0
 40
6.0
 40
6.0
 40
7.0
 40
7.0
 40
7.0
 40
8.0
 40
8.0
 40
8.0
 40
8.0
 10
88.87743460234661
 20
-132.0177815425164
 10
88.76925860410978
 20
-132.2272433480196
 10
88.5959703012017
 20
-132.2461913731885
 10
88.47952607380026
 20
-132.2461913731885
 10
88.3186401146391
 20
-132.2461913731885
 10
88.17704669019533
 20
-132.2000270936861
 10
88.08196205480243
 20
-132.0177815425164
 10
87.97826468069641
 20
-131.8231336475998
 10
87.958972145979
 20
-131.5861110782146
 10
87.958972145979
 20
-131.4235025713108
 10
87.958972145979
 20
-131.2794975800274
 10
87.97619762340526
 20
-131.0280056096041
 10
88.08196205480243
 20
-130.8288790905567
 10
88.18979354349075
 20
-130.6256184569269
 10
88.35067950265191
 20
-130.6025363171757
 10
88.47952607380026
 20
-130.6025363171757
 10
88.63834497567028
 20
-130.6025363171757
 10
88.78200545740519
 20
-130.6469780489355
 10
88.87743460234661
 20
-130.8288790905567
 10
88.97665335232182
 20
-131.0214599281821
 10
89.00008000162151
 20
-131.2498697588542
 10
89.00008000162151
 20
-131.4235025713108
 10
89.00008000162151
 20
-131.5947238169277
 10
88.97872040961296
 20
-131.8252007048909
 10
88.87743460234661
 20
-132.0177815425164
 97
        0
 97
        0
 92
        1
 93
        1
 72
     4
 94
        3
 73
     0
 74
     1
 95
       17
 96
       13
 40
0.0
 40
0.0
 40
0.0
 40
0.0
 40
1.0
 40
1.0
 40
1.0
 40
2.0
 40
2.0
 40
2.0
 40
3.0
 40
3.0
 40
3.0
 40
4.0
 40
4.0
 40
4.0
 40
4.0
 10
88.47952607380026
 20
-130.7951171548012
 10
88.22975665111964
 20
-130.7951171548012
 10
88.18324786206878
 20
-131.0786485132373
 10
88.18324786206878
 20
-131.4235025713108
 10
88.18324786206878
 20
-131.7428629227934
 10
88.2194213646639
 20
-132.0518879878204
 10
88.47952607380026
 20
-132.0518879878204
 10
88.72722843918973
 20
-132.0518879878204
 10
88.77580428553175
 20
-131.7700791771269
 10
88.77580428553175
 20
-131.4235025713108
 10
88.77580428553175
 20
-131.1037977102796
 10
88.73756372564547
 20
-130.7951171548012
 10
88.47952607380026
 20
-130.7951171548012
 97
        0
 97
        0
 75
     2
 76
     1
 98
        0
  0
ENDBLK
  5
10A
330
107
100
AcDbEntity
  8
0
100
AcDbBlockEnd
  0
BLOCK
  5
112
330
110
100
AcDbEntity
  8
0
100
AcDbBlockBegin
  2
block 10
 70
     0
 10
0.0
 20
0.0
 30
0.0
  3
block 10
  1

  0
SPLINE
  5
114
330
110
100
AcDbEntity
  8
_U+30EC_U+30A4_U+30E4_U+30FC 1
370
     0
100
AcDbSpline
210
0.0
220
0.0
230
1.0
 70
    11
 71
     3
 72
    44
 73
    40
 74
     0
 42
0.0000000001
 43
0.0000000001
 12
1.0
 22
0.0
 32
0.0
 13
1.0
 23
0.0
 33
0.0
 40
0.0
 40
0.0
 40
0.0
 40
0.0
 40
1.0
 40
1.0
 40
1.0
 40
2.0
 40
2.0
 40
2.0
 40
3.0
 40
3.0
 40
3.0
 40
4.0
 40
4.0
 40
4.0
 40
5.0
 40
5.0
 40
5.0
 40
6.0
 40
6.0
 40
6.0
 40
7.0
 40
7.0
 40
7.0
 40
8.0
 40
8.0
 40
8.0
 40
9.0
 40
9.0
 40
9.0
 40
10.0
 40
10.0
 40
10.0
 40
11.0
 40
11.0
 40
11.0
 40
12.0
 40
12.0
 40
12.0
 40
13.0
 40
13.0
 40
13.0
 40
13.0
 10
91.89551050219974
 20
-164.5112331402958
 30
0.0
 10
91.67778046753195
 20
-164.6700520421658
 30
0.0
 10
91.58476288943021
 20
-164.7441215950987
 30
0.0
 10
91.53584253353965
 20
-164.8877820768336
 30
0.0
 10
91.53584253353965
 20
-164.8877820768336
 30
0.0
 10
92.31443411320612
 20
-164.8877820768336
 30
0.0
 10
92.31443411320612
 20
-164.8877820768336
 30
0.0
 10
92.31443411320612
 20
-164.8877820768336
 30
0.0
 10
92.31443411320612
 20
-165.0931097677545
 30
0.0
 10
92.31443411320612
 20
-165.0931097677545
 30
0.0
 10
92.31443411320612
 20
-165.0931097677545
 30
0.0
 10
91.28658987518183
 20
-165.0931097677545
 30
0.0
 10
91.28658987518183
 20
-165.0931097677545
 30
0.0
 10
91.31828475364613
 20
-164.7355088563856
 30
0.0
 10
91.38356931309161
 20
-164.6573051888704
 30
0.0
 10
91.76873098834254
 20
-164.3589599198478
 30
0.0
 10
92.02470158289661
 20
-164.1601779103489
 30
0.0
 10
92.09015839711635
 20
-164.0923095292894
 30
0.0
 10
92.09015839711635
 20
-163.954850219428
 30
0.0
 10
92.09015839711635
 20
-163.8363389347354
 30
0.0
 10
92.01815590147463
 20
-163.7054253062959
 30
0.0
 10
91.82144094926687
 20
-163.7054253062959
 30
0.0
 10
91.5613362401305
 20
-163.7054253062959
 30
0.0
 10
91.5530680109659
 20
-163.9359021942591
 30
0.0
 10
91.54858938683508
 20
-164.0523464216605
 30
0.0
 10
91.54858938683508
 20
-164.0523464216605
 30
0.0
 10
91.32448592551958
 20
-164.0523464216605
 30
0.0
 10
91.32448592551958
 20
-164.0523464216605
 30
0.0
 10
91.33309866423271
 20
-163.9252223982548
 30
0.0
 10
91.34377846023698
 20
-163.8132567949842
 30
0.0
 10
91.42387693026903
 20
-163.6947455102916
 30
0.0
 10
91.53377547624851
 20
-163.5338595511304
 30
0.0
 10
91.72015514200052
 20
-163.500097615375
 30
0.0
 10
91.83625485985344
 20
-163.500097615375
 30
0.0
 10
92.11358504641605
 20
-163.500097615375
 30
0.0
 10
92.32097979462809
 20
-163.6840657142873
 30
0.0
 10
92.32097979462809
 20
-163.9569172767191
 30
0.0
 10
92.32097979462809
 20
-164.1856716169397
 30
0.0
 10
92.20453556722664
 20
-164.2848903669149
 30
0.0
 10
91.89551050219974
 20
-164.5112331402958
 30
0.0
  0
HATCH
  5
115
330
110
100
AcDbEntity
  8
_U+30EC_U+30A4_U+30E4_U+30FC 1
 62
     7
420
 16777215
100
AcDbHatch
 10
0.0
 20
0.0
 30
0.0
210
0.0
220
0.0
230
1.0
  2
SOLID
 70
     1
 71
     0
 91
        1
 92
        1
 93
        1
 72
     4
 94
        3
 73
     0
 74
     1
 95
       44
 96
       40
 40
0.0
 40
0.0
 40
0.0
 40
0.0
 40
1.0
 40
1.0
 40
1.0
 40
2.0
 40
2.0
 40
2.0
 40
3.0
 40
3.0
 40
3.0
 40
4.0
 40
4.0
 40
4.0
 40
5.0
 40
5.0
 40
5.0
 40
6.0
 40
6.0
 40
6.0
 40
7.0
 40
7.0
 40
7.0
 40
8.0
 40
8.0
 40
8.0
 40
9.0
 40
9.0
 40
9.0
 40
10.0
 40
10.0
 40
10.0
 40
11.0
 40
11.0
 40
11.0
 40
12.0
 40
12.0
 40
12.0
 40
13.0
 40
13.0
 40
13.0
 40
13.0
 10
91.89551050219974
 20
-164.5112331402958
 10
91.67778046753195
 20
-164.6700520421658
 10
91.58476288943021
 20
-164.7441215950987
 10
91.53584253353965
 20
-164.8877820768336
 10
91.53584253353965
 20
-164.8877820768336
 10
92.31443411320612
 20
-164.8877820768336
 10
92.31443411320612
 20
-164.8877820768336
 10
92.31443411320612
 20
-164.8877820768336
 10
92.31443411320612
 20
-165.0931097677545
 10
92.31443411320612
 20
-165.0931097677545
 10
92.31443411320612
 20
-165.0931097677545
 10
91.28658987518183
 20
-165.0931097677545
 10
91.28658987518183
 20
-165.0931097677545
 10
91.31828475364613
 20
-164.7355088563856
 10
91.38356931309161
 20
-164.6573051888704
 10
91.76873098834254
 20
-164.3589599198478
 10
92.02470158289661
 20
-164.1601779103489
 10
92.09015839711635
 20
-164.0923095292894
 10
92.09015839711635
 20
-163.954850219428
 10
92.09015839711635
 20
-163.8363389347354
 10
92.01815590147463
 20
-163.7054253062959
 10
91.82144094926687
 20
-163.7054253062959
 10
91.5613362401305
 20
-163.7054253062959
 10
91.5530680109659
 20
-163.9359021942591
 10
91.54858938683508
 20
-164.0523464216605
 10
91.54858938683508
 20
-164.0523464216605
 10
91.32448592551958
 20
-164.0523464216605
 10
91.32448592551958
 20
-164.0523464216605
 10
91.33309866423271
 20
-163.9252223982548
 10
91.34377846023698
 20
-163.8132567949842
 10
91.42387693026903
 20
-163.6947455102916
 10
91.53377547624851
 20
-163.5338595511304
 10
91.72015514200052
 20
-163.500097615375
 10
91.83625485985344
 20
-163.500097615375
 10
92.11358504641605
 20
-163.500097615375
 10
92.32097979462809
 20
-163.6840657142873
 10
92.32097979462809
 20
-163.9569172767191
 10
92.32097979462809
 20
-164.1856716169397
 10
92.20453556722664
 20
-164.2848903669149
 10
91.89551050219974
 20
-164.5112331402958
 97
        0
 97
        0
 75
     2
 76
     1
 98
        0
  0
SPLINE
  5
116
330
110
100
AcDbEntity
  8
_U+30EC_U+30A4_U+30E4_U+30FC 1
370
     0
100
AcDbSpline
210
0.0
220
0.0
230
1.0
 70
    11
 71
     3
 72
    53
 73
    49
 74
     0
 42
0.0000000001
 43
0.0000000001
 12
1.0
 22
0.0
 32
0.0
 13
1.0
 23
0.0
 33
0.0
 40
0.0
 40
0.0
 40
0.0
 40
0.0
 40
1.0
 40
1.0
 40
1.0
 40
2.0
 40
2.0
 40
2.0
 40
3.0
 40
3.0
 40
3.0
 40
4.0
 40
4.0
 40
4.0
 40
5.0
 40
5.0
 40
5.0
 40
6.0
 40
6.0
 40
6.0
 40
7.0
 40
7.0
 40
7.0
 40
8.0
 40
8.0
 40
8.0
 40
9.0
 40
9.0
 40
9.0
 40
10.0
 40
10.0
 40
10.0
 40
11.0
 40
11.0
 40
11.0
 40
12.0
 40
12.0
 40
12.0
 40
13.0
 40
13.0
 40
13.0
 40
14.0
 40
14.0
 40
14.0
 40
15.0
 40
15.0
 40
15.0
 40
16.0
 40
16.0
 40
16.0
 40
16.0
 10
92.96038951669047
 20
-165.1437526713877
 30
0.0
 10
92.88218584917529
 20
-165.1437526713877
 30
0.0
 10
92.78055553236042
 20
-165.1268717035099
 30
0.0
 10
92.67892521554555
 20
-165.0634819465814
 30
0.0
 10
92.50563691263748
 20
-164.9535834006019
 30
0.0
 10
92.48427732062893
 20
-164.8223252626139
 30
0.0
 10
92.46532929546007
 20
-164.7144937739255
 30
0.0
 10
92.46532929546007
 20
-164.7144937739255
 30
0.0
 10
92.68753795425867
 20
-164.7144937739255
 30
0.0
 10
92.68753795425867
 20
-164.7144937739255
 30
0.0
 10
92.74231497247415
 20
-164.9132757834245
 30
0.0
 10
92.86943899587986
 20
-164.9429036045976
 30
0.0
 10
92.96245657398161
 20
-164.9429036045976
 30
0.0
 10
93.10198294113422
 20
-164.9429036045976
 30
0.0
 10
93.25425616158228
 20
-164.8433403450739
 30
0.0
 10
93.25425616158228
 20
-164.6107963998195
 30
0.0
 10
93.25425616158228
 20
-164.3548258052655
 30
0.0
 10
93.07442217725223
 20
-164.2848903669149
 30
0.0
 10
92.95384383526849
 20
-164.2848903669149
 30
0.0
 10
92.9221489568042
 20
-164.2848903669149
 30
0.0
 10
92.78055553236042
 20
-164.2848903669149
 30
0.0
 10
92.69167206884097
 20
-164.4140814476118
 30
0.0
 10
92.69167206884097
 20
-164.4140814476118
 30
0.0
 10
92.51597219909323
 20
-164.3951334224429
 30
0.0
 10
92.51597219909323
 20
-164.3951334224429
 30
0.0
 10
92.51597219909323
 20
-164.3951334224429
 30
0.0
 10
92.63655054107697
 20
-163.548673461717
 30
0.0
 10
92.63655054107697
 20
-163.548673461717
 30
0.0
 10
92.63655054107697
 20
-163.548673461717
 30
0.0
 10
93.41514212074344
 20
-163.548673461717
 30
0.0
 10
93.41514212074344
 20
-163.548673461717
 30
0.0
 10
93.41514212074344
 20
-163.548673461717
 30
0.0
 10
93.41514212074344
 20
-163.7433213566336
 30
0.0
 10
93.41514212074344
 20
-163.7433213566336
 30
0.0
 10
93.41514212074344
 20
-163.7433213566336
 30
0.0
 10
92.79950355752929
 20
-163.7433213566336
 30
0.0
 10
92.79950355752929
 20
-163.7433213566336
 30
0.0
 10
92.79950355752929
 20
-163.7433213566336
 30
0.0
 10
92.73404674330955
 20
-164.1663790822223
 30
0.0
 10
92.73404674330955
 20
-164.1663790822223
 30
0.0
 10
92.79536944294699
 20
-164.1326171464669
 30
0.0
 10
92.87770722504446
 20
-164.0923095292894
 30
0.0
 10
92.99621850973706
 20
-164.0923095292894
 30
0.0
 10
93.25012204699998
 20
-164.0923095292894
 30
0.0
 10
93.48714461638517
 20
-164.2786891950414
 30
0.0
 10
93.48714461638517
 20
-164.5918483746507
 30
0.0
 10
93.48714461638517
 20
-164.9091416688422
 30
0.0
 10
93.2628689002954
 20
-165.1437526713877
 30
0.0
 10
92.96038951669047
 20
-165.1437526713877
 30
0.0
  0
HATCH
  5
117
330
110
100
AcDbEntity
  8
_U+30EC_U+30A4_U+30E4_U+30FC 1
 62
     7
420
 16777215
100
AcDbHatch
 10
0.0
 20
0.0
 30
0.0
210
0.0
220
0.0
230
1.0
  2
SOLID
 70
     1
 71
     0
 91
        1
 92
        1
 93
        1
 72
     4
 94
        3
 73
     0
 74
     1
 95
       53
 96
       49
 40
0.0
 40
0.0
 40
0.0
 40
0.0
 40
1.0
 40
1.0
 40
1.0
 40
2.0
 40
2.0
 40
2.0
 40
3.0
 40
3.0
 40
3.0
 40
4.0
 40
4.0
 40
4.0
 40
5.0
 40
5.0
 40
5.0
 40
6.0
 40
6.0
 40
6.0
 40
7.0
 40
7.0
 40
7.0
 40
8.0
 40
8.0
 40
8.0
 40
9.0
 40
9.0
 40
9.0
 40
10.0
 40
10.0
 40
10.0
 40
11.0
 40
11.0
 40
11.0
 40
12.0
 40
12.0
 40
12.0
 40
13.0
 40
13.0
 40
13.0
 40
14.0
 40
14.0
 40
14.0
 40
15.0
 40
15.0
 40
15.0
 40
16.0
 40
16.0
 40
16.0
 40
16.0
 10
92.96038951669047
 20
-165.1437526713877
 10
92.88218584917529
 20
-165.1437526713877
 10
92.78055553236042
 20
-165.1268717035099
 10
92.67892521554555
 20
-165.0634819465814
 10
92.50563691263748
 20
-164.9535834006019
 10
92.48427732062893
 20
-164.8223252626139
 10
92.46532929546007
 20
-164.7144937739255
 10
92.46532929546007
 20
-164.7144937739255
 10
92.68753795425867
 20
-164.7144937739255
 10
92.68753795425867
 20
-164.7144937739255
 10
92.74231497247415
 20
-164.9132757834245
 10
92.86943899587986
 20
-164.9429036045976
 10
92.96245657398161
 20
-164.9429036045976
 10
93.10198294113422
 20
-164.9429036045976
 10
93.25425616158228
 20
-164.8433403450739
 10
93.25425616158228
 20
-164.6107963998195
 10
93.25425616158228
 20
-164.3548258052655
 10
93.07442217725223
 20
-164.2848903669149
 10
92.95384383526849
 20
-164.2848903669149
 10
92.9221489568042
 20
-164.2848903669149
 10
92.78055553236042
 20
-164.2848903669149
 10
92.69167206884097
 20
-164.4140814476118
 10
92.69167206884097
 20
-164.4140814476118
 10
92.51597219909323
 20
-164.3951334224429
 10
92.51597219909323
 20
-164.3951334224429
 10
92.51597219909323
 20
-164.3951334224429
 10
92.63655054107697
 20
-163.548673461717
 10
92.63655054107697
 20
-163.548673461717
 10
92.63655054107697
 20
-163.548673461717
 10
93.41514212074344
 20
-163.548673461717
 10
93.41514212074344
 20
-163.548673461717
 10
93.41514212074344
 20
-163.548673461717
 10
93.41514212074344
 20
-163.7433213566336
 10
93.41514212074344
 20
-163.7433213566336
 10
93.41514212074344
 20
-163.7433213566336
 10
92.79950355752929
 20
-163.7433213566336
 10
92.79950355752929
 20
-163.7433213566336
 10
92.79950355752929
 20
-163.7433213566336
 10
92.73404674330955
 20
-164.1663790822223
 10
92.73404674330955
 20
-164.1663790822223
 10
92.79536944294699
 20
-164.1326171464669
 10
92.87770722504446
 20
-164.0923095292894
 10
92.99621850973706
 20
-164.0923095292894
 10
93.25012204699998
 20
-164.0923095292894
 10
93.48714461638517
 20
-164.2786891950414
 10
93.48714461638517
 20
-164.5918483746507
 10
93.48714461638517
 20
-164.9091416688422
 10
93.2628689002954
 20
-165.1437526713877
 10
92.96038951669047
 20
-165.1437526713877
 97
        0
 97
        0
 75
     2
 76
     1
 98
        0
  0
ENDBLK
  5
113
330
110
100
AcDbEntity
  8
0
100
AcDbBlockEnd
  0
ENDSEC
  0
SECTION
  2
ENTITIES
  0
INSERT
  5
42
330
1F
100
AcDbEntity
  8
_U+30EC_U+30A4_U+30E4_U+30FC 1
100
AcDbBlockReference
  2
block 2
 10
0.0
 20
0.0
 30
0.0
  0
ENDSEC
  0
SECTION
  2
OBJECTS
  0
DICTIONARY
  5
C
330
0
100
AcDbDictionary
281
     1
  3
ACAD_GROUP
350
D
  3
ACAD_LAYOUT
350
1A
  3
ACAD_MATERIAL
350
3B
  3
ACAD_MLEADERSTYLE
350
119
  3
ACAD_MLINESTYLE
350
17
  3
ACAD_PLOTSETTINGS
350
19
  3
ACAD_PLOTSTYLENAME
350
E
  3
ACAD_TABLESTYLE
350
118
  3
ACAD_VISUALSTYLE
350
2A
  0
SUN
  5
3F
330
29
100
AcDbSun
 90
        1
290
     0
 63
     7
421
 16777215
 40
1.0
291
     1
 91
  2455826
 92
 54000000
292
     0
 70
     2
 71
   256
280
     1
  0
DICTIONARY
  5
D
102
{ACAD_REACTORS
330
C
102
}
330
C
100
AcDbDictionary
281
     1
  0
DICTIONARY
  5
1A
102
{ACAD_REACTORS
330
C
102
}
330
C
100
AcDbDictionary
281
     1
  3
Layout1
350
1E
  3
Layout2
350
26
  3
Model
350
22
  0
DICTIONARY
  5
3B
102
{ACAD_REACTORS
330
C
102
}
330
C
100
AcDbDictionary
281
     1
  3
ByBlock
350
3D
  3
ByLayer
350
3C
  3
Global
350
3E
  0
DICTIONARY
  5
119
102
{ACAD_REACTORS
330
C
102
}
330
C
100
AcDbDictionary
281
     1
  0
DICTIONARY
  5
17
102
{ACAD_REACTORS
330
C
102
}
330
C
100
AcDbDictionary
281
     1
  3
Standard
350
18
  0
DICTIONARY
  5
19
102
{ACAD_REACTORS
330
C
102
}
330
C
100
AcDbDictionary
281
     1
  0
ACDBDICTIONARYWDFLT
  5
E
102
{ACAD_REACTORS
330
C
102
}
330
C
100
AcDbDictionary
281
     1
  3
Normal
350
F
100
AcDbDictionaryWithDefault
340
F
  0
DICTIONARY
  5
118
102
{ACAD_REACTORS
330
C
102
}
330
C
100
AcDbDictionary
281
     1
  0
DICTIONARY
  5
2A
102
{ACAD_REACTORS
330
C
102
}
330
C
100
AcDbDictionary
281
     1
  3
2dWireframe
350
2F
  3
3D Hidden
350
31
  3
3dWireframe
350
30
  3
Basic
350
32
  3
Brighten
350
36
  3
ColorChange
350
3A
  3
Conceptual
350
34
  3
Dim
350
35
  3
Facepattern
350
39
  3
Flat
350
2B
  3
FlatWithEdges
350
2C
  3
Gouraud
350
2D
  3
GouraudWithEdges
350
2E
  3
Linepattern
350
38
  3
Realistic
350
33
  3
Thicken
350
37
  0
LAYOUT
  5
1E
102
{ACAD_REACTORS
330
1A
102
}
330
1A
100
AcDbPlotSettings
  1

  2
none_device
  4

  6

 40
0.0
 41
0.0
 42
0.0
 43
0.0
 44
0.0
 45
0.0
 46
0.0
 47
0.0
 48
0.0
 49
0.0
140
0.0
141
0.0
142
1.0
143
1.0
 70
   688
 72
     0
 73
     0
 74
     5
  7

 75
    16
 76
     0
 77
     2
 78
   300
147
1.0
148
0.0
149
0.0
100
AcDbLayout
  1
Layout1
 70
     1
 71
     1
 10
0.0
 20
0.0
 11
12.0
 21
9.0
 12
0.0
 22
0.0
 32
0.0
 14
1.000000000000000E+20
 24
1.000000000000000E+20
 34
1.000000000000000E+20
 15
-1.000000000000000E+20
 25
-1.000000000000000E+20
 35
-1.000000000000000E+20
146
0.0
 13
0.0
 23
0.0
 33
0.0
 16
1.0
 26
0.0
 36
0.0
 17
0.0
 27
1.0
 37
0.0
 76
     0
330
1B
  0
LAYOUT
  5
26
102
{ACAD_REACTORS
330
1A
102
}
330
1A
100
AcDbPlotSettings
  1

  2
none_device
  4

  6

 40
0.0
 41
0.0
 42
0.0
 43
0.0
 44
0.0
 45
0.0
 46
0.0
 47
0.0
 48
0.0
 49
0.0
140
0.0
141
0.0
142
1.0
143
1.0
 70
   688
 72
     0
 73
     0
 74
     5
  7

 75
    16
 76
     0
 77
     2
 78
   300
147
1.0
148
0.0
149
0.0
100
AcDbLayout
  1
Layout2
 70
     1
 71
     2
 10
0.0
 20
0.0
 11
0.0
 21
0.0
 12
0.0
 22
0.0
 32
0.0
 14
0.0
 24
0.0
 34
0.0
 15
0.0
 25
0.0
 35
0.0
146
0.0
 13
0.0
 23
0.0
 33
0.0
 16
1.0
 26
0.0
 36
0.0
 17
0.0
 27
1.0
 37
0.0
 76
     0
330
23
  0
LAYOUT
  5
22
102
{ACAD_REACTORS
330
1A
102
}
330
1A
100
AcDbPlotSettings
  1

  2
none_device
  4

  6

 40
0.0
 41
0.0
 42
0.0
 43
0.0
 44
0.0
 45
0.0
 46
0.0
 47
0.0
 48
0.0
 49
0.0
140
0.0
141
0.0
142
1.0
143
1.0
 70
  1712
 72
     0
 73
     0
 74
     0
  7

 75
     0
 76
     0
 77
     2
 78
   300
147
1.0
148
0.0
149
0.0
100
AcDbLayout
  1
Model
 70
     1
 71
     0
 10
0.0
 20
0.0
 11
12.0
 21
9.0
 12
0.0
 22
0.0
 32
0.0
 14
1.000000000000000E+20
 24
1.000000000000000E+20
 34
1.000000000000000E+20
 15
-1.000000000000000E+20
 25
-1.000000000000000E+20
 35
-1.000000000000000E+20
146
0.0
 13
0.0
 23
0.0
 33
0.0
 16
1.0
 26
0.0
 36
0.0
 17
0.0
 27
1.0
 37
0.0
 76
     0
330
1F
331
29
  0
MATERIAL
  5
3D
102
{ACAD_REACTORS
330
3B
102
}
330
3B
100
AcDbMaterial
  1
ByBlock
 72
     1
 94
      127
  0
MATERIAL
  5
3C
102
{ACAD_REACTORS
330
3B
102
}
330
3B
100
AcDbMaterial
  1
ByLayer
 72
     1
 94
      127
  0
MATERIAL
  5
3E
102
{ACAD_REACTORS
330
3B
102
}
330
3B
100
AcDbMaterial
  1
Global
 72
     1
 94
      127
  0
MLINESTYLE
  5
18
102
{ACAD_REACTORS
330
17
102
}
330
17
100
AcDbMlineStyle
  2
Standard
 70
     0
  3

 62
   256
 51
90.0
 52
90.0
 71
     2
 49
0.5
 62
   256
  6
BYLAYER
 49
-0.5
 62
   256
  6
BYLAYER
  0
ACDBPLACEHOLDER
  5
F
102
{ACAD_REACTORS
330
E
102
}
330
E
  0
VISUALSTYLE
  5
2F
102
{ACAD_REACTORS
330
2A
102
}
330
2A
100
AcDbVisualStyle
  2
2dWireframe
 70
     4
177
     2
291
     0
 71
     0
176
     1
 72
     2
176
     1
 73
     0
176
     1
 90
        0
176
     1
 40
-0.6
176
     1
 41
-30.0
176
     1
 62
     5
 63
     7
421
 16777215
176
     1
 74
     1
176
     1
 91
        4
176
     1
 64
     7
176
     1
 65
   257
176
     1
 75
     1
176
     1
175
     1
176
     1
 42
1.0
176
     1
 92
        0
176
     1
 66
   257
176
     1
 43
1.0
176
     1
 76
     1
176
     1
 77
     6
176
     1
 78
     2
176
     1
 67
     7
176
     1
 79
     5
176
     1
170
     0
176
     1
171
     0
176
     1
290
     0
176
     1
 93
        1
176
     1
 44
0.0
176
     1
173
     0
176
     1
  0
VISUALSTYLE
  5
31
102
{ACAD_REACTORS
330
2A
102
}
330
2A
100
AcDbVisualStyle
  2
3D Hidden
 70
     6
177
     2
291
     0
 71
     1
176
     1
 72
     2
176
     1
 73
     2
176
     1
 90
        0
176
     1
 40
-0.6
176
     1
 41
-30.0
176
     1
 62
     5
 63
     7
421
 16777215
176
     1
 74
     2
176
     1
 91
        2
176
     1
 64
     7
176
     1
 65
   257
176
     1
 75
     2
176
     1
175
     1
176
     1
 42
40.0
176
     1
 92
        0
176
     1
 66
   257
176
     1
 43
1.0
176
     1
 76
     1
176
     1
 77
     6
176
     1
 78
     2
176
     1
 67
     7
176
     1
 79
     3
176
     1
170
     0
176
     1
171
     0
176
     1
290
     0
176
     1
 93
        1
176
     1
 44
0.0
176
     1
173
     0
176
     1
  0
VISUALSTYLE
  5
30
102
{ACAD_REACTORS
330
2A
102
}
330
2A
100
AcDbVisualStyle
  2
3dWireframe
 70
     5
177
     2
291
     0
 71
     0
176
     1
 72
     2
176
     1
 73
     0
176
     1
 90
        0
176
     1
 40
-0.6
176
     1
 41
-30.0
176
     1
 62
     5
 63
     7
421
 16777215
176
     1
 74
     1
176
     1
 91
        4
176
     1
 64
     7
176
     1
 65
   257
176
     1
 75
     1
176
     1
175
     1
176
     1
 42
1.0
176
     1
 92
        0
176
     1
 66
   257
176
     1
 43
1.0
176
     1
 76
     1
176
     1
 77
     6
176
     1
 78
     2
176
     1
 67
     7
176
     1
 79
     5
176
     1
170
     0
176
     1
171
     0
176
     1
290
     0
176
     1
 93
        1
176
     1
 44
0.0
176
     1
173
     0
176
     1
  0
VISUALSTYLE
  5
32
102
{ACAD_REACTORS
330
2A
102
}
330
2A
100
AcDbVisualStyle
  2
Basic
 70
     7
177
     2
291
     1
 71
     1
176
     1
 72
     0
176
     1
 73
     1
176
     1
 90
        0
176
     1
 40
-0.6
176
     1
 41
-30.0
176
     1
 62
     5
 63
     7
421
 16777215
176
     1
 74
     0
176
     1
 91
        4
176
     1
 64
     7
176
     1
 65
   257
176
     1
 75
     1
176
     1
175
     1
176
     1
 42
1.0
176
     1
 92
        8
176
     1
 66
     7
176
     1
 43
1.0
176
     1
 76
     1
176
     1
 77
     6
176
     1
 78
     2
176
     1
 67
     7
176
     1
 79
     5
176
     1
170
     0
176
     1
171
     0
176
     1
290
     0
176
     1
 93
        1
176
     1
 44
0.0
176
     1
173
     0
176
     1
  0
VISUALSTYLE
  5
36
102
{ACAD_REACTORS
330
2A
102
}
330
2A
100
AcDbVisualStyle
  2
Brighten
 70
    12
177
     2
291
     1
 71
     2
176
     1
 72
     2
176
     1
 73
     0
176
     1
 90
        0
176
     1
 40
-0.6
176
     1
 41
-30.0
176
     1
 62
     5
 63
     7
421
 16777215
176
     1
 74
     1
176
     1
 91
        4
176
     1
 64
     7
176
     1
 65
   257
176
     1
 75
     1
176
     1
175
     1
176
     1
 42
1.0
176
     1
 92
        8
176
     1
 66
     7
176
     1
 43
1.0
176
     1
 76
     1
176
     1
 77
     6
176
     1
 78
     2
176
     1
 67
     7
176
     1
 79
     5
176
     1
170
     0
176
     1
171
     0
176
     1
290
     0
176
     1
 93
        1
176
     1
 44
50.0
176
     1
173
     0
176
     1
  0
VISUALSTYLE
  5
3A
102
{ACAD_REACTORS
330
2A
102
}
330
2A
100
AcDbVisualStyle
  2
ColorChange
 70
    16
177
     2
291
     1
 71
     2
176
     1
 72
     2
176
     1
 73
     3
176
     1
 90
        0
176
     1
 40
-0.6
176
     1
 41
-30.0
176
     1
 62
     5
 63
     8
421
  8421504
176
     1
 74
     1
176
     1
 91
        4
176
     1
 64
     7
176
     1
 65
   257
176
     1
 75
     1
176
     1
175
     1
176
     1
 42
1.0
176
     1
 92
        8
176
     1
 66
     8
424
  8421504
176
     1
 43
1.0
176
     1
 76
     1
176
     1
 77
     6
176
     1
 78
     2
176
     1
 67
     7
176
     1
 79
     5
176
     1
170
     0
176
     1
171
     0
176
     1
290
     0
176
     1
 93
        1
176
     1
 44
0.0
176
     1
173
     0
176
     1
  0
VISUALSTYLE
  5
34
102
{ACAD_REACTORS
330
2A
102
}
330
2A
100
AcDbVisualStyle
  2
Conceptual
 70
     9
177
     2
291
     0
 71
     3
176
     1
 72
     2
176
     1
 73
     0
176
     1
 90
        0
176
     1
 40
-0.6
176
     1
 41
-30.0
176
     1
 62
     5
 63
     7
421
 16777215
176
     1
 74
     2
176
     1
 91
        2
176
     1
 64
     7
176
     1
 65
   257
176
     1
 75
     1
176
     1
175
     1
176
     1
 42
40.0
176
     1
 92
        8
176
     1
 66
     7
176
     1
 43
1.0
176
     1
 76
     1
176
     1
 77
     6
176
     1
 78
     2
176
     1
 67
     7
176
     1
 79
     3
176
     1
170
     0
176
     1
171
     0
176
     1
290
     0
176
     1
 93
        1
176
     1
 44
0.0
176
     1
173
     0
176
     1
  0
VISUALSTYLE
  5
35
102
{ACAD_REACTORS
330
2A
102
}
330
2A
100
AcDbVisualStyle
  2
Dim
 70
    11
177
     2
291
     1
 71
     2
176
     1
 72
     2
176
     1
 73
     0
176
     1
 90
        0
176
     1
 40
-0.6
176
     1
 41
-30.0
176
     1
 62
     5
 63
     7
421
 16777215
176
     1
 74
     1
176
     1
 91
        4
176
     1
 64
     7
176
     1
 65
   257
176
     1
 75
     1
176
     1
175
     1
176
     1
 42
1.0
176
     1
 92
        8
176
     1
 66
     7
176
     1
 43
1.0
176
     1
 76
     1
176
     1
 77
     6
176
     1
 78
     2
176
     1
 67
     7
176
     1
 79
     5
176
     1
170
     0
176
     1
171
     0
176
     1
290
     0
176
     1
 93
        1
176
     1
 44
-50.0
176
     1
173
     0
176
     1
  0
VISUALSTYLE
  5
39
102
{ACAD_REACTORS
330
2A
102
}
330
2A
100
AcDbVisualStyle
  2
Facepattern
 70
    15
177
     2
291
     1
 71
     2
176
     1
 72
     2
176
     1
 73
     0
176
     1
 90
        0
176
     1
 40
-0.6
176
     1
 41
-30.0
176
     1
 62
     5
 63
     7
421
 16777215
176
     1
 74
     1
176
     1
 91
        4
176
     1
 64
     7
176
     1
 65
   257
176
     1
 75
     1
176
     1
175
     1
176
     1
 42
1.0
176
     1
 92
        8
176
     1
 66
     7
176
     1
 43
1.0
176
     1
 76
     1
176
     1
 77
     6
176
     1
 78
     2
176
     1
 67
     7
176
     1
 79
     5
176
     1
170
     0
176
     1
171
     0
176
     1
290
     0
176
     1
 93
        1
176
     1
 44
0.0
176
     1
173
     0
176
     1
  0
VISUALSTYLE
  5
2B
102
{ACAD_REACTORS
330
2A
102
}
330
2A
100
AcDbVisualStyle
  2
Flat
 70
     0
177
     2
291
     1
 71
     2
176
     1
 72
     1
176
     1
 73
     1
176
     1
 90
        2
176
     1
 40
-0.6
176
     1
 41
30.0
176
     1
 62
     5
 63
     7
421
 16777215
176
     1
 74
     0
176
     1
 91
        4
176
     1
 64
     7
176
     1
 65
   257
176
     1
 75
     1
176
     1
175
     1
176
     1
 42
1.0
176
     1
 92
        8
176
     1
 66
     7
176
     1
 43
1.0
176
     1
 76
     1
176
     1
 77
     6
176
     1
 78
     2
176
     1
 67
     7
176
     1
 79
     5
176
     1
170
     0
176
     1
171
     0
176
     1
290
     0
176
     1
 93
       13
176
     1
 44
0.0
176
     1
173
     0
176
     1
  0
VISUALSTYLE
  5
2C
102
{ACAD_REACTORS
330
2A
102
}
330
2A
100
AcDbVisualStyle
  2
FlatWithEdges
 70
     1
177
     2
291
     1
 71
     2
176
     1
 72
     1
176
     1
 73
     1
176
     1
 90
        2
176
     1
 40
-0.6
176
     1
 41
30.0
176
     1
 62
     5
 63
     7
421
 16777215
176
     1
 74
     1
176
     1
 91
        4
176
     1
 64
     7
176
     1
 65
   257
176
     1
 75
     1
176
     1
175
     1
176
     1
 42
1.0
176
     1
 92
        0
176
     1
 66
   257
176
     1
 43
1.0
176
     1
 76
     1
176
     1
 77
     6
176
     1
 78
     2
176
     1
 67
     7
176
     1
 79
     5
176
     1
170
     0
176
     1
171
     0
176
     1
290
     0
176
     1
 93
       13
176
     1
 44
0.0
176
     1
173
     0
176
     1
  0
VISUALSTYLE
  5
2D
102
{ACAD_REACTORS
330
2A
102
}
330
2A
100
AcDbVisualStyle
  2
Gouraud
 70
     2
177
     2
291
     1
 71
     2
176
     1
 72
     2
176
     1
 73
     1
176
     1
 90
        2
176
     1
 40
-0.6
176
     1
 41
30.0
176
     1
 62
     5
 63
     7
421
 16777215
176
     1
 74
     0
176
     1
 91
        4
176
     1
 64
     7
176
     1
 65
   257
176
     1
 75
     1
176
     1
175
     1
176
     1
 42
1.0
176
     1
 92
        0
176
     1
 66
     7
176
     1
 43
1.0
176
     1
 76
     1
176
     1
 77
     6
176
     1
 78
     2
176
     1
 67
     7
176
     1
 79
     5
176
     1
170
     0
176
     1
171
     0
176
     1
290
     0
176
     1
 93
       13
176
     1
 44
0.0
176
     1
173
     0
176
     1
  0
VISUALSTYLE
  5
2E
102
{ACAD_REACTORS
330
2A
102
}
330
2A
100
AcDbVisualStyle
  2
GouraudWithEdges
 70
     3
177
     2
291
     1
 71
     2
176
     1
 72
     2
176
     1
 73
     1
176
     1
 90
        2
176
     1
 40
-0.6
176
     1
 41
30.0
176
     1
 62
     5
 63
     7
421
 16777215
176
     1
 74
     1
176
     1
 91
        4
176
     1
 64
     7
176
     1
 65
   257
176
     1
 75
     1
176
     1
175
     1
176
     1
 42
1.0
176
     1
 92
        0
176
     1
 66
   257
176
     1
 43
1.0
176
     1
 76
     1
176
     1
 77
     6
176
     1
 78
     2
176
     1
 67
     7
176
     1
 79
     5
176
     1
170
     0
176
     1
171
     0
176
     1
290
     0
176
     1
 93
       13
176
     1
 44
0.0
176
     1
173
     0
176
     1
  0
VISUALSTYLE
  5
38
102
{ACAD_REACTORS
330
2A
102
}
330
2A
100
AcDbVisualStyle
  2
Linepattern
 70
    14
177
     2
291
     1
 71
     2
176
     1
 72
     2
176
     1
 73
     0
176
     1
 90
        0
176
     1
 40
-0.6
176
     1
 41
-30.0
176
     1
 62
     5
 63
     7
421
 16777215
176
     1
 74
     1
176
     1
 91
        4
176
     1
 64
     7
176
     1
 65
   257
176
     1
 75
     7
176
     1
175
     7
176
     1
 42
1.0
176
     1
 92
        8
176
     1
 66
     7
176
     1
 43
1.0
176
     1
 76
     1
176
     1
 77
     6
176
     1
 78
     2
176
     1
 67
     7
176
     1
 79
     5
176
     1
170
     0
176
     1
171
     0
176
     1
290
     0
176
     1
 93
        1
176
     1
 44
0.0
176
     1
173
     0
176
     1
  0
VISUALSTYLE
  5
33
102
{ACAD_REACTORS
330
2A
102
}
330
2A
100
AcDbVisualStyle
  2
Realistic
 70
     8
177
     2
291
     0
 71
     2
176
     1
 72
     2
176
     1
 73
     0
176
     1
 90
        0
176
     1
 40
-0.6
176
     1
 41
-30.0
176
     1
 62
     5
 63
     7
421
 16777215
176
     1
 74
     1
176
     1
 91
        0
176
     1
 64
     7
176
     1
 65
   257
176
     1
 75
     1
176
     1
175
     1
176
     1
 42
1.0
176
     1
 92
        8
176
     1
 66
     8
424
  7895160
176
     1
 43
1.0
176
     1
 76
     1
176
     1
 77
     6
176
     1
 78
     2
176
     1
 67
     7
176
     1
 79
     5
176
     1
170
     0
176
     1
171
     0
176
     1
290
     0
176
     1
 93
       13
176
     1
 44
0.0
176
     1
173
     0
176
     1
  0
VISUALSTYLE
  5
37
102
{ACAD_REACTORS
330
2A
102
}
330
2A
100
AcDbVisualStyle
  2
Thicken
 70
    13
177
     2
291
     1
 71
     2
176
     1
 72
     2
176
     1
 73
     0
176
     1
 90
        0
176
     1
 40
-0.6
176
     1
 41
-30.0
176
     1
 62
     5
 63
     7
421
 16777215
176
     1
 74
     1
176
     1
 91
        4
176
     1
 64
     7
176
     1
 65
   257
176
     1
 75
     1
176
     1
175
     1
176
     1
 42
1.0
176
     1
 92
       12
176
     1
 66
     7
176
     1
 43
1.0
176
     1
 76
     1
176
     1
 77
     6
176
     1
 78
     2
176
     1
 67
     7
176
     1
 79
     5
176
     1
170
     0
176
     1
171
     0
176
     1
290
     0
176
     1
 93
        1
176
     1
 44
0.0
176
     1
173
     0
176
     1
  0
ENDSEC
  0
EOF
