  0
SECTION
  2
HEADER
  9
$ACADVER
  1
AC1024
  9
$ACADMAINTVER
 70
     6
  9
$DWGCODEPAGE
  3
UNDEFINED
  9
$INSBASE
 10
0.0
 20
0.0
 30
0.0
  9
$EXTMIN
 10
1.000000000000000E+20
 20
1.000000000000000E+20
 30
1.000000000000000E+20
  9
$EXTMAX
 10
-1.000000000000000E+20
 20
-1.000000000000000E+20
 30
-1.000000000000000E+20
  9
$LIMMIN
 10
0.0
 20
0.0
  9
$LIMMAX
 10
12.0
 20
9.0
  9
$ORTHOMODE
 70
     0
  9
$REGENMODE
 70
     1
  9
$FILLMODE
 70
     1
  9
$QTEXTMODE
 70
     0
  9
$MIRRTEXT
 70
     1
  9
$LTSCALE
 40
1.0
  9
$ATTMODE
 70
     1
  9
$TEXTSIZE
 40
0.2
  9
$TRACEWID
 40
0.05
  9
$TEXTSTYLE
  7
Standard
  9
$CLAYER
  8
0
  9
$CELTYPE
  6
ByLayer
  9
$CECOLOR
 62
   256
  9
$CELTSCALE
 40
1.0
  9
$DISPSILH
 70
     0
  9
$DIMSCALE
 40
1.0
  9
$DIMASZ
 40
0.18
  9
$DIMEXO
 40
0.0625
  9
$DIMDLI
 40
0.38
  9
$DIMRND
 40
0.0
  9
$DIMDLE
 40
0.0
  9
$DIMEXE
 40
0.18
  9
$DIMTP
 40
0.0
  9
$DIMTM
 40
0.0
  9
$DIMTXT
 40
0.18
  9
$DIMCEN
 40
0.09
  9
$DIMTSZ
 40
0.0
  9
$DIMTOL
 70
     0
  9
$DIMLIM
 70
     0
  9
$DIMTIH
 70
     1
  9
$DIMTOH
 70
     1
  9
$DIMSE1
 70
     0
  9
$DIMSE2
 70
     0
  9
$DIMTAD
 70
     0
  9
$DIMZIN
 70
     0
  9
$DIMBLK
  1

  9
$DIMASO
 70
     1
  9
$DIMSHO
 70
     1
  9
$DIMPOST
  1

  9
$DIMAPOST
  1

  9
$DIMALT
 70
     0
  9
$DIMALTD
 70
     2
  9
$DIMALTF
 40
25.4
  9
$DIMLFAC
 40
1.0
  9
$DIMTOFL
 70
     0
  9
$DIMTVP
 40
0.0
  9
$DIMTIX
 70
     0
  9
$DIMSOXD
 70
     0
  9
$DIMSAH
 70
     0
  9
$DIMBLK1
  1

  9
$DIMBLK2
  1

  9
$DIMSTYLE
  2
Standard
  9
$DIMCLRD
 70
     0
  9
$DIMCLRE
 70
     0
  9
$DIMCLRT
 70
     0
  9
$DIMTFAC
 40
1.0
  9
$DIMGAP
 40
0.09
  9
$DIMJUST
 70
     0
  9
$DIMSD1
 70
     0
  9
$DIMSD2
 70
     0
  9
$DIMTOLJ
 70
     1
  9
$DIMTZIN
 70
     0
  9
$DIMALTZ
 70
     0
  9
$DIMALTTZ
 70
     0
  9
$DIMUPT
 70
     0
  9
$DIMDEC
 70
     4
  9
$DIMTDEC
 70
     4
  9
$DIMALTU
 70
     2
  9
$DIMALTTD
 70
     2
  9
$DIMTXSTY
  7
Standard
  9
$DIMAUNIT
 70
     0
  9
$DIMADEC
 70
     0
  9
$DIMALTRND
 40
0.0
  9
$DIMAZIN
 70
     0
  9
$DIMDSEP
 70
    46
  9
$DIMATFIT
 70
     3
  9
$DIMFRAC
 70
     0
  9
$DIMLDRBLK
  1

  9
$DIMLUNIT
 70
     2
  9
$DIMLWD
 70
    -2
  9
$DIMLWE
 70
    -2
  9
$DIMTMOVE
 70
     0
  9
$DIMFXL
 40
1.0
  9
$DIMFXLON
 70
     0
  9
$DIMJOGANG
 40
0.7853981633974483
  9
$DIMTFILL
 70
     0
  9
$DIMTFILLCLR
 70
     0
  9
$DIMARCSYM
 70
     0
  9
$DIMLTYPE
  6

  9
$DIMLTEX1
  6

  9
$DIMLTEX2
  6

  9
$DIMTXTDIRECTION
 70
     0
  9
$LUNITS
 70
     2
  9
$LUPREC
 70
     4
  9
$SKETCHINC
 40
0.1
  9
$FILLETRAD
 40
0.5
  9
$AUNITS
 70
     0
  9
$AUPREC
 70
     0
  9
$MENU
  1
.
  9
$ELEVATION
 40
0.0
  9
$PELEVATION
 40
0.0
  9
$THICKNESS
 40
0.0
  9
$LIMCHECK
 70
     0
  9
$CHAMFERA
 40
0.5
  9
$CHAMFERB
 40
0.5
  9
$CHAMFERC
 40
1.0
  9
$CHAMFERD
 40
0.0
  9
$SKPOLY
 70
     0
  9
$TDCREATE
 40
2457917.613530081
  9
$TDUCREATE
 40
2457917.238530092
  9
$TDUPDATE
 40
2457917.613530081
  9
$TDUUPDATE
 40
2457917.238530092
  9
$TDINDWG
 40
0.0000000116
  9
$TDUSRTIMER
 40
0.0000000116
  9
$USRTIMER
 70
     1
  9
$ANGBASE
 50
0.0
  9
$ANGDIR
 70
     0
  9
$PDMODE
 70
     0
  9
$PDSIZE
 40
0.0
  9
$PLINEWID
 40
0.0
  9
$SPLFRAME
 70
     0
  9
$SPLINETYPE
 70
     6
  9
$SPLINESEGS
 70
     8
  9
$HANDSEED
  5
FD
  9
$SURFTAB1
 70
     6
  9
$SURFTAB2
 70
     6
  9
$SURFTYPE
 70
     6
  9
$SURFU
 70
     6
  9
$SURFV
 70
     6
  9
$UCSBASE
  2

  9
$UCSNAME
  2

  9
$UCSORG
 10
0.0
 20
0.0
 30
0.0
  9
$UCSXDIR
 10
1.0
 20
0.0
 30
0.0
  9
$UCSYDIR
 10
0.0
 20
1.0
 30
0.0
  9
$UCSORTHOREF
  2

  9
$UCSORTHOVIEW
 70
     0
  9
$UCSORGTOP
 10
0.0
 20
0.0
 30
0.0
  9
$UCSORGBOTTOM
 10
0.0
 20
0.0
 30
0.0
  9
$UCSORGLEFT
 10
0.0
 20
0.0
 30
0.0
  9
$UCSORGRIGHT
 10
0.0
 20
0.0
 30
0.0
  9
$UCSORGFRONT
 10
0.0
 20
0.0
 30
0.0
  9
$UCSORGBACK
 10
0.0
 20
0.0
 30
0.0
  9
$PUCSBASE
  2

  9
$PUCSNAME
  2

  9
$PUCSORG
 10
0.0
 20
0.0
 30
0.0
  9
$PUCSXDIR
 10
1.0
 20
0.0
 30
0.0
  9
$PUCSYDIR
 10
0.0
 20
1.0
 30
0.0
  9
$PUCSORTHOREF
  2

  9
$PUCSORTHOVIEW
 70
     0
  9
$PUCSORGTOP
 10
0.0
 20
0.0
 30
0.0
  9
$PUCSORGBOTTOM
 10
0.0
 20
0.0
 30
0.0
  9
$PUCSORGLEFT
 10
0.0
 20
0.0
 30
0.0
  9
$PUCSORGRIGHT
 10
0.0
 20
0.0
 30
0.0
  9
$PUCSORGFRONT
 10
0.0
 20
0.0
 30
0.0
  9
$PUCSORGBACK
 10
0.0
 20
0.0
 30
0.0
  9
$USERI1
 70
     0
  9
$USERI2
 70
     0
  9
$USERI3
 70
     0
  9
$USERI4
 70
     0
  9
$USERI5
 70
     0
  9
$USERR1
 40
0.0
  9
$USERR2
 40
0.0
  9
$USERR3
 40
0.0
  9
$USERR4
 40
0.0
  9
$USERR5
 40
0.0
  9
$WORLDVIEW
 70
     1
  9
$SHADEDGE
 70
     3
  9
$SHADEDIF
 70
    70
  9
$TILEMODE
 70
     1
  9
$MAXACTVP
 70
    64
  9
$PINSBASE
 10
0.0
 20
0.0
 30
0.0
  9
$PLIMCHECK
 70
     0
  9
$PEXTMIN
 10
1.000000000000000E+20
 20
1.000000000000000E+20
 30
1.000000000000000E+20
  9
$PEXTMAX
 10
-1.000000000000000E+20
 20
-1.000000000000000E+20
 30
-1.000000000000000E+20
  9
$PLIMMIN
 10
0.0
 20
0.0
  9
$PLIMMAX
 10
12.0
 20
9.0
  9
$UNITMODE
 70
     0
  9
$VISRETAIN
 70
     1
  9
$PLINEGEN
 70
     0
  9
$PSLTSCALE
 70
     1
  9
$TREEDEPTH
 70
  3020
  9
$CMLSTYLE
  2
Standard
  9
$CMLJUST
 70
     0
  9
$CMLSCALE
 40
1.0
  9
$PROXYGRAPHICS
 70
     1
  9
$MEASUREMENT
 70
     0
  9
$CELWEIGHT
370
    -1
  9
$ENDCAPS
280
     0
  9
$JOINSTYLE
280
     0
  9
$LWDISPLAY
290
     1
  9
$INSUNITS
 70
     1
  9
$HYPERLINKBASE
  1

  9
$STYLESHEET
  1

  9
$XEDIT
290
     1
  9
$CEPSNTYPE
380
     0
  9
$PSTYLEMODE
290
     1
  9
$FINGERPRINTGUID
  2
{9407B7E2-3271-EA6E-C14D-0C74DFC82724}
  9
$VERSIONGUID
  2
{FAEB1C32-E019-11D5-929B-00C0DF256EC4}
  9
$EXTNAMES
290
     1
  9
$PSVPSCALE
 40
0.0
  9
$OLESTARTUP
290
     0
  9
$SORTENTS
280
   127
  9
$INDEXCTL
280
     0
  9
$HIDETEXT
280
     1
  9
$XCLIPFRAME
280
     2
  9
$HALOGAP
280
     0
  9
$OBSCOLOR
 70
   257
  9
$OBSLTYPE
280
     0
  9
$INTERSECTIONDISPLAY
280
     0
  9
$INTERSECTIONCOLOR
 70
   257
  9
$DIMASSOC
280
     2
  9
$PROJECTNAME
  1

  9
$CAMERADISPLAY
290
     0
  9
$LENSLENGTH
 40
50.0
  9
$CAMERAHEIGHT
 40
0.0
  9
$STEPSPERSEC
 40
2.0
  9
$STEPSIZE
 40
6.0
  9
$3DDWFPREC
 40
2.0
  9
$PSOLWIDTH
 40
0.25
  9
$PSOLHEIGHT
 40
4.0
  9
$LOFTANG1
 40
1.570796326794897
  9
$LOFTANG2
 40
1.570796326794897
  9
$LOFTMAG1
 40
0.0
  9
$LOFTMAG2
 40
0.0
  9
$LOFTPARAM
 70
     7
  9
$LOFTNORMALS
280
     1
  9
$LATITUDE
 40
37.795
  9
$LONGITUDE
 40
-122.394
  9
$NORTHDIRECTION
 40
0.0
  9
$TIMEZONE
 70
 -8000
  9
$LIGHTGLYPHDISPLAY
280
     1
  9
$TILEMODELIGHTSYNCH
280
     1
  9
$CMATERIAL
347
3C
  9
$SOLIDHIST
280
     1
  9
$SHOWHIST
280
     1
  9
$DWFFRAME
280
     2
  9
$DGNFRAME
280
     2
  9
$REALWORLDSCALE
290
     1
  9
$INTERFERECOLOR
 62
   256
  9
$CSHADOW
280
     0
  9
$SHADOWPLANELOCATION
 40
0.0
  0
ENDSEC
  0
SECTION
  2
CLASSES
  0
CLASS
  1
ACDBDICTIONARYWDFLT
  2
AcDbDictionaryWithDefault
  3
ObjectDBX Classes
 90
        0
 91
        4
280
     0
281
     0
  0
CLASS
  1
VISUALSTYLE
  2
AcDbVisualStyle
  3
ObjectDBX Classes
 90
     4095
 91
        4
280
     0
281
     0
  0
CLASS
  1
MATERIAL
  2
AcDbMaterial
  3
ObjectDBX Classes
 90
     1153
 91
        4
280
     0
281
     0
  0
CLASS
  1
SUN
  2
AcDbSun
  3
SCENEOE
 90
     1024
 91
        4
280
     0
281
     0
  0
ENDSEC
  0
SECTION
  2
TABLES
  0
TABLE
  2
VPORT
  5
8
330
0
100
AcDbSymbolTable
 70
     1
  0
VPORT
  5
29
330
8
100
AcDbSymbolTableRecord
100
AcDbViewportTableRecord
  2
*Active
 70
     0
 10
0.0
 20
0.0
 11
1.0
 21
1.0
 12
0.0
 22
0.0
 13
0.0
 23
0.0
 14
0.5
 24
0.5
 15
0.5
 25
0.5
 16
0.0
 26
0.0
 36
1.0
 17
91.00082462281999
 27
-128.4993055234307
 37
0.0
 40
256.9986110468615
 41
0.7081814508812795
 42
50.0
 43
0.0
 44
0.0
 50
0.0
 51
0.0
 71
     0
 72
   100
 73
     1
 74
     3
 75
     0
 76
     0
 77
     0
 78
     0
281
     0
 65
     1
110
0.0
120
0.0
130
0.0
111
1.0
121
0.0
131
0.0
112
0.0
122
1.0
132
0.0
 79
     0
146
0.0
 60
     3
 61
     5
292
     1
282
     1
141
0.0
142
0.0
 63
   250
361
3F
  0
ENDTAB
  0
TABLE
  2
LTYPE
  5
5
330
0
100
AcDbSymbolTable
 70
     1
  0
LTYPE
  5
14
330
5
100
AcDbSymbolTableRecord
100
AcDbLinetypeTableRecord
  2
ByBlock
 70
     0
  3

 72
    65
 73
     0
 40
0.0
  0
LTYPE
  5
15
330
5
100
AcDbSymbolTableRecord
100
AcDbLinetypeTableRecord
  2
ByLayer
 70
     0
  3

 72
    65
 73
     0
 40
0.0
  0
LTYPE
  5
16
330
5
100
AcDbSymbolTableRecord
100
AcDbLinetypeTableRecord
  2
Continuous
 70
     0
  3
Solid line
 72
    65
 73
     0
 40
0.0
  0
ENDTAB
  0
TABLE
  2
LAYER
  5
2
330
0
100
AcDbSymbolTable
 70
     2
  0
LAYER
  5
10
330
2
100
AcDbSymbolTableRecord
100
AcDbLayerTableRecord
  2
0
 70
     0
 62
     7
  6
Continuous
370
    -3
390
F
347
3E
  0
LAYER
  5
40
330
2
100
AcDbSymbolTableRecord
100
AcDbLayerTableRecord
  2
_U+30EC_U+30A4_U+30E4_U+30FC 1
 70
     0
 62
     7
  6
Continuous
370
    -3
390
F
347
3E
  0
ENDTAB
  0
TABLE
  2
STYLE
  5
3
330
0
100
AcDbSymbolTable
 70
     1
  0
STYLE
  5
11
330
3
100
AcDbSymbolTableRecord
100
AcDbTextStyleTableRecord
  2
Standard
 70
     0
 40
0.0
 41
1.0
 50
0.0
 71
     0
 42
0.2
  3
txt
  4

  0
ENDTAB
  0
TABLE
  2
VIEW
  5
6
330
0
100
AcDbSymbolTable
 70
     0
  0
ENDTAB
  0
TABLE
  2
UCS
  5
7
330
0
100
AcDbSymbolTable
 70
     0
  0
ENDTAB
  0
TABLE
  2
APPID
  5
9
330
0
100
AcDbSymbolTable
 70
     1
  0
APPID
  5
12
330
9
100
AcDbSymbolTableRecord
100
AcDbRegAppTableRecord
  2
ACAD
 70
     0
  0
ENDTAB
  0
TABLE
  2
DIMSTYLE
  5
A
330
0
100
AcDbSymbolTable
 70
     1
100
AcDbDimStyleTable
  0
DIMSTYLE
105
27
330
A
100
AcDbSymbolTableRecord
100
AcDbDimStyleTableRecord
  2
Standard
 70
     0
178
     0
340
11
  0
ENDTAB
  0
TABLE
  2
BLOCK_RECORD
  5
1
330
0
100
AcDbSymbolTable
 70
     9
  0
BLOCK_RECORD
  5
1F
330
1
100
AcDbSymbolTableRecord
100
AcDbBlockTableRecord
  2
*Model_Space
340
22
 70
     0
280
     1
281
     0
  0
BLOCK_RECORD
  5
1B
330
1
100
AcDbSymbolTableRecord
100
AcDbBlockTableRecord
  2
*Paper_Space
340
1E
 70
     0
280
     1
281
     0
  0
BLOCK_RECORD
  5
23
330
1
100
AcDbSymbolTableRecord
100
AcDbBlockTableRecord
  2
*Paper_Space0
340
26
 70
     0
280
     1
281
     0
  0
BLOCK_RECORD
  5
41
330
1
100
AcDbSymbolTableRecord
100
AcDbBlockTableRecord
  2
block 2
340
0
102
{BLKREFS
331
42
102
}
 70
     0
280
     1
281
     0
  0
BLOCK_RECORD
  5
53
330
1
100
AcDbSymbolTableRecord
100
AcDbBlockTableRecord
  2
block 3
340
0
102
{BLKREFS
331
54
102
}
 70
     0
280
     1
281
     0
  0
BLOCK_RECORD
  5
75
330
1
100
AcDbSymbolTableRecord
100
AcDbBlockTableRecord
  2
block 4
340
0
102
{BLKREFS
331
76
102
}
 70
     0
280
     1
281
     0
  0
BLOCK_RECORD
  5
87
330
1
100
AcDbSymbolTableRecord
100
AcDbBlockTableRecord
  2
block 5
340
0
102
{BLKREFS
331
88
102
}
 70
     0
280
     1
281
     0
  0
BLOCK_RECORD
  5
8D
330
1
100
AcDbSymbolTableRecord
100
AcDbBlockTableRecord
  2
block 6
340
0
102
{BLKREFS
331
8E
102
}
 70
     0
280
     1
281
     0
  0
BLOCK_RECORD
  5
9D
330
1
100
AcDbSymbolTableRecord
100
AcDbBlockTableRecord
  2
block 7
340
0
102
{BLKREFS
331
9E
102
}
 70
     0
280
     1
281
     0
  0
BLOCK_RECORD
  5
B5
330
1
100
AcDbSymbolTableRecord
100
AcDbBlockTableRecord
  2
block 8
340
0
102
{BLKREFS
331
B6
102
}
 70
     0
280
     1
281
     0
  0
BLOCK_RECORD
  5
D8
330
1
100
AcDbSymbolTableRecord
100
AcDbBlockTableRecord
  2
block 9
340
0
102
{BLKREFS
331
D9
102
}
 70
     0
280
     1
281
     0
  0
ENDTAB
  0
ENDSEC
  0
SECTION
  2
BLOCKS
  0
BLOCK
  5
20
330
1F
100
AcDbEntity
  8
0
100
AcDbBlockBegin
  2
*Model_Space
 70
     0
 10
0.0
 20
0.0
 30
0.0
  3
*Model_Space
  1

  0
ENDBLK
  5
21
330
1F
100
AcDbEntity
  8
0
100
AcDbBlockEnd
  0
BLOCK
  5
1C
330
1B
100
AcDbEntity
 67
     1
  8
0
100
AcDbBlockBegin
  2
*Paper_Space
 70
     0
 10
0.0
 20
0.0
 30
0.0
  3
*Paper_Space
  1

  0
ENDBLK
  5
1D
330
1B
100
AcDbEntity
 67
     1
  8
0
100
AcDbBlockEnd
  0
BLOCK
  5
24
330
23
100
AcDbEntity
  8
0
100
AcDbBlockBegin
  2
*Paper_Space0
 70
     0
 10
0.0
 20
0.0
 30
0.0
  3
*Paper_Space0
  1

  0
ENDBLK
  5
25
330
23
100
AcDbEntity
  8
0
100
AcDbBlockEnd
  0
BLOCK
  5
43
330
41
100
AcDbEntity
  8
0
100
AcDbBlockBegin
  2
block 2
 70
     0
 10
0.0
 20
0.0
 30
0.0
  3
block 2
  1

  0
SPLINE
  5
45
330
41
100
AcDbEntity
  8
_U+30EC_U+30A4_U+30E4_U+30FC 1
 62
     7
420
 16777215
370
     9
100
AcDbSpline
210
0.0
220
0.0
230
1.0
 70
    11
 71
     3
 72
    17
 73
    13
 74
     0
 42
0.0000000001
 43
0.0000000001
 12
1.0
 22
0.0
 32
0.0
 13
1.0
 23
0.0
 33
0.0
 40
0.0
 40
0.0
 40
0.0
 40
0.0
 40
1.0
 40
1.0
 40
1.0
 40
2.0
 40
2.0
 40
2.0
 40
3.0
 40
3.0
 40
3.0
 40
4.0
 40
4.0
 40
4.0
 40
4.0
 10
68.23131270371863
 20
-146.5533432966947
 30
0.0
 10
68.23131270371863
 20
-146.4982041300423
 30
0.0
 10
68.18654520486075
 20
-146.4534366300531
 30
0.0
 10
68.13073576184013
 20
-146.4534366300531
 30
0.0
 10
68.07559659658017
 20
-146.4534366300531
 30
0.0
 10
68.03082909772229
 20
-146.4982041300423
 30
0.0
 10
68.03082909772229
 20
-146.5533432966947
 30
0.0
 10
68.03082909772229
 20
-146.6084471855703
 30
0.0
 10
68.07559659658017
 20
-146.6532499633364
 30
0.0
 10
68.13073576184013
 20
-146.6532499633364
 30
0.0
 10
68.18654520486075
 20
-146.6532499633364
 30
0.0
 10
68.23131270371863
 20
-146.6084471855703
 30
0.0
 10
68.23131270371863
 20
-146.5533432966947
 30
0.0
  0
POLYLINE
  5
46
330
41
100
AcDbEntity
  8
_U+30EC_U+30A4_U+30E4_U+30FC 1
 62
     7
420
 16777215
370
     9
100
AcDb2dPolyline
 66
     1
 10
0.0
 20
0.0
 30
0.0
  0
VERTEX
  5
47
330
46
100
AcDbEntity
  8
_U+30EC_U+30A4_U+30E4_U+30FC 1
 62
     7
420
 16777215
370
     9
100
AcDbVertex
100
AcDb2dVertex
 10
68.13073576184013
 20
-146.5533432966947
 30
0.0
  0
VERTEX
  5
48
330
46
100
AcDbEntity
  8
_U+30EC_U+30A4_U+30E4_U+30FC 1
 62
     7
420
 16777215
370
     9
100
AcDbVertex
100
AcDb2dVertex
 10
73.13093730094103
 20
-146.5533432966947
 30
0.0
  0
SEQEND
  5
49
330
46
100
AcDbEntity
  8
_U+30EC_U+30A4_U+30E4_U+30FC 1
 62
     7
420
 16777215
370
     9
  0
POLYLINE
  5
4A
330
41
100
AcDbEntity
  8
_U+30EC_U+30A4_U+30E4_U+30FC 1
 62
     7
420
 16777215
370
     9
100
AcDb2dPolyline
 66
     1
 10
0.0
 20
0.0
 30
0.0
  0
VERTEX
  5
4B
330
4A
100
AcDbEntity
  8
_U+30EC_U+30A4_U+30E4_U+30FC 1
 62
     7
420
 16777215
370
     9
100
AcDbVertex
100
AcDb2dVertex
 10
68.13073576184013
 20
-144.0928241306436
 30
0.0
  0
VERTEX
  5
4C
330
4A
100
AcDbEntity
  8
_U+30EC_U+30A4_U+30E4_U+30FC 1
 62
     7
420
 16777215
370
     9
100
AcDbVertex
100
AcDb2dVertex
 10
68.13073576184013
 20
-147.5530802408898
 30
0.0
  0
SEQEND
  5
4D
330
4A
100
AcDbEntity
  8
_U+30EC_U+30A4_U+30E4_U+30FC 1
 62
     7
420
 16777215
370
     9
  0
SPLINE
  5
4E
330
41
100
AcDbEntity
  8
_U+30EC_U+30A4_U+30E4_U+30FC 1
 62
     7
420
 16777215
370
     9
100
AcDbSpline
210
0.0
220
0.0
230
1.0
 70
    11
 71
     3
 72
    17
 73
    13
 74
     0
 42
0.0000000001
 43
0.0000000001
 12
1.0
 22
0.0
 32
0.0
 13
1.0
 23
0.0
 33
0.0
 40
0.0
 40
0.0
 40
0.0
 40
0.0
 40
1.0
 40
1.0
 40
1.0
 40
2.0
 40
2.0
 40
2.0
 40
3.0
 40
3.0
 40
3.0
 40
4.0
 40
4.0
 40
4.0
 40
4.0
 10
73.23151424281953
 20
-146.5533432966947
 30
0.0
 10
73.23151424281953
 20
-146.4982041300423
 30
0.0
 10
73.18674674396165
 20
-146.4534366300531
 30
0.0
 10
73.13093730094103
 20
-146.4534366300531
 30
0.0
 10
73.07579998173114
 20
-146.4534366300531
 30
0.0
 10
73.03103063682319
 20
-146.4982041300423
 30
0.0
 10
73.03103063682319
 20
-146.5533432966947
 30
0.0
 10
73.03103063682319
 20
-146.6084471855703
 30
0.0
 10
73.07579998173114
 20
-146.6532499633364
 30
0.0
 10
73.13093730094103
 20
-146.6532499633364
 30
0.0
 10
73.18674674396165
 20
-146.6532499633364
 30
0.0
 10
73.23151424281953
 20
-146.6084471855703
 30
0.0
 10
73.23151424281953
 20
-146.5533432966947
 30
0.0
  0
POLYLINE
  5
4F
330
41
100
AcDbEntity
  8
_U+30EC_U+30A4_U+30E4_U+30FC 1
 62
     7
420
 16777215
370
     9
100
AcDb2dPolyline
 66
     1
 10
0.0
 20
0.0
 30
0.0
  0
VERTEX
  5
50
330
4F
100
AcDbEntity
  8
_U+30EC_U+30A4_U+30E4_U+30FC 1
 62
     7
420
 16777215
370
     9
100
AcDbVertex
100
AcDb2dVertex
 10
73.13093730094103
 20
-144.0928241306436
 30
0.0
  0
VERTEX
  5
51
330
4F
100
AcDbEntity
  8
_U+30EC_U+30A4_U+30E4_U+30FC 1
 62
     7
420
 16777215
370
     9
100
AcDbVertex
100
AcDb2dVertex
 10
73.13093730094103
 20
-147.5530802408898
 30
0.0
  0
SEQEND
  5
52
330
4F
100
AcDbEntity
  8
_U+30EC_U+30A4_U+30E4_U+30FC 1
 62
     7
420
 16777215
370
     9
  0
INSERT
  5
54
330
41
100
AcDbEntity
  8
_U+30EC_U+30A4_U+30E4_U+30FC 1
100
AcDbBlockReference
  2
block 3
 10
0.0
 20
0.0
 30
0.0
  0
SPLINE
  5
59
330
41
100
AcDbEntity
  8
_U+30EC_U+30A4_U+30E4_U+30FC 1
 62
     7
420
 16777215
370
     9
100
AcDbSpline
210
0.0
220
0.0
230
1.0
 70
    11
 71
     3
 72
    17
 73
    13
 74
     0
 42
0.0000000001
 43
0.0000000001
 12
1.0
 22
0.0
 32
0.0
 13
1.0
 23
0.0
 33
0.0
 40
0.0
 40
0.0
 40
0.0
 40
0.0
 40
1.0
 40
1.0
 40
1.0
 40
2.0
 40
2.0
 40
2.0
 40
3.0
 40
3.0
 40
3.0
 40
4.0
 40
4.0
 40
4.0
 40
4.0
 10
115.8048059344622
 20
-142.552878575473
 30
0.0
 10
115.8048059344622
 20
-142.6080177421261
 30
0.0
 10
115.8496087110969
 20
-142.6527852421146
 30
0.0
 10
115.90471259858
 20
-142.6527852421146
 30
0.0
 10
115.9598517638399
 20
-142.6527852421146
 30
0.0
 10
116.0046221932212
 20
-142.6080177421261
 30
0.0
 10
116.0046221932212
 20
-142.552878575473
 30
0.0
 10
116.0046221932212
 20
-142.4977746865981
 30
0.0
 10
115.9598517638399
 20
-142.4529719088314
 30
0.0
 10
115.90471259858
 20
-142.4529719088314
 30
0.0
 10
115.8496087110969
 20
-142.4529719088314
 30
0.0
 10
115.8048059344622
 20
-142.4977746865981
 30
0.0
 10
115.8048059344622
 20
-142.552878575473
 30
0.0
  0
SPLINE
  5
5A
330
41
100
AcDbEntity
  8
_U+30EC_U+30A4_U+30E4_U+30FC 1
 62
     7
420
 16777215
370
     9
100
AcDbSpline
210
0.0
220
0.0
230
1.0
 70
    11
 71
     3
 72
    17
 73
    13
 74
     0
 42
0.0000000001
 43
0.0000000001
 12
1.0
 22
0.0
 32
0.0
 13
1.0
 23
0.0
 33
0.0
 40
0.0
 40
0.0
 40
0.0
 40
0.0
 40
1.0
 40
1.0
 40
1.0
 40
2.0
 40
2.0
 40
2.0
 40
3.0
 40
3.0
 40
3.0
 40
4.0
 40
4.0
 40
4.0
 40
4.0
 10
115.8048059344622
 20
-124.0528944134311
 30
0.0
 10
115.8048059344622
 20
-124.1079983023064
 30
0.0
 10
115.8496087110969
 20
-124.1528010800731
 30
0.0
 10
115.90471259858
 20
-124.1528010800731
 30
0.0
 10
115.9598517638399
 20
-124.1528010800731
 30
0.0
 10
116.0046221932212
 20
-124.1079983023064
 30
0.0
 10
116.0046221932212
 20
-124.0528944134311
 30
0.0
 10
116.0046221932212
 20
-123.9970849690007
 30
0.0
 10
115.9598517638399
 20
-123.9522821912343
 30
0.0
 10
115.90471259858
 20
-123.9522821912343
 30
0.0
 10
115.8496087110969
 20
-123.9522821912343
 30
0.0
 10
115.8048059344622
 20
-123.9970849690007
 30
0.0
 10
115.8048059344622
 20
-124.0528944134311
 30
0.0
  0
POLYLINE
  5
5B
330
41
100
AcDbEntity
  8
_U+30EC_U+30A4_U+30E4_U+30FC 1
 62
     7
420
 16777215
370
     9
100
AcDb2dPolyline
 66
     1
 10
0.0
 20
0.0
 30
0.0
  0
VERTEX
  5
5C
330
5B
100
AcDbEntity
  8
_U+30EC_U+30A4_U+30E4_U+30FC 1
 62
     7
420
 16777215
370
     9
100
AcDbVertex
100
AcDb2dVertex
 10
115.90471259858
 20
-124.0549758023195
 30
0.0
  0
VERTEX
  5
5D
330
5B
100
AcDbEntity
  8
_U+30EC_U+30A4_U+30E4_U+30FC 1
 62
     7
420
 16777215
370
     9
100
AcDbVertex
100
AcDb2dVertex
 10
115.90471259858
 20
-142.552878575473
 30
0.0
  0
SEQEND
  5
5E
330
5B
100
AcDbEntity
  8
_U+30EC_U+30A4_U+30E4_U+30FC 1
 62
     7
420
 16777215
370
     9
  0
POLYLINE
  5
5F
330
41
100
AcDbEntity
  8
_U+30EC_U+30A4_U+30E4_U+30FC 1
 62
     7
420
 16777215
370
     9
100
AcDb2dPolyline
 66
     1
 10
0.0
 20
0.0
 30
0.0
  0
VERTEX
  5
60
330
5F
100
AcDbEntity
  8
_U+30EC_U+30A4_U+30E4_U+30FC 1
 62
     7
420
 16777215
370
     9
100
AcDbVertex
100
AcDb2dVertex
 10
114.280700140012
 20
-124.0528944134311
 30
0.0
  0
VERTEX
  5
61
330
5F
100
AcDbEntity
  8
_U+30EC_U+30A4_U+30E4_U+30FC 1
 62
     7
420
 16777215
370
     9
100
AcDbVertex
100
AcDb2dVertex
 10
116.9044847952959
 20
-124.0528944134311
 30
0.0
  0
SEQEND
  5
62
330
5F
100
AcDbEntity
  8
_U+30EC_U+30A4_U+30E4_U+30FC 1
 62
     7
420
 16777215
370
     9
  0
SPLINE
  5
63
330
41
100
AcDbEntity
  8
_U+30EC_U+30A4_U+30E4_U+30FC 1
 62
     7
420
 16777215
370
     9
100
AcDbSpline
210
0.0
220
0.0
230
1.0
 70
    11
 71
     3
 72
    17
 73
    13
 74
     0
 42
0.0000000001
 43
0.0000000001
 12
1.0
 22
0.0
 32
0.0
 13
1.0
 23
0.0
 33
0.0
 40
0.0
 40
0.0
 40
0.0
 40
0.0
 40
1.0
 40
1.0
 40
1.0
 40
2.0
 40
2.0
 40
2.0
 40
3.0
 40
3.0
 40
3.0
 40
4.0
 40
4.0
 40
4.0
 40
4.0
 10
115.8048059344622
 20
-123.05294580257
 30
0.0
 10
115.8048059344622
 20
-123.1080849692231
 30
0.0
 10
115.8496087110969
 20
-123.1528524692117
 30
0.0
 10
115.90471259858
 20
-123.1528524692117
 30
0.0
 10
115.9598517638399
 20
-123.1528524692117
 30
0.0
 10
116.0046221932212
 20
-123.1080849692231
 30
0.0
 10
116.0046221932212
 20
-123.05294580257
 30
0.0
 10
116.0046221932212
 20
-122.9971363581396
 30
0.0
 10
115.9598517638399
 20
-122.9523688581507
 30
0.0
 10
115.90471259858
 20
-122.9523688581507
 30
0.0
 10
115.8496087110969
 20
-122.9523688581507
 30
0.0
 10
115.8048059344622
 20
-122.9971363581396
 30
0.0
 10
115.8048059344622
 20
-123.05294580257
 30
0.0
  0
POLYLINE
  5
64
330
41
100
AcDbEntity
  8
_U+30EC_U+30A4_U+30E4_U+30FC 1
 62
     7
420
 16777215
370
     9
100
AcDb2dPolyline
 66
     1
 10
0.0
 20
0.0
 30
0.0
  0
VERTEX
  5
65
330
64
100
AcDbEntity
  8
_U+30EC_U+30A4_U+30E4_U+30FC 1
 62
     7
420
 16777215
370
     9
100
AcDbVertex
100
AcDb2dVertex
 10
115.90471259858
 20
-120.055216636653
 30
0.0
  0
VERTEX
  5
66
330
64
100
AcDbEntity
  8
_U+30EC_U+30A4_U+30E4_U+30FC 1
 62
     7
420
 16777215
370
     9
100
AcDbVertex
100
AcDb2dVertex
 10
115.90471259858
 20
-142.552878575473
 30
0.0
  0
SEQEND
  5
67
330
64
100
AcDbEntity
  8
_U+30EC_U+30A4_U+30E4_U+30FC 1
 62
     7
420
 16777215
370
     9
  0
POLYLINE
  5
68
330
41
100
AcDbEntity
  8
_U+30EC_U+30A4_U+30E4_U+30FC 1
 62
     7
420
 16777215
370
     9
100
AcDb2dPolyline
 66
     1
 10
0.0
 20
0.0
 30
0.0
  0
VERTEX
  5
69
330
68
100
AcDbEntity
  8
_U+30EC_U+30A4_U+30E4_U+30FC 1
 62
     7
420
 16777215
370
     9
100
AcDbVertex
100
AcDb2dVertex
 10
114.280700140012
 20
-123.05294580257
 30
0.0
  0
VERTEX
  5
6A
330
68
100
AcDbEntity
  8
_U+30EC_U+30A4_U+30E4_U+30FC 1
 62
     7
420
 16777215
370
     9
100
AcDbVertex
100
AcDb2dVertex
 10
116.9044847952959
 20
-123.05294580257
 30
0.0
  0
SEQEND
  5
6B
330
68
100
AcDbEntity
  8
_U+30EC_U+30A4_U+30E4_U+30FC 1
 62
     7
420
 16777215
370
     9
  0
POLYLINE
  5
6C
330
41
100
AcDbEntity
  8
_U+30EC_U+30A4_U+30E4_U+30FC 1
 62
     7
420
 16777215
370
     9
100
AcDb2dPolyline
 66
     1
 10
0.0
 20
0.0
 30
0.0
  0
VERTEX
  5
6D
330
6C
100
AcDbEntity
  8
_U+30EC_U+30A4_U+30E4_U+30FC 1
 62
     7
420
 16777215
370
     9
100
AcDbVertex
100
AcDb2dVertex
 10
74.28092227160246
 20
-142.552878575473
 30
0.0
  0
VERTEX
  5
6E
330
6C
100
AcDbEntity
  8
_U+30EC_U+30A4_U+30E4_U+30FC 1
 62
     7
420
 16777215
370
     9
100
AcDbVertex
100
AcDb2dVertex
 10
116.9044847952959
 20
-142.552878575473
 30
0.0
  0
SEQEND
  5
6F
330
6C
100
AcDbEntity
  8
_U+30EC_U+30A4_U+30E4_U+30FC 1
 62
     7
420
 16777215
370
     9
  0
SPLINE
  5
70
330
41
100
AcDbEntity
  8
_U+30EC_U+30A4_U+30E4_U+30FC 1
 62
     7
420
 16777215
370
     9
100
AcDbSpline
210
0.0
220
0.0
230
1.0
 70
    11
 71
     3
 72
    17
 73
    13
 74
     0
 42
0.0000000001
 43
0.0000000001
 12
1.0
 22
0.0
 32
0.0
 13
1.0
 23
0.0
 33
0.0
 40
0.0
 40
0.0
 40
0.0
 40
0.0
 40
1.0
 40
1.0
 40
1.0
 40
2.0
 40
2.0
 40
2.0
 40
3.0
 40
3.0
 40
3.0
 40
4.0
 40
4.0
 40
4.0
 40
4.0
 10
115.8048059344622
 20
-139.5528916317786
 30
0.0
 10
115.8048059344622
 20
-139.6080307984311
 30
0.0
 10
115.8496087110969
 20
-139.6527982984203
 30
0.0
 10
115.90471259858
 20
-139.6527982984203
 30
0.0
 10
115.9598517638399
 20
-139.6527982984203
 30
0.0
 10
116.0046221932212
 20
-139.6080307984311
 30
0.0
 10
116.0046221932212
 20
-139.5528916317786
 30
0.0
 10
116.0046221932212
 20
-139.4977877429031
 30
0.0
 10
115.9598517638399
 20
-139.452984965137
 30
0.0
 10
115.90471259858
 20
-139.452984965137
 30
0.0
 10
115.8496087110969
 20
-139.452984965137
 30
0.0
 10
115.8048059344622
 20
-139.4977877429031
 30
0.0
 10
115.8048059344622
 20
-139.5528916317786
 30
0.0
  0
POLYLINE
  5
71
330
41
100
AcDbEntity
  8
_U+30EC_U+30A4_U+30E4_U+30FC 1
 62
     7
420
 16777215
370
     9
100
AcDb2dPolyline
 66
     1
 10
0.0
 20
0.0
 30
0.0
  0
VERTEX
  5
72
330
71
100
AcDbEntity
  8
_U+30EC_U+30A4_U+30E4_U+30FC 1
 62
     7
420
 16777215
370
     9
100
AcDbVertex
100
AcDb2dVertex
 10
74.28092227160246
 20
-139.5528916317786
 30
0.0
  0
VERTEX
  5
73
330
71
100
AcDbEntity
  8
_U+30EC_U+30A4_U+30E4_U+30FC 1
 62
     7
420
 16777215
370
     9
100
AcDbVertex
100
AcDb2dVertex
 10
116.9044847952959
 20
-139.5528916317786
 30
0.0
  0
SEQEND
  5
74
330
71
100
AcDbEntity
  8
_U+30EC_U+30A4_U+30E4_U+30FC 1
 62
     7
420
 16777215
370
     9
  0
INSERT
  5
76
330
41
100
AcDbEntity
  8
_U+30EC_U+30A4_U+30E4_U+30FC 1
100
AcDbBlockReference
  2
block 4
 10
0.0
 20
0.0
 30
0.0
  0
INSERT
  5
88
330
41
100
AcDbEntity
  8
_U+30EC_U+30A4_U+30E4_U+30FC 1
100
AcDbBlockReference
  2
block 5
 10
0.0
 20
0.0
 30
0.0
  0
INSERT
  5
8E
330
41
100
AcDbEntity
  8
_U+30EC_U+30A4_U+30E4_U+30FC 1
100
AcDbBlockReference
  2
block 6
 10
0.0
 20
0.0
 30
0.0
  0
SPLINE
  5
93
330
41
100
AcDbEntity
  8
_U+30EC_U+30A4_U+30E4_U+30FC 1
 62
     7
420
 16777215
370
     9
100
AcDbSpline
210
0.0
220
0.0
230
1.0
 70
    11
 71
     3
 72
    17
 73
    13
 74
     0
 42
0.0000000001
 43
0.0000000001
 12
1.0
 22
0.0
 32
0.0
 13
1.0
 23
0.0
 33
0.0
 40
0.0
 40
0.0
 40
0.0
 40
0.0
 40
1.0
 40
1.0
 40
1.0
 40
2.0
 40
2.0
 40
2.0
 40
3.0
 40
3.0
 40
3.0
 40
4.0
 40
4.0
 40
4.0
 40
4.0
 10
68.13073576184013
 20
-114.6727449713318
 30
0.0
 10
68.07559659658017
 20
-114.6727449713318
 30
0.0
 10
68.03082909772229
 20
-114.7175477490985
 30
0.0
 10
68.03082909772229
 20
-114.7726516379734
 30
0.0
 10
68.03082909772229
 20
-114.8277908046265
 30
0.0
 10
68.07559659658017
 20
-114.8725583046151
 30
0.0
 10
68.13073576184013
 20
-114.8725583046151
 30
0.0
 10
68.1858396493232
 20
-114.8725583046151
 30
0.0
 10
68.23064242595795
 20
-114.8277908046265
 30
0.0
 10
68.23064242595795
 20
-114.7726516379734
 30
0.0
 10
68.23064242595795
 20
-114.7175477490985
 30
0.0
 10
68.1858396493232
 20
-114.6727449713318
 30
0.0
 10
68.13073576184013
 20
-114.6727449713318
 30
0.0
  0
POLYLINE
  5
94
330
41
100
AcDbEntity
  8
_U+30EC_U+30A4_U+30E4_U+30FC 1
 62
     7
420
 16777215
370
     9
100
AcDb2dPolyline
 66
     1
 10
0.0
 20
0.0
 30
0.0
  0
VERTEX
  5
95
330
94
100
AcDbEntity
  8
_U+30EC_U+30A4_U+30E4_U+30FC 1
 62
     7
420
 16777215
370
     9
100
AcDbVertex
100
AcDb2dVertex
 10
71.10006624164174
 20
-114.7726516379734
 30
0.0
  0
VERTEX
  5
96
330
94
100
AcDbEntity
  8
_U+30EC_U+30A4_U+30E4_U+30FC 1
 62
     7
420
 16777215
370
     9
100
AcDbVertex
100
AcDb2dVertex
 10
68.13073576184013
 20
-114.7726516379734
 30
0.0
  0
SEQEND
  5
97
330
94
100
AcDbEntity
  8
_U+30EC_U+30A4_U+30E4_U+30FC 1
 62
     7
420
 16777215
370
     9
  0
SPLINE
  5
98
330
41
100
AcDbEntity
  8
_U+30EC_U+30A4_U+30E4_U+30FC 1
 62
     7
420
 16777215
370
     9
100
AcDbSpline
210
0.0
220
0.0
230
1.0
 70
    11
 71
     3
 72
    17
 73
    13
 74
     0
 42
0.0000000001
 43
0.0000000001
 12
1.0
 22
0.0
 32
0.0
 13
1.0
 23
0.0
 33
0.0
 40
0.0
 40
0.0
 40
0.0
 40
0.0
 40
1.0
 40
1.0
 40
1.0
 40
2.0
 40
2.0
 40
2.0
 40
3.0
 40
3.0
 40
3.0
 40
4.0
 40
4.0
 40
4.0
 40
4.0
 10
71.10006624164174
 20
-114.6727449713318
 30
0.0
 10
71.0449270763818
 20
-114.6727449713318
 30
0.0
 10
71.00015957752392
 20
-114.7175477490985
 30
0.0
 10
71.00015957752392
 20
-114.7726516379734
 30
0.0
 10
71.00015957752392
 20
-114.8277908046265
 30
0.0
 10
71.0449270763818
 20
-114.8725583046151
 30
0.0
 10
71.10006624164174
 20
-114.8725583046151
 30
0.0
 10
71.15517012912481
 20
-114.8725583046151
 30
0.0
 10
71.19997290575958
 20
-114.8277908046265
 30
0.0
 10
71.19997290575958
 20
-114.7726516379734
 30
0.0
 10
71.19997290575958
 20
-114.7175477490985
 30
0.0
 10
71.15517012912481
 20
-114.6727449713318
 30
0.0
 10
71.10006624164174
 20
-114.6727449713318
 30
0.0
  0
POLYLINE
  5
99
330
41
100
AcDbEntity
  8
_U+30EC_U+30A4_U+30E4_U+30FC 1
 62
     7
420
 16777215
370
     9
100
AcDb2dPolyline
 66
     1
 10
0.0
 20
0.0
 30
0.0
  0
VERTEX
  5
9A
330
99
100
AcDbEntity
  8
_U+30EC_U+30A4_U+30E4_U+30FC 1
 62
     7
420
 16777215
370
     9
100
AcDbVertex
100
AcDb2dVertex
 10
71.10006624164174
 20
-113.3126455272275
 30
0.0
  0
VERTEX
  5
9B
330
99
100
AcDbEntity
  8
_U+30EC_U+30A4_U+30E4_U+30FC 1
 62
     7
420
 16777215
370
     9
100
AcDbVertex
100
AcDb2dVertex
 10
71.10006624164174
 20
-116.0531996932088
 30
0.0
  0
SEQEND
  5
9C
330
99
100
AcDbEntity
  8
_U+30EC_U+30A4_U+30E4_U+30FC 1
 62
     7
420
 16777215
370
     9
  0
INSERT
  5
9E
330
41
100
AcDbEntity
  8
_U+30EC_U+30A4_U+30E4_U+30FC 1
100
AcDbBlockReference
  2
block 7
 10
0.0
 20
0.0
 30
0.0
  0
SPLINE
  5
A3
330
41
100
AcDbEntity
  8
_U+30EC_U+30A4_U+30E4_U+30FC 1
 62
     7
420
 16777215
370
     9
100
AcDbSpline
210
0.0
220
0.0
230
1.0
 70
    11
 71
     3
 72
    17
 73
    13
 74
     0
 42
0.0000000001
 43
0.0000000001
 12
1.0
 22
0.0
 32
0.0
 13
1.0
 23
0.0
 33
0.0
 40
0.0
 40
0.0
 40
0.0
 40
0.0
 40
1.0
 40
1.0
 40
1.0
 40
2.0
 40
2.0
 40
2.0
 40
3.0
 40
3.0
 40
3.0
 40
4.0
 40
4.0
 40
4.0
 40
4.0
 10
68.13073576184013
 20
-111.6538138609754
 30
0.0
 10
68.07559659658017
 20
-111.6538138609754
 30
0.0
 10
68.03082909772229
 20
-111.6986166387421
 30
0.0
 10
68.03082909772229
 20
-111.753720527617
 30
0.0
 10
68.03082909772229
 20
-111.8088596942701
 30
0.0
 10
68.07559659658017
 20
-111.853627194259
 30
0.0
 10
68.13073576184013
 20
-111.853627194259
 30
0.0
 10
68.1858396493232
 20
-111.853627194259
 30
0.0
 10
68.23064242595795
 20
-111.8088596942701
 30
0.0
 10
68.23064242595795
 20
-111.753720527617
 30
0.0
 10
68.23064242595795
 20
-111.6986166387421
 30
0.0
 10
68.1858396493232
 20
-111.6538138609754
 30
0.0
 10
68.13073576184013
 20
-111.6538138609754
 30
0.0
  0
POLYLINE
  5
A4
330
41
100
AcDbEntity
  8
_U+30EC_U+30A4_U+30E4_U+30FC 1
 62
     7
420
 16777215
370
     9
100
AcDb2dPolyline
 66
     1
 10
0.0
 20
0.0
 30
0.0
  0
VERTEX
  5
A5
330
A4
100
AcDbEntity
  8
_U+30EC_U+30A4_U+30E4_U+30FC 1
 62
     7
420
 16777215
370
     9
100
AcDbVertex
100
AcDb2dVertex
 10
113.1314207248881
 20
-111.753720527617
 30
0.0
  0
VERTEX
  5
A6
330
A4
100
AcDbEntity
  8
_U+30EC_U+30A4_U+30E4_U+30FC 1
 62
     7
420
 16777215
370
     9
100
AcDbVertex
100
AcDb2dVertex
 10
68.13073576184013
 20
-111.753720527617
 30
0.0
  0
SEQEND
  5
A7
330
A4
100
AcDbEntity
  8
_U+30EC_U+30A4_U+30E4_U+30FC 1
 62
     7
420
 16777215
370
     9
  0
POLYLINE
  5
A8
330
41
100
AcDbEntity
  8
_U+30EC_U+30A4_U+30E4_U+30FC 1
 62
     7
420
 16777215
370
     9
100
AcDb2dPolyline
 66
     1
 10
0.0
 20
0.0
 30
0.0
  0
VERTEX
  5
A9
330
A8
100
AcDbEntity
  8
_U+30EC_U+30A4_U+30E4_U+30FC 1
 62
     7
420
 16777215
370
     9
100
AcDbVertex
100
AcDb2dVertex
 10
113.1210843362629
 20
-111.7538969165059
 30
0.0
  0
VERTEX
  5
AA
330
A8
100
AcDbEntity
  8
_U+30EC_U+30A4_U+30E4_U+30FC 1
 62
     7
420
 16777215
370
     9
100
AcDbVertex
100
AcDb2dVertex
 10
68.12071687320683
 20
-111.7538969165059
 30
0.0
  0
SEQEND
  5
AB
330
A8
100
AcDbEntity
  8
_U+30EC_U+30A4_U+30E4_U+30FC 1
 62
     7
420
 16777215
370
     9
  0
POLYLINE
  5
AC
330
41
100
AcDbEntity
  8
_U+30EC_U+30A4_U+30E4_U+30FC 1
 62
     7
420
 16777215
370
     9
100
AcDb2dPolyline
 66
     1
 10
0.0
 20
0.0
 30
0.0
  0
VERTEX
  5
AD
330
AC
100
AcDbEntity
  8
_U+30EC_U+30A4_U+30E4_U+30FC 1
 62
     7
420
 16777215
370
     9
100
AcDbVertex
100
AcDb2dVertex
 10
68.13073576184013
 20
-110.2937144168711
 30
0.0
  0
VERTEX
  5
AE
330
AC
100
AcDbEntity
  8
_U+30EC_U+30A4_U+30E4_U+30FC 1
 62
     7
420
 16777215
370
     9
100
AcDbVertex
100
AcDb2dVertex
 10
68.13073576184013
 20
-116.0531996932088
 30
0.0
  0
SEQEND
  5
AF
330
AC
100
AcDbEntity
  8
_U+30EC_U+30A4_U+30E4_U+30FC 1
 62
     7
420
 16777215
370
     9
  0
SPLINE
  5
B0
330
41
100
AcDbEntity
  8
_U+30EC_U+30A4_U+30E4_U+30FC 1
 62
     7
420
 16777215
370
     9
100
AcDbSpline
210
0.0
220
0.0
230
1.0
 70
    11
 71
     3
 72
    17
 73
    13
 74
     0
 42
0.0000000001
 43
0.0000000001
 12
1.0
 22
0.0
 32
0.0
 13
1.0
 23
0.0
 33
0.0
 40
0.0
 40
0.0
 40
0.0
 40
0.0
 40
1.0
 40
1.0
 40
1.0
 40
2.0
 40
2.0
 40
2.0
 40
3.0
 40
3.0
 40
3.0
 40
4.0
 40
4.0
 40
4.0
 40
4.0
 10
113.1314207248881
 20
-111.6538138609754
 30
0.0
 10
113.076316837405
 20
-111.6538138609754
 30
0.0
 10
113.0315140607703
 20
-111.6986166387421
 30
0.0
 10
113.0315140607703
 20
-111.753720527617
 30
0.0
 10
113.0315140607703
 20
-111.8088596942701
 30
0.0
 10
113.076316837405
 20
-111.853627194259
 30
0.0
 10
113.1314207248881
 20
-111.853627194259
 30
0.0
 10
113.1865598901481
 20
-111.853627194259
 30
0.0
 10
113.231327389006
 20
-111.8088596942701
 30
0.0
 10
113.231327389006
 20
-111.753720527617
 30
0.0
 10
113.231327389006
 20
-111.6986166387421
 30
0.0
 10
113.1865598901481
 20
-111.6538138609754
 30
0.0
 10
113.1314207248881
 20
-111.6538138609754
 30
0.0
  0
POLYLINE
  5
B1
330
41
100
AcDbEntity
  8
_U+30EC_U+30A4_U+30E4_U+30FC 1
 62
     7
420
 16777215
370
     9
100
AcDb2dPolyline
 66
     1
 10
0.0
 20
0.0
 30
0.0
  0
VERTEX
  5
B2
330
B1
100
AcDbEntity
  8
_U+30EC_U+30A4_U+30E4_U+30FC 1
 62
     7
420
 16777215
370
     9
100
AcDbVertex
100
AcDb2dVertex
 10
113.1314207248881
 20
-110.2937144168711
 30
0.0
  0
VERTEX
  5
B3
330
B1
100
AcDbEntity
  8
_U+30EC_U+30A4_U+30E4_U+30FC 1
 62
     7
420
 16777215
370
     9
100
AcDbVertex
100
AcDb2dVertex
 10
113.1314207248881
 20
-121.7529596917841
 30
0.0
  0
SEQEND
  5
B4
330
B1
100
AcDbEntity
  8
_U+30EC_U+30A4_U+30E4_U+30FC 1
 62
     7
420
 16777215
370
     9
  0
INSERT
  5
B6
330
41
100
AcDbEntity
  8
_U+30EC_U+30A4_U+30E4_U+30FC 1
100
AcDbBlockReference
  2
block 8
 10
0.0
 20
0.0
 30
0.0
  0
POLYLINE
  5
D0
330
41
100
AcDbEntity
  8
_U+30EC_U+30A4_U+30E4_U+30FC 1
 62
     7
420
 16777215
370
     9
100
AcDb2dPolyline
 66
     1
 10
0.0
 20
0.0
 30
0.0
  0
VERTEX
  5
D1
330
D0
100
AcDbEntity
  8
_U+30EC_U+30A4_U+30E4_U+30FC 1
 62
     7
420
 16777215
370
     9
100
AcDbVertex
100
AcDb2dVertex
 10
65.62890638122266
 20
-142.552878575473
 30
0.0
  0
VERTEX
  5
D2
330
D0
100
AcDbEntity
  8
_U+30EC_U+30A4_U+30E4_U+30FC 1
 62
     7
420
 16777215
370
     9
100
AcDbVertex
100
AcDb2dVertex
 10
65.62890638122266
 20
-117.5533871928339
 30
0.0
  0
SEQEND
  5
D3
330
D0
100
AcDbEntity
  8
_U+30EC_U+30A4_U+30E4_U+30FC 1
 62
     7
420
 16777215
370
     9
  0
POLYLINE
  5
D4
330
41
100
AcDbEntity
  8
_U+30EC_U+30A4_U+30E4_U+30FC 1
 62
     7
420
 16777215
370
     9
100
AcDb2dPolyline
 66
     1
 10
0.0
 20
0.0
 30
0.0
  0
VERTEX
  5
D5
330
D4
100
AcDbEntity
  8
_U+30EC_U+30A4_U+30E4_U+30FC 1
 62
     7
420
 16777215
370
     9
100
AcDbVertex
100
AcDb2dVertex
 10
66.63072468899749
 20
-142.552878575473
 30
0.0
  0
VERTEX
  5
D6
330
D4
100
AcDbEntity
  8
_U+30EC_U+30A4_U+30E4_U+30FC 1
 62
     7
420
 16777215
370
     9
100
AcDbVertex
100
AcDb2dVertex
 10
64.15644725212155
 20
-142.552878575473
 30
0.0
  0
SEQEND
  5
D7
330
D4
100
AcDbEntity
  8
_U+30EC_U+30A4_U+30E4_U+30FC 1
 62
     7
420
 16777215
370
     9
  0
INSERT
  5
D9
330
41
100
AcDbEntity
  8
_U+30EC_U+30A4_U+30E4_U+30FC 1
100
AcDbBlockReference
  2
block 9
 10
0.0
 20
0.0
 30
0.0
  0
SPLINE
  5
E0
330
41
100
AcDbEntity
  8
_U+30EC_U+30A4_U+30E4_U+30FC 1
 62
     7
420
 16777215
370
     9
100
AcDbSpline
210
0.0
220
0.0
230
1.0
 70
    11
 71
     3
 72
    17
 73
    13
 74
     0
 42
0.0000000001
 43
0.0000000001
 12
1.0
 22
0.0
 32
0.0
 13
1.0
 23
0.0
 33
0.0
 40
0.0
 40
0.0
 40
0.0
 40
0.0
 40
1.0
 40
1.0
 40
1.0
 40
2.0
 40
2.0
 40
2.0
 40
3.0
 40
3.0
 40
3.0
 40
4.0
 40
4.0
 40
4.0
 40
4.0
 10
65.72260415661002
 20
-142.5515027421401
 30
0.0
 10
65.72260415661002
 20
-142.4963988532645
 30
0.0
 10
65.67815415774403
 20
-142.4515960754985
 30
0.0
 10
65.62269749249218
 20
-142.4515960754985
 30
0.0
 10
65.56755832723223
 20
-142.4515960754985
 30
0.0
 10
65.52279082837434
 20
-142.4963988532645
 30
0.0
 10
65.52279082837434
 20
-142.5515027421401
 30
0.0
 10
65.52279082837434
 20
-142.6073121865705
 30
0.0
 10
65.56755832723223
 20
-142.6521149643373
 30
0.0
 10
65.62269749249218
 20
-142.6521149643373
 30
0.0
 10
65.67815415774403
 20
-142.6521149643373
 30
0.0
 10
65.72260415661002
 20
-142.6073121865705
 30
0.0
 10
65.72260415661002
 20
-142.5515027421401
 30
0.0
  0
POLYLINE
  5
E1
330
41
100
AcDbEntity
  8
_U+30EC_U+30A4_U+30E4_U+30FC 1
 62
     7
420
 16777215
370
     9
100
AcDb2dPolyline
 66
     1
 10
0.0
 20
0.0
 30
0.0
  0
VERTEX
  5
E2
330
E1
100
AcDbEntity
  8
_U+30EC_U+30A4_U+30E4_U+30FC 1
 62
     7
420
 16777215
370
     9
100
AcDbVertex
100
AcDb2dVertex
 10
66.63072468899749
 20
-117.553210803945
 30
0.0
  0
VERTEX
  5
E3
330
E1
100
AcDbEntity
  8
_U+30EC_U+30A4_U+30E4_U+30FC 1
 62
     7
420
 16777215
370
     9
100
AcDbVertex
100
AcDb2dVertex
 10
64.15644725212155
 20
-117.553210803945
 30
0.0
  0
SEQEND
  5
E4
330
E1
100
AcDbEntity
  8
_U+30EC_U+30A4_U+30E4_U+30FC 1
 62
     7
420
 16777215
370
     9
  0
SPLINE
  5
E5
330
41
100
AcDbEntity
  8
_U+30EC_U+30A4_U+30E4_U+30FC 1
 62
     7
420
 16777215
370
     9
100
AcDbSpline
210
0.0
220
0.0
230
1.0
 70
    11
 71
     3
 72
    17
 73
    13
 74
     0
 42
0.0000000001
 43
0.0000000001
 12
1.0
 22
0.0
 32
0.0
 13
1.0
 23
0.0
 33
0.0
 40
0.0
 40
0.0
 40
0.0
 40
0.0
 40
1.0
 40
1.0
 40
1.0
 40
2.0
 40
2.0
 40
2.0
 40
3.0
 40
3.0
 40
3.0
 40
4.0
 40
4.0
 40
4.0
 40
4.0
 10
65.72260415661002
 20
-117.5518349706122
 30
0.0
 10
65.72260415661002
 20
-117.4966958039591
 30
0.0
 10
65.67815415774403
 20
-117.4522458039701
 30
0.0
 10
65.62269749249218
 20
-117.4522458039701
 30
0.0
 10
65.56755832723223
 20
-117.4522458039701
 30
0.0
 10
65.52279082837434
 20
-117.4966958039591
 30
0.0
 10
65.52279082837434
 20
-117.5518349706122
 30
0.0
 10
65.52279082837434
 20
-117.6076444150426
 30
0.0
 10
65.56755832723223
 20
-117.6524119150315
 30
0.0
 10
65.62269749249218
 20
-117.6524119150315
 30
0.0
 10
65.67815415774403
 20
-117.6524119150315
 30
0.0
 10
65.72260415661002
 20
-117.6076444150426
 30
0.0
 10
65.72260415661002
 20
-117.5518349706122
 30
0.0
  0
POLYLINE
  5
E6
330
41
100
AcDbEntity
  8
_U+30EC_U+30A4_U+30E4_U+30FC 1
 62
     7
420
 16777215
370
    25
100
AcDb2dPolyline
 66
     1
 10
0.0
 20
0.0
 30
0.0
  0
VERTEX
  5
E7
330
E6
100
AcDbEntity
  8
_U+30EC_U+30A4_U+30E4_U+30FC 1
 62
     7
420
 16777215
370
    25
100
AcDbVertex
100
AcDb2dVertex
 10
69.13047268077915
 20
-123.0531221914589
 30
0.0
  0
VERTEX
  5
E8
330
E6
100
AcDbEntity
  8
_U+30EC_U+30A4_U+30E4_U+30FC 1
 62
     7
420
 16777215
370
    25
100
AcDbVertex
100
AcDb2dVertex
 10
69.13047268077915
 20
-118.5531594148062
 30
0.0
  0
VERTEX
  5
E9
330
E6
100
AcDbEntity
  8
_U+30EC_U+30A4_U+30E4_U+30FC 1
 62
     7
420
 16777215
370
    25
100
AcDbVertex
100
AcDb2dVertex
 10
71.13072262974853
 20
-118.5531594148062
 30
0.0
  0
VERTEX
  5
EA
330
E6
100
AcDbEntity
  8
_U+30EC_U+30A4_U+30E4_U+30FC 1
 62
     7
420
 16777215
370
    25
100
AcDbVertex
100
AcDb2dVertex
 10
71.13072262974853
 20
-117.553210803945
 30
0.0
  0
VERTEX
  5
EB
330
E6
100
AcDbEntity
  8
_U+30EC_U+30A4_U+30E4_U+30FC 1
 62
     7
420
 16777215
370
    25
100
AcDbVertex
100
AcDb2dVertex
 10
68.13073576184013
 20
-117.553210803945
 30
0.0
  0
VERTEX
  5
EC
330
E6
100
AcDbEntity
  8
_U+30EC_U+30A4_U+30E4_U+30FC 1
 62
     7
420
 16777215
370
    25
100
AcDbVertex
100
AcDb2dVertex
 10
68.13073576184013
 20
-142.552878575473
 30
0.0
  0
VERTEX
  5
ED
330
E6
100
AcDbEntity
  8
_U+30EC_U+30A4_U+30E4_U+30FC 1
 62
     7
420
 16777215
370
    25
100
AcDbVertex
100
AcDb2dVertex
 10
73.13093730094103
 20
-142.552878575473
 30
0.0
  0
VERTEX
  5
EE
330
E6
100
AcDbEntity
  8
_U+30EC_U+30A4_U+30E4_U+30FC 1
 62
     7
420
 16777215
370
    25
100
AcDbVertex
100
AcDb2dVertex
 10
73.13093730094103
 20
-139.5528916317786
 30
0.0
  0
VERTEX
  5
EF
330
E6
100
AcDbEntity
  8
_U+30EC_U+30A4_U+30E4_U+30FC 1
 62
     7
420
 16777215
370
    25
100
AcDbVertex
100
AcDb2dVertex
 10
72.13081232645634
 20
-139.5528916317786
 30
0.0
  0
VERTEX
  5
F0
330
E6
100
AcDbEntity
  8
_U+30EC_U+30A4_U+30E4_U+30FC 1
 62
     7
420
 16777215
370
    25
100
AcDbVertex
100
AcDb2dVertex
 10
72.13081232645634
 20
-141.5531063535005
 30
0.0
  0
VERTEX
  5
F1
330
E6
100
AcDbEntity
  8
_U+30EC_U+30A4_U+30E4_U+30FC 1
 62
     7
420
 16777215
370
    25
100
AcDbVertex
100
AcDb2dVertex
 10
69.13047268077915
 20
-141.5531063535005
 30
0.0
  0
VERTEX
  5
F2
330
E6
100
AcDbEntity
  8
_U+30EC_U+30A4_U+30E4_U+30FC 1
 62
     7
420
 16777215
370
    25
100
AcDbVertex
100
AcDb2dVertex
 10
69.13047268077915
 20
-124.0528944134311
 30
0.0
  0
VERTEX
  5
F3
330
E6
100
AcDbEntity
  8
_U+30EC_U+30A4_U+30E4_U+30FC 1
 62
     7
420
 16777215
370
    25
100
AcDbVertex
100
AcDb2dVertex
 10
113.1307151693506
 20
-124.0528944134311
 30
0.0
  0
VERTEX
  5
F4
330
E6
100
AcDbEntity
  8
_U+30EC_U+30A4_U+30E4_U+30FC 1
 62
     7
420
 16777215
370
    25
100
AcDbVertex
100
AcDb2dVertex
 10
113.1307151693506
 20
-123.0531221914589
 30
0.0
  0
VERTEX
  5
F5
330
E6
100
AcDbEntity
  8
_U+30EC_U+30A4_U+30E4_U+30FC 1
 62
     7
420
 16777215
370
    25
100
AcDbVertex
100
AcDb2dVertex
 10
108.1305136302497
 20
-123.0531221914589
 30
0.0
  0
VERTEX
  5
F6
330
E6
100
AcDbEntity
  8
_U+30EC_U+30A4_U+30E4_U+30FC 1
 62
     7
420
 16777215
370
    25
100
AcDbVertex
100
AcDb2dVertex
 10
107.8301233601355
 20
-123.2529355247422
 30
0.0
  0
VERTEX
  5
F7
330
E6
100
AcDbEntity
  8
_U+30EC_U+30A4_U+30E4_U+30FC 1
 62
     7
420
 16777215
370
    25
100
AcDbVertex
100
AcDb2dVertex
 10
107.5303680900051
 20
-123.0531221914589
 30
0.0
  0
VERTEX
  5
F8
330
E6
100
AcDbEntity
  8
_U+30EC_U+30A4_U+30E4_U+30FC 1
 62
     7
420
 16777215
370
    25
100
AcDbVertex
100
AcDb2dVertex
 10
69.13047268077915
 20
-123.0531221914589
 30
0.0
  0
SEQEND
  5
FA
330
E6
100
AcDbEntity
  8
_U+30EC_U+30A4_U+30E4_U+30FC 1
 62
     7
420
 16777215
370
    25
  0
HATCH
  5
F9
330
41
100
AcDbEntity
  8
_U+30EC_U+30A4_U+30E4_U+30FC 1
 62
   253
420
 11711154
100
AcDbHatch
 10
0.0
 20
0.0
 30
0.0
210
0.0
220
0.0
230
1.0
  2
SOLID
 70
     1
 71
     0
 91
        1
 92
        1
 93
       17
 72
     1
 10
69.13047268077915
 20
-123.0531221914589
 11
69.13047268077915
 21
-118.5531594148062
 72
     1
 10
69.13047268077915
 20
-118.5531594148062
 11
71.13072262974853
 21
-118.5531594148062
 72
     1
 10
71.13072262974853
 20
-118.5531594148062
 11
71.13072262974853
 21
-117.553210803945
 72
     1
 10
71.13072262974853
 20
-117.553210803945
 11
68.13073576184013
 21
-117.553210803945
 72
     1
 10
68.13073576184013
 20
-117.553210803945
 11
68.13073576184013
 21
-142.552878575473
 72
     1
 10
68.13073576184013
 20
-142.552878575473
 11
73.13093730094103
 21
-142.552878575473
 72
     1
 10
73.13093730094103
 20
-142.552878575473
 11
73.13093730094103
 21
-139.5528916317786
 72
     1
 10
73.13093730094103
 20
-139.5528916317786
 11
72.13081232645634
 21
-139.5528916317786
 72
     1
 10
72.13081232645634
 20
-139.5528916317786
 11
72.13081232645634
 21
-141.5531063535005
 72
     1
 10
72.13081232645634
 20
-141.5531063535005
 11
69.13047268077915
 21
-141.5531063535005
 72
     1
 10
69.13047268077915
 20
-141.5531063535005
 11
69.13047268077915
 21
-124.0528944134311
 72
     1
 10
69.13047268077915
 20
-124.0528944134311
 11
113.1307151693506
 21
-124.0528944134311
 72
     1
 10
113.1307151693506
 20
-124.0528944134311
 11
113.1307151693506
 21
-123.0531221914589
 72
     1
 10
113.1307151693506
 20
-123.0531221914589
 11
108.1305136302497
 21
-123.0531221914589
 72
     1
 10
108.1305136302497
 20
-123.0531221914589
 11
107.8301233601355
 21
-123.2529355247422
 72
     1
 10
107.8301233601355
 20
-123.2529355247422
 11
107.5303680900051
 21
-123.0531221914589
 72
     1
 10
107.5303680900051
 20
-123.0531221914589
 11
69.13047268077915
 21
-123.0531221914589
 97
        0
 75
     2
 76
     1
 98
        0
  0
ENDBLK
  5
44
330
41
100
AcDbEntity
  8
0
100
AcDbBlockEnd
  0
BLOCK
  5
55
330
53
100
AcDbEntity
  8
0
100
AcDbBlockBegin
  2
block 3
 70
     0
 10
0.0
 20
0.0
 30
0.0
  3
block 3
  1

  0
SPLINE
  5
57
330
53
100
AcDbEntity
  8
_U+30EC_U+30A4_U+30E4_U+30FC 1
370
     0
100
AcDbSpline
210
0.0
220
0.0
230
1.0
 70
    11
 71
     3
 72
    53
 73
    49
 74
     0
 42
0.0000000001
 43
0.0000000001
 12
1.0
 22
0.0
 32
0.0
 13
1.0
 23
0.0
 33
0.0
 40
0.0
 40
0.0
 40
0.0
 40
0.0
 40
1.0
 40
1.0
 40
1.0
 40
2.0
 40
2.0
 40
2.0
 40
3.0
 40
3.0
 40
3.0
 40
4.0
 40
4.0
 40
4.0
 40
5.0
 40
5.0
 40
5.0
 40
6.0
 40
6.0
 40
6.0
 40
7.0
 40
7.0
 40
7.0
 40
8.0
 40
8.0
 40
8.0
 40
9.0
 40
9.0
 40
9.0
 40
10.0
 40
10.0
 40
10.0
 40
11.0
 40
11.0
 40
11.0
 40
12.0
 40
12.0
 40
12.0
 40
13.0
 40
13.0
 40
13.0
 40
14.0
 40
14.0
 40
14.0
 40
15.0
 40
15.0
 40
15.0
 40
16.0
 40
16.0
 40
16.0
 40
16.0
 10
70.61153833955198
 20
-146.0076252890189
 30
0.0
 10
70.53333467203682
 20
-146.0076252890189
 30
0.0
 10
70.43170435522194
 20
-145.9907443211412
 30
0.0
 10
70.33007403840706
 20
-145.9273545642126
 30
0.0
 10
70.156785735499
 20
-145.8174560182331
 30
0.0
 10
70.13542614349045
 20
-145.6861978802451
 30
0.0
 10
70.11647811832158
 20
-145.5783663915568
 30
0.0
 10
70.11647811832158
 20
-145.5783663915568
 30
0.0
 10
70.33868677712019
 20
-145.5783663915568
 30
0.0
 10
70.33868677712019
 20
-145.5783663915568
 30
0.0
 10
70.39346379533566
 20
-145.7771484010557
 30
0.0
 10
70.52058781874139
 20
-145.8067762222289
 30
0.0
 10
70.61360539684313
 20
-145.8067762222289
 30
0.0
 10
70.75313176399575
 20
-145.8067762222289
 30
0.0
 10
70.90540498444379
 20
-145.7072129627051
 30
0.0
 10
70.90540498444379
 20
-145.4746690174508
 30
0.0
 10
70.90540498444379
 20
-145.2186984228967
 30
0.0
 10
70.72557100011375
 20
-145.1487629845462
 30
0.0
 10
70.60499265813
 20
-145.1487629845462
 30
0.0
 10
70.57329777966571
 20
-145.1487629845462
 30
0.0
 10
70.43170435522194
 20
-145.1487629845462
 30
0.0
 10
70.34282089170249
 20
-145.277954065243
 30
0.0
 10
70.34282089170249
 20
-145.277954065243
 30
0.0
 10
70.16712102195476
 20
-145.2590060400742
 30
0.0
 10
70.16712102195476
 20
-145.2590060400742
 30
0.0
 10
70.16712102195476
 20
-145.2590060400742
 30
0.0
 10
70.2876993639385
 20
-144.4125460793483
 30
0.0
 10
70.2876993639385
 20
-144.4125460793483
 30
0.0
 10
70.2876993639385
 20
-144.4125460793483
 30
0.0
 10
71.06629094360495
 20
-144.4125460793483
 30
0.0
 10
71.06629094360495
 20
-144.4125460793483
 30
0.0
 10
71.06629094360495
 20
-144.4125460793483
 30
0.0
 10
71.06629094360495
 20
-144.6071939742649
 30
0.0
 10
71.06629094360495
 20
-144.6071939742649
 30
0.0
 10
71.06629094360495
 20
-144.6071939742649
 30
0.0
 10
70.4506523803908
 20
-144.6071939742649
 30
0.0
 10
70.4506523803908
 20
-144.6071939742649
 30
0.0
 10
70.4506523803908
 20
-144.6071939742649
 30
0.0
 10
70.38519556617106
 20
-145.0302516998536
 30
0.0
 10
70.38519556617106
 20
-145.0302516998536
 30
0.0
 10
70.4465182658085
 20
-144.9964897640981
 30
0.0
 10
70.52885604790599
 20
-144.9561821469207
 30
0.0
 10
70.64736733259858
 20
-144.9561821469207
 30
0.0
 10
70.90127086986149
 20
-144.9561821469207
 30
0.0
 10
71.13829343924668
 20
-145.1425618126727
 30
0.0
 10
71.13829343924668
 20
-145.4557209922819
 30
0.0
 10
71.13829343924668
 20
-145.7730142864734
 30
0.0
 10
70.91401772315692
 20
-146.0076252890189
 30
0.0
 10
70.61153833955198
 20
-146.0076252890189
 30
0.0
  0
HATCH
  5
58
330
53
100
AcDbEntity
  8
_U+30EC_U+30A4_U+30E4_U+30FC 1
 62
     7
420
 16777215
100
AcDbHatch
 10
0.0
 20
0.0
 30
0.0
210
0.0
220
0.0
230
1.0
  2
SOLID
 70
     1
 71
     0
 91
        1
 92
        1
 93
        1
 72
     4
 94
        3
 73
     0
 74
     1
 95
       53
 96
       49
 40
0.0
 40
0.0
 40
0.0
 40
0.0
 40
1.0
 40
1.0
 40
1.0
 40
2.0
 40
2.0
 40
2.0
 40
3.0
 40
3.0
 40
3.0
 40
4.0
 40
4.0
 40
4.0
 40
5.0
 40
5.0
 40
5.0
 40
6.0
 40
6.0
 40
6.0
 40
7.0
 40
7.0
 40
7.0
 40
8.0
 40
8.0
 40
8.0
 40
9.0
 40
9.0
 40
9.0
 40
10.0
 40
10.0
 40
10.0
 40
11.0
 40
11.0
 40
11.0
 40
12.0
 40
12.0
 40
12.0
 40
13.0
 40
13.0
 40
13.0
 40
14.0
 40
14.0
 40
14.0
 40
15.0
 40
15.0
 40
15.0
 40
16.0
 40
16.0
 40
16.0
 40
16.0
 10
70.61153833955198
 20
-146.0076252890189
 10
70.53333467203682
 20
-146.0076252890189
 10
70.43170435522194
 20
-145.9907443211412
 10
70.33007403840706
 20
-145.9273545642126
 10
70.156785735499
 20
-145.8174560182331
 10
70.13542614349045
 20
-145.6861978802451
 10
70.11647811832158
 20
-145.5783663915568
 10
70.11647811832158
 20
-145.5783663915568
 10
70.33868677712019
 20
-145.5783663915568
 10
70.33868677712019
 20
-145.5783663915568
 10
70.39346379533566
 20
-145.7771484010557
 10
70.52058781874139
 20
-145.8067762222289
 10
70.61360539684313
 20
-145.8067762222289
 10
70.75313176399575
 20
-145.8067762222289
 10
70.90540498444379
 20
-145.7072129627051
 10
70.90540498444379
 20
-145.4746690174508
 10
70.90540498444379
 20
-145.2186984228967
 10
70.72557100011375
 20
-145.1487629845462
 10
70.60499265813
 20
-145.1487629845462
 10
70.57329777966571
 20
-145.1487629845462
 10
70.43170435522194
 20
-145.1487629845462
 10
70.34282089170249
 20
-145.277954065243
 10
70.34282089170249
 20
-145.277954065243
 10
70.16712102195476
 20
-145.2590060400742
 10
70.16712102195476
 20
-145.2590060400742
 10
70.16712102195476
 20
-145.2590060400742
 10
70.2876993639385
 20
-144.4125460793483
 10
70.2876993639385
 20
-144.4125460793483
 10
70.2876993639385
 20
-144.4125460793483
 10
71.06629094360495
 20
-144.4125460793483
 10
71.06629094360495
 20
-144.4125460793483
 10
71.06629094360495
 20
-144.4125460793483
 10
71.06629094360495
 20
-144.6071939742649
 10
71.06629094360495
 20
-144.6071939742649
 10
71.06629094360495
 20
-144.6071939742649
 10
70.4506523803908
 20
-144.6071939742649
 10
70.4506523803908
 20
-144.6071939742649
 10
70.4506523803908
 20
-144.6071939742649
 10
70.38519556617106
 20
-145.0302516998536
 10
70.38519556617106
 20
-145.0302516998536
 10
70.4465182658085
 20
-144.9964897640981
 10
70.52885604790599
 20
-144.9561821469207
 10
70.64736733259858
 20
-144.9561821469207
 10
70.90127086986149
 20
-144.9561821469207
 10
71.13829343924668
 20
-145.1425618126727
 10
71.13829343924668
 20
-145.4557209922819
 10
71.13829343924668
 20
-145.7730142864734
 10
70.91401772315692
 20
-146.0076252890189
 10
70.61153833955198
 20
-146.0076252890189
 97
        0
 97
        0
 75
     2
 76
     1
 98
        0
  0
ENDBLK
  5
56
330
53
100
AcDbEntity
  8
0
100
AcDbBlockEnd
  0
BLOCK
  5
77
330
75
100
AcDbEntity
  8
0
100
AcDbBlockBegin
  2
block 4
 70
     0
 10
0.0
 20
0.0
 30
0.0
  3
block 4
  1

  0
SPLINE
  5
79
330
75
100
AcDbEntity
  8
_U+30EC_U+30A4_U+30E4_U+30FC 1
370
     0
100
AcDbSpline
210
0.0
220
0.0
230
1.0
 70
    11
 71
     3
 72
    26
 73
    22
 74
     0
 42
0.0000000001
 43
0.0000000001
 12
1.0
 22
0.0
 32
0.0
 13
1.0
 23
0.0
 33
0.0
 40
0.0
 40
0.0
 40
0.0
 40
0.0
 40
1.0
 40
1.0
 40
1.0
 40
2.0
 40
2.0
 40
2.0
 40
3.0
 40
3.0
 40
3.0
 40
4.0
 40
4.0
 40
4.0
 40
5.0
 40
5.0
 40
5.0
 40
6.0
 40
6.0
 40
6.0
 40
7.0
 40
7.0
 40
7.0
 40
7.0
 10
118.147482609352
 20
-133.3024576489661
 30
0.0
 10
118.147482609352
 20
-133.3024576489661
 30
0.0
 10
117.043674015878
 20
-133.3024576489661
 30
0.0
 10
117.043674015878
 20
-133.3024576489661
 30
0.0
 10
117.043674015878
 20
-133.3024576489661
 30
0.0
 10
117.043674015878
 20
-133.632497796453
 30
0.0
 10
117.043674015878
 20
-133.632497796453
 30
0.0
 10
117.043674015878
 20
-133.632497796453
 30
0.0
 10
116.8955349100122
 20
-133.632497796453
 30
0.0
 10
116.8955349100122
 20
-133.632497796453
 30
0.0
 10
116.8803764898771
 20
-133.3003905916749
 30
0.0
 10
116.7177679829733
 20
-133.253881802624
 30
0.0
 10
116.603390812863
 20
-133.2242539814509
 30
0.0
 10
116.603390812863
 20
-133.2242539814509
 30
0.0
 10
116.603390812863
 20
-133.0781819328763
 30
0.0
 10
116.603390812863
 20
-133.0781819328763
 30
0.0
 10
116.603390812863
 20
-133.0781819328763
 30
0.0
 10
118.147482609352
 20
-133.0781819328763
 30
0.0
 10
118.147482609352
 20
-133.0781819328763
 30
0.0
 10
118.147482609352
 20
-133.0781819328763
 30
0.0
 10
118.147482609352
 20
-133.3024576489661
 30
0.0
 10
118.147482609352
 20
-133.3024576489661
 30
0.0
  0
HATCH
  5
7A
330
75
100
AcDbEntity
  8
_U+30EC_U+30A4_U+30E4_U+30FC 1
 62
     7
420
 16777215
100
AcDbHatch
 10
0.0
 20
0.0
 30
0.0
210
0.0
220
0.0
230
1.0
  2
SOLID
 70
     1
 71
     0
 91
        1
 92
        1
 93
        1
 72
     4
 94
        3
 73
     0
 74
     1
 95
       26
 96
       22
 40
0.0
 40
0.0
 40
0.0
 40
0.0
 40
1.0
 40
1.0
 40
1.0
 40
2.0
 40
2.0
 40
2.0
 40
3.0
 40
3.0
 40
3.0
 40
4.0
 40
4.0
 40
4.0
 40
5.0
 40
5.0
 40
5.0
 40
6.0
 40
6.0
 40
6.0
 40
7.0
 40
7.0
 40
7.0
 40
7.0
 10
118.147482609352
 20
-133.3024576489661
 10
118.147482609352
 20
-133.3024576489661
 10
117.043674015878
 20
-133.3024576489661
 10
117.043674015878
 20
-133.3024576489661
 10
117.043674015878
 20
-133.3024576489661
 10
117.043674015878
 20
-133.632497796453
 10
117.043674015878
 20
-133.632497796453
 10
117.043674015878
 20
-133.632497796453
 10
116.8955349100122
 20
-133.632497796453
 10
116.8955349100122
 20
-133.632497796453
 10
116.8803764898771
 20
-133.3003905916749
 10
116.7177679829733
 20
-133.253881802624
 10
116.603390812863
 20
-133.2242539814509
 10
116.603390812863
 20
-133.2242539814509
 10
116.603390812863
 20
-133.0781819328763
 10
116.603390812863
 20
-133.0781819328763
 10
116.603390812863
 20
-133.0781819328763
 10
118.147482609352
 20
-133.0781819328763
 10
118.147482609352
 20
-133.0781819328763
 10
118.147482609352
 20
-133.0781819328763
 10
118.147482609352
 20
-133.3024576489661
 10
118.147482609352
 20
-133.3024576489661
 97
        0
 97
        0
 75
     2
 76
     1
 98
        0
  0
SPLINE
  5
7B
330
75
100
AcDbEntity
  8
_U+30EC_U+30A4_U+30E4_U+30FC 1
370
     0
100
AcDbSpline
210
0.0
220
0.0
230
1.0
 70
    11
 71
     3
 72
    53
 73
    49
 74
     0
 42
0.0000000001
 43
0.0000000001
 12
1.0
 22
0.0
 32
0.0
 13
1.0
 23
0.0
 33
0.0
 40
0.0
 40
0.0
 40
0.0
 40
0.0
 40
1.0
 40
1.0
 40
1.0
 40
2.0
 40
2.0
 40
2.0
 40
3.0
 40
3.0
 40
3.0
 40
4.0
 40
4.0
 40
4.0
 40
5.0
 40
5.0
 40
5.0
 40
6.0
 40
6.0
 40
6.0
 40
7.0
 40
7.0
 40
7.0
 40
8.0
 40
8.0
 40
8.0
 40
9.0
 40
9.0
 40
9.0
 40
10.0
 40
10.0
 40
10.0
 40
11.0
 40
11.0
 40
11.0
 40
12.0
 40
12.0
 40
12.0
 40
13.0
 40
13.0
 40
13.0
 40
14.0
 40
14.0
 40
14.0
 40
15.0
 40
15.0
 40
15.0
 40
16.0
 40
16.0
 40
16.0
 40
16.0
 10
118.1984700225337
 20
-132.0959852100316
 30
0.0
 10
118.1984700225337
 20
-132.1741888775467
 30
0.0
 10
118.1812445451075
 20
-132.2758191943616
 30
0.0
 10
118.1178547881789
 20
-132.3774495111765
 30
0.0
 10
118.0083007517479
 20
-132.5507378140846
 30
0.0
 10
117.8766981042114
 20
-132.5720974060931
 30
0.0
 10
117.7692111250716
 20
-132.591045431262
 30
0.0
 10
117.7692111250716
 20
-132.591045431262
 30
0.0
 10
117.7692111250716
 20
-132.3688367724633
 30
0.0
 10
117.7692111250716
 20
-132.3688367724633
 30
0.0
 10
117.967648625022
 20
-132.3140597542479
 30
0.0
 10
117.9972764461951
 20
-132.1869357308422
 30
0.0
 10
117.9972764461951
 20
-132.0939181527404
 30
0.0
 10
117.9972764461951
 20
-131.9543917855878
 30
0.0
 10
117.8980576962199
 20
-131.8021185651398
 30
0.0
 10
117.665169241417
 20
-131.8021185651398
 30
0.0
 10
117.4095431564115
 20
-131.8021185651398
 30
0.0
 10
117.3392632085124
 20
-131.9819525494698
 30
0.0
 10
117.3392632085124
 20
-132.1025308914535
 30
0.0
 10
117.3392632085124
 20
-132.1342257699178
 30
0.0
 10
117.3392632085124
 20
-132.2758191943616
 30
0.0
 10
117.4687987987578
 20
-132.3647026578811
 30
0.0
 10
117.4687987987578
 20
-132.3647026578811
 30
0.0
 10
117.4495062640404
 20
-132.5404025276288
 30
0.0
 10
117.4495062640404
 20
-132.5404025276288
 30
0.0
 10
117.4495062640404
 20
-132.5404025276288
 30
0.0
 10
116.603390812863
 20
-132.419824185645
 30
0.0
 10
116.603390812863
 20
-132.419824185645
 30
0.0
 10
116.603390812863
 20
-132.419824185645
 30
0.0
 10
116.603390812863
 20
-131.6412326059786
 30
0.0
 10
116.603390812863
 20
-131.6412326059786
 30
0.0
 10
116.603390812863
 20
-131.6412326059786
 30
0.0
 10
116.7976941982311
 20
-131.6412326059786
 30
0.0
 10
116.7976941982311
 20
-131.6412326059786
 30
0.0
 10
116.7976941982311
 20
-131.6412326059786
 30
0.0
 10
116.7976941982311
 20
-132.2568711691927
 30
0.0
 10
116.7976941982311
 20
-132.2568711691927
 30
0.0
 10
116.7976941982311
 20
-132.2568711691927
 30
0.0
 10
117.2207519238198
 20
-132.3223279834125
 30
0.0
 10
117.2207519238198
 20
-132.3223279834125
 30
0.0
 10
117.1869899880644
 20
-132.261005283775
 30
0.0
 10
117.1470268804355
 20
-132.1786675016776
 30
0.0
 10
117.1470268804355
 20
-132.060156216985
 30
0.0
 10
117.1470268804355
 20
-131.8062526797221
 30
0.0
 10
117.333062036639
 20
-131.5692301103369
 30
0.0
 10
117.6465657257967
 20
-131.5692301103369
 30
0.0
 10
117.9635145104397
 20
-131.5692301103369
 30
0.0
 10
118.1984700225337
 20
-131.7935058264266
 30
0.0
 10
118.1984700225337
 20
-132.0959852100316
 30
0.0
  0
HATCH
  5
7C
330
75
100
AcDbEntity
  8
_U+30EC_U+30A4_U+30E4_U+30FC 1
 62
     7
420
 16777215
100
AcDbHatch
 10
0.0
 20
0.0
 30
0.0
210
0.0
220
0.0
230
1.0
  2
SOLID
 70
     1
 71
     0
 91
        1
 92
        1
 93
        1
 72
     4
 94
        3
 73
     0
 74
     1
 95
       53
 96
       49
 40
0.0
 40
0.0
 40
0.0
 40
0.0
 40
1.0
 40
1.0
 40
1.0
 40
2.0
 40
2.0
 40
2.0
 40
3.0
 40
3.0
 40
3.0
 40
4.0
 40
4.0
 40
4.0
 40
5.0
 40
5.0
 40
5.0
 40
6.0
 40
6.0
 40
6.0
 40
7.0
 40
7.0
 40
7.0
 40
8.0
 40
8.0
 40
8.0
 40
9.0
 40
9.0
 40
9.0
 40
10.0
 40
10.0
 40
10.0
 40
11.0
 40
11.0
 40
11.0
 40
12.0
 40
12.0
 40
12.0
 40
13.0
 40
13.0
 40
13.0
 40
14.0
 40
14.0
 40
14.0
 40
15.0
 40
15.0
 40
15.0
 40
16.0
 40
16.0
 40
16.0
 40
16.0
 10
118.1984700225337
 20
-132.0959852100316
 10
118.1984700225337
 20
-132.1741888775467
 10
118.1812445451075
 20
-132.2758191943616
 10
118.1178547881789
 20
-132.3774495111765
 10
118.0083007517479
 20
-132.5507378140846
 10
117.8766981042114
 20
-132.5720974060931
 10
117.7692111250716
 20
-132.591045431262
 10
117.7692111250716
 20
-132.591045431262
 10
117.7692111250716
 20
-132.3688367724633
 10
117.7692111250716
 20
-132.3688367724633
 10
117.967648625022
 20
-132.3140597542479
 10
117.9972764461951
 20
-132.1869357308422
 10
117.9972764461951
 20
-132.0939181527404
 10
117.9972764461951
 20
-131.9543917855878
 10
117.8980576962199
 20
-131.8021185651398
 10
117.665169241417
 20
-131.8021185651398
 10
117.4095431564115
 20
-131.8021185651398
 10
117.3392632085124
 20
-131.9819525494698
 10
117.3392632085124
 20
-132.1025308914535
 10
117.3392632085124
 20
-132.1342257699178
 10
117.3392632085124
 20
-132.2758191943616
 10
117.4687987987578
 20
-132.3647026578811
 10
117.4687987987578
 20
-132.3647026578811
 10
117.4495062640404
 20
-132.5404025276288
 10
117.4495062640404
 20
-132.5404025276288
 10
117.4495062640404
 20
-132.5404025276288
 10
116.603390812863
 20
-132.419824185645
 10
116.603390812863
 20
-132.419824185645
 10
116.603390812863
 20
-132.419824185645
 10
116.603390812863
 20
-131.6412326059786
 10
116.603390812863
 20
-131.6412326059786
 10
116.603390812863
 20
-131.6412326059786
 10
116.7976941982311
 20
-131.6412326059786
 10
116.7976941982311
 20
-131.6412326059786
 10
116.7976941982311
 20
-131.6412326059786
 10
116.7976941982311
 20
-132.2568711691927
 10
116.7976941982311
 20
-132.2568711691927
 10
116.7976941982311
 20
-132.2568711691927
 10
117.2207519238198
 20
-132.3223279834125
 10
117.2207519238198
 20
-132.3223279834125
 10
117.1869899880644
 20
-132.261005283775
 10
117.1470268804355
 20
-132.1786675016776
 10
117.1470268804355
 20
-132.060156216985
 10
117.1470268804355
 20
-131.8062526797221
 10
117.333062036639
 20
-131.5692301103369
 10
117.6465657257967
 20
-131.5692301103369
 10
117.9635145104397
 20
-131.5692301103369
 10
118.1984700225337
 20
-131.7935058264266
 10
118.1984700225337
 20
-132.0959852100316
 97
        0
 97
        0
 75
     2
 76
     1
 98
        0
  0
POLYLINE
  5
7D
330
75
100
AcDbEntity
  8
_U+30EC_U+30A4_U+30E4_U+30FC 1
370
     0
100
AcDb2dPolyline
 66
     1
 10
0.0
 20
0.0
 30
0.0
  0
VERTEX
  5
7E
330
7D
100
AcDbEntity
  8
_U+30EC_U+30A4_U+30E4_U+30FC 1
370
     0
100
AcDbVertex
100
AcDb2dVertex
 10
118.147482609352
 20
-131.3401312605677
 30
0.0
  0
VERTEX
  5
7F
330
7D
100
AcDbEntity
  8
_U+30EC_U+30A4_U+30E4_U+30FC 1
370
     0
100
AcDbVertex
100
AcDb2dVertex
 10
117.8959906389288
 20
-131.3401312605677
 30
0.0
  0
VERTEX
  5
80
330
7D
100
AcDbEntity
  8
_U+30EC_U+30A4_U+30E4_U+30FC 1
370
     0
100
AcDbVertex
100
AcDb2dVertex
 10
117.8959906389288
 20
-131.088294780596
 30
0.0
  0
VERTEX
  5
81
330
7D
100
AcDbEntity
  8
_U+30EC_U+30A4_U+30E4_U+30FC 1
370
     0
100
AcDbVertex
100
AcDb2dVertex
 10
118.147482609352
 20
-131.088294780596
 30
0.0
  0
VERTEX
  5
82
330
7D
100
AcDbEntity
  8
_U+30EC_U+30A4_U+30E4_U+30FC 1
370
     0
100
AcDbVertex
100
AcDb2dVertex
 10
118.147482609352
 20
-131.3401312605677
 30
0.0
  0
SEQEND
  5
83
330
7D
100
AcDbEntity
  8
_U+30EC_U+30A4_U+30E4_U+30FC 1
370
     0
  0
HATCH
  5
84
330
75
100
AcDbEntity
  8
_U+30EC_U+30A4_U+30E4_U+30FC 1
 62
     7
420
 16777215
100
AcDbHatch
 10
0.0
 20
0.0
 30
0.0
210
0.0
220
0.0
230
1.0
  2
SOLID
 70
     1
 71
     0
 91
        1
 92
        1
 93
        4
 72
     1
 10
118.147482609352
 20
-131.3401312605677
 11
117.8959906389288
 21
-131.3401312605677
 72
     1
 10
117.8959906389288
 20
-131.3401312605677
 11
117.8959906389288
 21
-131.088294780596
 72
     1
 10
117.8959906389288
 20
-131.088294780596
 11
118.147482609352
 21
-131.088294780596
 72
     1
 10
118.147482609352
 20
-131.088294780596
 11
118.147482609352
 21
-131.3401312605677
 97
        0
 75
     2
 76
     1
 98
        0
  0
SPLINE
  5
85
330
75
100
AcDbEntity
  8
_U+30EC_U+30A4_U+30E4_U+30FC 1
370
     0
100
AcDbSpline
210
0.0
220
0.0
230
1.0
 70
    11
 71
     3
 72
    53
 73
    49
 74
     0
 42
0.0000000001
 43
0.0000000001
 12
1.0
 22
0.0
 32
0.0
 13
1.0
 23
0.0
 33
0.0
 40
0.0
 40
0.0
 40
0.0
 40
0.0
 40
1.0
 40
1.0
 40
1.0
 40
2.0
 40
2.0
 40
2.0
 40
3.0
 40
3.0
 40
3.0
 40
4.0
 40
4.0
 40
4.0
 40
5.0
 40
5.0
 40
5.0
 40
6.0
 40
6.0
 40
6.0
 40
7.0
 40
7.0
 40
7.0
 40
8.0
 40
8.0
 40
8.0
 40
9.0
 40
9.0
 40
9.0
 40
10.0
 40
10.0
 40
10.0
 40
11.0
 40
11.0
 40
11.0
 40
12.0
 40
12.0
 40
12.0
 40
13.0
 40
13.0
 40
13.0
 40
14.0
 40
14.0
 40
14.0
 40
15.0
 40
15.0
 40
15.0
 40
16.0
 40
16.0
 40
16.0
 40
16.0
 10
118.1984700225337
 20
-130.371025900567
 30
0.0
 10
118.1984700225337
 20
-130.4492295680821
 30
0.0
 10
118.1812445451075
 20
-130.550859884897
 30
0.0
 10
118.1178547881789
 20
-130.6524902017119
 30
0.0
 10
118.0083007517479
 20
-130.82577850462
 30
0.0
 10
117.8766981042114
 20
-130.8471380966285
 30
0.0
 10
117.7692111250716
 20
-130.8660861217974
 30
0.0
 10
117.7692111250716
 20
-130.8660861217974
 30
0.0
 10
117.7692111250716
 20
-130.6438774629987
 30
0.0
 10
117.7692111250716
 20
-130.6438774629987
 30
0.0
 10
117.967648625022
 20
-130.5891004447833
 30
0.0
 10
117.9972764461951
 20
-130.4619764213776
 30
0.0
 10
117.9972764461951
 20
-130.3689588432758
 30
0.0
 10
117.9972764461951
 20
-130.2294324761232
 30
0.0
 10
117.8980576962199
 20
-130.0771592556752
 30
0.0
 10
117.665169241417
 20
-130.0771592556752
 30
0.0
 10
117.4095431564115
 20
-130.0771592556752
 30
0.0
 10
117.3392632085124
 20
-130.2569932400052
 30
0.0
 10
117.3392632085124
 20
-130.3775715819889
 30
0.0
 10
117.3392632085124
 20
-130.4092664604532
 30
0.0
 10
117.3392632085124
 20
-130.550859884897
 30
0.0
 10
117.4687987987578
 20
-130.6397433484165
 30
0.0
 10
117.4687987987578
 20
-130.6397433484165
 30
0.0
 10
117.4495062640404
 20
-130.8154432181642
 30
0.0
 10
117.4495062640404
 20
-130.8154432181642
 30
0.0
 10
117.4495062640404
 20
-130.8154432181642
 30
0.0
 10
116.603390812863
 20
-130.6948648761804
 30
0.0
 10
116.603390812863
 20
-130.6948648761804
 30
0.0
 10
116.603390812863
 20
-130.6948648761804
 30
0.0
 10
116.603390812863
 20
-129.916273296514
 30
0.0
 10
116.603390812863
 20
-129.916273296514
 30
0.0
 10
116.603390812863
 20
-129.916273296514
 30
0.0
 10
116.7976941982311
 20
-129.916273296514
 30
0.0
 10
116.7976941982311
 20
-129.916273296514
 30
0.0
 10
116.7976941982311
 20
-129.916273296514
 30
0.0
 10
116.7976941982311
 20
-130.5319118597281
 30
0.0
 10
116.7976941982311
 20
-130.5319118597281
 30
0.0
 10
116.7976941982311
 20
-130.5319118597281
 30
0.0
 10
117.2207519238198
 20
-130.5973686739479
 30
0.0
 10
117.2207519238198
 20
-130.5973686739479
 30
0.0
 10
117.1869899880644
 20
-130.5360459743104
 30
0.0
 10
117.1470268804355
 20
-130.453708192213
 30
0.0
 10
117.1470268804355
 20
-130.3351969075204
 30
0.0
 10
117.1470268804355
 20
-130.0812933702575
 30
0.0
 10
117.333062036639
 20
-129.8442708008723
 30
0.0
 10
117.6465657257967
 20
-129.8442708008723
 30
0.0
 10
117.9635145104397
 20
-129.8442708008723
 30
0.0
 10
118.1984700225337
 20
-130.068546516962
 30
0.0
 10
118.1984700225337
 20
-130.371025900567
 30
0.0
  0
HATCH
  5
86
330
75
100
AcDbEntity
  8
_U+30EC_U+30A4_U+30E4_U+30FC 1
 62
     7
420
 16777215
100
AcDbHatch
 10
0.0
 20
0.0
 30
0.0
210
0.0
220
0.0
230
1.0
  2
SOLID
 70
     1
 71
     0
 91
        1
 92
        1
 93
        1
 72
     4
 94
        3
 73
     0
 74
     1
 95
       53
 96
       49
 40
0.0
 40
0.0
 40
0.0
 40
0.0
 40
1.0
 40
1.0
 40
1.0
 40
2.0
 40
2.0
 40
2.0
 40
3.0
 40
3.0
 40
3.0
 40
4.0
 40
4.0
 40
4.0
 40
5.0
 40
5.0
 40
5.0
 40
6.0
 40
6.0
 40
6.0
 40
7.0
 40
7.0
 40
7.0
 40
8.0
 40
8.0
 40
8.0
 40
9.0
 40
9.0
 40
9.0
 40
10.0
 40
10.0
 40
10.0
 40
11.0
 40
11.0
 40
11.0
 40
12.0
 40
12.0
 40
12.0
 40
13.0
 40
13.0
 40
13.0
 40
14.0
 40
14.0
 40
14.0
 40
15.0
 40
15.0
 40
15.0
 40
16.0
 40
16.0
 40
16.0
 40
16.0
 10
118.1984700225337
 20
-130.371025900567
 10
118.1984700225337
 20
-130.4492295680821
 10
118.1812445451075
 20
-130.550859884897
 10
118.1178547881789
 20
-130.6524902017119
 10
118.0083007517479
 20
-130.82577850462
 10
117.8766981042114
 20
-130.8471380966285
 10
117.7692111250716
 20
-130.8660861217974
 10
117.7692111250716
 20
-130.8660861217974
 10
117.7692111250716
 20
-130.6438774629987
 10
117.7692111250716
 20
-130.6438774629987
 10
117.967648625022
 20
-130.5891004447833
 10
117.9972764461951
 20
-130.4619764213776
 10
117.9972764461951
 20
-130.3689588432758
 10
117.9972764461951
 20
-130.2294324761232
 10
117.8980576962199
 20
-130.0771592556752
 10
117.665169241417
 20
-130.0771592556752
 10
117.4095431564115
 20
-130.0771592556752
 10
117.3392632085124
 20
-130.2569932400052
 10
117.3392632085124
 20
-130.3775715819889
 10
117.3392632085124
 20
-130.4092664604532
 10
117.3392632085124
 20
-130.550859884897
 10
117.4687987987578
 20
-130.6397433484165
 10
117.4687987987578
 20
-130.6397433484165
 10
117.4495062640404
 20
-130.8154432181642
 10
117.4495062640404
 20
-130.8154432181642
 10
117.4495062640404
 20
-130.8154432181642
 10
116.603390812863
 20
-130.6948648761804
 10
116.603390812863
 20
-130.6948648761804
 10
116.603390812863
 20
-130.6948648761804
 10
116.603390812863
 20
-129.916273296514
 10
116.603390812863
 20
-129.916273296514
 10
116.603390812863
 20
-129.916273296514
 10
116.7976941982311
 20
-129.916273296514
 10
116.7976941982311
 20
-129.916273296514
 10
116.7976941982311
 20
-129.916273296514
 10
116.7976941982311
 20
-130.5319118597281
 10
116.7976941982311
 20
-130.5319118597281
 10
116.7976941982311
 20
-130.5319118597281
 10
117.2207519238198
 20
-130.5973686739479
 10
117.2207519238198
 20
-130.5973686739479
 10
117.1869899880644
 20
-130.5360459743104
 10
117.1470268804355
 20
-130.453708192213
 10
117.1470268804355
 20
-130.3351969075204
 10
117.1470268804355
 20
-130.0812933702575
 10
117.333062036639
 20
-129.8442708008723
 10
117.6465657257967
 20
-129.8442708008723
 10
117.9635145104397
 20
-129.8442708008723
 10
118.1984700225337
 20
-130.068546516962
 10
118.1984700225337
 20
-130.371025900567
 97
        0
 97
        0
 75
     2
 76
     1
 98
        0
  0
ENDBLK
  5
78
330
75
100
AcDbEntity
  8
0
100
AcDbBlockEnd
  0
BLOCK
  5
89
330
87
100
AcDbEntity
  8
0
100
AcDbBlockBegin
  2
block 5
 70
     0
 10
0.0
 20
0.0
 30
0.0
  3
block 5
  1

  0
SPLINE
  5
8B
330
87
100
AcDbEntity
  8
_U+30EC_U+30A4_U+30E4_U+30FC 1
370
     0
100
AcDbSpline
210
0.0
220
0.0
230
1.0
 70
    11
 71
     3
 72
    26
 73
    22
 74
     0
 42
0.0000000001
 43
0.0000000001
 12
1.0
 22
0.0
 32
0.0
 13
1.0
 23
0.0
 33
0.0
 40
0.0
 40
0.0
 40
0.0
 40
0.0
 40
1.0
 40
1.0
 40
1.0
 40
2.0
 40
2.0
 40
2.0
 40
3.0
 40
3.0
 40
3.0
 40
4.0
 40
4.0
 40
4.0
 40
5.0
 40
5.0
 40
5.0
 40
6.0
 40
6.0
 40
6.0
 40
7.0
 40
7.0
 40
7.0
 40
7.0
 10
118.147482609352
 20
-120.9635036589952
 30
0.0
 10
118.147482609352
 20
-120.9635036589952
 30
0.0
 10
117.043674015878
 20
-120.9635036589952
 30
0.0
 10
117.043674015878
 20
-120.9635036589952
 30
0.0
 10
117.043674015878
 20
-120.9635036589952
 30
0.0
 10
117.043674015878
 20
-121.2935438064822
 30
0.0
 10
117.043674015878
 20
-121.2935438064822
 30
0.0
 10
117.043674015878
 20
-121.2935438064822
 30
0.0
 10
116.8955349100122
 20
-121.2935438064822
 30
0.0
 10
116.8955349100122
 20
-121.2935438064822
 30
0.0
 10
116.8803764898771
 20
-120.9614366017041
 30
0.0
 10
116.7177679829733
 20
-120.9149278126532
 30
0.0
 10
116.603390812863
 20
-120.8852999914801
 30
0.0
 10
116.603390812863
 20
-120.8852999914801
 30
0.0
 10
116.603390812863
 20
-120.7392279429055
 30
0.0
 10
116.603390812863
 20
-120.7392279429055
 30
0.0
 10
116.603390812863
 20
-120.7392279429055
 30
0.0
 10
118.147482609352
 20
-120.7392279429055
 30
0.0
 10
118.147482609352
 20
-120.7392279429055
 30
0.0
 10
118.147482609352
 20
-120.7392279429055
 30
0.0
 10
118.147482609352
 20
-120.9635036589952
 30
0.0
 10
118.147482609352
 20
-120.9635036589952
 30
0.0
  0
HATCH
  5
8C
330
87
100
AcDbEntity
  8
_U+30EC_U+30A4_U+30E4_U+30FC 1
 62
     7
420
 16777215
100
AcDbHatch
 10
0.0
 20
0.0
 30
0.0
210
0.0
220
0.0
230
1.0
  2
SOLID
 70
     1
 71
     0
 91
        1
 92
        1
 93
        1
 72
     4
 94
        3
 73
     0
 74
     1
 95
       26
 96
       22
 40
0.0
 40
0.0
 40
0.0
 40
0.0
 40
1.0
 40
1.0
 40
1.0
 40
2.0
 40
2.0
 40
2.0
 40
3.0
 40
3.0
 40
3.0
 40
4.0
 40
4.0
 40
4.0
 40
5.0
 40
5.0
 40
5.0
 40
6.0
 40
6.0
 40
6.0
 40
7.0
 40
7.0
 40
7.0
 40
7.0
 10
118.147482609352
 20
-120.9635036589952
 10
118.147482609352
 20
-120.9635036589952
 10
117.043674015878
 20
-120.9635036589952
 10
117.043674015878
 20
-120.9635036589952
 10
117.043674015878
 20
-120.9635036589952
 10
117.043674015878
 20
-121.2935438064822
 10
117.043674015878
 20
-121.2935438064822
 10
117.043674015878
 20
-121.2935438064822
 10
116.8955349100122
 20
-121.2935438064822
 10
116.8955349100122
 20
-121.2935438064822
 10
116.8803764898771
 20
-120.9614366017041
 10
116.7177679829733
 20
-120.9149278126532
 10
116.603390812863
 20
-120.8852999914801
 10
116.603390812863
 20
-120.8852999914801
 10
116.603390812863
 20
-120.7392279429055
 10
116.603390812863
 20
-120.7392279429055
 10
116.603390812863
 20
-120.7392279429055
 10
118.147482609352
 20
-120.7392279429055
 10
118.147482609352
 20
-120.7392279429055
 10
118.147482609352
 20
-120.7392279429055
 10
118.147482609352
 20
-120.9635036589952
 10
118.147482609352
 20
-120.9635036589952
 97
        0
 97
        0
 75
     2
 76
     1
 98
        0
  0
ENDBLK
  5
8A
330
87
100
AcDbEntity
  8
0
100
AcDbBlockEnd
  0
BLOCK
  5
8F
330
8D
100
AcDbEntity
  8
0
100
AcDbBlockBegin
  2
block 6
 70
     0
 10
0.0
 20
0.0
 30
0.0
  3
block 6
  1

  0
SPLINE
  5
91
330
8D
100
AcDbEntity
  8
_U+30EC_U+30A4_U+30E4_U+30FC 1
370
     0
100
AcDbSpline
210
0.0
220
0.0
230
1.0
 70
    11
 71
     3
 72
    62
 73
    58
 74
     0
 42
0.0000000001
 43
0.0000000001
 12
1.0
 22
0.0
 32
0.0
 13
1.0
 23
0.0
 33
0.0
 40
0.0
 40
0.0
 40
0.0
 40
0.0
 40
1.0
 40
1.0
 40
1.0
 40
2.0
 40
2.0
 40
2.0
 40
3.0
 40
3.0
 40
3.0
 40
4.0
 40
4.0
 40
4.0
 40
5.0
 40
5.0
 40
5.0
 40
6.0
 40
6.0
 40
6.0
 40
7.0
 40
7.0
 40
7.0
 40
8.0
 40
8.0
 40
8.0
 40
9.0
 40
9.0
 40
9.0
 40
10.0
 40
10.0
 40
10.0
 40
11.0
 40
11.0
 40
11.0
 40
12.0
 40
12.0
 40
12.0
 40
13.0
 40
13.0
 40
13.0
 40
14.0
 40
14.0
 40
14.0
 40
15.0
 40
15.0
 40
15.0
 40
16.0
 40
16.0
 40
16.0
 40
17.0
 40
17.0
 40
17.0
 40
18.0
 40
18.0
 40
18.0
 40
19.0
 40
19.0
 40
19.0
 40
19.0
 10
118.1984700225337
 20
-141.0315293701241
 30
0.0
 10
118.1984700225337
 20
-141.1269585150655
 30
0.0
 10
118.1771104305252
 20
-141.3446885497333
 30
0.0
 10
117.9910752743217
 20
-141.4697455158478
 30
0.0
 10
117.8787651615025
 20
-141.5438150687807
 30
0.0
 10
117.7795464115273
 20
-141.547949183363
 30
0.0
 10
117.6947970625902
 20
-141.5520832979453
 30
0.0
 10
117.6947970625902
 20
-141.5520832979453
 30
0.0
 10
117.6947970625902
 20
-141.3319416964379
 30
0.0
 10
117.6947970625902
 20
-141.3319416964379
 30
0.0
 10
117.7692111250716
 20
-141.3298746391467
 30
0.0
 10
118.0034776180686
 20
-141.319539352691
 30
0.0
 10
118.0034776180686
 20
-141.0360079942549
 30
0.0
 10
118.0034776180686
 20
-140.8985486843934
 30
0.0
 10
117.9338866892665
 20
-140.7459309543969
 30
0.0
 10
117.705821368143
 20
-140.7459309543969
 30
0.0
 10
117.5893771407415
 20
-140.7459309543969
 30
0.0
 10
117.540456784851
 20
-140.7841715142831
 30
0.0
 10
117.5087619063867
 20
-140.8158663927474
 30
0.0
 10
117.4350368630024
 20
-140.8899359456803
 30
0.0
 10
117.4219455001584
 20
-141.0063801730817
 30
0.0
 10
117.4219455001584
 20
-141.0611571912972
 30
0.0
 10
117.4219455001584
 20
-141.0804497260146
 30
0.0
 10
117.4240125574496
 20
-141.1162787190612
 30
0.0
 10
117.4281466720319
 20
-141.1438394829432
 30
0.0
 10
117.4281466720319
 20
-141.1438394829432
 30
0.0
 10
117.2338432866638
 20
-141.1438394829432
 30
0.0
 10
117.2338432866638
 20
-141.1438394829432
 30
0.0
 10
117.2400444585372
 20
-141.1055989230569
 30
0.0
 10
117.2421115158284
 20
-141.0635687581369
 30
0.0
 10
117.2421115158284
 20
-141.0570230767149
 30
0.0
 10
117.2421115158284
 20
-140.9915662624952
 30
0.0
 10
117.2207519238198
 20
-140.7927842529963
 30
0.0
 10
116.9844183735317
 20
-140.7927842529963
 30
0.0
 10
116.8066514464928
 20
-140.7927842529963
 30
0.0
 10
116.7515299187288
 20
-140.9236978814357
 30
0.0
 10
116.7515299187288
 20
-141.0339409369637
 30
0.0
 10
116.7515299187288
 20
-141.2981797606824
 30
0.0
 10
116.9844183735317
 20
-141.3067924993955
 30
0.0
 10
117.0560763596249
 20
-141.3109266139778
 30
0.0
 10
117.0560763596249
 20
-141.3109266139778
 30
0.0
 10
117.0560763596249
 20
-141.5141872476076
 30
0.0
 10
117.0560763596249
 20
-141.5141872476076
 30
0.0
 10
116.9313639030588
 20
-141.5055745088945
 30
0.0
 10
116.5544704569725
 20
-141.4780137450124
 30
0.0
 10
116.5544704569725
 20
-141.0211940836683
 30
0.0
 10
116.5544704569725
 20
-140.7969183675785
 30
0.0
 10
116.6819389899267
 20
-140.5557616836111
 30
0.0
 10
116.9775281825612
 20
-140.5557616836111
 30
0.0
 10
117.1642523578617
 20
-140.5557616836111
 30
0.0
 10
117.2462456304107
 20
-140.650846319004
 30
0.0
 10
117.3075683300481
 20
-140.7504095785277
 30
0.0
 10
117.3351290939301
 20
-140.6890868788902
 30
0.0
 10
117.415744328285
 20
-140.507185837269
 30
0.0
 10
117.692730005299
 20
-140.507185837269
 30
0.0
 10
118.0310383819506
 20
-140.507185837269
 30
0.0
 10
118.1984700225337
 20
-140.75454369311
 30
0.0
 10
118.1984700225337
 20
-141.0315293701241
 30
0.0
  0
HATCH
  5
92
330
8D
100
AcDbEntity
  8
_U+30EC_U+30A4_U+30E4_U+30FC 1
 62
     7
420
 16777215
100
AcDbHatch
 10
0.0
 20
0.0
 30
0.0
210
0.0
220
0.0
230
1.0
  2
SOLID
 70
     1
 71
     0
 91
        1
 92
        1
 93
        1
 72
     4
 94
        3
 73
     0
 74
     1
 95
       62
 96
       58
 40
0.0
 40
0.0
 40
0.0
 40
0.0
 40
1.0
 40
1.0
 40
1.0
 40
2.0
 40
2.0
 40
2.0
 40
3.0
 40
3.0
 40
3.0
 40
4.0
 40
4.0
 40
4.0
 40
5.0
 40
5.0
 40
5.0
 40
6.0
 40
6.0
 40
6.0
 40
7.0
 40
7.0
 40
7.0
 40
8.0
 40
8.0
 40
8.0
 40
9.0
 40
9.0
 40
9.0
 40
10.0
 40
10.0
 40
10.0
 40
11.0
 40
11.0
 40
11.0
 40
12.0
 40
12.0
 40
12.0
 40
13.0
 40
13.0
 40
13.0
 40
14.0
 40
14.0
 40
14.0
 40
15.0
 40
15.0
 40
15.0
 40
16.0
 40
16.0
 40
16.0
 40
17.0
 40
17.0
 40
17.0
 40
18.0
 40
18.0
 40
18.0
 40
19.0
 40
19.0
 40
19.0
 40
19.0
 10
118.1984700225337
 20
-141.0315293701241
 10
118.1984700225337
 20
-141.1269585150655
 10
118.1771104305252
 20
-141.3446885497333
 10
117.9910752743217
 20
-141.4697455158478
 10
117.8787651615025
 20
-141.5438150687807
 10
117.7795464115273
 20
-141.547949183363
 10
117.6947970625902
 20
-141.5520832979453
 10
117.6947970625902
 20
-141.5520832979453
 10
117.6947970625902
 20
-141.3319416964379
 10
117.6947970625902
 20
-141.3319416964379
 10
117.7692111250716
 20
-141.3298746391467
 10
118.0034776180686
 20
-141.319539352691
 10
118.0034776180686
 20
-141.0360079942549
 10
118.0034776180686
 20
-140.8985486843934
 10
117.9338866892665
 20
-140.7459309543969
 10
117.705821368143
 20
-140.7459309543969
 10
117.5893771407415
 20
-140.7459309543969
 10
117.540456784851
 20
-140.7841715142831
 10
117.5087619063867
 20
-140.8158663927474
 10
117.4350368630024
 20
-140.8899359456803
 10
117.4219455001584
 20
-141.0063801730817
 10
117.4219455001584
 20
-141.0611571912972
 10
117.4219455001584
 20
-141.0804497260146
 10
117.4240125574496
 20
-141.1162787190612
 10
117.4281466720319
 20
-141.1438394829432
 10
117.4281466720319
 20
-141.1438394829432
 10
117.2338432866638
 20
-141.1438394829432
 10
117.2338432866638
 20
-141.1438394829432
 10
117.2400444585372
 20
-141.1055989230569
 10
117.2421115158284
 20
-141.0635687581369
 10
117.2421115158284
 20
-141.0570230767149
 10
117.2421115158284
 20
-140.9915662624952
 10
117.2207519238198
 20
-140.7927842529963
 10
116.9844183735317
 20
-140.7927842529963
 10
116.8066514464928
 20
-140.7927842529963
 10
116.7515299187288
 20
-140.9236978814357
 10
116.7515299187288
 20
-141.0339409369637
 10
116.7515299187288
 20
-141.2981797606824
 10
116.9844183735317
 20
-141.3067924993955
 10
117.0560763596249
 20
-141.3109266139778
 10
117.0560763596249
 20
-141.3109266139778
 10
117.0560763596249
 20
-141.5141872476076
 10
117.0560763596249
 20
-141.5141872476076
 10
116.9313639030588
 20
-141.5055745088945
 10
116.5544704569725
 20
-141.4780137450124
 10
116.5544704569725
 20
-141.0211940836683
 10
116.5544704569725
 20
-140.7969183675785
 10
116.6819389899267
 20
-140.5557616836111
 10
116.9775281825612
 20
-140.5557616836111
 10
117.1642523578617
 20
-140.5557616836111
 10
117.2462456304107
 20
-140.650846319004
 10
117.3075683300481
 20
-140.7504095785277
 10
117.3351290939301
 20
-140.6890868788902
 10
117.415744328285
 20
-140.507185837269
 10
117.692730005299
 20
-140.507185837269
 10
118.0310383819506
 20
-140.507185837269
 10
118.1984700225337
 20
-140.75454369311
 10
118.1984700225337
 20
-141.0315293701241
 97
        0
 97
        0
 75
     2
 76
     1
 98
        0
  0
ENDBLK
  5
90
330
8D
100
AcDbEntity
  8
0
100
AcDbBlockEnd
  0
BLOCK
  5
9F
330
9D
100
AcDbEntity
  8
0
100
AcDbBlockBegin
  2
block 7
 70
     0
 10
0.0
 20
0.0
 30
0.0
  3
block 7
  1

  0
SPLINE
  5
A1
330
9D
100
AcDbEntity
  8
_U+30EC_U+30A4_U+30E4_U+30FC 1
370
     0
100
AcDbSpline
210
0.0
220
0.0
230
1.0
 70
    11
 71
     3
 72
    62
 73
    58
 74
     0
 42
0.0000000001
 43
0.0000000001
 12
1.0
 22
0.0
 32
0.0
 13
1.0
 23
0.0
 33
0.0
 40
0.0
 40
0.0
 40
0.0
 40
0.0
 40
1.0
 40
1.0
 40
1.0
 40
2.0
 40
2.0
 40
2.0
 40
3.0
 40
3.0
 40
3.0
 40
4.0
 40
4.0
 40
4.0
 40
5.0
 40
5.0
 40
5.0
 40
6.0
 40
6.0
 40
6.0
 40
7.0
 40
7.0
 40
7.0
 40
8.0
 40
8.0
 40
8.0
 40
9.0
 40
9.0
 40
9.0
 40
10.0
 40
10.0
 40
10.0
 40
11.0
 40
11.0
 40
11.0
 40
12.0
 40
12.0
 40
12.0
 40
13.0
 40
13.0
 40
13.0
 40
14.0
 40
14.0
 40
14.0
 40
15.0
 40
15.0
 40
15.0
 40
16.0
 40
16.0
 40
16.0
 40
17.0
 40
17.0
 40
17.0
 40
18.0
 40
18.0
 40
18.0
 40
19.0
 40
19.0
 40
19.0
 40
19.0
 10
69.58834498043278
 20
-114.2452229532095
 30
0.0
 10
69.49291583549136
 20
-114.2452229532095
 30
0.0
 10
69.27518580082356
 20
-114.2242078707495
 30
0.0
 10
69.150128834709
 20
-114.038172714546
 30
0.0
 10
69.07605928177612
 20
-113.9258626017269
 30
0.0
 10
69.07192516719383
 20
-113.8266438517517
 30
0.0
 10
69.06779105261153
 20
-113.7418945028145
 30
0.0
 10
69.06779105261153
 20
-113.7418945028145
 30
0.0
 10
69.28793265411899
 20
-113.7418945028145
 30
0.0
 10
69.28793265411899
 20
-113.7418945028145
 30
0.0
 10
69.28999971141015
 20
-113.8159640557474
 30
0.0
 10
69.30033499786589
 20
-114.0505750582929
 30
0.0
 10
69.58386635630195
 20
-114.0505750582929
 30
0.0
 10
69.72132566616342
 20
-114.0505750582929
 30
0.0
 10
69.87394339615999
 20
-113.9809841294909
 30
0.0
 10
69.87394339615999
 20
-113.7525742988188
 30
0.0
 10
69.87394339615999
 20
-113.6361300714174
 30
0.0
 10
69.83570283627371
 20
-113.5875542250753
 30
0.0
 10
69.80400795780942
 20
-113.555859346611
 30
0.0
 10
69.72993840487655
 20
-113.4817897936782
 30
0.0
 10
69.6134941774751
 20
-113.4690429403827
 30
0.0
 10
69.55871715925963
 20
-113.4690429403827
 30
0.0
 10
69.53942462454224
 20
-113.4690429403827
 30
0.0
 10
69.50359563149563
 20
-113.4711099976739
 30
0.0
 10
69.47603486761363
 20
-113.4752441122562
 30
0.0
 10
69.47603486761363
 20
-113.4752441122562
 30
0.0
 10
69.47603486761363
 20
-113.2805962173396
 30
0.0
 10
69.47603486761363
 20
-113.2805962173396
 30
0.0
 10
69.51427542749991
 20
-113.2871418987615
 30
0.0
 10
69.55630559241996
 20
-113.2892089560527
 30
0.0
 10
69.56285127384193
 20
-113.2892089560527
 30
0.0
 10
69.62830808806167
 20
-113.2892089560527
 30
0.0
 10
69.82709009756059
 20
-113.2678493640442
 30
0.0
 10
69.82709009756059
 20
-113.0311713042075
 30
0.0
 10
69.82709009756059
 20
-112.8534043771686
 30
0.0
 10
69.6961764691211
 20
-112.7982828494046
 30
0.0
 10
69.5859334135931
 20
-112.7982828494046
 30
0.0
 10
69.32169458987444
 20
-112.7982828494046
 30
0.0
 10
69.31308185116131
 20
-113.0311713042075
 30
0.0
 10
69.30894773657901
 20
-113.1028292903007
 30
0.0
 10
69.30894773657901
 20
-113.1028292903007
 30
0.0
 10
69.10568710294928
 20
-113.1028292903007
 30
0.0
 10
69.10568710294928
 20
-113.1028292903007
 30
0.0
 10
69.1142998416624
 20
-112.9781168337346
 30
0.0
 10
69.1418606055444
 20
-112.6015678971968
 30
0.0
 10
69.59868026688852
 20
-112.6015678971968
 30
0.0
 10
69.82295598297829
 20
-112.6015678971968
 30
0.0
 10
70.06411266694577
 20
-112.7286919206026
 30
0.0
 10
70.06411266694577
 20
-113.0246256227855
 30
0.0
 10
70.06411266694577
 20
-113.2110052885375
 30
0.0
 10
69.96902803155288
 20
-113.293343070635
 30
0.0
 10
69.86946477202916
 20
-113.3546657702724
 30
0.0
 10
69.9307874716666
 20
-113.3822265341545
 30
0.0
 10
70.11268851328781
 20
-113.4624972589608
 30
0.0
 10
70.11268851328781
 20
-113.7398274455234
 30
0.0
 10
70.11268851328781
 20
-114.0781358221749
 30
0.0
 10
69.86533065744686
 20
-114.2452229532095
 30
0.0
 10
69.58834498043278
 20
-114.2452229532095
 30
0.0
  0
HATCH
  5
A2
330
9D
100
AcDbEntity
  8
_U+30EC_U+30A4_U+30E4_U+30FC 1
 62
     7
420
 16777215
100
AcDbHatch
 10
0.0
 20
0.0
 30
0.0
210
0.0
220
0.0
230
1.0
  2
SOLID
 70
     1
 71
     0
 91
        1
 92
        1
 93
        1
 72
     4
 94
        3
 73
     0
 74
     1
 95
       62
 96
       58
 40
0.0
 40
0.0
 40
0.0
 40
0.0
 40
1.0
 40
1.0
 40
1.0
 40
2.0
 40
2.0
 40
2.0
 40
3.0
 40
3.0
 40
3.0
 40
4.0
 40
4.0
 40
4.0
 40
5.0
 40
5.0
 40
5.0
 40
6.0
 40
6.0
 40
6.0
 40
7.0
 40
7.0
 40
7.0
 40
8.0
 40
8.0
 40
8.0
 40
9.0
 40
9.0
 40
9.0
 40
10.0
 40
10.0
 40
10.0
 40
11.0
 40
11.0
 40
11.0
 40
12.0
 40
12.0
 40
12.0
 40
13.0
 40
13.0
 40
13.0
 40
14.0
 40
14.0
 40
14.0
 40
15.0
 40
15.0
 40
15.0
 40
16.0
 40
16.0
 40
16.0
 40
17.0
 40
17.0
 40
17.0
 40
18.0
 40
18.0
 40
18.0
 40
19.0
 40
19.0
 40
19.0
 40
19.0
 10
69.58834498043278
 20
-114.2452229532095
 10
69.49291583549136
 20
-114.2452229532095
 10
69.27518580082356
 20
-114.2242078707495
 10
69.150128834709
 20
-114.038172714546
 10
69.07605928177612
 20
-113.9258626017269
 10
69.07192516719383
 20
-113.8266438517517
 10
69.06779105261153
 20
-113.7418945028145
 10
69.06779105261153
 20
-113.7418945028145
 10
69.28793265411899
 20
-113.7418945028145
 10
69.28793265411899
 20
-113.7418945028145
 10
69.28999971141015
 20
-113.8159640557474
 10
69.30033499786589
 20
-114.0505750582929
 10
69.58386635630195
 20
-114.0505750582929
 10
69.72132566616342
 20
-114.0505750582929
 10
69.87394339615999
 20
-113.9809841294909
 10
69.87394339615999
 20
-113.7525742988188
 10
69.87394339615999
 20
-113.6361300714174
 10
69.83570283627371
 20
-113.5875542250753
 10
69.80400795780942
 20
-113.555859346611
 10
69.72993840487655
 20
-113.4817897936782
 10
69.6134941774751
 20
-113.4690429403827
 10
69.55871715925963
 20
-113.4690429403827
 10
69.53942462454224
 20
-113.4690429403827
 10
69.50359563149563
 20
-113.4711099976739
 10
69.47603486761363
 20
-113.4752441122562
 10
69.47603486761363
 20
-113.4752441122562
 10
69.47603486761363
 20
-113.2805962173396
 10
69.47603486761363
 20
-113.2805962173396
 10
69.51427542749991
 20
-113.2871418987615
 10
69.55630559241996
 20
-113.2892089560527
 10
69.56285127384193
 20
-113.2892089560527
 10
69.62830808806167
 20
-113.2892089560527
 10
69.82709009756059
 20
-113.2678493640442
 10
69.82709009756059
 20
-113.0311713042075
 10
69.82709009756059
 20
-112.8534043771686
 10
69.6961764691211
 20
-112.7982828494046
 10
69.5859334135931
 20
-112.7982828494046
 10
69.32169458987444
 20
-112.7982828494046
 10
69.31308185116131
 20
-113.0311713042075
 10
69.30894773657901
 20
-113.1028292903007
 10
69.30894773657901
 20
-113.1028292903007
 10
69.10568710294928
 20
-113.1028292903007
 10
69.10568710294928
 20
-113.1028292903007
 10
69.1142998416624
 20
-112.9781168337346
 10
69.1418606055444
 20
-112.6015678971968
 10
69.59868026688852
 20
-112.6015678971968
 10
69.82295598297829
 20
-112.6015678971968
 10
70.06411266694577
 20
-112.7286919206026
 10
70.06411266694577
 20
-113.0246256227855
 10
70.06411266694577
 20
-113.2110052885375
 10
69.96902803155288
 20
-113.293343070635
 10
69.86946477202916
 20
-113.3546657702724
 10
69.9307874716666
 20
-113.3822265341545
 10
70.11268851328781
 20
-113.4624972589608
 10
70.11268851328781
 20
-113.7398274455234
 10
70.11268851328781
 20
-114.0781358221749
 10
69.86533065744686
 20
-114.2452229532095
 10
69.58834498043278
 20
-114.2452229532095
 97
        0
 97
        0
 75
     2
 76
     1
 98
        0
  0
ENDBLK
  5
A0
330
9D
100
AcDbEntity
  8
0
100
AcDbBlockEnd
  0
BLOCK
  5
B7
330
B5
100
AcDbEntity
  8
0
100
AcDbBlockBegin
  2
block 8
 70
     0
 10
0.0
 20
0.0
 30
0.0
  3
block 8
  1

  0
POLYLINE
  5
B9
330
B5
100
AcDbEntity
  8
_U+30EC_U+30A4_U+30E4_U+30FC 1
370
     0
100
AcDb2dPolyline
 66
     1
 10
0.0
 20
0.0
 30
0.0
  0
VERTEX
  5
BA
330
B9
100
AcDbEntity
  8
_U+30EC_U+30A4_U+30E4_U+30FC 1
370
     0
100
AcDbVertex
100
AcDb2dVertex
 10
90.37432859068767
 20
-110.8283772509387
 30
0.0
  0
VERTEX
  5
BB
330
B9
100
AcDbEntity
  8
_U+30EC_U+30A4_U+30E4_U+30FC 1
370
     0
100
AcDbVertex
100
AcDb2dVertex
 10
90.37432859068767
 20
-111.1752983663034
 30
0.0
  0
VERTEX
  5
BC
330
B9
100
AcDbEntity
  8
_U+30EC_U+30A4_U+30E4_U+30FC 1
370
     0
100
AcDbVertex
100
AcDb2dVertex
 10
90.15659855601989
 20
-111.1752983663034
 30
0.0
  0
VERTEX
  5
BD
330
B9
100
AcDbEntity
  8
_U+30EC_U+30A4_U+30E4_U+30FC 1
370
     0
100
AcDbVertex
100
AcDb2dVertex
 10
90.15659855601989
 20
-110.8283772509387
 30
0.0
  0
VERTEX
  5
BE
330
B9
100
AcDbEntity
  8
_U+30EC_U+30A4_U+30E4_U+30FC 1
370
     0
100
AcDbVertex
100
AcDb2dVertex
 10
89.50065237562832
 20
-110.8283772509387
 30
0.0
  0
VERTEX
  5
BF
330
B9
100
AcDbEntity
  8
_U+30EC_U+30A4_U+30E4_U+30FC 1
370
     0
100
AcDbVertex
100
AcDb2dVertex
 10
89.50065237562832
 20
-110.604101534849
 30
0.0
  0
VERTEX
  5
C0
330
B9
100
AcDbEntity
  8
_U+30EC_U+30A4_U+30E4_U+30FC 1
370
     0
100
AcDbVertex
100
AcDb2dVertex
 10
90.17968069577105
 20
-109.6308620602659
 30
0.0
  0
VERTEX
  5
C1
330
B9
100
AcDbEntity
  8
_U+30EC_U+30A4_U+30E4_U+30FC 1
370
     0
100
AcDbVertex
100
AcDb2dVertex
 10
90.37432859068767
 20
-109.6308620602659
 30
0.0
  0
VERTEX
  5
C2
330
B9
100
AcDbEntity
  8
_U+30EC_U+30A4_U+30E4_U+30FC 1
370
     0
100
AcDbVertex
100
AcDb2dVertex
 10
90.37432859068767
 20
-110.6295952414398
 30
0.0
  0
VERTEX
  5
C3
330
B9
100
AcDbEntity
  8
_U+30EC_U+30A4_U+30E4_U+30FC 1
370
     0
100
AcDbVertex
100
AcDb2dVertex
 10
90.5817233388997
 20
-110.6295952414398
 30
0.0
  0
VERTEX
  5
C4
330
B9
100
AcDbEntity
  8
_U+30EC_U+30A4_U+30E4_U+30FC 1
370
     0
100
AcDbVertex
100
AcDb2dVertex
 10
90.5817233388997
 20
-110.8283772509387
 30
0.0
  0
VERTEX
  5
C5
330
B9
100
AcDbEntity
  8
_U+30EC_U+30A4_U+30E4_U+30FC 1
370
     0
100
AcDbVertex
100
AcDb2dVertex
 10
90.37432859068767
 20
-110.8283772509387
 30
0.0
  0
SEQEND
  5
C6
330
B9
100
AcDbEntity
  8
_U+30EC_U+30A4_U+30E4_U+30FC 1
370
     0
  0
POLYLINE
  5
C7
330
B5
100
AcDbEntity
  8
_U+30EC_U+30A4_U+30E4_U+30FC 1
370
     0
100
AcDb2dPolyline
 66
     1
 10
0.0
 20
0.0
 30
0.0
  0
VERTEX
  5
C8
330
C7
100
AcDbEntity
  8
_U+30EC_U+30A4_U+30E4_U+30FC 1
370
     0
100
AcDbVertex
100
AcDb2dVertex
 10
90.15659855601989
 20
-109.9736490610483
 30
0.0
  0
VERTEX
  5
C9
330
C7
100
AcDbEntity
  8
_U+30EC_U+30A4_U+30E4_U+30FC 1
370
     0
100
AcDbVertex
100
AcDb2dVertex
 10
89.69943438512723
 20
-110.6295952414398
 30
0.0
  0
VERTEX
  5
CA
330
C7
100
AcDbEntity
  8
_U+30EC_U+30A4_U+30E4_U+30FC 1
370
     0
100
AcDbVertex
100
AcDb2dVertex
 10
90.15659855601989
 20
-110.6295952414398
 30
0.0
  0
VERTEX
  5
CB
330
C7
100
AcDbEntity
  8
_U+30EC_U+30A4_U+30E4_U+30FC 1
370
     0
100
AcDbVertex
100
AcDb2dVertex
 10
90.15659855601989
 20
-109.9736490610483
 30
0.0
  0
SEQEND
  5
CC
330
C7
100
AcDbEntity
  8
_U+30EC_U+30A4_U+30E4_U+30FC 1
370
     0
  0
HATCH
  5
CD
330
B5
100
AcDbEntity
  8
_U+30EC_U+30A4_U+30E4_U+30FC 1
 62
     7
420
 16777215
100
AcDbHatch
 10
0.0
 20
0.0
 30
0.0
210
0.0
220
0.0
230
1.0
  2
SOLID
 70
     1
 71
     0
 91
        2
 92
        1
 93
       11
 72
     1
 10
90.37432859068767
 20
-110.8283772509387
 11
90.37432859068767
 21
-111.1752983663034
 72
     1
 10
90.37432859068767
 20
-111.1752983663034
 11
90.15659855601989
 21
-111.1752983663034
 72
     1
 10
90.15659855601989
 20
-111.1752983663034
 11
90.15659855601989
 21
-110.8283772509387
 72
     1
 10
90.15659855601989
 20
-110.8283772509387
 11
89.50065237562832
 21
-110.8283772509387
 72
     1
 10
89.50065237562832
 20
-110.8283772509387
 11
89.50065237562832
 21
-110.604101534849
 72
     1
 10
89.50065237562832
 20
-110.604101534849
 11
90.17968069577105
 21
-109.6308620602659
 72
     1
 10
90.17968069577105
 20
-109.6308620602659
 11
90.37432859068767
 21
-109.6308620602659
 72
     1
 10
90.37432859068767
 20
-109.6308620602659
 11
90.37432859068767
 21
-110.6295952414398
 72
     1
 10
90.37432859068767
 20
-110.6295952414398
 11
90.5817233388997
 21
-110.6295952414398
 72
     1
 10
90.5817233388997
 20
-110.6295952414398
 11
90.5817233388997
 21
-110.8283772509387
 72
     1
 10
90.5817233388997
 20
-110.8283772509387
 11
90.37432859068767
 21
-110.8283772509387
 97
        0
 92
        1
 93
        3
 72
     1
 10
90.15659855601989
 20
-109.9736490610483
 11
89.69943438512723
 21
-110.6295952414398
 72
     1
 10
89.69943438512723
 20
-110.6295952414398
 11
90.15659855601989
 21
-110.6295952414398
 72
     1
 10
90.15659855601989
 20
-110.6295952414398
 11
90.15659855601989
 21
-109.9736490610483
 97
        0
 75
     2
 76
     1
 98
        0
  0
SPLINE
  5
CE
330
B5
100
AcDbEntity
  8
_U+30EC_U+30A4_U+30E4_U+30FC 1
370
     0
100
AcDbSpline
210
0.0
220
0.0
230
1.0
 70
    11
 71
     3
 72
    53
 73
    49
 74
     0
 42
0.0000000001
 43
0.0000000001
 12
1.0
 22
0.0
 32
0.0
 13
1.0
 23
0.0
 33
0.0
 40
0.0
 40
0.0
 40
0.0
 40
0.0
 40
1.0
 40
1.0
 40
1.0
 40
2.0
 40
2.0
 40
2.0
 40
3.0
 40
3.0
 40
3.0
 40
4.0
 40
4.0
 40
4.0
 40
5.0
 40
5.0
 40
5.0
 40
6.0
 40
6.0
 40
6.0
 40
7.0
 40
7.0
 40
7.0
 40
8.0
 40
8.0
 40
8.0
 40
9.0
 40
9.0
 40
9.0
 40
10.0
 40
10.0
 40
10.0
 40
11.0
 40
11.0
 40
11.0
 40
12.0
 40
12.0
 40
12.0
 40
13.0
 40
13.0
 40
13.0
 40
14.0
 40
14.0
 40
14.0
 40
15.0
 40
15.0
 40
15.0
 40
16.0
 40
16.0
 40
16.0
 40
16.0
 10
91.20011797850206
 20
-111.2259412699366
 30
0.0
 10
91.12191431098688
 20
-111.2259412699366
 30
0.0
 10
91.02028399417202
 20
-111.2090603020588
 30
0.0
 10
90.91865367735714
 20
-111.1456705451303
 30
0.0
 10
90.74536537444908
 20
-111.0357719991508
 30
0.0
 10
90.72400578244053
 20
-110.9045138611628
 30
0.0
 10
90.70505775727166
 20
-110.7966823724745
 30
0.0
 10
90.70505775727166
 20
-110.7966823724745
 30
0.0
 10
90.92726641607027
 20
-110.7966823724745
 30
0.0
 10
90.92726641607027
 20
-110.7966823724745
 30
0.0
 10
90.98204343428574
 20
-110.9954643819734
 30
0.0
 10
91.10916745769146
 20
-111.0250922031465
 30
0.0
 10
91.2021850357932
 20
-111.0250922031465
 30
0.0
 10
91.34171140294583
 20
-111.0250922031465
 30
0.0
 10
91.49415687816813
 20
-110.9255289436228
 30
0.0
 10
91.49415687816813
 20
-110.6929849983684
 30
0.0
 10
91.49415687816813
 20
-110.4370144038144
 30
0.0
 10
91.31415063906383
 20
-110.3670789654638
 30
0.0
 10
91.19357229708008
 20
-110.3670789654638
 30
0.0
 10
91.16187741861579
 20
-110.3670789654638
 30
0.0
 10
91.02028399417202
 20
-110.3670789654638
 30
0.0
 10
90.93140053065257
 20
-110.4962700461607
 30
0.0
 10
90.93140053065257
 20
-110.4962700461607
 30
0.0
 10
90.75570066090484
 20
-110.4773220209918
 30
0.0
 10
90.75570066090484
 20
-110.4773220209918
 30
0.0
 10
90.75570066090484
 20
-110.4773220209918
 30
0.0
 10
90.87627900288858
 20
-109.6308620602659
 30
0.0
 10
90.87627900288858
 20
-109.6308620602659
 30
0.0
 10
90.87627900288858
 20
-109.6308620602659
 30
0.0
 10
91.65469832778078
 20
-109.6308620602659
 30
0.0
 10
91.65469832778078
 20
-109.6308620602659
 30
0.0
 10
91.65469832778078
 20
-109.6308620602659
 30
0.0
 10
91.65469832778078
 20
-109.8255099551825
 30
0.0
 10
91.65469832778078
 20
-109.8255099551825
 30
0.0
 10
91.65469832778078
 20
-109.8255099551825
 30
0.0
 10
91.03923201934089
 20
-109.8255099551825
 30
0.0
 10
91.03923201934089
 20
-109.8255099551825
 30
0.0
 10
91.03923201934089
 20
-109.8255099551825
 30
0.0
 10
90.97377520512114
 20
-110.2485676807712
 30
0.0
 10
90.97377520512114
 20
-110.2485676807712
 30
0.0
 10
91.03509790475859
 20
-110.2148057450158
 30
0.0
 10
91.11743568685606
 20
-110.1744981278383
 30
0.0
 10
91.23594697154866
 20
-110.1744981278383
 30
0.0
 10
91.49002276358583
 20
-110.1744981278383
 30
0.0
 10
91.72704533297102
 20
-110.3608777935903
 30
0.0
 10
91.72704533297102
 20
-110.6740369731995
 30
0.0
 10
91.72704533297102
 20
-110.9913302673911
 30
0.0
 10
91.50242510733273
 20
-111.2259412699366
 30
0.0
 10
91.20011797850206
 20
-111.2259412699366
 30
0.0
  0
HATCH
  5
CF
330
B5
100
AcDbEntity
  8
_U+30EC_U+30A4_U+30E4_U+30FC 1
 62
     7
420
 16777215
100
AcDbHatch
 10
0.0
 20
0.0
 30
0.0
210
0.0
220
0.0
230
1.0
  2
SOLID
 70
     1
 71
     0
 91
        1
 92
        1
 93
        1
 72
     4
 94
        3
 73
     0
 74
     1
 95
       53
 96
       49
 40
0.0
 40
0.0
 40
0.0
 40
0.0
 40
1.0
 40
1.0
 40
1.0
 40
2.0
 40
2.0
 40
2.0
 40
3.0
 40
3.0
 40
3.0
 40
4.0
 40
4.0
 40
4.0
 40
5.0
 40
5.0
 40
5.0
 40
6.0
 40
6.0
 40
6.0
 40
7.0
 40
7.0
 40
7.0
 40
8.0
 40
8.0
 40
8.0
 40
9.0
 40
9.0
 40
9.0
 40
10.0
 40
10.0
 40
10.0
 40
11.0
 40
11.0
 40
11.0
 40
12.0
 40
12.0
 40
12.0
 40
13.0
 40
13.0
 40
13.0
 40
14.0
 40
14.0
 40
14.0
 40
15.0
 40
15.0
 40
15.0
 40
16.0
 40
16.0
 40
16.0
 40
16.0
 10
91.20011797850206
 20
-111.2259412699366
 10
91.12191431098688
 20
-111.2259412699366
 10
91.02028399417202
 20
-111.2090603020588
 10
90.91865367735714
 20
-111.1456705451303
 10
90.74536537444908
 20
-111.0357719991508
 10
90.72400578244053
 20
-110.9045138611628
 10
90.70505775727166
 20
-110.7966823724745
 10
90.70505775727166
 20
-110.7966823724745
 10
90.92726641607027
 20
-110.7966823724745
 10
90.92726641607027
 20
-110.7966823724745
 10
90.98204343428574
 20
-110.9954643819734
 10
91.10916745769146
 20
-111.0250922031465
 10
91.2021850357932
 20
-111.0250922031465
 10
91.34171140294583
 20
-111.0250922031465
 10
91.49415687816813
 20
-110.9255289436228
 10
91.49415687816813
 20
-110.6929849983684
 10
91.49415687816813
 20
-110.4370144038144
 10
91.31415063906383
 20
-110.3670789654638
 10
91.19357229708008
 20
-110.3670789654638
 10
91.16187741861579
 20
-110.3670789654638
 10
91.02028399417202
 20
-110.3670789654638
 10
90.93140053065257
 20
-110.4962700461607
 10
90.93140053065257
 20
-110.4962700461607
 10
90.75570066090484
 20
-110.4773220209918
 10
90.75570066090484
 20
-110.4773220209918
 10
90.75570066090484
 20
-110.4773220209918
 10
90.87627900288858
 20
-109.6308620602659
 10
90.87627900288858
 20
-109.6308620602659
 10
90.87627900288858
 20
-109.6308620602659
 10
91.65469832778078
 20
-109.6308620602659
 10
91.65469832778078
 20
-109.6308620602659
 10
91.65469832778078
 20
-109.6308620602659
 10
91.65469832778078
 20
-109.8255099551825
 10
91.65469832778078
 20
-109.8255099551825
 10
91.65469832778078
 20
-109.8255099551825
 10
91.03923201934089
 20
-109.8255099551825
 10
91.03923201934089
 20
-109.8255099551825
 10
91.03923201934089
 20
-109.8255099551825
 10
90.97377520512114
 20
-110.2485676807712
 10
90.97377520512114
 20
-110.2485676807712
 10
91.03509790475859
 20
-110.2148057450158
 10
91.11743568685606
 20
-110.1744981278383
 10
91.23594697154866
 20
-110.1744981278383
 10
91.49002276358583
 20
-110.1744981278383
 10
91.72704533297102
 20
-110.3608777935903
 10
91.72704533297102
 20
-110.6740369731995
 10
91.72704533297102
 20
-110.9913302673911
 10
91.50242510733273
 20
-111.2259412699366
 10
91.20011797850206
 20
-111.2259412699366
 97
        0
 97
        0
 75
     2
 76
     1
 98
        0
  0
ENDBLK
  5
B8
330
B5
100
AcDbEntity
  8
0
100
AcDbBlockEnd
  0
BLOCK
  5
DA
330
D8
100
AcDbEntity
  8
0
100
AcDbBlockBegin
  2
block 9
 70
     0
 10
0.0
 20
0.0
 30
0.0
  3
block 9
  1

  0
SPLINE
  5
DC
330
D8
100
AcDbEntity
  8
_U+30EC_U+30A4_U+30E4_U+30FC 1
370
     0
100
AcDbSpline
210
0.0
220
0.0
230
1.0
 70
    11
 71
     3
 72
    44
 73
    40
 74
     0
 42
0.0000000001
 43
0.0000000001
 12
1.0
 22
0.0
 32
0.0
 13
1.0
 23
0.0
 33
0.0
 40
0.0
 40
0.0
 40
0.0
 40
0.0
 40
1.0
 40
1.0
 40
1.0
 40
2.0
 40
2.0
 40
2.0
 40
3.0
 40
3.0
 40
3.0
 40
4.0
 40
4.0
 40
4.0
 40
5.0
 40
5.0
 40
5.0
 40
6.0
 40
6.0
 40
6.0
 40
7.0
 40
7.0
 40
7.0
 40
8.0
 40
8.0
 40
8.0
 40
9.0
 40
9.0
 40
9.0
 40
10.0
 40
10.0
 40
10.0
 40
11.0
 40
11.0
 40
11.0
 40
12.0
 40
12.0
 40
12.0
 40
13.0
 40
13.0
 40
13.0
 40
13.0
 10
64.30442977993084
 20
-130.5491373371544
 30
0.0
 10
64.46307642702659
 20
-130.7668673718222
 30
0.0
 10
64.53714597995946
 20
-130.8598849499239
 30
0.0
 10
64.68097871646864
 20
-130.9088053058145
 30
0.0
 10
64.68097871646864
 20
-130.9088053058145
 30
0.0
 10
64.68097871646864
 20
-130.130213726148
 30
0.0
 10
64.68097871646864
 20
-130.130213726148
 30
0.0
 10
64.68097871646864
 20
-130.130213726148
 30
0.0
 10
64.88613415261527
 20
-130.130213726148
 30
0.0
 10
64.88613415261527
 20
-130.130213726148
 30
0.0
 10
64.88613415261527
 20
-130.130213726148
 30
0.0
 10
64.88613415261527
 20
-131.1582302189466
 30
0.0
 10
64.88613415261527
 20
-131.1582302189466
 30
0.0
 10
64.52853324124634
 20
-131.1265353404823
 30
0.0
 10
64.45032957373117
 20
-131.0610785262625
 30
0.0
 10
64.15198430470853
 20
-130.6759168510116
 30
0.0
 10
63.95320229520962
 20
-130.4199462564575
 30
0.0
 10
63.88550616892446
 20
-130.3544894422378
 30
0.0
 10
63.74804685906299
 20
-130.3544894422378
 30
0.0
 10
63.62953557437039
 20
-130.3544894422378
 30
0.0
 10
63.49844969115664
 20
-130.4264919378795
 30
0.0
 10
63.49844969115664
 20
-130.6228623805387
 30
0.0
 10
63.49844969115664
 20
-130.8833115992236
 30
0.0
 10
63.72892657911986
 20
-130.8915798283882
 30
0.0
 10
63.8453708065213
 20
-130.896058452519
 30
0.0
 10
63.8453708065213
 20
-130.896058452519
 30
0.0
 10
63.8453708065213
 20
-131.1203341686088
 30
0.0
 10
63.8453708065213
 20
-131.1203341686088
 30
0.0
 10
63.71841903788984
 20
-131.1117214298957
 30
0.0
 10
63.60628117984496
 20
-131.1010416338914
 30
0.0
 10
63.48776989515237
 20
-131.0207709090851
 30
0.0
 10
63.32705619076546
 20
-130.9108723631056
 30
0.0
 10
63.29312200023575
 20
-130.7248372069021
 30
0.0
 10
63.29312200023575
 20
-130.6083929795007
 30
0.0
 10
63.29312200023575
 20
-130.3310627929381
 30
0.0
 10
63.47726235392236
 20
-130.1240125542746
 30
0.0
 10
63.75011391635414
 20
-130.1240125542746
 30
0.0
 10
63.9785237470262
 20
-130.1240125542746
 30
0.0
 10
64.07808700654992
 20
-130.2401122721275
 30
0.0
 10
64.30442977993084
 20
-130.5491373371544
 30
0.0
  0
HATCH
  5
DD
330
D8
100
AcDbEntity
  8
_U+30EC_U+30A4_U+30E4_U+30FC 1
 62
     7
420
 16777215
100
AcDbHatch
 10
0.0
 20
0.0
 30
0.0
210
0.0
220
0.0
230
1.0
  2
SOLID
 70
     1
 71
     0
 91
        1
 92
        1
 93
        1
 72
     4
 94
        3
 73
     0
 74
     1
 95
       44
 96
       40
 40
0.0
 40
0.0
 40
0.0
 40
0.0
 40
1.0
 40
1.0
 40
1.0
 40
2.0
 40
2.0
 40
2.0
 40
3.0
 40
3.0
 40
3.0
 40
4.0
 40
4.0
 40
4.0
 40
5.0
 40
5.0
 40
5.0
 40
6.0
 40
6.0
 40
6.0
 40
7.0
 40
7.0
 40
7.0
 40
8.0
 40
8.0
 40
8.0
 40
9.0
 40
9.0
 40
9.0
 40
10.0
 40
10.0
 40
10.0
 40
11.0
 40
11.0
 40
11.0
 40
12.0
 40
12.0
 40
12.0
 40
13.0
 40
13.0
 40
13.0
 40
13.0
 10
64.30442977993084
 20
-130.5491373371544
 10
64.46307642702659
 20
-130.7668673718222
 10
64.53714597995946
 20
-130.8598849499239
 10
64.68097871646864
 20
-130.9088053058145
 10
64.68097871646864
 20
-130.9088053058145
 10
64.68097871646864
 20
-130.130213726148
 10
64.68097871646864
 20
-130.130213726148
 10
64.68097871646864
 20
-130.130213726148
 10
64.88613415261527
 20
-130.130213726148
 10
64.88613415261527
 20
-130.130213726148
 10
64.88613415261527
 20
-130.130213726148
 10
64.88613415261527
 20
-131.1582302189466
 10
64.88613415261527
 20
-131.1582302189466
 10
64.52853324124634
 20
-131.1265353404823
 10
64.45032957373117
 20
-131.0610785262625
 10
64.15198430470853
 20
-130.6759168510116
 10
63.95320229520962
 20
-130.4199462564575
 10
63.88550616892446
 20
-130.3544894422378
 10
63.74804685906299
 20
-130.3544894422378
 10
63.62953557437039
 20
-130.3544894422378
 10
63.49844969115664
 20
-130.4264919378795
 10
63.49844969115664
 20
-130.6228623805387
 10
63.49844969115664
 20
-130.8833115992236
 10
63.72892657911986
 20
-130.8915798283882
 10
63.8453708065213
 20
-130.896058452519
 10
63.8453708065213
 20
-130.896058452519
 10
63.8453708065213
 20
-131.1203341686088
 10
63.8453708065213
 20
-131.1203341686088
 10
63.71841903788984
 20
-131.1117214298957
 10
63.60628117984496
 20
-131.1010416338914
 10
63.48776989515237
 20
-131.0207709090851
 10
63.32705619076546
 20
-130.9108723631056
 10
63.29312200023575
 20
-130.7248372069021
 10
63.29312200023575
 20
-130.6083929795007
 10
63.29312200023575
 20
-130.3310627929381
 10
63.47726235392236
 20
-130.1240125542746
 10
63.75011391635414
 20
-130.1240125542746
 10
63.9785237470262
 20
-130.1240125542746
 10
64.07808700654992
 20
-130.2401122721275
 10
64.30442977993084
 20
-130.5491373371544
 97
        0
 97
        0
 75
     2
 76
     1
 98
        0
  0
SPLINE
  5
DE
330
D8
100
AcDbEntity
  8
_U+30EC_U+30A4_U+30E4_U+30FC 1
370
     0
100
AcDbSpline
210
0.0
220
0.0
230
1.0
 70
    11
 71
     3
 72
    53
 73
    49
 74
     0
 42
0.0000000001
 43
0.0000000001
 12
1.0
 22
0.0
 32
0.0
 13
1.0
 23
0.0
 33
0.0
 40
0.0
 40
0.0
 40
0.0
 40
0.0
 40
1.0
 40
1.0
 40
1.0
 40
2.0
 40
2.0
 40
2.0
 40
3.0
 40
3.0
 40
3.0
 40
4.0
 40
4.0
 40
4.0
 40
5.0
 40
5.0
 40
5.0
 40
6.0
 40
6.0
 40
6.0
 40
7.0
 40
7.0
 40
7.0
 40
8.0
 40
8.0
 40
8.0
 40
9.0
 40
9.0
 40
9.0
 40
10.0
 40
10.0
 40
10.0
 40
11.0
 40
11.0
 40
11.0
 40
12.0
 40
12.0
 40
12.0
 40
13.0
 40
13.0
 40
13.0
 40
14.0
 40
14.0
 40
14.0
 40
15.0
 40
15.0
 40
15.0
 40
16.0
 40
16.0
 40
16.0
 40
16.0
 10
64.93694931102272
 20
-129.4842583226637
 30
0.0
 10
64.93694931102272
 20
-129.5624619901788
 30
0.0
 10
64.91989608837072
 20
-129.6640923069937
 30
0.0
 10
64.85650633144212
 20
-129.7657226238086
 30
0.0
 10
64.74643553068839
 20
-129.9393554362652
 30
0.0
 10
64.61534964747464
 20
-129.9603705187252
 30
0.0
 10
64.50751815878631
 20
-129.9793185438941
 30
0.0
 10
64.50751815878631
 20
-129.9793185438941
 30
0.0
 10
64.50751815878631
 20
-129.757454394644
 30
0.0
 10
64.50751815878631
 20
-129.757454394644
 30
0.0
 10
64.70630016828524
 20
-129.70233286688
 30
0.0
 10
64.73592798945838
 20
-129.5752088434743
 30
0.0
 10
64.73592798945838
 20
-129.4821912653725
 30
0.0
 10
64.73592798945838
 20
-129.3426648982199
 30
0.0
 10
64.63653698470893
 20
-129.1903916777719
 30
0.0
 10
64.40382078468029
 20
-129.1903916777719
 30
0.0
 10
64.14785019012623
 20
-129.1903916777719
 30
0.0
 10
64.07808700654992
 20
-129.3702256621019
 30
0.0
 10
64.07808700654992
 20
-129.4908040040856
 30
0.0
 10
64.07808700654992
 20
-129.5224988825499
 30
0.0
 10
64.07808700654992
 20
-129.6640923069937
 30
0.0
 10
64.20710583247254
 20
-129.7529757705132
 30
0.0
 10
64.20710583247254
 20
-129.7529757705132
 30
0.0
 10
64.1879855525294
 20
-129.9283311307124
 30
0.0
 10
64.1879855525294
 20
-129.9283311307124
 30
0.0
 10
64.1879855525294
 20
-129.9283311307124
 30
0.0
 10
63.34187010135204
 20
-129.8077527887286
 30
0.0
 10
63.34187010135204
 20
-129.8077527887286
 30
0.0
 10
63.34187010135204
 20
-129.8077527887286
 30
0.0
 10
63.34187010135204
 20
-129.0295057186107
 30
0.0
 10
63.34187010135204
 20
-129.0295057186107
 30
0.0
 10
63.34187010135204
 20
-129.0295057186107
 30
0.0
 10
63.53651799626865
 20
-129.0295057186107
 30
0.0
 10
63.53651799626865
 20
-129.0295057186107
 30
0.0
 10
63.53651799626865
 20
-129.0295057186107
 30
0.0
 10
63.53651799626865
 20
-129.6451442818248
 30
0.0
 10
63.53651799626865
 20
-129.6451442818248
 30
0.0
 10
63.53651799626865
 20
-129.6451442818248
 30
0.0
 10
63.95957572185733
 20
-129.7106010960446
 30
0.0
 10
63.95957572185733
 20
-129.7106010960446
 30
0.0
 10
63.92564153132762
 20
-129.6492783964071
 30
0.0
 10
63.88550616892446
 20
-129.5665961047611
 30
0.0
 10
63.88550616892446
 20
-129.4484293296171
 30
0.0
 10
63.88550616892446
 20
-129.1945257923541
 30
0.0
 10
64.07171357990221
 20
-128.957503222969
 30
0.0
 10
64.38470050473717
 20
-128.957503222969
 30
0.0
 10
64.70216605370294
 20
-128.957503222969
 30
0.0
 10
64.93694931102272
 20
-129.1817789390587
 30
0.0
 10
64.93694931102272
 20
-129.4842583226637
 30
0.0
  0
HATCH
  5
DF
330
D8
100
AcDbEntity
  8
_U+30EC_U+30A4_U+30E4_U+30FC 1
 62
     7
420
 16777215
100
AcDbHatch
 10
0.0
 20
0.0
 30
0.0
210
0.0
220
0.0
230
1.0
  2
SOLID
 70
     1
 71
     0
 91
        1
 92
        1
 93
        1
 72
     4
 94
        3
 73
     0
 74
     1
 95
       53
 96
       49
 40
0.0
 40
0.0
 40
0.0
 40
0.0
 40
1.0
 40
1.0
 40
1.0
 40
2.0
 40
2.0
 40
2.0
 40
3.0
 40
3.0
 40
3.0
 40
4.0
 40
4.0
 40
4.0
 40
5.0
 40
5.0
 40
5.0
 40
6.0
 40
6.0
 40
6.0
 40
7.0
 40
7.0
 40
7.0
 40
8.0
 40
8.0
 40
8.0
 40
9.0
 40
9.0
 40
9.0
 40
10.0
 40
10.0
 40
10.0
 40
11.0
 40
11.0
 40
11.0
 40
12.0
 40
12.0
 40
12.0
 40
13.0
 40
13.0
 40
13.0
 40
14.0
 40
14.0
 40
14.0
 40
15.0
 40
15.0
 40
15.0
 40
16.0
 40
16.0
 40
16.0
 40
16.0
 10
64.93694931102272
 20
-129.4842583226637
 10
64.93694931102272
 20
-129.5624619901788
 10
64.91989608837072
 20
-129.6640923069937
 10
64.85650633144212
 20
-129.7657226238086
 10
64.74643553068839
 20
-129.9393554362652
 10
64.61534964747464
 20
-129.9603705187252
 10
64.50751815878631
 20
-129.9793185438941
 10
64.50751815878631
 20
-129.9793185438941
 10
64.50751815878631
 20
-129.757454394644
 10
64.50751815878631
 20
-129.757454394644
 10
64.70630016828524
 20
-129.70233286688
 10
64.73592798945838
 20
-129.5752088434743
 10
64.73592798945838
 20
-129.4821912653725
 10
64.73592798945838
 20
-129.3426648982199
 10
64.63653698470893
 20
-129.1903916777719
 10
64.40382078468029
 20
-129.1903916777719
 10
64.14785019012623
 20
-129.1903916777719
 10
64.07808700654992
 20
-129.3702256621019
 10
64.07808700654992
 20
-129.4908040040856
 10
64.07808700654992
 20
-129.5224988825499
 10
64.07808700654992
 20
-129.6640923069937
 10
64.20710583247254
 20
-129.7529757705132
 10
64.20710583247254
 20
-129.7529757705132
 10
64.1879855525294
 20
-129.9283311307124
 10
64.1879855525294
 20
-129.9283311307124
 10
64.1879855525294
 20
-129.9283311307124
 10
63.34187010135204
 20
-129.8077527887286
 10
63.34187010135204
 20
-129.8077527887286
 10
63.34187010135204
 20
-129.8077527887286
 10
63.34187010135204
 20
-129.0295057186107
 10
63.34187010135204
 20
-129.0295057186107
 10
63.34187010135204
 20
-129.0295057186107
 10
63.53651799626865
 20
-129.0295057186107
 10
63.53651799626865
 20
-129.0295057186107
 10
63.53651799626865
 20
-129.0295057186107
 10
63.53651799626865
 20
-129.6451442818248
 10
63.53651799626865
 20
-129.6451442818248
 10
63.53651799626865
 20
-129.6451442818248
 10
63.95957572185733
 20
-129.7106010960446
 10
63.95957572185733
 20
-129.7106010960446
 10
63.92564153132762
 20
-129.6492783964071
 10
63.88550616892446
 20
-129.5665961047611
 10
63.88550616892446
 20
-129.4484293296171
 10
63.88550616892446
 20
-129.1945257923541
 10
64.07171357990221
 20
-128.957503222969
 10
64.38470050473717
 20
-128.957503222969
 10
64.70216605370294
 20
-128.957503222969
 10
64.93694931102272
 20
-129.1817789390587
 10
64.93694931102272
 20
-129.4842583226637
 97
        0
 97
        0
 75
     2
 76
     1
 98
        0
  0
ENDBLK
  5
DB
330
D8
100
AcDbEntity
  8
0
100
AcDbBlockEnd
  0
ENDSEC
  0
SECTION
  2
ENTITIES
  0
INSERT
  5
42
330
1F
100
AcDbEntity
  8
_U+30EC_U+30A4_U+30E4_U+30FC 1
100
AcDbBlockReference
  2
block 2
 10
0.0
 20
0.0
 30
0.0
  0
ENDSEC
  0
SECTION
  2
OBJECTS
  0
DICTIONARY
  5
C
330
0
100
AcDbDictionary
281
     1
  3
ACAD_GROUP
350
D
  3
ACAD_LAYOUT
350
1A
  3
ACAD_MATERIAL
350
3B
  3
ACAD_MLEADERSTYLE
350
FC
  3
ACAD_MLINESTYLE
350
17
  3
ACAD_PLOTSETTINGS
350
19
  3
ACAD_PLOTSTYLENAME
350
E
  3
ACAD_TABLESTYLE
350
FB
  3
ACAD_VISUALSTYLE
350
2A
  0
SUN
  5
3F
330
29
100
AcDbSun
 90
        1
290
     0
 63
     7
421
 16777215
 40
1.0
291
     1
 91
  2455826
 92
 54000000
292
     0
 70
     2
 71
   256
280
     1
  0
DICTIONARY
  5
D
102
{ACAD_REACTORS
330
C
102
}
330
C
100
AcDbDictionary
281
     1
  0
DICTIONARY
  5
1A
102
{ACAD_REACTORS
330
C
102
}
330
C
100
AcDbDictionary
281
     1
  3
Layout1
350
1E
  3
Layout2
350
26
  3
Model
350
22
  0
DICTIONARY
  5
3B
102
{ACAD_REACTORS
330
C
102
}
330
C
100
AcDbDictionary
281
     1
  3
ByBlock
350
3D
  3
ByLayer
350
3C
  3
Global
350
3E
  0
DICTIONARY
  5
FC
102
{ACAD_REACTORS
330
C
102
}
330
C
100
AcDbDictionary
281
     1
  0
DICTIONARY
  5
17
102
{ACAD_REACTORS
330
C
102
}
330
C
100
AcDbDictionary
281
     1
  3
Standard
350
18
  0
DICTIONARY
  5
19
102
{ACAD_REACTORS
330
C
102
}
330
C
100
AcDbDictionary
281
     1
  0
ACDBDICTIONARYWDFLT
  5
E
102
{ACAD_REACTORS
330
C
102
}
330
C
100
AcDbDictionary
281
     1
  3
Normal
350
F
100
AcDbDictionaryWithDefault
340
F
  0
DICTIONARY
  5
FB
102
{ACAD_REACTORS
330
C
102
}
330
C
100
AcDbDictionary
281
     1
  0
DICTIONARY
  5
2A
102
{ACAD_REACTORS
330
C
102
}
330
C
100
AcDbDictionary
281
     1
  3
2dWireframe
350
2F
  3
3D Hidden
350
31
  3
3dWireframe
350
30
  3
Basic
350
32
  3
Brighten
350
36
  3
ColorChange
350
3A
  3
Conceptual
350
34
  3
Dim
350
35
  3
Facepattern
350
39
  3
Flat
350
2B
  3
FlatWithEdges
350
2C
  3
Gouraud
350
2D
  3
GouraudWithEdges
350
2E
  3
Linepattern
350
38
  3
Realistic
350
33
  3
Thicken
350
37
  0
LAYOUT
  5
1E
102
{ACAD_REACTORS
330
1A
102
}
330
1A
100
AcDbPlotSettings
  1

  2
none_device
  4

  6

 40
0.0
 41
0.0
 42
0.0
 43
0.0
 44
0.0
 45
0.0
 46
0.0
 47
0.0
 48
0.0
 49
0.0
140
0.0
141
0.0
142
1.0
143
1.0
 70
   688
 72
     0
 73
     0
 74
     5
  7

 75
    16
 76
     0
 77
     2
 78
   300
147
1.0
148
0.0
149
0.0
100
AcDbLayout
  1
Layout1
 70
     1
 71
     1
 10
0.0
 20
0.0
 11
12.0
 21
9.0
 12
0.0
 22
0.0
 32
0.0
 14
1.000000000000000E+20
 24
1.000000000000000E+20
 34
1.000000000000000E+20
 15
-1.000000000000000E+20
 25
-1.000000000000000E+20
 35
-1.000000000000000E+20
146
0.0
 13
0.0
 23
0.0
 33
0.0
 16
1.0
 26
0.0
 36
0.0
 17
0.0
 27
1.0
 37
0.0
 76
     0
330
1B
  0
LAYOUT
  5
26
102
{ACAD_REACTORS
330
1A
102
}
330
1A
100
AcDbPlotSettings
  1

  2
none_device
  4

  6

 40
0.0
 41
0.0
 42
0.0
 43
0.0
 44
0.0
 45
0.0
 46
0.0
 47
0.0
 48
0.0
 49
0.0
140
0.0
141
0.0
142
1.0
143
1.0
 70
   688
 72
     0
 73
     0
 74
     5
  7

 75
    16
 76
     0
 77
     2
 78
   300
147
1.0
148
0.0
149
0.0
100
AcDbLayout
  1
Layout2
 70
     1
 71
     2
 10
0.0
 20
0.0
 11
0.0
 21
0.0
 12
0.0
 22
0.0
 32
0.0
 14
0.0
 24
0.0
 34
0.0
 15
0.0
 25
0.0
 35
0.0
146
0.0
 13
0.0
 23
0.0
 33
0.0
 16
1.0
 26
0.0
 36
0.0
 17
0.0
 27
1.0
 37
0.0
 76
     0
330
23
  0
LAYOUT
  5
22
102
{ACAD_REACTORS
330
1A
102
}
330
1A
100
AcDbPlotSettings
  1

  2
none_device
  4

  6

 40
0.0
 41
0.0
 42
0.0
 43
0.0
 44
0.0
 45
0.0
 46
0.0
 47
0.0
 48
0.0
 49
0.0
140
0.0
141
0.0
142
1.0
143
1.0
 70
  1712
 72
     0
 73
     0
 74
     0
  7

 75
     0
 76
     0
 77
     2
 78
   300
147
1.0
148
0.0
149
0.0
100
AcDbLayout
  1
Model
 70
     1
 71
     0
 10
0.0
 20
0.0
 11
12.0
 21
9.0
 12
0.0
 22
0.0
 32
0.0
 14
1.000000000000000E+20
 24
1.000000000000000E+20
 34
1.000000000000000E+20
 15
-1.000000000000000E+20
 25
-1.000000000000000E+20
 35
-1.000000000000000E+20
146
0.0
 13
0.0
 23
0.0
 33
0.0
 16
1.0
 26
0.0
 36
0.0
 17
0.0
 27
1.0
 37
0.0
 76
     0
330
1F
331
29
  0
MATERIAL
  5
3D
102
{ACAD_REACTORS
330
3B
102
}
330
3B
100
AcDbMaterial
  1
ByBlock
 72
     1
 94
      127
  0
MATERIAL
  5
3C
102
{ACAD_REACTORS
330
3B
102
}
330
3B
100
AcDbMaterial
  1
ByLayer
 72
     1
 94
      127
  0
MATERIAL
  5
3E
102
{ACAD_REACTORS
330
3B
102
}
330
3B
100
AcDbMaterial
  1
Global
 72
     1
 94
      127
  0
MLINESTYLE
  5
18
102
{ACAD_REACTORS
330
17
102
}
330
17
100
AcDbMlineStyle
  2
Standard
 70
     0
  3

 62
   256
 51
90.0
 52
90.0
 71
     2
 49
0.5
 62
   256
  6
BYLAYER
 49
-0.5
 62
   256
  6
BYLAYER
  0
ACDBPLACEHOLDER
  5
F
102
{ACAD_REACTORS
330
E
102
}
330
E
  0
VISUALSTYLE
  5
2F
102
{ACAD_REACTORS
330
2A
102
}
330
2A
100
AcDbVisualStyle
  2
2dWireframe
 70
     4
177
     2
291
     0
 71
     0
176
     1
 72
     2
176
     1
 73
     0
176
     1
 90
        0
176
     1
 40
-0.6
176
     1
 41
-30.0
176
     1
 62
     5
 63
     7
421
 16777215
176
     1
 74
     1
176
     1
 91
        4
176
     1
 64
     7
176
     1
 65
   257
176
     1
 75
     1
176
     1
175
     1
176
     1
 42
1.0
176
     1
 92
        0
176
     1
 66
   257
176
     1
 43
1.0
176
     1
 76
     1
176
     1
 77
     6
176
     1
 78
     2
176
     1
 67
     7
176
     1
 79
     5
176
     1
170
     0
176
     1
171
     0
176
     1
290
     0
176
     1
 93
        1
176
     1
 44
0.0
176
     1
173
     0
176
     1
  0
VISUALSTYLE
  5
31
102
{ACAD_REACTORS
330
2A
102
}
330
2A
100
AcDbVisualStyle
  2
3D Hidden
 70
     6
177
     2
291
     0
 71
     1
176
     1
 72
     2
176
     1
 73
     2
176
     1
 90
        0
176
     1
 40
-0.6
176
     1
 41
-30.0
176
     1
 62
     5
 63
     7
421
 16777215
176
     1
 74
     2
176
     1
 91
        2
176
     1
 64
     7
176
     1
 65
   257
176
     1
 75
     2
176
     1
175
     1
176
     1
 42
40.0
176
     1
 92
        0
176
     1
 66
   257
176
     1
 43
1.0
176
     1
 76
     1
176
     1
 77
     6
176
     1
 78
     2
176
     1
 67
     7
176
     1
 79
     3
176
     1
170
     0
176
     1
171
     0
176
     1
290
     0
176
     1
 93
        1
176
     1
 44
0.0
176
     1
173
     0
176
     1
  0
VISUALSTYLE
  5
30
102
{ACAD_REACTORS
330
2A
102
}
330
2A
100
AcDbVisualStyle
  2
3dWireframe
 70
     5
177
     2
291
     0
 71
     0
176
     1
 72
     2
176
     1
 73
     0
176
     1
 90
        0
176
     1
 40
-0.6
176
     1
 41
-30.0
176
     1
 62
     5
 63
     7
421
 16777215
176
     1
 74
     1
176
     1
 91
        4
176
     1
 64
     7
176
     1
 65
   257
176
     1
 75
     1
176
     1
175
     1
176
     1
 42
1.0
176
     1
 92
        0
176
     1
 66
   257
176
     1
 43
1.0
176
     1
 76
     1
176
     1
 77
     6
176
     1
 78
     2
176
     1
 67
     7
176
     1
 79
     5
176
     1
170
     0
176
     1
171
     0
176
     1
290
     0
176
     1
 93
        1
176
     1
 44
0.0
176
     1
173
     0
176
     1
  0
VISUALSTYLE
  5
32
102
{ACAD_REACTORS
330
2A
102
}
330
2A
100
AcDbVisualStyle
  2
Basic
 70
     7
177
     2
291
     1
 71
     1
176
     1
 72
     0
176
     1
 73
     1
176
     1
 90
        0
176
     1
 40
-0.6
176
     1
 41
-30.0
176
     1
 62
     5
 63
     7
421
 16777215
176
     1
 74
     0
176
     1
 91
        4
176
     1
 64
     7
176
     1
 65
   257
176
     1
 75
     1
176
     1
175
     1
176
     1
 42
1.0
176
     1
 92
        8
176
     1
 66
     7
176
     1
 43
1.0
176
     1
 76
     1
176
     1
 77
     6
176
     1
 78
     2
176
     1
 67
     7
176
     1
 79
     5
176
     1
170
     0
176
     1
171
     0
176
     1
290
     0
176
     1
 93
        1
176
     1
 44
0.0
176
     1
173
     0
176
     1
  0
VISUALSTYLE
  5
36
102
{ACAD_REACTORS
330
2A
102
}
330
2A
100
AcDbVisualStyle
  2
Brighten
 70
    12
177
     2
291
     1
 71
     2
176
     1
 72
     2
176
     1
 73
     0
176
     1
 90
        0
176
     1
 40
-0.6
176
     1
 41
-30.0
176
     1
 62
     5
 63
     7
421
 16777215
176
     1
 74
     1
176
     1
 91
        4
176
     1
 64
     7
176
     1
 65
   257
176
     1
 75
     1
176
     1
175
     1
176
     1
 42
1.0
176
     1
 92
        8
176
     1
 66
     7
176
     1
 43
1.0
176
     1
 76
     1
176
     1
 77
     6
176
     1
 78
     2
176
     1
 67
     7
176
     1
 79
     5
176
     1
170
     0
176
     1
171
     0
176
     1
290
     0
176
     1
 93
        1
176
     1
 44
50.0
176
     1
173
     0
176
     1
  0
VISUALSTYLE
  5
3A
102
{ACAD_REACTORS
330
2A
102
}
330
2A
100
AcDbVisualStyle
  2
ColorChange
 70
    16
177
     2
291
     1
 71
     2
176
     1
 72
     2
176
     1
 73
     3
176
     1
 90
        0
176
     1
 40
-0.6
176
     1
 41
-30.0
176
     1
 62
     5
 63
     8
421
  8421504
176
     1
 74
     1
176
     1
 91
        4
176
     1
 64
     7
176
     1
 65
   257
176
     1
 75
     1
176
     1
175
     1
176
     1
 42
1.0
176
     1
 92
        8
176
     1
 66
     8
424
  8421504
176
     1
 43
1.0
176
     1
 76
     1
176
     1
 77
     6
176
     1
 78
     2
176
     1
 67
     7
176
     1
 79
     5
176
     1
170
     0
176
     1
171
     0
176
     1
290
     0
176
     1
 93
        1
176
     1
 44
0.0
176
     1
173
     0
176
     1
  0
VISUALSTYLE
  5
34
102
{ACAD_REACTORS
330
2A
102
}
330
2A
100
AcDbVisualStyle
  2
Conceptual
 70
     9
177
     2
291
     0
 71
     3
176
     1
 72
     2
176
     1
 73
     0
176
     1
 90
        0
176
     1
 40
-0.6
176
     1
 41
-30.0
176
     1
 62
     5
 63
     7
421
 16777215
176
     1
 74
     2
176
     1
 91
        2
176
     1
 64
     7
176
     1
 65
   257
176
     1
 75
     1
176
     1
175
     1
176
     1
 42
40.0
176
     1
 92
        8
176
     1
 66
     7
176
     1
 43
1.0
176
     1
 76
     1
176
     1
 77
     6
176
     1
 78
     2
176
     1
 67
     7
176
     1
 79
     3
176
     1
170
     0
176
     1
171
     0
176
     1
290
     0
176
     1
 93
        1
176
     1
 44
0.0
176
     1
173
     0
176
     1
  0
VISUALSTYLE
  5
35
102
{ACAD_REACTORS
330
2A
102
}
330
2A
100
AcDbVisualStyle
  2
Dim
 70
    11
177
     2
291
     1
 71
     2
176
     1
 72
     2
176
     1
 73
     0
176
     1
 90
        0
176
     1
 40
-0.6
176
     1
 41
-30.0
176
     1
 62
     5
 63
     7
421
 16777215
176
     1
 74
     1
176
     1
 91
        4
176
     1
 64
     7
176
     1
 65
   257
176
     1
 75
     1
176
     1
175
     1
176
     1
 42
1.0
176
     1
 92
        8
176
     1
 66
     7
176
     1
 43
1.0
176
     1
 76
     1
176
     1
 77
     6
176
     1
 78
     2
176
     1
 67
     7
176
     1
 79
     5
176
     1
170
     0
176
     1
171
     0
176
     1
290
     0
176
     1
 93
        1
176
     1
 44
-50.0
176
     1
173
     0
176
     1
  0
VISUALSTYLE
  5
39
102
{ACAD_REACTORS
330
2A
102
}
330
2A
100
AcDbVisualStyle
  2
Facepattern
 70
    15
177
     2
291
     1
 71
     2
176
     1
 72
     2
176
     1
 73
     0
176
     1
 90
        0
176
     1
 40
-0.6
176
     1
 41
-30.0
176
     1
 62
     5
 63
     7
421
 16777215
176
     1
 74
     1
176
     1
 91
        4
176
     1
 64
     7
176
     1
 65
   257
176
     1
 75
     1
176
     1
175
     1
176
     1
 42
1.0
176
     1
 92
        8
176
     1
 66
     7
176
     1
 43
1.0
176
     1
 76
     1
176
     1
 77
     6
176
     1
 78
     2
176
     1
 67
     7
176
     1
 79
     5
176
     1
170
     0
176
     1
171
     0
176
     1
290
     0
176
     1
 93
        1
176
     1
 44
0.0
176
     1
173
     0
176
     1
  0
VISUALSTYLE
  5
2B
102
{ACAD_REACTORS
330
2A
102
}
330
2A
100
AcDbVisualStyle
  2
Flat
 70
     0
177
     2
291
     1
 71
     2
176
     1
 72
     1
176
     1
 73
     1
176
     1
 90
        2
176
     1
 40
-0.6
176
     1
 41
30.0
176
     1
 62
     5
 63
     7
421
 16777215
176
     1
 74
     0
176
     1
 91
        4
176
     1
 64
     7
176
     1
 65
   257
176
     1
 75
     1
176
     1
175
     1
176
     1
 42
1.0
176
     1
 92
        8
176
     1
 66
     7
176
     1
 43
1.0
176
     1
 76
     1
176
     1
 77
     6
176
     1
 78
     2
176
     1
 67
     7
176
     1
 79
     5
176
     1
170
     0
176
     1
171
     0
176
     1
290
     0
176
     1
 93
       13
176
     1
 44
0.0
176
     1
173
     0
176
     1
  0
VISUALSTYLE
  5
2C
102
{ACAD_REACTORS
330
2A
102
}
330
2A
100
AcDbVisualStyle
  2
FlatWithEdges
 70
     1
177
     2
291
     1
 71
     2
176
     1
 72
     1
176
     1
 73
     1
176
     1
 90
        2
176
     1
 40
-0.6
176
     1
 41
30.0
176
     1
 62
     5
 63
     7
421
 16777215
176
     1
 74
     1
176
     1
 91
        4
176
     1
 64
     7
176
     1
 65
   257
176
     1
 75
     1
176
     1
175
     1
176
     1
 42
1.0
176
     1
 92
        0
176
     1
 66
   257
176
     1
 43
1.0
176
     1
 76
     1
176
     1
 77
     6
176
     1
 78
     2
176
     1
 67
     7
176
     1
 79
     5
176
     1
170
     0
176
     1
171
     0
176
     1
290
     0
176
     1
 93
       13
176
     1
 44
0.0
176
     1
173
     0
176
     1
  0
VISUALSTYLE
  5
2D
102
{ACAD_REACTORS
330
2A
102
}
330
2A
100
AcDbVisualStyle
  2
Gouraud
 70
     2
177
     2
291
     1
 71
     2
176
     1
 72
     2
176
     1
 73
     1
176
     1
 90
        2
176
     1
 40
-0.6
176
     1
 41
30.0
176
     1
 62
     5
 63
     7
421
 16777215
176
     1
 74
     0
176
     1
 91
        4
176
     1
 64
     7
176
     1
 65
   257
176
     1
 75
     1
176
     1
175
     1
176
     1
 42
1.0
176
     1
 92
        0
176
     1
 66
     7
176
     1
 43
1.0
176
     1
 76
     1
176
     1
 77
     6
176
     1
 78
     2
176
     1
 67
     7
176
     1
 79
     5
176
     1
170
     0
176
     1
171
     0
176
     1
290
     0
176
     1
 93
       13
176
     1
 44
0.0
176
     1
173
     0
176
     1
  0
VISUALSTYLE
  5
2E
102
{ACAD_REACTORS
330
2A
102
}
330
2A
100
AcDbVisualStyle
  2
GouraudWithEdges
 70
     3
177
     2
291
     1
 71
     2
176
     1
 72
     2
176
     1
 73
     1
176
     1
 90
        2
176
     1
 40
-0.6
176
     1
 41
30.0
176
     1
 62
     5
 63
     7
421
 16777215
176
     1
 74
     1
176
     1
 91
        4
176
     1
 64
     7
176
     1
 65
   257
176
     1
 75
     1
176
     1
175
     1
176
     1
 42
1.0
176
     1
 92
        0
176
     1
 66
   257
176
     1
 43
1.0
176
     1
 76
     1
176
     1
 77
     6
176
     1
 78
     2
176
     1
 67
     7
176
     1
 79
     5
176
     1
170
     0
176
     1
171
     0
176
     1
290
     0
176
     1
 93
       13
176
     1
 44
0.0
176
     1
173
     0
176
     1
  0
VISUALSTYLE
  5
38
102
{ACAD_REACTORS
330
2A
102
}
330
2A
100
AcDbVisualStyle
  2
Linepattern
 70
    14
177
     2
291
     1
 71
     2
176
     1
 72
     2
176
     1
 73
     0
176
     1
 90
        0
176
     1
 40
-0.6
176
     1
 41
-30.0
176
     1
 62
     5
 63
     7
421
 16777215
176
     1
 74
     1
176
     1
 91
        4
176
     1
 64
     7
176
     1
 65
   257
176
     1
 75
     7
176
     1
175
     7
176
     1
 42
1.0
176
     1
 92
        8
176
     1
 66
     7
176
     1
 43
1.0
176
     1
 76
     1
176
     1
 77
     6
176
     1
 78
     2
176
     1
 67
     7
176
     1
 79
     5
176
     1
170
     0
176
     1
171
     0
176
     1
290
     0
176
     1
 93
        1
176
     1
 44
0.0
176
     1
173
     0
176
     1
  0
VISUALSTYLE
  5
33
102
{ACAD_REACTORS
330
2A
102
}
330
2A
100
AcDbVisualStyle
  2
Realistic
 70
     8
177
     2
291
     0
 71
     2
176
     1
 72
     2
176
     1
 73
     0
176
     1
 90
        0
176
     1
 40
-0.6
176
     1
 41
-30.0
176
     1
 62
     5
 63
     7
421
 16777215
176
     1
 74
     1
176
     1
 91
        0
176
     1
 64
     7
176
     1
 65
   257
176
     1
 75
     1
176
     1
175
     1
176
     1
 42
1.0
176
     1
 92
        8
176
     1
 66
     8
424
  7895160
176
     1
 43
1.0
176
     1
 76
     1
176
     1
 77
     6
176
     1
 78
     2
176
     1
 67
     7
176
     1
 79
     5
176
     1
170
     0
176
     1
171
     0
176
     1
290
     0
176
     1
 93
       13
176
     1
 44
0.0
176
     1
173
     0
176
     1
  0
VISUALSTYLE
  5
37
102
{ACAD_REACTORS
330
2A
102
}
330
2A
100
AcDbVisualStyle
  2
Thicken
 70
    13
177
     2
291
     1
 71
     2
176
     1
 72
     2
176
     1
 73
     0
176
     1
 90
        0
176
     1
 40
-0.6
176
     1
 41
-30.0
176
     1
 62
     5
 63
     7
421
 16777215
176
     1
 74
     1
176
     1
 91
        4
176
     1
 64
     7
176
     1
 65
   257
176
     1
 75
     1
176
     1
175
     1
176
     1
 42
1.0
176
     1
 92
       12
176
     1
 66
     7
176
     1
 43
1.0
176
     1
 76
     1
176
     1
 77
     6
176
     1
 78
     2
176
     1
 67
     7
176
     1
 79
     5
176
     1
170
     0
176
     1
171
     0
176
     1
290
     0
176
     1
 93
        1
176
     1
 44
0.0
176
     1
173
     0
176
     1
  0
ENDSEC
  0
EOF
