  0
SECTION
  2
HEADER
  9
$ACADVER
  1
AC1024
  9
$ACADMAINTVER
 70
     6
  9
$DWGCODEPAGE
  3
UNDEFINED
  9
$INSBASE
 10
0.0
 20
0.0
 30
0.0
  9
$EXTMIN
 10
1.000000000000000E+20
 20
1.000000000000000E+20
 30
1.000000000000000E+20
  9
$EXTMAX
 10
-1.000000000000000E+20
 20
-1.000000000000000E+20
 30
-1.000000000000000E+20
  9
$LIMMIN
 10
0.0
 20
0.0
  9
$LIMMAX
 10
12.0
 20
9.0
  9
$ORTHOMODE
 70
     0
  9
$REGENMODE
 70
     1
  9
$FILLMODE
 70
     1
  9
$QTEXTMODE
 70
     0
  9
$MIRRTEXT
 70
     1
  9
$LTSCALE
 40
1.0
  9
$ATTMODE
 70
     1
  9
$TEXTSIZE
 40
0.2
  9
$TRACEWID
 40
0.05
  9
$TEXTSTYLE
  7
Standard
  9
$CLAYER
  8
0
  9
$CELTYPE
  6
ByLayer
  9
$CECOLOR
 62
   256
  9
$CELTSCALE
 40
1.0
  9
$DISPSILH
 70
     0
  9
$DIMSCALE
 40
1.0
  9
$DIMASZ
 40
0.18
  9
$DIMEXO
 40
0.0625
  9
$DIMDLI
 40
0.38
  9
$DIMRND
 40
0.0
  9
$DIMDLE
 40
0.0
  9
$DIMEXE
 40
0.18
  9
$DIMTP
 40
0.0
  9
$DIMTM
 40
0.0
  9
$DIMTXT
 40
0.18
  9
$DIMCEN
 40
0.09
  9
$DIMTSZ
 40
0.0
  9
$DIMTOL
 70
     0
  9
$DIMLIM
 70
     0
  9
$DIMTIH
 70
     1
  9
$DIMTOH
 70
     1
  9
$DIMSE1
 70
     0
  9
$DIMSE2
 70
     0
  9
$DIMTAD
 70
     0
  9
$DIMZIN
 70
     0
  9
$DIMBLK
  1

  9
$DIMASO
 70
     1
  9
$DIMSHO
 70
     1
  9
$DIMPOST
  1

  9
$DIMAPOST
  1

  9
$DIMALT
 70
     0
  9
$DIMALTD
 70
     2
  9
$DIMALTF
 40
25.4
  9
$DIMLFAC
 40
1.0
  9
$DIMTOFL
 70
     0
  9
$DIMTVP
 40
0.0
  9
$DIMTIX
 70
     0
  9
$DIMSOXD
 70
     0
  9
$DIMSAH
 70
     0
  9
$DIMBLK1
  1

  9
$DIMBLK2
  1

  9
$DIMSTYLE
  2
Standard
  9
$DIMCLRD
 70
     0
  9
$DIMCLRE
 70
     0
  9
$DIMCLRT
 70
     0
  9
$DIMTFAC
 40
1.0
  9
$DIMGAP
 40
0.09
  9
$DIMJUST
 70
     0
  9
$DIMSD1
 70
     0
  9
$DIMSD2
 70
     0
  9
$DIMTOLJ
 70
     1
  9
$DIMTZIN
 70
     0
  9
$DIMALTZ
 70
     0
  9
$DIMALTTZ
 70
     0
  9
$DIMUPT
 70
     0
  9
$DIMDEC
 70
     4
  9
$DIMTDEC
 70
     4
  9
$DIMALTU
 70
     2
  9
$DIMALTTD
 70
     2
  9
$DIMTXSTY
  7
Standard
  9
$DIMAUNIT
 70
     0
  9
$DIMADEC
 70
     0
  9
$DIMALTRND
 40
0.0
  9
$DIMAZIN
 70
     0
  9
$DIMDSEP
 70
    46
  9
$DIMATFIT
 70
     3
  9
$DIMFRAC
 70
     0
  9
$DIMLDRBLK
  1

  9
$DIMLUNIT
 70
     2
  9
$DIMLWD
 70
    -2
  9
$DIMLWE
 70
    -2
  9
$DIMTMOVE
 70
     0
  9
$DIMFXL
 40
1.0
  9
$DIMFXLON
 70
     0
  9
$DIMJOGANG
 40
0.7853981633974483
  9
$DIMTFILL
 70
     0
  9
$DIMTFILLCLR
 70
     0
  9
$DIMARCSYM
 70
     0
  9
$DIMLTYPE
  6

  9
$DIMLTEX1
  6

  9
$DIMLTEX2
  6

  9
$DIMTXTDIRECTION
 70
     0
  9
$LUNITS
 70
     2
  9
$LUPREC
 70
     4
  9
$SKETCHINC
 40
0.1
  9
$FILLETRAD
 40
0.5
  9
$AUNITS
 70
     0
  9
$AUPREC
 70
     0
  9
$MENU
  1
.
  9
$ELEVATION
 40
0.0
  9
$PELEVATION
 40
0.0
  9
$THICKNESS
 40
0.0
  9
$LIMCHECK
 70
     0
  9
$CHAMFERA
 40
0.5
  9
$CHAMFERB
 40
0.5
  9
$CHAMFERC
 40
1.0
  9
$CHAMFERD
 40
0.0
  9
$SKPOLY
 70
     0
  9
$TDCREATE
 40
2457917.613518507
  9
$TDUCREATE
 40
2457917.238518518
  9
$TDUPDATE
 40
2457917.613518507
  9
$TDUUPDATE
 40
2457917.238518518
  9
$TDINDWG
 40
0.0000000116
  9
$TDUSRTIMER
 40
0.0000000116
  9
$USRTIMER
 70
     1
  9
$ANGBASE
 50
0.0
  9
$ANGDIR
 70
     0
  9
$PDMODE
 70
     0
  9
$PDSIZE
 40
0.0
  9
$PLINEWID
 40
0.0
  9
$SPLFRAME
 70
     0
  9
$SPLINETYPE
 70
     6
  9
$SPLINESEGS
 70
     8
  9
$HANDSEED
  5
1E0
  9
$SURFTAB1
 70
     6
  9
$SURFTAB2
 70
     6
  9
$SURFTYPE
 70
     6
  9
$SURFU
 70
     6
  9
$SURFV
 70
     6
  9
$UCSBASE
  2

  9
$UCSNAME
  2

  9
$UCSORG
 10
0.0
 20
0.0
 30
0.0
  9
$UCSXDIR
 10
1.0
 20
0.0
 30
0.0
  9
$UCSYDIR
 10
0.0
 20
1.0
 30
0.0
  9
$UCSORTHOREF
  2

  9
$UCSORTHOVIEW
 70
     0
  9
$UCSORGTOP
 10
0.0
 20
0.0
 30
0.0
  9
$UCSORGBOTTOM
 10
0.0
 20
0.0
 30
0.0
  9
$UCSORGLEFT
 10
0.0
 20
0.0
 30
0.0
  9
$UCSORGRIGHT
 10
0.0
 20
0.0
 30
0.0
  9
$UCSORGFRONT
 10
0.0
 20
0.0
 30
0.0
  9
$UCSORGBACK
 10
0.0
 20
0.0
 30
0.0
  9
$PUCSBASE
  2

  9
$PUCSNAME
  2

  9
$PUCSORG
 10
0.0
 20
0.0
 30
0.0
  9
$PUCSXDIR
 10
1.0
 20
0.0
 30
0.0
  9
$PUCSYDIR
 10
0.0
 20
1.0
 30
0.0
  9
$PUCSORTHOREF
  2

  9
$PUCSORTHOVIEW
 70
     0
  9
$PUCSORGTOP
 10
0.0
 20
0.0
 30
0.0
  9
$PUCSORGBOTTOM
 10
0.0
 20
0.0
 30
0.0
  9
$PUCSORGLEFT
 10
0.0
 20
0.0
 30
0.0
  9
$PUCSORGRIGHT
 10
0.0
 20
0.0
 30
0.0
  9
$PUCSORGFRONT
 10
0.0
 20
0.0
 30
0.0
  9
$PUCSORGBACK
 10
0.0
 20
0.0
 30
0.0
  9
$USERI1
 70
     0
  9
$USERI2
 70
     0
  9
$USERI3
 70
     0
  9
$USERI4
 70
     0
  9
$USERI5
 70
     0
  9
$USERR1
 40
0.0
  9
$USERR2
 40
0.0
  9
$USERR3
 40
0.0
  9
$USERR4
 40
0.0
  9
$USERR5
 40
0.0
  9
$WORLDVIEW
 70
     1
  9
$SHADEDGE
 70
     3
  9
$SHADEDIF
 70
    70
  9
$TILEMODE
 70
     1
  9
$MAXACTVP
 70
    64
  9
$PINSBASE
 10
0.0
 20
0.0
 30
0.0
  9
$PLIMCHECK
 70
     0
  9
$PEXTMIN
 10
1.000000000000000E+20
 20
1.000000000000000E+20
 30
1.000000000000000E+20
  9
$PEXTMAX
 10
-1.000000000000000E+20
 20
-1.000000000000000E+20
 30
-1.000000000000000E+20
  9
$PLIMMIN
 10
0.0
 20
0.0
  9
$PLIMMAX
 10
12.0
 20
9.0
  9
$UNITMODE
 70
     0
  9
$VISRETAIN
 70
     1
  9
$PLINEGEN
 70
     0
  9
$PSLTSCALE
 70
     1
  9
$TREEDEPTH
 70
  3020
  9
$CMLSTYLE
  2
Standard
  9
$CMLJUST
 70
     0
  9
$CMLSCALE
 40
1.0
  9
$PROXYGRAPHICS
 70
     1
  9
$MEASUREMENT
 70
     0
  9
$CELWEIGHT
370
    -1
  9
$ENDCAPS
280
     0
  9
$JOINSTYLE
280
     0
  9
$LWDISPLAY
290
     1
  9
$INSUNITS
 70
     1
  9
$HYPERLINKBASE
  1

  9
$STYLESHEET
  1

  9
$XEDIT
290
     1
  9
$CEPSNTYPE
380
     0
  9
$PSTYLEMODE
290
     1
  9
$FINGERPRINTGUID
  2
{CE921F57-2E1B-3240-5273-B4123DC60D8B}
  9
$VERSIONGUID
  2
{FAEB1C32-E019-11D5-929B-00C0DF256EC4}
  9
$EXTNAMES
290
     1
  9
$PSVPSCALE
 40
0.0
  9
$OLESTARTUP
290
     0
  9
$SORTENTS
280
   127
  9
$INDEXCTL
280
     0
  9
$HIDETEXT
280
     1
  9
$XCLIPFRAME
280
     2
  9
$HALOGAP
280
     0
  9
$OBSCOLOR
 70
   257
  9
$OBSLTYPE
280
     0
  9
$INTERSECTIONDISPLAY
280
     0
  9
$INTERSECTIONCOLOR
 70
   257
  9
$DIMASSOC
280
     2
  9
$PROJECTNAME
  1

  9
$CAMERADISPLAY
290
     0
  9
$LENSLENGTH
 40
50.0
  9
$CAMERAHEIGHT
 40
0.0
  9
$STEPSPERSEC
 40
2.0
  9
$STEPSIZE
 40
6.0
  9
$3DDWFPREC
 40
2.0
  9
$PSOLWIDTH
 40
0.25
  9
$PSOLHEIGHT
 40
4.0
  9
$LOFTANG1
 40
1.570796326794897
  9
$LOFTANG2
 40
1.570796326794897
  9
$LOFTMAG1
 40
0.0
  9
$LOFTMAG2
 40
0.0
  9
$LOFTPARAM
 70
     7
  9
$LOFTNORMALS
280
     1
  9
$LATITUDE
 40
37.795
  9
$LONGITUDE
 40
-122.394
  9
$NORTHDIRECTION
 40
0.0
  9
$TIMEZONE
 70
 -8000
  9
$LIGHTGLYPHDISPLAY
280
     1
  9
$TILEMODELIGHTSYNCH
280
     1
  9
$CMATERIAL
347
3C
  9
$SOLIDHIST
280
     1
  9
$SHOWHIST
280
     1
  9
$DWFFRAME
280
     2
  9
$DGNFRAME
280
     2
  9
$REALWORLDSCALE
290
     1
  9
$INTERFERECOLOR
 62
   256
  9
$CSHADOW
280
     0
  9
$SHADOWPLANELOCATION
 40
0.0
  0
ENDSEC
  0
SECTION
  2
CLASSES
  0
CLASS
  1
ACDBDICTIONARYWDFLT
  2
AcDbDictionaryWithDefault
  3
ObjectDBX Classes
 90
        0
 91
        4
280
     0
281
     0
  0
CLASS
  1
VISUALSTYLE
  2
AcDbVisualStyle
  3
ObjectDBX Classes
 90
     4095
 91
        4
280
     0
281
     0
  0
CLASS
  1
MATERIAL
  2
AcDbMaterial
  3
ObjectDBX Classes
 90
     1153
 91
        4
280
     0
281
     0
  0
CLASS
  1
SUN
  2
AcDbSun
  3
SCENEOE
 90
     1024
 91
        4
280
     0
281
     0
  0
ENDSEC
  0
SECTION
  2
TABLES
  0
TABLE
  2
VPORT
  5
8
330
0
100
AcDbSymbolTable
 70
     1
  0
VPORT
  5
29
330
8
100
AcDbSymbolTableRecord
100
AcDbViewportTableRecord
  2
*Active
 70
     0
 10
0.0
 20
0.0
 11
1.0
 21
1.0
 12
0.0
 22
0.0
 13
0.0
 23
0.0
 14
0.5
 24
0.5
 15
0.5
 25
0.5
 16
0.0
 26
0.0
 36
1.0
 17
91.00082462281999
 27
-128.4993055234307
 37
0.0
 40
256.9986110468615
 41
0.7081814508812795
 42
50.0
 43
0.0
 44
0.0
 50
0.0
 51
0.0
 71
     0
 72
   100
 73
     1
 74
     3
 75
     0
 76
     0
 77
     0
 78
     0
281
     0
 65
     1
110
0.0
120
0.0
130
0.0
111
1.0
121
0.0
131
0.0
112
0.0
122
1.0
132
0.0
 79
     0
146
0.0
 60
     3
 61
     5
292
     1
282
     1
141
0.0
142
0.0
 63
   250
361
3F
  0
ENDTAB
  0
TABLE
  2
LTYPE
  5
5
330
0
100
AcDbSymbolTable
 70
     1
  0
LTYPE
  5
14
330
5
100
AcDbSymbolTableRecord
100
AcDbLinetypeTableRecord
  2
ByBlock
 70
     0
  3

 72
    65
 73
     0
 40
0.0
  0
LTYPE
  5
15
330
5
100
AcDbSymbolTableRecord
100
AcDbLinetypeTableRecord
  2
ByLayer
 70
     0
  3

 72
    65
 73
     0
 40
0.0
  0
LTYPE
  5
16
330
5
100
AcDbSymbolTableRecord
100
AcDbLinetypeTableRecord
  2
Continuous
 70
     0
  3
Solid line
 72
    65
 73
     0
 40
0.0
  0
ENDTAB
  0
TABLE
  2
LAYER
  5
2
330
0
100
AcDbSymbolTable
 70
     2
  0
LAYER
  5
10
330
2
100
AcDbSymbolTableRecord
100
AcDbLayerTableRecord
  2
0
 70
     0
 62
     7
  6
Continuous
370
    -3
390
F
347
3E
  0
LAYER
  5
40
330
2
100
AcDbSymbolTableRecord
100
AcDbLayerTableRecord
  2
_U+30EC_U+30A4_U+30E4_U+30FC 1
 70
     0
 62
     7
  6
Continuous
370
    -3
390
F
347
3E
  0
ENDTAB
  0
TABLE
  2
STYLE
  5
3
330
0
100
AcDbSymbolTable
 70
     1
  0
STYLE
  5
11
330
3
100
AcDbSymbolTableRecord
100
AcDbTextStyleTableRecord
  2
Standard
 70
     0
 40
0.0
 41
1.0
 50
0.0
 71
     0
 42
0.2
  3
txt
  4

  0
ENDTAB
  0
TABLE
  2
VIEW
  5
6
330
0
100
AcDbSymbolTable
 70
     0
  0
ENDTAB
  0
TABLE
  2
UCS
  5
7
330
0
100
AcDbSymbolTable
 70
     0
  0
ENDTAB
  0
TABLE
  2
APPID
  5
9
330
0
100
AcDbSymbolTable
 70
     1
  0
APPID
  5
12
330
9
100
AcDbSymbolTableRecord
100
AcDbRegAppTableRecord
  2
ACAD
 70
     0
  0
ENDTAB
  0
TABLE
  2
DIMSTYLE
  5
A
330
0
100
AcDbSymbolTable
 70
     1
100
AcDbDimStyleTable
  0
DIMSTYLE
105
27
330
A
100
AcDbSymbolTableRecord
100
AcDbDimStyleTableRecord
  2
Standard
 70
     0
178
     0
340
11
  0
ENDTAB
  0
TABLE
  2
BLOCK_RECORD
  5
1
330
0
100
AcDbSymbolTable
 70
    11
  0
BLOCK_RECORD
  5
1F
330
1
100
AcDbSymbolTableRecord
100
AcDbBlockTableRecord
  2
*Model_Space
340
22
 70
     0
280
     1
281
     0
  0
BLOCK_RECORD
  5
1B
330
1
100
AcDbSymbolTableRecord
100
AcDbBlockTableRecord
  2
*Paper_Space
340
1E
 70
     0
280
     1
281
     0
  0
BLOCK_RECORD
  5
23
330
1
100
AcDbSymbolTableRecord
100
AcDbBlockTableRecord
  2
*Paper_Space0
340
26
 70
     0
280
     1
281
     0
  0
BLOCK_RECORD
  5
41
330
1
100
AcDbSymbolTableRecord
100
AcDbBlockTableRecord
  2
block 2
340
0
102
{BLKREFS
331
42
102
}
 70
     0
280
     1
281
     0
  0
BLOCK_RECORD
  5
18C
330
1
100
AcDbSymbolTableRecord
100
AcDbBlockTableRecord
  2
block 3
340
0
102
{BLKREFS
331
18D
102
}
 70
     0
280
     1
281
     0
  0
BLOCK_RECORD
  5
1A0
330
1
100
AcDbSymbolTableRecord
100
AcDbBlockTableRecord
  2
block 4
340
0
102
{BLKREFS
331
1A1
102
}
 70
     0
280
     1
281
     0
  0
BLOCK_RECORD
  5
1A6
330
1
100
AcDbSymbolTableRecord
100
AcDbBlockTableRecord
  2
block 5
340
0
102
{BLKREFS
331
1A7
102
}
 70
     0
280
     1
281
     0
  0
BLOCK_RECORD
  5
1AF
330
1
100
AcDbSymbolTableRecord
100
AcDbBlockTableRecord
  2
block 6
340
0
102
{BLKREFS
331
1B0
102
}
 70
     0
280
     1
281
     0
  0
BLOCK_RECORD
  5
1B5
330
1
100
AcDbSymbolTableRecord
100
AcDbBlockTableRecord
  2
block 7
340
0
102
{BLKREFS
331
1B6
102
}
 70
     0
280
     1
281
     0
  0
BLOCK_RECORD
  5
1BE
330
1
100
AcDbSymbolTableRecord
100
AcDbBlockTableRecord
  2
block 8
340
0
102
{BLKREFS
331
1BF
102
}
 70
     0
280
     1
281
     0
  0
BLOCK_RECORD
  5
1C7
330
1
100
AcDbSymbolTableRecord
100
AcDbBlockTableRecord
  2
block 9
340
0
102
{BLKREFS
331
1C8
102
}
 70
     0
280
     1
281
     0
  0
BLOCK_RECORD
  5
1CD
330
1
100
AcDbSymbolTableRecord
100
AcDbBlockTableRecord
  2
block 10
340
0
102
{BLKREFS
331
1CE
102
}
 70
     0
280
     1
281
     0
  0
BLOCK_RECORD
  5
1D6
330
1
100
AcDbSymbolTableRecord
100
AcDbBlockTableRecord
  2
block 11
340
0
102
{BLKREFS
331
1D7
102
}
 70
     0
280
     1
281
     0
  0
ENDTAB
  0
ENDSEC
  0
SECTION
  2
BLOCKS
  0
BLOCK
  5
20
330
1F
100
AcDbEntity
  8
0
100
AcDbBlockBegin
  2
*Model_Space
 70
     0
 10
0.0
 20
0.0
 30
0.0
  3
*Model_Space
  1

  0
ENDBLK
  5
21
330
1F
100
AcDbEntity
  8
0
100
AcDbBlockEnd
  0
BLOCK
  5
1C
330
1B
100
AcDbEntity
 67
     1
  8
0
100
AcDbBlockBegin
  2
*Paper_Space
 70
     0
 10
0.0
 20
0.0
 30
0.0
  3
*Paper_Space
  1

  0
ENDBLK
  5
1D
330
1B
100
AcDbEntity
 67
     1
  8
0
100
AcDbBlockEnd
  0
BLOCK
  5
24
330
23
100
AcDbEntity
  8
0
100
AcDbBlockBegin
  2
*Paper_Space0
 70
     0
 10
0.0
 20
0.0
 30
0.0
  3
*Paper_Space0
  1

  0
ENDBLK
  5
25
330
23
100
AcDbEntity
  8
0
100
AcDbBlockEnd
  0
BLOCK
  5
43
330
41
100
AcDbEntity
  8
0
100
AcDbBlockBegin
  2
block 2
 70
     0
 10
0.0
 20
0.0
 30
0.0
  3
block 2
  1

  0
POLYLINE
  5
45
330
41
100
AcDbEntity
  8
_U+30EC_U+30A4_U+30E4_U+30FC 1
370
     0
100
AcDb2dPolyline
 66
     1
 10
0.0
 20
0.0
 30
0.0
  0
VERTEX
  5
46
330
45
100
AcDbEntity
  8
_U+30EC_U+30A4_U+30E4_U+30FC 1
370
     0
100
AcDbVertex
100
AcDb2dVertex
 10
85.36929198871458
 20
-135.3306002439449
 30
0.0
  0
VERTEX
  5
47
330
45
100
AcDbEntity
  8
_U+30EC_U+30A4_U+30E4_U+30FC 1
370
     0
100
AcDbVertex
100
AcDb2dVertex
 10
83.36907731752208
 20
-135.3306002439449
 30
0.0
  0
VERTEX
  5
48
330
45
100
AcDbEntity
  8
_U+30EC_U+30A4_U+30E4_U+30FC 1
370
     0
100
AcDbVertex
100
AcDb2dVertex
 10
83.36907731752208
 20
-140.3308019093617
 30
0.0
  0
VERTEX
  5
49
330
45
100
AcDbEntity
  8
_U+30EC_U+30A4_U+30E4_U+30FC 1
370
     0
100
AcDbVertex
100
AcDb2dVertex
 10
95.36920117804009
 20
-140.3308019093617
 30
0.0
  0
VERTEX
  5
4A
330
45
100
AcDbEntity
  8
_U+30EC_U+30A4_U+30E4_U+30FC 1
370
     0
100
AcDbVertex
100
AcDb2dVertex
 10
95.36920117804009
 20
-131.8303744114868
 30
0.0
  0
VERTEX
  5
4B
330
45
100
AcDbEntity
  8
_U+30EC_U+30A4_U+30E4_U+30FC 1
370
     0
100
AcDbVertex
100
AcDb2dVertex
 10
95.86944005416682
 20
-130.8498991339541
 30
0.0
  0
VERTEX
  5
4C
330
45
100
AcDbEntity
  8
_U+30EC_U+30A4_U+30E4_U+30FC 1
370
     0
100
AcDbVertex
100
AcDb2dVertex
 10
95.36920117804009
 20
-129.8687183008659
 30
0.0
  0
VERTEX
  5
4D
330
45
100
AcDbEntity
  8
_U+30EC_U+30A4_U+30E4_U+30FC 1
370
     0
100
AcDbVertex
100
AcDb2dVertex
 10
95.86944005416682
 20
-128.8882430233338
 30
0.0
  0
VERTEX
  5
4E
330
45
100
AcDbEntity
  8
_U+30EC_U+30A4_U+30E4_U+30FC 1
370
     0
100
AcDbVertex
100
AcDb2dVertex
 10
95.36920117804009
 20
-127.9077677458008
 30
0.0
  0
VERTEX
  5
4F
330
45
100
AcDbEntity
  8
_U+30EC_U+30A4_U+30E4_U+30FC 1
370
     0
100
AcDbVertex
100
AcDb2dVertex
 10
95.86944005416682
 20
-126.9266221904907
 30
0.0
  0
VERTEX
  5
50
330
45
100
AcDbEntity
  8
_U+30EC_U+30A4_U+30E4_U+30FC 1
370
     0
100
AcDbVertex
100
AcDb2dVertex
 10
95.36920117804009
 20
-125.946146912958
 30
0.0
  0
VERTEX
  5
51
330
45
100
AcDbEntity
  8
_U+30EC_U+30A4_U+30E4_U+30FC 1
370
     0
100
AcDbVertex
100
AcDb2dVertex
 10
95.86944005416682
 20
-124.9649660798698
 30
0.0
  0
VERTEX
  5
52
330
45
100
AcDbEntity
  8
_U+30EC_U+30A4_U+30E4_U+30FC 1
370
     0
100
AcDbVertex
100
AcDb2dVertex
 10
95.36920117804009
 20
-123.9844908023374
 30
0.0
  0
VERTEX
  5
53
330
45
100
AcDbEntity
  8
_U+30EC_U+30A4_U+30E4_U+30FC 1
370
     0
100
AcDbVertex
100
AcDb2dVertex
 10
95.86944005416682
 20
-123.003345247027
 30
0.0
  0
VERTEX
  5
54
330
45
100
AcDbEntity
  8
_U+30EC_U+30A4_U+30E4_U+30FC 1
370
     0
100
AcDbVertex
100
AcDb2dVertex
 10
95.36920117804009
 20
-122.0228699694943
 30
0.0
  0
VERTEX
  5
55
330
45
100
AcDbEntity
  8
_U+30EC_U+30A4_U+30E4_U+30FC 1
370
     0
100
AcDbVertex
100
AcDb2dVertex
 10
95.86944005416682
 20
-121.0423946919615
 30
0.0
  0
VERTEX
  5
56
330
45
100
AcDbEntity
  8
_U+30EC_U+30A4_U+30E4_U+30FC 1
370
     0
100
AcDbVertex
100
AcDb2dVertex
 10
95.36920117804009
 20
-120.0612491366515
 30
0.0
  0
VERTEX
  5
57
330
45
100
AcDbEntity
  8
_U+30EC_U+30A4_U+30E4_U+30FC 1
370
     0
100
AcDbVertex
100
AcDb2dVertex
 10
95.86944005416682
 20
-119.0807738591188
 30
0.0
  0
VERTEX
  5
58
330
45
100
AcDbEntity
  8
_U+30EC_U+30A4_U+30E4_U+30FC 1
370
     0
100
AcDbVertex
100
AcDb2dVertex
 10
95.36920117804009
 20
-118.0995930260305
 30
0.0
  0
VERTEX
  5
59
330
45
100
AcDbEntity
  8
_U+30EC_U+30A4_U+30E4_U+30FC 1
370
     0
100
AcDbVertex
100
AcDb2dVertex
 10
95.86944005416682
 20
-117.1191177484981
 30
0.0
  0
VERTEX
  5
5A
330
45
100
AcDbEntity
  8
_U+30EC_U+30A4_U+30E4_U+30FC 1
370
     0
100
AcDbVertex
100
AcDb2dVertex
 10
95.36920117804009
 20
-116.1384660820765
 30
0.0
  0
VERTEX
  5
5B
330
45
100
AcDbEntity
  8
_U+30EC_U+30A4_U+30E4_U+30FC 1
370
     0
100
AcDbVertex
100
AcDb2dVertex
 10
95.86944005416682
 20
-115.1576733045439
 30
0.0
  0
VERTEX
  5
5C
330
45
100
AcDbEntity
  8
_U+30EC_U+30A4_U+30E4_U+30FC 1
370
     0
100
AcDbVertex
100
AcDb2dVertex
 10
95.36920117804009
 20
-114.1771980270112
 30
0.0
  0
VERTEX
  5
5D
330
45
100
AcDbEntity
  8
_U+30EC_U+30A4_U+30E4_U+30FC 1
370
     0
100
AcDbVertex
100
AcDb2dVertex
 10
95.86944005416682
 20
-113.1960171939233
 30
0.0
  0
VERTEX
  5
5E
330
45
100
AcDbEntity
  8
_U+30EC_U+30A4_U+30E4_U+30FC 1
370
     0
100
AcDbVertex
100
AcDb2dVertex
 10
95.36920117804009
 20
-112.2155419163906
 30
0.0
  0
VERTEX
  5
5F
330
45
100
AcDbEntity
  8
_U+30EC_U+30A4_U+30E4_U+30FC 1
370
     0
100
AcDbVertex
100
AcDb2dVertex
 10
95.86944005416682
 20
-111.2343963610802
 30
0.0
  0
VERTEX
  5
60
330
45
100
AcDbEntity
  8
_U+30EC_U+30A4_U+30E4_U+30FC 1
370
     0
100
AcDbVertex
100
AcDb2dVertex
 10
95.36920117804009
 20
-110.2539210835478
 30
0.0
  0
VERTEX
  5
61
330
45
100
AcDbEntity
  8
_U+30EC_U+30A4_U+30E4_U+30FC 1
370
     0
100
AcDbVertex
100
AcDb2dVertex
 10
95.86944005416682
 20
-109.2730930282373
 30
0.0
  0
VERTEX
  5
62
330
45
100
AcDbEntity
  8
_U+30EC_U+30A4_U+30E4_U+30FC 1
370
     0
100
AcDbVertex
100
AcDb2dVertex
 10
95.36920117804009
 20
-108.2922649729268
 30
0.0
  0
VERTEX
  5
63
330
45
100
AcDbEntity
  8
_U+30EC_U+30A4_U+30E4_U+30FC 1
370
     0
100
AcDbVertex
100
AcDb2dVertex
 10
95.86944005416682
 20
-107.3117896953941
 30
0.0
  0
VERTEX
  5
64
330
45
100
AcDbEntity
  8
_U+30EC_U+30A4_U+30E4_U+30FC 1
370
     0
100
AcDbVertex
100
AcDb2dVertex
 10
95.36920117804009
 20
-106.3306441400841
 30
0.0
  0
VERTEX
  5
65
330
45
100
AcDbEntity
  8
_U+30EC_U+30A4_U+30E4_U+30FC 1
370
     0
100
AcDbVertex
100
AcDb2dVertex
 10
96.36964365251667
 20
-106.3306441400841
 30
0.0
  0
VERTEX
  5
66
330
45
100
AcDbEntity
  8
_U+30EC_U+30A4_U+30E4_U+30FC 1
370
     0
100
AcDbVertex
100
AcDb2dVertex
 10
96.36964365251667
 20
-141.3305741313342
 30
0.0
  0
VERTEX
  5
67
330
45
100
AcDbEntity
  8
_U+30EC_U+30A4_U+30E4_U+30FC 1
370
     0
100
AcDbVertex
100
AcDb2dVertex
 10
83.36907731752208
 20
-141.3305741313342
 30
0.0
  0
VERTEX
  5
68
330
45
100
AcDbEntity
  8
_U+30EC_U+30A4_U+30E4_U+30FC 1
370
     0
100
AcDbVertex
100
AcDb2dVertex
 10
83.36907731752208
 20
-153.3305219061116
 30
0.0
  0
VERTEX
  5
69
330
45
100
AcDbEntity
  8
_U+30EC_U+30A4_U+30E4_U+30FC 1
370
     0
100
AcDbVertex
100
AcDb2dVertex
 10
101.3691749138569
 20
-153.3305219061116
 30
0.0
  0
VERTEX
  5
6A
330
45
100
AcDbEntity
  8
_U+30EC_U+30A4_U+30E4_U+30FC 1
370
     0
100
AcDbVertex
100
AcDb2dVertex
 10
101.3691749138569
 20
-151.3303071843898
 30
0.0
  0
VERTEX
  5
6B
330
45
100
AcDbEntity
  8
_U+30EC_U+30A4_U+30E4_U+30FC 1
370
     0
100
AcDbVertex
100
AcDb2dVertex
 10
102.3696173883335
 20
-151.3303071843898
 30
0.0
  0
VERTEX
  5
6C
330
45
100
AcDbEntity
  8
_U+30EC_U+30A4_U+30E4_U+30FC 1
370
     0
100
AcDbVertex
100
AcDb2dVertex
 10
102.3696173883335
 20
-154.3302941280841
 30
0.0
  0
VERTEX
  5
6D
330
45
100
AcDbEntity
  8
_U+30EC_U+30A4_U+30E4_U+30FC 1
370
     0
100
AcDbVertex
100
AcDb2dVertex
 10
82.36930512080617
 20
-154.3302941280841
 30
0.0
  0
VERTEX
  5
6E
330
45
100
AcDbEntity
  8
_U+30EC_U+30A4_U+30E4_U+30FC 1
370
     0
100
AcDbVertex
100
AcDb2dVertex
 10
82.36930512080617
 20
-134.330828021973
 30
0.0
  0
VERTEX
  5
6F
330
45
100
AcDbEntity
  8
_U+30EC_U+30A4_U+30E4_U+30FC 1
370
     0
100
AcDbVertex
100
AcDb2dVertex
 10
85.36929198871458
 20
-134.330828021973
 30
0.0
  0
VERTEX
  5
70
330
45
100
AcDbEntity
  8
_U+30EC_U+30A4_U+30E4_U+30FC 1
370
     0
100
AcDbVertex
100
AcDb2dVertex
 10
85.36929198871458
 20
-135.3306002439449
 30
0.0
  0
SEQEND
  5
72
330
45
100
AcDbEntity
  8
_U+30EC_U+30A4_U+30E4_U+30FC 1
370
     0
  0
HATCH
  5
71
330
41
100
AcDbEntity
  8
_U+30EC_U+30A4_U+30E4_U+30FC 1
 62
   253
420
 11711154
100
AcDbHatch
 10
0.0
 20
0.0
 30
0.0
210
0.0
220
0.0
230
1.0
  2
SOLID
 70
     1
 71
     0
 91
        1
 92
        1
 93
       42
 72
     1
 10
85.36929198871458
 20
-135.3306002439449
 11
83.36907731752208
 21
-135.3306002439449
 72
     1
 10
83.36907731752208
 20
-135.3306002439449
 11
83.36907731752208
 21
-140.3308019093617
 72
     1
 10
83.36907731752208
 20
-140.3308019093617
 11
95.36920117804009
 21
-140.3308019093617
 72
     1
 10
95.36920117804009
 20
-140.3308019093617
 11
95.36920117804009
 21
-131.8303744114868
 72
     1
 10
95.36920117804009
 20
-131.8303744114868
 11
95.86944005416682
 21
-130.8498991339541
 72
     1
 10
95.86944005416682
 20
-130.8498991339541
 11
95.36920117804009
 21
-129.8687183008659
 72
     1
 10
95.36920117804009
 20
-129.8687183008659
 11
95.86944005416682
 21
-128.8882430233338
 72
     1
 10
95.86944005416682
 20
-128.8882430233338
 11
95.36920117804009
 21
-127.9077677458008
 72
     1
 10
95.36920117804009
 20
-127.9077677458008
 11
95.86944005416682
 21
-126.9266221904907
 72
     1
 10
95.86944005416682
 20
-126.9266221904907
 11
95.36920117804009
 21
-125.946146912958
 72
     1
 10
95.36920117804009
 20
-125.946146912958
 11
95.86944005416682
 21
-124.9649660798698
 72
     1
 10
95.86944005416682
 20
-124.9649660798698
 11
95.36920117804009
 21
-123.9844908023374
 72
     1
 10
95.36920117804009
 20
-123.9844908023374
 11
95.86944005416682
 21
-123.003345247027
 72
     1
 10
95.86944005416682
 20
-123.003345247027
 11
95.36920117804009
 21
-122.0228699694943
 72
     1
 10
95.36920117804009
 20
-122.0228699694943
 11
95.86944005416682
 21
-121.0423946919615
 72
     1
 10
95.86944005416682
 20
-121.0423946919615
 11
95.36920117804009
 21
-120.0612491366515
 72
     1
 10
95.36920117804009
 20
-120.0612491366515
 11
95.86944005416682
 21
-119.0807738591188
 72
     1
 10
95.86944005416682
 20
-119.0807738591188
 11
95.36920117804009
 21
-118.0995930260305
 72
     1
 10
95.36920117804009
 20
-118.0995930260305
 11
95.86944005416682
 21
-117.1191177484981
 72
     1
 10
95.86944005416682
 20
-117.1191177484981
 11
95.36920117804009
 21
-116.1384660820765
 72
     1
 10
95.36920117804009
 20
-116.1384660820765
 11
95.86944005416682
 21
-115.1576733045439
 72
     1
 10
95.86944005416682
 20
-115.1576733045439
 11
95.36920117804009
 21
-114.1771980270112
 72
     1
 10
95.36920117804009
 20
-114.1771980270112
 11
95.86944005416682
 21
-113.1960171939233
 72
     1
 10
95.86944005416682
 20
-113.1960171939233
 11
95.36920117804009
 21
-112.2155419163906
 72
     1
 10
95.36920117804009
 20
-112.2155419163906
 11
95.86944005416682
 21
-111.2343963610802
 72
     1
 10
95.86944005416682
 20
-111.2343963610802
 11
95.36920117804009
 21
-110.2539210835478
 72
     1
 10
95.36920117804009
 20
-110.2539210835478
 11
95.86944005416682
 21
-109.2730930282373
 72
     1
 10
95.86944005416682
 20
-109.2730930282373
 11
95.36920117804009
 21
-108.2922649729268
 72
     1
 10
95.36920117804009
 20
-108.2922649729268
 11
95.86944005416682
 21
-107.3117896953941
 72
     1
 10
95.86944005416682
 20
-107.3117896953941
 11
95.36920117804009
 21
-106.3306441400841
 72
     1
 10
95.36920117804009
 20
-106.3306441400841
 11
96.36964365251667
 21
-106.3306441400841
 72
     1
 10
96.36964365251667
 20
-106.3306441400841
 11
96.36964365251667
 21
-141.3305741313342
 72
     1
 10
96.36964365251667
 20
-141.3305741313342
 11
83.36907731752208
 21
-141.3305741313342
 72
     1
 10
83.36907731752208
 20
-141.3305741313342
 11
83.36907731752208
 21
-153.3305219061116
 72
     1
 10
83.36907731752208
 20
-153.3305219061116
 11
101.3691749138569
 21
-153.3305219061116
 72
     1
 10
101.3691749138569
 20
-153.3305219061116
 11
101.3691749138569
 21
-151.3303071843898
 72
     1
 10
101.3691749138569
 20
-151.3303071843898
 11
102.3696173883335
 21
-151.3303071843898
 72
     1
 10
102.3696173883335
 20
-151.3303071843898
 11
102.3696173883335
 21
-154.3302941280841
 72
     1
 10
102.3696173883335
 20
-154.3302941280841
 11
82.36930512080617
 21
-154.3302941280841
 72
     1
 10
82.36930512080617
 20
-154.3302941280841
 11
82.36930512080617
 21
-134.330828021973
 72
     1
 10
82.36930512080617
 20
-134.330828021973
 11
85.36929198871458
 21
-134.330828021973
 72
     1
 10
85.36929198871458
 20
-134.330828021973
 11
85.36929198871458
 21
-135.3306002439449
 97
        0
 75
     2
 76
     1
 98
        0
  0
POLYLINE
  5
73
330
41
100
AcDbEntity
  8
_U+30EC_U+30A4_U+30E4_U+30FC 1
 62
   179
420
  2234388
370
    25
100
AcDb2dPolyline
 66
     1
 10
0.0
 20
0.0
 30
0.0
  0
VERTEX
  5
74
330
73
100
AcDbEntity
  8
_U+30EC_U+30A4_U+30E4_U+30FC 1
 62
   179
420
  2234388
370
    25
100
AcDbVertex
100
AcDb2dVertex
 10
96.36964365251667
 20
-106.3306441400841
 30
0.0
  0
VERTEX
  5
75
330
73
100
AcDbEntity
  8
_U+30EC_U+30A4_U+30E4_U+30FC 1
 62
   179
420
  2234388
370
    25
100
AcDbVertex
100
AcDb2dVertex
 10
95.36920117804009
 20
-106.3306441400841
 30
0.0
  0
SEQEND
  5
76
330
73
100
AcDbEntity
  8
_U+30EC_U+30A4_U+30E4_U+30FC 1
 62
   179
420
  2234388
370
    25
  0
POLYLINE
  5
77
330
41
100
AcDbEntity
  8
_U+30EC_U+30A4_U+30E4_U+30FC 1
 62
   179
420
  2234388
370
    25
100
AcDb2dPolyline
 66
     1
 10
0.0
 20
0.0
 30
0.0
  0
VERTEX
  5
78
330
77
100
AcDbEntity
  8
_U+30EC_U+30A4_U+30E4_U+30FC 1
 62
   179
420
  2234388
370
    25
100
AcDbVertex
100
AcDb2dVertex
 10
95.36920117804009
 20
-131.8303744114868
 30
0.0
  0
VERTEX
  5
79
330
77
100
AcDbEntity
  8
_U+30EC_U+30A4_U+30E4_U+30FC 1
 62
   179
420
  2234388
370
    25
100
AcDbVertex
100
AcDb2dVertex
 10
95.36920117804009
 20
-140.3308019093617
 30
0.0
  0
SEQEND
  5
7A
330
77
100
AcDbEntity
  8
_U+30EC_U+30A4_U+30E4_U+30FC 1
 62
   179
420
  2234388
370
    25
  0
POLYLINE
  5
7B
330
41
100
AcDbEntity
  8
_U+30EC_U+30A4_U+30E4_U+30FC 1
 62
   179
420
  2234388
370
    25
100
AcDb2dPolyline
 66
     1
 10
0.0
 20
0.0
 30
0.0
  0
VERTEX
  5
7C
330
7B
100
AcDbEntity
  8
_U+30EC_U+30A4_U+30E4_U+30FC 1
 62
   179
420
  2234388
370
    25
100
AcDbVertex
100
AcDb2dVertex
 10
96.36964365251667
 20
-106.3306441400841
 30
0.0
  0
VERTEX
  5
7D
330
7B
100
AcDbEntity
  8
_U+30EC_U+30A4_U+30E4_U+30FC 1
 62
   179
420
  2234388
370
    25
100
AcDbVertex
100
AcDb2dVertex
 10
96.36964365251667
 20
-141.3305741313342
 30
0.0
  0
SEQEND
  5
7E
330
7B
100
AcDbEntity
  8
_U+30EC_U+30A4_U+30E4_U+30FC 1
 62
   179
420
  2234388
370
    25
  0
POLYLINE
  5
7F
330
41
100
AcDbEntity
  8
_U+30EC_U+30A4_U+30E4_U+30FC 1
 62
   179
420
  2234388
370
     9
100
AcDb2dPolyline
 66
     1
 10
0.0
 20
0.0
 30
0.0
  0
VERTEX
  5
80
330
7F
100
AcDbEntity
  8
_U+30EC_U+30A4_U+30E4_U+30FC 1
 62
   179
420
  2234388
370
     9
100
AcDbVertex
100
AcDb2dVertex
 10
92.3588779215065
 20
-113.2752510827922
 30
0.0
  0
VERTEX
  5
81
330
7F
100
AcDbEntity
  8
_U+30EC_U+30A4_U+30E4_U+30FC 1
 62
   179
420
  2234388
370
     9
100
AcDbVertex
100
AcDb2dVertex
 10
84.11389702074237
 20
-113.2752510827922
 30
0.0
  0
SEQEND
  5
82
330
7F
100
AcDbEntity
  8
_U+30EC_U+30A4_U+30E4_U+30FC 1
 62
   179
420
  2234388
370
     9
  0
POLYLINE
  5
83
330
41
100
AcDbEntity
  8
_U+30EC_U+30A4_U+30E4_U+30FC 1
 62
   179
420
  2234388
370
     9
100
AcDb2dPolyline
 66
     1
 10
0.0
 20
0.0
 30
0.0
  0
VERTEX
  5
84
330
83
100
AcDbEntity
  8
_U+30EC_U+30A4_U+30E4_U+30FC 1
 62
   179
420
  2234388
370
     9
100
AcDbVertex
100
AcDb2dVertex
 10
95.61932061610345
 20
-115.1576733045439
 30
0.0
  0
VERTEX
  5
85
330
83
100
AcDbEntity
  8
_U+30EC_U+30A4_U+30E4_U+30FC 1
 62
   179
420
  2234388
370
     9
100
AcDbVertex
100
AcDb2dVertex
 10
92.3588779215065
 20
-113.2752510827922
 30
0.0
  0
SEQEND
  5
86
330
83
100
AcDbEntity
  8
_U+30EC_U+30A4_U+30E4_U+30FC 1
 62
   179
420
  2234388
370
     9
  0
POLYLINE
  5
87
330
41
100
AcDbEntity
  8
_U+30EC_U+30A4_U+30E4_U+30FC 1
 62
   179
420
  2234388
370
     9
100
AcDb2dPolyline
 66
     1
 10
0.0
 20
0.0
 30
0.0
  0
VERTEX
  5
88
330
87
100
AcDbEntity
  8
_U+30EC_U+30A4_U+30E4_U+30FC 1
 62
   179
420
  2234388
370
     9
100
AcDbVertex
100
AcDb2dVertex
 10
95.61932061610345
 20
-115.1576733045439
 30
0.0
  0
VERTEX
  5
89
330
87
100
AcDbEntity
  8
_U+30EC_U+30A4_U+30E4_U+30FC 1
 62
   179
420
  2234388
370
     9
100
AcDbVertex
100
AcDb2dVertex
 10
94.55890830969335
 20
-114.0972585825868
 30
0.0
  0
SEQEND
  5
8A
330
87
100
AcDbEntity
  8
_U+30EC_U+30A4_U+30E4_U+30FC 1
 62
   179
420
  2234388
370
     9
  0
POLYLINE
  5
8B
330
41
100
AcDbEntity
  8
_U+30EC_U+30A4_U+30E4_U+30FC 1
 62
   179
420
  2234388
370
     9
100
AcDb2dPolyline
 66
     1
 10
0.0
 20
0.0
 30
0.0
  0
VERTEX
  5
8C
330
8B
100
AcDbEntity
  8
_U+30EC_U+30A4_U+30E4_U+30FC 1
 62
   179
420
  2234388
370
     9
100
AcDbVertex
100
AcDb2dVertex
 10
95.61932061610345
 20
-115.1576733045439
 30
0.0
  0
VERTEX
  5
8D
330
8B
100
AcDbEntity
  8
_U+30EC_U+30A4_U+30E4_U+30FC 1
 62
   179
420
  2234388
370
     9
100
AcDbVertex
100
AcDb2dVertex
 10
94.17032120862606
 20
-114.7697235824188
 30
0.0
  0
SEQEND
  5
8E
330
8B
100
AcDbEntity
  8
_U+30EC_U+30A4_U+30E4_U+30FC 1
 62
   179
420
  2234388
370
     9
  0
POLYLINE
  5
8F
330
41
100
AcDbEntity
  8
_U+30EC_U+30A4_U+30E4_U+30FC 1
 62
   179
420
  2234388
370
    25
100
AcDb2dPolyline
 66
     1
 10
0.0
 20
0.0
 30
0.0
  0
VERTEX
  5
90
330
8F
100
AcDbEntity
  8
_U+30EC_U+30A4_U+30E4_U+30FC 1
 62
   179
420
  2234388
370
    25
100
AcDbVertex
100
AcDb2dVertex
 10
96.36964365251667
 20
-141.3305741313342
 30
0.0
  0
VERTEX
  5
91
330
8F
100
AcDbEntity
  8
_U+30EC_U+30A4_U+30E4_U+30FC 1
 62
   179
420
  2234388
370
    25
100
AcDbVertex
100
AcDb2dVertex
 10
83.36907731752208
 20
-141.3305741313342
 30
0.0
  0
SEQEND
  5
92
330
8F
100
AcDbEntity
  8
_U+30EC_U+30A4_U+30E4_U+30FC 1
 62
   179
420
  2234388
370
    25
  0
POLYLINE
  5
93
330
41
100
AcDbEntity
  8
_U+30EC_U+30A4_U+30E4_U+30FC 1
 62
   179
420
  2234388
370
    25
100
AcDb2dPolyline
 66
     1
 10
0.0
 20
0.0
 30
0.0
  0
VERTEX
  5
94
330
93
100
AcDbEntity
  8
_U+30EC_U+30A4_U+30E4_U+30FC 1
 62
   179
420
  2234388
370
    25
100
AcDbVertex
100
AcDb2dVertex
 10
85.36929198871458
 20
-134.330828021973
 30
0.0
  0
VERTEX
  5
95
330
93
100
AcDbEntity
  8
_U+30EC_U+30A4_U+30E4_U+30FC 1
 62
   179
420
  2234388
370
    25
100
AcDbVertex
100
AcDb2dVertex
 10
85.36929198871458
 20
-135.3306002439449
 30
0.0
  0
SEQEND
  5
96
330
93
100
AcDbEntity
  8
_U+30EC_U+30A4_U+30E4_U+30FC 1
 62
   179
420
  2234388
370
    25
  0
POLYLINE
  5
97
330
41
100
AcDbEntity
  8
_U+30EC_U+30A4_U+30E4_U+30FC 1
 62
   179
420
  2234388
370
    25
100
AcDb2dPolyline
 66
     1
 10
0.0
 20
0.0
 30
0.0
  0
VERTEX
  5
98
330
97
100
AcDbEntity
  8
_U+30EC_U+30A4_U+30E4_U+30FC 1
 62
   179
420
  2234388
370
    25
100
AcDbVertex
100
AcDb2dVertex
 10
82.36930512080617
 20
-134.330828021973
 30
0.0
  0
VERTEX
  5
99
330
97
100
AcDbEntity
  8
_U+30EC_U+30A4_U+30E4_U+30FC 1
 62
   179
420
  2234388
370
    25
100
AcDbVertex
100
AcDb2dVertex
 10
82.36930512080617
 20
-154.3302941280841
 30
0.0
  0
SEQEND
  5
9A
330
97
100
AcDbEntity
  8
_U+30EC_U+30A4_U+30E4_U+30FC 1
 62
   179
420
  2234388
370
    25
  0
POLYLINE
  5
9B
330
41
100
AcDbEntity
  8
_U+30EC_U+30A4_U+30E4_U+30FC 1
 62
   179
420
  2234388
370
    25
100
AcDb2dPolyline
 66
     1
 10
0.0
 20
0.0
 30
0.0
  0
VERTEX
  5
9C
330
9B
100
AcDbEntity
  8
_U+30EC_U+30A4_U+30E4_U+30FC 1
 62
   179
420
  2234388
370
    25
100
AcDbVertex
100
AcDb2dVertex
 10
83.36907731752208
 20
-135.3306002439449
 30
0.0
  0
VERTEX
  5
9D
330
9B
100
AcDbEntity
  8
_U+30EC_U+30A4_U+30E4_U+30FC 1
 62
   179
420
  2234388
370
    25
100
AcDbVertex
100
AcDb2dVertex
 10
83.36907731752208
 20
-140.3308019093617
 30
0.0
  0
SEQEND
  5
9E
330
9B
100
AcDbEntity
  8
_U+30EC_U+30A4_U+30E4_U+30FC 1
 62
   179
420
  2234388
370
    25
  0
POLYLINE
  5
9F
330
41
100
AcDbEntity
  8
_U+30EC_U+30A4_U+30E4_U+30FC 1
 62
   179
420
  2234388
370
    25
100
AcDb2dPolyline
 66
     1
 10
0.0
 20
0.0
 30
0.0
  0
VERTEX
  5
A0
330
9F
100
AcDbEntity
  8
_U+30EC_U+30A4_U+30E4_U+30FC 1
 62
   179
420
  2234388
370
    25
100
AcDbVertex
100
AcDb2dVertex
 10
95.36920117804009
 20
-140.3308019093617
 30
0.0
  0
VERTEX
  5
A1
330
9F
100
AcDbEntity
  8
_U+30EC_U+30A4_U+30E4_U+30FC 1
 62
   179
420
  2234388
370
    25
100
AcDbVertex
100
AcDb2dVertex
 10
83.36907731752208
 20
-140.3308019093617
 30
0.0
  0
SEQEND
  5
A2
330
9F
100
AcDbEntity
  8
_U+30EC_U+30A4_U+30E4_U+30FC 1
 62
   179
420
  2234388
370
    25
  0
POLYLINE
  5
A3
330
41
100
AcDbEntity
  8
_U+30EC_U+30A4_U+30E4_U+30FC 1
 62
   179
420
  2234388
370
    25
100
AcDb2dPolyline
 66
     1
 10
0.0
 20
0.0
 30
0.0
  0
VERTEX
  5
A4
330
A3
100
AcDbEntity
  8
_U+30EC_U+30A4_U+30E4_U+30FC 1
 62
   179
420
  2234388
370
    25
100
AcDbVertex
100
AcDb2dVertex
 10
102.3696173883335
 20
-151.3303071843898
 30
0.0
  0
VERTEX
  5
A5
330
A3
100
AcDbEntity
  8
_U+30EC_U+30A4_U+30E4_U+30FC 1
 62
   179
420
  2234388
370
    25
100
AcDbVertex
100
AcDb2dVertex
 10
101.3691749138569
 20
-151.3303071843898
 30
0.0
  0
SEQEND
  5
A6
330
A3
100
AcDbEntity
  8
_U+30EC_U+30A4_U+30E4_U+30FC 1
 62
   179
420
  2234388
370
    25
  0
POLYLINE
  5
A7
330
41
100
AcDbEntity
  8
_U+30EC_U+30A4_U+30E4_U+30FC 1
 62
   179
420
  2234388
370
    25
100
AcDb2dPolyline
 66
     1
 10
0.0
 20
0.0
 30
0.0
  0
VERTEX
  5
A8
330
A7
100
AcDbEntity
  8
_U+30EC_U+30A4_U+30E4_U+30FC 1
 62
   179
420
  2234388
370
    25
100
AcDbVertex
100
AcDb2dVertex
 10
102.3696173883335
 20
-154.3302941280841
 30
0.0
  0
VERTEX
  5
A9
330
A7
100
AcDbEntity
  8
_U+30EC_U+30A4_U+30E4_U+30FC 1
 62
   179
420
  2234388
370
    25
100
AcDbVertex
100
AcDb2dVertex
 10
82.36930512080617
 20
-154.3302941280841
 30
0.0
  0
SEQEND
  5
AA
330
A7
100
AcDbEntity
  8
_U+30EC_U+30A4_U+30E4_U+30FC 1
 62
   179
420
  2234388
370
    25
  0
POLYLINE
  5
AB
330
41
100
AcDbEntity
  8
_U+30EC_U+30A4_U+30E4_U+30FC 1
 62
   179
420
  2234388
370
    25
100
AcDb2dPolyline
 66
     1
 10
0.0
 20
0.0
 30
0.0
  0
VERTEX
  5
AC
330
AB
100
AcDbEntity
  8
_U+30EC_U+30A4_U+30E4_U+30FC 1
 62
   179
420
  2234388
370
    25
100
AcDbVertex
100
AcDb2dVertex
 10
101.3691749138569
 20
-153.3305219061116
 30
0.0
  0
VERTEX
  5
AD
330
AB
100
AcDbEntity
  8
_U+30EC_U+30A4_U+30E4_U+30FC 1
 62
   179
420
  2234388
370
    25
100
AcDbVertex
100
AcDb2dVertex
 10
83.36907731752208
 20
-153.3305219061116
 30
0.0
  0
SEQEND
  5
AE
330
AB
100
AcDbEntity
  8
_U+30EC_U+30A4_U+30E4_U+30FC 1
 62
   179
420
  2234388
370
    25
  0
POLYLINE
  5
AF
330
41
100
AcDbEntity
  8
_U+30EC_U+30A4_U+30E4_U+30FC 1
 62
   179
420
  2234388
370
    25
100
AcDb2dPolyline
 66
     1
 10
0.0
 20
0.0
 30
0.0
  0
VERTEX
  5
B0
330
AF
100
AcDbEntity
  8
_U+30EC_U+30A4_U+30E4_U+30FC 1
 62
   179
420
  2234388
370
    25
100
AcDbVertex
100
AcDb2dVertex
 10
102.3696173883335
 20
-151.3303071843898
 30
0.0
  0
VERTEX
  5
B1
330
AF
100
AcDbEntity
  8
_U+30EC_U+30A4_U+30E4_U+30FC 1
 62
   179
420
  2234388
370
    25
100
AcDbVertex
100
AcDb2dVertex
 10
102.3696173883335
 20
-154.3302941280841
 30
0.0
  0
SEQEND
  5
B2
330
AF
100
AcDbEntity
  8
_U+30EC_U+30A4_U+30E4_U+30FC 1
 62
   179
420
  2234388
370
    25
  0
POLYLINE
  5
B3
330
41
100
AcDbEntity
  8
_U+30EC_U+30A4_U+30E4_U+30FC 1
 62
   179
420
  2234388
370
    25
100
AcDb2dPolyline
 66
     1
 10
0.0
 20
0.0
 30
0.0
  0
VERTEX
  5
B4
330
B3
100
AcDbEntity
  8
_U+30EC_U+30A4_U+30E4_U+30FC 1
 62
   179
420
  2234388
370
    25
100
AcDbVertex
100
AcDb2dVertex
 10
101.3691749138569
 20
-151.3303071843898
 30
0.0
  0
VERTEX
  5
B5
330
B3
100
AcDbEntity
  8
_U+30EC_U+30A4_U+30E4_U+30FC 1
 62
   179
420
  2234388
370
    25
100
AcDbVertex
100
AcDb2dVertex
 10
101.3691749138569
 20
-153.3305219061116
 30
0.0
  0
SEQEND
  5
B6
330
B3
100
AcDbEntity
  8
_U+30EC_U+30A4_U+30E4_U+30FC 1
 62
   179
420
  2234388
370
    25
  0
POLYLINE
  5
B7
330
41
100
AcDbEntity
  8
_U+30EC_U+30A4_U+30E4_U+30FC 1
 62
   179
420
  2234388
370
    25
100
AcDb2dPolyline
 66
     1
 10
0.0
 20
0.0
 30
0.0
  0
VERTEX
  5
B8
330
B7
100
AcDbEntity
  8
_U+30EC_U+30A4_U+30E4_U+30FC 1
 62
   179
420
  2234388
370
    25
100
AcDbVertex
100
AcDb2dVertex
 10
85.36929198871458
 20
-134.330828021973
 30
0.0
  0
VERTEX
  5
B9
330
B7
100
AcDbEntity
  8
_U+30EC_U+30A4_U+30E4_U+30FC 1
 62
   179
420
  2234388
370
    25
100
AcDbVertex
100
AcDb2dVertex
 10
82.36930512080617
 20
-134.330828021973
 30
0.0
  0
SEQEND
  5
BA
330
B7
100
AcDbEntity
  8
_U+30EC_U+30A4_U+30E4_U+30FC 1
 62
   179
420
  2234388
370
    25
  0
POLYLINE
  5
BB
330
41
100
AcDbEntity
  8
_U+30EC_U+30A4_U+30E4_U+30FC 1
 62
   179
420
  2234388
370
    25
100
AcDb2dPolyline
 66
     1
 10
0.0
 20
0.0
 30
0.0
  0
VERTEX
  5
BC
330
BB
100
AcDbEntity
  8
_U+30EC_U+30A4_U+30E4_U+30FC 1
 62
   179
420
  2234388
370
    25
100
AcDbVertex
100
AcDb2dVertex
 10
85.36929198871458
 20
-135.3306002439449
 30
0.0
  0
VERTEX
  5
BD
330
BB
100
AcDbEntity
  8
_U+30EC_U+30A4_U+30E4_U+30FC 1
 62
   179
420
  2234388
370
    25
100
AcDbVertex
100
AcDb2dVertex
 10
83.36907731752208
 20
-135.3306002439449
 30
0.0
  0
SEQEND
  5
BE
330
BB
100
AcDbEntity
  8
_U+30EC_U+30A4_U+30E4_U+30FC 1
 62
   179
420
  2234388
370
    25
  0
POLYLINE
  5
BF
330
41
100
AcDbEntity
  8
_U+30EC_U+30A4_U+30E4_U+30FC 1
 62
   179
420
  2234388
370
    25
100
AcDb2dPolyline
 66
     1
 10
0.0
 20
0.0
 30
0.0
  0
VERTEX
  5
C0
330
BF
100
AcDbEntity
  8
_U+30EC_U+30A4_U+30E4_U+30FC 1
 62
   179
420
  2234388
370
    25
100
AcDbVertex
100
AcDb2dVertex
 10
83.36907731752208
 20
-141.3305741313342
 30
0.0
  0
VERTEX
  5
C1
330
BF
100
AcDbEntity
  8
_U+30EC_U+30A4_U+30E4_U+30FC 1
 62
   179
420
  2234388
370
    25
100
AcDbVertex
100
AcDb2dVertex
 10
83.36907731752208
 20
-153.3305219061116
 30
0.0
  0
SEQEND
  5
C2
330
BF
100
AcDbEntity
  8
_U+30EC_U+30A4_U+30E4_U+30FC 1
 62
   179
420
  2234388
370
    25
  0
POLYLINE
  5
C3
330
41
100
AcDbEntity
  8
_U+30EC_U+30A4_U+30E4_U+30FC 1
 62
   179
420
  2234388
370
    25
100
AcDb2dPolyline
 66
     1
 10
0.0
 20
0.0
 30
0.0
  0
VERTEX
  5
C4
330
C3
100
AcDbEntity
  8
_U+30EC_U+30A4_U+30E4_U+30FC 1
 62
   179
420
  2234388
370
    25
100
AcDbVertex
100
AcDb2dVertex
 10
95.86944005416682
 20
-107.3117896953941
 30
0.0
  0
VERTEX
  5
C5
330
C3
100
AcDbEntity
  8
_U+30EC_U+30A4_U+30E4_U+30FC 1
 62
   179
420
  2234388
370
    25
100
AcDbVertex
100
AcDb2dVertex
 10
95.36920117804009
 20
-106.3306441400841
 30
0.0
  0
SEQEND
  5
C6
330
C3
100
AcDbEntity
  8
_U+30EC_U+30A4_U+30E4_U+30FC 1
 62
   179
420
  2234388
370
    25
  0
POLYLINE
  5
C7
330
41
100
AcDbEntity
  8
_U+30EC_U+30A4_U+30E4_U+30FC 1
 62
   179
420
  2234388
370
    25
100
AcDb2dPolyline
 66
     1
 10
0.0
 20
0.0
 30
0.0
  0
VERTEX
  5
C8
330
C7
100
AcDbEntity
  8
_U+30EC_U+30A4_U+30E4_U+30FC 1
 62
   179
420
  2234388
370
    25
100
AcDbVertex
100
AcDb2dVertex
 10
95.86944005416682
 20
-107.3117896953941
 30
0.0
  0
VERTEX
  5
C9
330
C7
100
AcDbEntity
  8
_U+30EC_U+30A4_U+30E4_U+30FC 1
 62
   179
420
  2234388
370
    25
100
AcDbVertex
100
AcDb2dVertex
 10
95.36920117804009
 20
-108.2922649729268
 30
0.0
  0
SEQEND
  5
CA
330
C7
100
AcDbEntity
  8
_U+30EC_U+30A4_U+30E4_U+30FC 1
 62
   179
420
  2234388
370
    25
  0
POLYLINE
  5
CB
330
41
100
AcDbEntity
  8
_U+30EC_U+30A4_U+30E4_U+30FC 1
 62
   179
420
  2234388
370
    25
100
AcDb2dPolyline
 66
     1
 10
0.0
 20
0.0
 30
0.0
  0
VERTEX
  5
CC
330
CB
100
AcDbEntity
  8
_U+30EC_U+30A4_U+30E4_U+30FC 1
 62
   179
420
  2234388
370
    25
100
AcDbVertex
100
AcDb2dVertex
 10
95.86944005416682
 20
-109.2730930282373
 30
0.0
  0
VERTEX
  5
CD
330
CB
100
AcDbEntity
  8
_U+30EC_U+30A4_U+30E4_U+30FC 1
 62
   179
420
  2234388
370
    25
100
AcDbVertex
100
AcDb2dVertex
 10
95.36920117804009
 20
-110.2539210835478
 30
0.0
  0
SEQEND
  5
CE
330
CB
100
AcDbEntity
  8
_U+30EC_U+30A4_U+30E4_U+30FC 1
 62
   179
420
  2234388
370
    25
  0
POLYLINE
  5
CF
330
41
100
AcDbEntity
  8
_U+30EC_U+30A4_U+30E4_U+30FC 1
 62
   179
420
  2234388
370
    25
100
AcDb2dPolyline
 66
     1
 10
0.0
 20
0.0
 30
0.0
  0
VERTEX
  5
D0
330
CF
100
AcDbEntity
  8
_U+30EC_U+30A4_U+30E4_U+30FC 1
 62
   179
420
  2234388
370
    25
100
AcDbVertex
100
AcDb2dVertex
 10
95.86944005416682
 20
-109.2730930282373
 30
0.0
  0
VERTEX
  5
D1
330
CF
100
AcDbEntity
  8
_U+30EC_U+30A4_U+30E4_U+30FC 1
 62
   179
420
  2234388
370
    25
100
AcDbVertex
100
AcDb2dVertex
 10
95.36920117804009
 20
-108.2922649729268
 30
0.0
  0
SEQEND
  5
D2
330
CF
100
AcDbEntity
  8
_U+30EC_U+30A4_U+30E4_U+30FC 1
 62
   179
420
  2234388
370
    25
  0
POLYLINE
  5
D3
330
41
100
AcDbEntity
  8
_U+30EC_U+30A4_U+30E4_U+30FC 1
 62
   179
420
  2234388
370
    25
100
AcDb2dPolyline
 66
     1
 10
0.0
 20
0.0
 30
0.0
  0
VERTEX
  5
D4
330
D3
100
AcDbEntity
  8
_U+30EC_U+30A4_U+30E4_U+30FC 1
 62
   179
420
  2234388
370
    25
100
AcDbVertex
100
AcDb2dVertex
 10
95.86944005416682
 20
-111.2343963610802
 30
0.0
  0
VERTEX
  5
D5
330
D3
100
AcDbEntity
  8
_U+30EC_U+30A4_U+30E4_U+30FC 1
 62
   179
420
  2234388
370
    25
100
AcDbVertex
100
AcDb2dVertex
 10
95.36920117804009
 20
-112.2155419163906
 30
0.0
  0
SEQEND
  5
D6
330
D3
100
AcDbEntity
  8
_U+30EC_U+30A4_U+30E4_U+30FC 1
 62
   179
420
  2234388
370
    25
  0
POLYLINE
  5
D7
330
41
100
AcDbEntity
  8
_U+30EC_U+30A4_U+30E4_U+30FC 1
 62
   179
420
  2234388
370
    25
100
AcDb2dPolyline
 66
     1
 10
0.0
 20
0.0
 30
0.0
  0
VERTEX
  5
D8
330
D7
100
AcDbEntity
  8
_U+30EC_U+30A4_U+30E4_U+30FC 1
 62
   179
420
  2234388
370
    25
100
AcDbVertex
100
AcDb2dVertex
 10
95.86944005416682
 20
-111.2343963610802
 30
0.0
  0
VERTEX
  5
D9
330
D7
100
AcDbEntity
  8
_U+30EC_U+30A4_U+30E4_U+30FC 1
 62
   179
420
  2234388
370
    25
100
AcDbVertex
100
AcDb2dVertex
 10
95.36920117804009
 20
-110.2539210835478
 30
0.0
  0
SEQEND
  5
DA
330
D7
100
AcDbEntity
  8
_U+30EC_U+30A4_U+30E4_U+30FC 1
 62
   179
420
  2234388
370
    25
  0
POLYLINE
  5
DB
330
41
100
AcDbEntity
  8
_U+30EC_U+30A4_U+30E4_U+30FC 1
 62
   179
420
  2234388
370
    25
100
AcDb2dPolyline
 66
     1
 10
0.0
 20
0.0
 30
0.0
  0
VERTEX
  5
DC
330
DB
100
AcDbEntity
  8
_U+30EC_U+30A4_U+30E4_U+30FC 1
 62
   179
420
  2234388
370
    25
100
AcDbVertex
100
AcDb2dVertex
 10
95.86944005416682
 20
-113.1960171939233
 30
0.0
  0
VERTEX
  5
DD
330
DB
100
AcDbEntity
  8
_U+30EC_U+30A4_U+30E4_U+30FC 1
 62
   179
420
  2234388
370
    25
100
AcDbVertex
100
AcDb2dVertex
 10
95.36920117804009
 20
-114.1771980270112
 30
0.0
  0
SEQEND
  5
DE
330
DB
100
AcDbEntity
  8
_U+30EC_U+30A4_U+30E4_U+30FC 1
 62
   179
420
  2234388
370
    25
  0
POLYLINE
  5
DF
330
41
100
AcDbEntity
  8
_U+30EC_U+30A4_U+30E4_U+30FC 1
 62
   179
420
  2234388
370
    25
100
AcDb2dPolyline
 66
     1
 10
0.0
 20
0.0
 30
0.0
  0
VERTEX
  5
E0
330
DF
100
AcDbEntity
  8
_U+30EC_U+30A4_U+30E4_U+30FC 1
 62
   179
420
  2234388
370
    25
100
AcDbVertex
100
AcDb2dVertex
 10
95.86944005416682
 20
-113.1960171939233
 30
0.0
  0
VERTEX
  5
E1
330
DF
100
AcDbEntity
  8
_U+30EC_U+30A4_U+30E4_U+30FC 1
 62
   179
420
  2234388
370
    25
100
AcDbVertex
100
AcDb2dVertex
 10
95.36920117804009
 20
-112.2155419163906
 30
0.0
  0
SEQEND
  5
E2
330
DF
100
AcDbEntity
  8
_U+30EC_U+30A4_U+30E4_U+30FC 1
 62
   179
420
  2234388
370
    25
  0
POLYLINE
  5
E3
330
41
100
AcDbEntity
  8
_U+30EC_U+30A4_U+30E4_U+30FC 1
 62
   179
420
  2234388
370
    25
100
AcDb2dPolyline
 66
     1
 10
0.0
 20
0.0
 30
0.0
  0
VERTEX
  5
E4
330
E3
100
AcDbEntity
  8
_U+30EC_U+30A4_U+30E4_U+30FC 1
 62
   179
420
  2234388
370
    25
100
AcDbVertex
100
AcDb2dVertex
 10
95.86944005416682
 20
-115.1576733045439
 30
0.0
  0
VERTEX
  5
E5
330
E3
100
AcDbEntity
  8
_U+30EC_U+30A4_U+30E4_U+30FC 1
 62
   179
420
  2234388
370
    25
100
AcDbVertex
100
AcDb2dVertex
 10
95.36920117804009
 20
-116.1384660820765
 30
0.0
  0
SEQEND
  5
E6
330
E3
100
AcDbEntity
  8
_U+30EC_U+30A4_U+30E4_U+30FC 1
 62
   179
420
  2234388
370
    25
  0
POLYLINE
  5
E7
330
41
100
AcDbEntity
  8
_U+30EC_U+30A4_U+30E4_U+30FC 1
 62
   179
420
  2234388
370
    25
100
AcDb2dPolyline
 66
     1
 10
0.0
 20
0.0
 30
0.0
  0
VERTEX
  5
E8
330
E7
100
AcDbEntity
  8
_U+30EC_U+30A4_U+30E4_U+30FC 1
 62
   179
420
  2234388
370
    25
100
AcDbVertex
100
AcDb2dVertex
 10
95.86944005416682
 20
-115.1576733045439
 30
0.0
  0
VERTEX
  5
E9
330
E7
100
AcDbEntity
  8
_U+30EC_U+30A4_U+30E4_U+30FC 1
 62
   179
420
  2234388
370
    25
100
AcDbVertex
100
AcDb2dVertex
 10
95.36920117804009
 20
-114.1771980270112
 30
0.0
  0
SEQEND
  5
EA
330
E7
100
AcDbEntity
  8
_U+30EC_U+30A4_U+30E4_U+30FC 1
 62
   179
420
  2234388
370
    25
  0
POLYLINE
  5
EB
330
41
100
AcDbEntity
  8
_U+30EC_U+30A4_U+30E4_U+30FC 1
 62
   179
420
  2234388
370
    25
100
AcDb2dPolyline
 66
     1
 10
0.0
 20
0.0
 30
0.0
  0
VERTEX
  5
EC
330
EB
100
AcDbEntity
  8
_U+30EC_U+30A4_U+30E4_U+30FC 1
 62
   179
420
  2234388
370
    25
100
AcDbVertex
100
AcDb2dVertex
 10
95.86944005416682
 20
-117.1191177484981
 30
0.0
  0
VERTEX
  5
ED
330
EB
100
AcDbEntity
  8
_U+30EC_U+30A4_U+30E4_U+30FC 1
 62
   179
420
  2234388
370
    25
100
AcDbVertex
100
AcDb2dVertex
 10
95.36920117804009
 20
-118.0995930260305
 30
0.0
  0
SEQEND
  5
EE
330
EB
100
AcDbEntity
  8
_U+30EC_U+30A4_U+30E4_U+30FC 1
 62
   179
420
  2234388
370
    25
  0
POLYLINE
  5
EF
330
41
100
AcDbEntity
  8
_U+30EC_U+30A4_U+30E4_U+30FC 1
 62
   179
420
  2234388
370
    25
100
AcDb2dPolyline
 66
     1
 10
0.0
 20
0.0
 30
0.0
  0
VERTEX
  5
F0
330
EF
100
AcDbEntity
  8
_U+30EC_U+30A4_U+30E4_U+30FC 1
 62
   179
420
  2234388
370
    25
100
AcDbVertex
100
AcDb2dVertex
 10
95.86944005416682
 20
-117.1191177484981
 30
0.0
  0
VERTEX
  5
F1
330
EF
100
AcDbEntity
  8
_U+30EC_U+30A4_U+30E4_U+30FC 1
 62
   179
420
  2234388
370
    25
100
AcDbVertex
100
AcDb2dVertex
 10
95.36920117804009
 20
-116.1384660820765
 30
0.0
  0
SEQEND
  5
F2
330
EF
100
AcDbEntity
  8
_U+30EC_U+30A4_U+30E4_U+30FC 1
 62
   179
420
  2234388
370
    25
  0
POLYLINE
  5
F3
330
41
100
AcDbEntity
  8
_U+30EC_U+30A4_U+30E4_U+30FC 1
 62
   179
420
  2234388
370
    25
100
AcDb2dPolyline
 66
     1
 10
0.0
 20
0.0
 30
0.0
  0
VERTEX
  5
F4
330
F3
100
AcDbEntity
  8
_U+30EC_U+30A4_U+30E4_U+30FC 1
 62
   179
420
  2234388
370
    25
100
AcDbVertex
100
AcDb2dVertex
 10
95.86944005416682
 20
-119.0807738591188
 30
0.0
  0
VERTEX
  5
F5
330
F3
100
AcDbEntity
  8
_U+30EC_U+30A4_U+30E4_U+30FC 1
 62
   179
420
  2234388
370
    25
100
AcDbVertex
100
AcDb2dVertex
 10
95.36920117804009
 20
-120.0612491366515
 30
0.0
  0
SEQEND
  5
F6
330
F3
100
AcDbEntity
  8
_U+30EC_U+30A4_U+30E4_U+30FC 1
 62
   179
420
  2234388
370
    25
  0
POLYLINE
  5
F7
330
41
100
AcDbEntity
  8
_U+30EC_U+30A4_U+30E4_U+30FC 1
 62
   179
420
  2234388
370
    25
100
AcDb2dPolyline
 66
     1
 10
0.0
 20
0.0
 30
0.0
  0
VERTEX
  5
F8
330
F7
100
AcDbEntity
  8
_U+30EC_U+30A4_U+30E4_U+30FC 1
 62
   179
420
  2234388
370
    25
100
AcDbVertex
100
AcDb2dVertex
 10
95.86944005416682
 20
-119.0807738591188
 30
0.0
  0
VERTEX
  5
F9
330
F7
100
AcDbEntity
  8
_U+30EC_U+30A4_U+30E4_U+30FC 1
 62
   179
420
  2234388
370
    25
100
AcDbVertex
100
AcDb2dVertex
 10
95.36920117804009
 20
-118.0995930260305
 30
0.0
  0
SEQEND
  5
FA
330
F7
100
AcDbEntity
  8
_U+30EC_U+30A4_U+30E4_U+30FC 1
 62
   179
420
  2234388
370
    25
  0
POLYLINE
  5
FB
330
41
100
AcDbEntity
  8
_U+30EC_U+30A4_U+30E4_U+30FC 1
 62
   179
420
  2234388
370
    25
100
AcDb2dPolyline
 66
     1
 10
0.0
 20
0.0
 30
0.0
  0
VERTEX
  5
FC
330
FB
100
AcDbEntity
  8
_U+30EC_U+30A4_U+30E4_U+30FC 1
 62
   179
420
  2234388
370
    25
100
AcDbVertex
100
AcDb2dVertex
 10
95.86944005416682
 20
-121.0423946919615
 30
0.0
  0
VERTEX
  5
FD
330
FB
100
AcDbEntity
  8
_U+30EC_U+30A4_U+30E4_U+30FC 1
 62
   179
420
  2234388
370
    25
100
AcDbVertex
100
AcDb2dVertex
 10
95.36920117804009
 20
-122.0228699694943
 30
0.0
  0
SEQEND
  5
FE
330
FB
100
AcDbEntity
  8
_U+30EC_U+30A4_U+30E4_U+30FC 1
 62
   179
420
  2234388
370
    25
  0
POLYLINE
  5
FF
330
41
100
AcDbEntity
  8
_U+30EC_U+30A4_U+30E4_U+30FC 1
 62
   179
420
  2234388
370
    25
100
AcDb2dPolyline
 66
     1
 10
0.0
 20
0.0
 30
0.0
  0
VERTEX
  5
100
330
FF
100
AcDbEntity
  8
_U+30EC_U+30A4_U+30E4_U+30FC 1
 62
   179
420
  2234388
370
    25
100
AcDbVertex
100
AcDb2dVertex
 10
95.86944005416682
 20
-121.0423946919615
 30
0.0
  0
VERTEX
  5
101
330
FF
100
AcDbEntity
  8
_U+30EC_U+30A4_U+30E4_U+30FC 1
 62
   179
420
  2234388
370
    25
100
AcDbVertex
100
AcDb2dVertex
 10
95.36920117804009
 20
-120.0612491366515
 30
0.0
  0
SEQEND
  5
102
330
FF
100
AcDbEntity
  8
_U+30EC_U+30A4_U+30E4_U+30FC 1
 62
   179
420
  2234388
370
    25
  0
POLYLINE
  5
103
330
41
100
AcDbEntity
  8
_U+30EC_U+30A4_U+30E4_U+30FC 1
 62
   179
420
  2234388
370
    25
100
AcDb2dPolyline
 66
     1
 10
0.0
 20
0.0
 30
0.0
  0
VERTEX
  5
104
330
103
100
AcDbEntity
  8
_U+30EC_U+30A4_U+30E4_U+30FC 1
 62
   179
420
  2234388
370
    25
100
AcDbVertex
100
AcDb2dVertex
 10
95.86944005416682
 20
-123.003345247027
 30
0.0
  0
VERTEX
  5
105
330
103
100
AcDbEntity
  8
_U+30EC_U+30A4_U+30E4_U+30FC 1
 62
   179
420
  2234388
370
    25
100
AcDbVertex
100
AcDb2dVertex
 10
95.36920117804009
 20
-123.9844908023374
 30
0.0
  0
SEQEND
  5
106
330
103
100
AcDbEntity
  8
_U+30EC_U+30A4_U+30E4_U+30FC 1
 62
   179
420
  2234388
370
    25
  0
POLYLINE
  5
107
330
41
100
AcDbEntity
  8
_U+30EC_U+30A4_U+30E4_U+30FC 1
 62
   179
420
  2234388
370
    25
100
AcDb2dPolyline
 66
     1
 10
0.0
 20
0.0
 30
0.0
  0
VERTEX
  5
108
330
107
100
AcDbEntity
  8
_U+30EC_U+30A4_U+30E4_U+30FC 1
 62
   179
420
  2234388
370
    25
100
AcDbVertex
100
AcDb2dVertex
 10
95.86944005416682
 20
-123.003345247027
 30
0.0
  0
VERTEX
  5
109
330
107
100
AcDbEntity
  8
_U+30EC_U+30A4_U+30E4_U+30FC 1
 62
   179
420
  2234388
370
    25
100
AcDbVertex
100
AcDb2dVertex
 10
95.36920117804009
 20
-122.0228699694943
 30
0.0
  0
SEQEND
  5
10A
330
107
100
AcDbEntity
  8
_U+30EC_U+30A4_U+30E4_U+30FC 1
 62
   179
420
  2234388
370
    25
  0
POLYLINE
  5
10B
330
41
100
AcDbEntity
  8
_U+30EC_U+30A4_U+30E4_U+30FC 1
 62
   179
420
  2234388
370
    25
100
AcDb2dPolyline
 66
     1
 10
0.0
 20
0.0
 30
0.0
  0
VERTEX
  5
10C
330
10B
100
AcDbEntity
  8
_U+30EC_U+30A4_U+30E4_U+30FC 1
 62
   179
420
  2234388
370
    25
100
AcDbVertex
100
AcDb2dVertex
 10
95.86944005416682
 20
-124.9649660798698
 30
0.0
  0
VERTEX
  5
10D
330
10B
100
AcDbEntity
  8
_U+30EC_U+30A4_U+30E4_U+30FC 1
 62
   179
420
  2234388
370
    25
100
AcDbVertex
100
AcDb2dVertex
 10
95.36920117804009
 20
-123.9844908023374
 30
0.0
  0
SEQEND
  5
10E
330
10B
100
AcDbEntity
  8
_U+30EC_U+30A4_U+30E4_U+30FC 1
 62
   179
420
  2234388
370
    25
  0
POLYLINE
  5
10F
330
41
100
AcDbEntity
  8
_U+30EC_U+30A4_U+30E4_U+30FC 1
 62
   179
420
  2234388
370
    25
100
AcDb2dPolyline
 66
     1
 10
0.0
 20
0.0
 30
0.0
  0
VERTEX
  5
110
330
10F
100
AcDbEntity
  8
_U+30EC_U+30A4_U+30E4_U+30FC 1
 62
   179
420
  2234388
370
    25
100
AcDbVertex
100
AcDb2dVertex
 10
95.86944005416682
 20
-124.9649660798698
 30
0.0
  0
VERTEX
  5
111
330
10F
100
AcDbEntity
  8
_U+30EC_U+30A4_U+30E4_U+30FC 1
 62
   179
420
  2234388
370
    25
100
AcDbVertex
100
AcDb2dVertex
 10
95.36920117804009
 20
-125.946146912958
 30
0.0
  0
SEQEND
  5
112
330
10F
100
AcDbEntity
  8
_U+30EC_U+30A4_U+30E4_U+30FC 1
 62
   179
420
  2234388
370
    25
  0
POLYLINE
  5
113
330
41
100
AcDbEntity
  8
_U+30EC_U+30A4_U+30E4_U+30FC 1
 62
   179
420
  2234388
370
    25
100
AcDb2dPolyline
 66
     1
 10
0.0
 20
0.0
 30
0.0
  0
VERTEX
  5
114
330
113
100
AcDbEntity
  8
_U+30EC_U+30A4_U+30E4_U+30FC 1
 62
   179
420
  2234388
370
    25
100
AcDbVertex
100
AcDb2dVertex
 10
95.86944005416682
 20
-126.9266221904907
 30
0.0
  0
VERTEX
  5
115
330
113
100
AcDbEntity
  8
_U+30EC_U+30A4_U+30E4_U+30FC 1
 62
   179
420
  2234388
370
    25
100
AcDbVertex
100
AcDb2dVertex
 10
95.36920117804009
 20
-125.946146912958
 30
0.0
  0
SEQEND
  5
116
330
113
100
AcDbEntity
  8
_U+30EC_U+30A4_U+30E4_U+30FC 1
 62
   179
420
  2234388
370
    25
  0
POLYLINE
  5
117
330
41
100
AcDbEntity
  8
_U+30EC_U+30A4_U+30E4_U+30FC 1
 62
   179
420
  2234388
370
    25
100
AcDb2dPolyline
 66
     1
 10
0.0
 20
0.0
 30
0.0
  0
VERTEX
  5
118
330
117
100
AcDbEntity
  8
_U+30EC_U+30A4_U+30E4_U+30FC 1
 62
   179
420
  2234388
370
    25
100
AcDbVertex
100
AcDb2dVertex
 10
95.86944005416682
 20
-126.9266221904907
 30
0.0
  0
VERTEX
  5
119
330
117
100
AcDbEntity
  8
_U+30EC_U+30A4_U+30E4_U+30FC 1
 62
   179
420
  2234388
370
    25
100
AcDbVertex
100
AcDb2dVertex
 10
95.36920117804009
 20
-127.9077677458008
 30
0.0
  0
SEQEND
  5
11A
330
117
100
AcDbEntity
  8
_U+30EC_U+30A4_U+30E4_U+30FC 1
 62
   179
420
  2234388
370
    25
  0
POLYLINE
  5
11B
330
41
100
AcDbEntity
  8
_U+30EC_U+30A4_U+30E4_U+30FC 1
 62
   179
420
  2234388
370
    25
100
AcDb2dPolyline
 66
     1
 10
0.0
 20
0.0
 30
0.0
  0
VERTEX
  5
11C
330
11B
100
AcDbEntity
  8
_U+30EC_U+30A4_U+30E4_U+30FC 1
 62
   179
420
  2234388
370
    25
100
AcDbVertex
100
AcDb2dVertex
 10
95.86944005416682
 20
-128.8882430233338
 30
0.0
  0
VERTEX
  5
11D
330
11B
100
AcDbEntity
  8
_U+30EC_U+30A4_U+30E4_U+30FC 1
 62
   179
420
  2234388
370
    25
100
AcDbVertex
100
AcDb2dVertex
 10
95.36920117804009
 20
-127.9077677458008
 30
0.0
  0
SEQEND
  5
11E
330
11B
100
AcDbEntity
  8
_U+30EC_U+30A4_U+30E4_U+30FC 1
 62
   179
420
  2234388
370
    25
  0
POLYLINE
  5
11F
330
41
100
AcDbEntity
  8
_U+30EC_U+30A4_U+30E4_U+30FC 1
 62
   179
420
  2234388
370
    25
100
AcDb2dPolyline
 66
     1
 10
0.0
 20
0.0
 30
0.0
  0
VERTEX
  5
120
330
11F
100
AcDbEntity
  8
_U+30EC_U+30A4_U+30E4_U+30FC 1
 62
   179
420
  2234388
370
    25
100
AcDbVertex
100
AcDb2dVertex
 10
95.86944005416682
 20
-128.8882430233338
 30
0.0
  0
VERTEX
  5
121
330
11F
100
AcDbEntity
  8
_U+30EC_U+30A4_U+30E4_U+30FC 1
 62
   179
420
  2234388
370
    25
100
AcDbVertex
100
AcDb2dVertex
 10
95.36920117804009
 20
-129.8687183008659
 30
0.0
  0
SEQEND
  5
122
330
11F
100
AcDbEntity
  8
_U+30EC_U+30A4_U+30E4_U+30FC 1
 62
   179
420
  2234388
370
    25
  0
POLYLINE
  5
123
330
41
100
AcDbEntity
  8
_U+30EC_U+30A4_U+30E4_U+30FC 1
 62
   179
420
  2234388
370
    25
100
AcDb2dPolyline
 66
     1
 10
0.0
 20
0.0
 30
0.0
  0
VERTEX
  5
124
330
123
100
AcDbEntity
  8
_U+30EC_U+30A4_U+30E4_U+30FC 1
 62
   179
420
  2234388
370
    25
100
AcDbVertex
100
AcDb2dVertex
 10
95.86944005416682
 20
-130.8498991339541
 30
0.0
  0
VERTEX
  5
125
330
123
100
AcDbEntity
  8
_U+30EC_U+30A4_U+30E4_U+30FC 1
 62
   179
420
  2234388
370
    25
100
AcDbVertex
100
AcDb2dVertex
 10
95.36920117804009
 20
-129.8687183008659
 30
0.0
  0
SEQEND
  5
126
330
123
100
AcDbEntity
  8
_U+30EC_U+30A4_U+30E4_U+30FC 1
 62
   179
420
  2234388
370
    25
  0
POLYLINE
  5
127
330
41
100
AcDbEntity
  8
_U+30EC_U+30A4_U+30E4_U+30FC 1
 62
   179
420
  2234388
370
    25
100
AcDb2dPolyline
 66
     1
 10
0.0
 20
0.0
 30
0.0
  0
VERTEX
  5
128
330
127
100
AcDbEntity
  8
_U+30EC_U+30A4_U+30E4_U+30FC 1
 62
   179
420
  2234388
370
    25
100
AcDbVertex
100
AcDb2dVertex
 10
95.86944005416682
 20
-130.8498991339541
 30
0.0
  0
VERTEX
  5
129
330
127
100
AcDbEntity
  8
_U+30EC_U+30A4_U+30E4_U+30FC 1
 62
   179
420
  2234388
370
    25
100
AcDbVertex
100
AcDb2dVertex
 10
95.36920117804009
 20
-131.8303744114868
 30
0.0
  0
SEQEND
  5
12A
330
127
100
AcDbEntity
  8
_U+30EC_U+30A4_U+30E4_U+30FC 1
 62
   179
420
  2234388
370
    25
  0
SPLINE
  5
12B
330
41
100
AcDbEntity
  8
_U+30EC_U+30A4_U+30E4_U+30FC 1
 62
   179
420
  2234388
370
     9
100
AcDbSpline
210
0.0
220
0.0
230
1.0
 70
    11
 71
     3
 72
    17
 73
    13
 74
     0
 42
0.0000000001
 43
0.0000000001
 12
1.0
 22
0.0
 32
0.0
 13
1.0
 23
0.0
 33
0.0
 40
0.0
 40
0.0
 40
0.0
 40
0.0
 40
1.0
 40
1.0
 40
1.0
 40
2.0
 40
2.0
 40
2.0
 40
3.0
 40
3.0
 40
3.0
 40
4.0
 40
4.0
 40
4.0
 40
4.0
 10
96.26906671063816
 20
-102.3308849744172
 30
0.0
 10
96.26906671063816
 20
-102.2757458077644
 30
0.0
 10
96.31383420949605
 20
-102.2309783077755
 30
0.0
 10
96.36964365251667
 20
-102.2309783077755
 30
0.0
 10
96.42478281777662
 20
-102.2309783077755
 30
0.0
 10
96.46955275366051
 20
-102.2757458077644
 30
0.0
 10
96.46955275366051
 20
-102.3308849744172
 30
0.0
 10
96.46955275366051
 20
-102.3859888632924
 30
0.0
 10
96.42478281777662
 20
-102.4307916410588
 30
0.0
 10
96.36964365251667
 20
-102.4307916410588
 30
0.0
 10
96.31383420949605
 20
-102.4307916410588
 30
0.0
 10
96.26906671063816
 20
-102.3859888632924
 30
0.0
 10
96.26906671063816
 20
-102.3308849744172
 30
0.0
  0
SPLINE
  5
12C
330
41
100
AcDbEntity
  8
_U+30EC_U+30A4_U+30E4_U+30FC 1
 62
   179
420
  2234388
370
     9
100
AcDbSpline
210
0.0
220
0.0
230
1.0
 70
    11
 71
     3
 72
    17
 73
    13
 74
     0
 42
0.0000000001
 43
0.0000000001
 12
1.0
 22
0.0
 32
0.0
 13
1.0
 23
0.0
 33
0.0
 40
0.0
 40
0.0
 40
0.0
 40
0.0
 40
1.0
 40
1.0
 40
1.0
 40
2.0
 40
2.0
 40
2.0
 40
3.0
 40
3.0
 40
3.0
 40
4.0
 40
4.0
 40
4.0
 40
4.0
 10
95.26929451392225
 20
-102.3308849744172
 30
0.0
 10
95.26929451392225
 20
-102.2757458077644
 30
0.0
 10
95.31406201278014
 20
-102.2309783077755
 30
0.0
 10
95.36920117804009
 20
-102.2309783077755
 30
0.0
 10
95.42430506552316
 20
-102.2309783077755
 30
0.0
 10
95.46910784215792
 20
-102.2757458077644
 30
0.0
 10
95.46910784215792
 20
-102.3308849744172
 30
0.0
 10
95.46910784215792
 20
-102.3859888632924
 30
0.0
 10
95.42430506552316
 20
-102.4307916410588
 30
0.0
 10
95.36920117804009
 20
-102.4307916410588
 30
0.0
 10
95.31406201278014
 20
-102.4307916410588
 30
0.0
 10
95.26929451392225
 20
-102.3859888632924
 30
0.0
 10
95.26929451392225
 20
-102.3308849744172
 30
0.0
  0
SPLINE
  5
12D
330
41
100
AcDbEntity
  8
_U+30EC_U+30A4_U+30E4_U+30FC 1
 62
   179
420
  2234388
370
     9
100
AcDbSpline
210
0.0
220
0.0
230
1.0
 70
    11
 71
     3
 72
    17
 73
    13
 74
     0
 42
0.0000000001
 43
0.0000000001
 12
1.0
 22
0.0
 32
0.0
 13
1.0
 23
0.0
 33
0.0
 40
0.0
 40
0.0
 40
0.0
 40
0.0
 40
1.0
 40
1.0
 40
1.0
 40
2.0
 40
2.0
 40
2.0
 40
3.0
 40
3.0
 40
3.0
 40
4.0
 40
4.0
 40
4.0
 40
4.0
 10
106.26946978884
 20
-106.3306441400841
 30
0.0
 10
106.26946978884
 20
-106.275504973431
 30
0.0
 10
106.3142725654747
 20
-106.2307374734424
 30
0.0
 10
106.3693764529578
 20
-106.2307374734424
 30
0.0
 10
106.4245156182177
 20
-106.2307374734424
 30
0.0
 10
106.4692831170756
 20
-106.275504973431
 30
0.0
 10
106.4692831170756
 20
-106.3306441400841
 30
0.0
 10
106.4692831170756
 20
-106.385748028959
 30
0.0
 10
106.4245156182177
 20
-106.4305508067257
 30
0.0
 10
106.3693764529578
 20
-106.4305508067257
 30
0.0
 10
106.3142725654747
 20
-106.4305508067257
 30
0.0
 10
106.26946978884
 20
-106.385748028959
 30
0.0
 10
106.26946978884
 20
-106.3306441400841
 30
0.0
  0
SPLINE
  5
12E
330
41
100
AcDbEntity
  8
_U+30EC_U+30A4_U+30E4_U+30FC 1
 62
   179
420
  2234388
370
     9
100
AcDbSpline
210
0.0
220
0.0
230
1.0
 70
    11
 71
     3
 72
    17
 73
    13
 74
     0
 42
0.0000000001
 43
0.0000000001
 12
1.0
 22
0.0
 32
0.0
 13
1.0
 23
0.0
 33
0.0
 40
0.0
 40
0.0
 40
0.0
 40
0.0
 40
1.0
 40
1.0
 40
1.0
 40
2.0
 40
2.0
 40
2.0
 40
3.0
 40
3.0
 40
3.0
 40
4.0
 40
4.0
 40
4.0
 40
4.0
 10
78.26893383652647
 20
-134.330828021973
 30
0.0
 10
78.26893383652647
 20
-134.2750185775425
 30
0.0
 10
78.31373661316124
 20
-134.2302157997758
 30
0.0
 10
78.36884050064431
 20
-134.2302157997758
 30
0.0
 10
78.42397966590426
 20
-134.2302157997758
 30
0.0
 10
78.46878244253902
 20
-134.2750185775425
 30
0.0
 10
78.46878244253902
 20
-134.330828021973
 30
0.0
 10
78.46878244253902
 20
-134.3859319108479
 30
0.0
 10
78.42397966590426
 20
-134.4307346886146
 30
0.0
 10
78.36884050064431
 20
-134.4307346886146
 30
0.0
 10
78.31373661316124
 20
-134.4307346886146
 30
0.0
 10
78.26893383652647
 20
-134.3859319108479
 30
0.0
 10
78.26893383652647
 20
-134.330828021973
 30
0.0
  0
SPLINE
  5
12F
330
41
100
AcDbEntity
  8
_U+30EC_U+30A4_U+30E4_U+30FC 1
 62
   179
420
  2234388
370
     9
100
AcDbSpline
210
0.0
220
0.0
230
1.0
 70
    11
 71
     3
 72
    17
 73
    13
 74
     0
 42
0.0000000001
 43
0.0000000001
 12
1.0
 22
0.0
 32
0.0
 13
1.0
 23
0.0
 33
0.0
 40
0.0
 40
0.0
 40
0.0
 40
0.0
 40
1.0
 40
1.0
 40
1.0
 40
2.0
 40
2.0
 40
2.0
 40
3.0
 40
3.0
 40
3.0
 40
4.0
 40
4.0
 40
4.0
 40
4.0
 10
82.26939845668834
 20
-130.3303633007506
 30
0.0
 10
82.26939845668834
 20
-130.2752594118757
 30
0.0
 10
82.31416595554623
 20
-130.2304566341089
 30
0.0
 10
82.36930512080617
 20
-130.2304566341089
 30
0.0
 10
82.42441109050509
 20
-130.2304566341089
 30
0.0
 10
82.4692138682715
 20
-130.2752594118757
 30
0.0
 10
82.4692138682715
 20
-130.3303633007506
 30
0.0
 10
82.4692138682715
 20
-130.3855024674037
 30
0.0
 10
82.42441109050509
 20
-130.4302699673922
 30
0.0
 10
82.36930512080617
 20
-130.4302699673922
 30
0.0
 10
82.31416595554623
 20
-130.4302699673922
 30
0.0
 10
82.26939845668834
 20
-130.3855024674037
 30
0.0
 10
82.26939845668834
 20
-130.3303633007506
 30
0.0
  0
SPLINE
  5
130
330
41
100
AcDbEntity
  8
_U+30EC_U+30A4_U+30E4_U+30FC 1
 62
   179
420
  2234388
370
     9
100
AcDbSpline
210
0.0
220
0.0
230
1.0
 70
    11
 71
     3
 72
    17
 73
    13
 74
     0
 42
0.0000000001
 43
0.0000000001
 12
1.0
 22
0.0
 32
0.0
 13
1.0
 23
0.0
 33
0.0
 40
0.0
 40
0.0
 40
0.0
 40
0.0
 40
1.0
 40
1.0
 40
1.0
 40
2.0
 40
2.0
 40
2.0
 40
3.0
 40
3.0
 40
3.0
 40
4.0
 40
4.0
 40
4.0
 40
4.0
 10
85.26938532459674
 20
-130.3303633007506
 30
0.0
 10
85.26938532459674
 20
-130.2752594118757
 30
0.0
 10
85.31415282345463
 20
-130.2304566341089
 30
0.0
 10
85.36929198871458
 20
-130.2304566341089
 30
0.0
 10
85.42439587619765
 20
-130.2304566341089
 30
0.0
 10
85.46919865283242
 20
-130.2752594118757
 30
0.0
 10
85.46919865283242
 20
-130.3303633007506
 30
0.0
 10
85.46919865283242
 20
-130.3855024674037
 30
0.0
 10
85.42439587619765
 20
-130.4302699673922
 30
0.0
 10
85.36929198871458
 20
-130.4302699673922
 30
0.0
 10
85.31415282345463
 20
-130.4302699673922
 30
0.0
 10
85.26938532459674
 20
-130.3855024674037
 30
0.0
 10
85.26938532459674
 20
-130.3303633007506
 30
0.0
  0
SPLINE
  5
131
330
41
100
AcDbEntity
  8
_U+30EC_U+30A4_U+30E4_U+30FC 1
 62
   179
420
  2234388
370
     9
100
AcDbSpline
210
0.0
220
0.0
230
1.0
 70
    11
 71
     3
 72
    17
 73
    13
 74
     0
 42
0.0000000001
 43
0.0000000001
 12
1.0
 22
0.0
 32
0.0
 13
1.0
 23
0.0
 33
0.0
 40
0.0
 40
0.0
 40
0.0
 40
0.0
 40
1.0
 40
1.0
 40
1.0
 40
2.0
 40
2.0
 40
2.0
 40
3.0
 40
3.0
 40
3.0
 40
4.0
 40
4.0
 40
4.0
 40
4.0
 10
95.26929451392225
 20
-130.3303633007506
 30
0.0
 10
95.26929451392225
 20
-130.2752594118757
 30
0.0
 10
95.31406201278014
 20
-130.2304566341089
 30
0.0
 10
95.36920117804009
 20
-130.2304566341089
 30
0.0
 10
95.42430506552316
 20
-130.2304566341089
 30
0.0
 10
95.46910784215792
 20
-130.2752594118757
 30
0.0
 10
95.46910784215792
 20
-130.3303633007506
 30
0.0
 10
95.46910784215792
 20
-130.3855024674037
 30
0.0
 10
95.42430506552316
 20
-130.4302699673922
 30
0.0
 10
95.36920117804009
 20
-130.4302699673922
 30
0.0
 10
95.31406201278014
 20
-130.4302699673922
 30
0.0
 10
95.26929451392225
 20
-130.3855024674037
 30
0.0
 10
95.26929451392225
 20
-130.3303633007506
 30
0.0
  0
SPLINE
  5
132
330
41
100
AcDbEntity
  8
_U+30EC_U+30A4_U+30E4_U+30FC 1
 62
   179
420
  2234388
370
     9
100
AcDbSpline
210
0.0
220
0.0
230
1.0
 70
    11
 71
     3
 72
    17
 73
    13
 74
     0
 42
0.0000000001
 43
0.0000000001
 12
1.0
 22
0.0
 32
0.0
 13
1.0
 23
0.0
 33
0.0
 40
0.0
 40
0.0
 40
0.0
 40
0.0
 40
1.0
 40
1.0
 40
1.0
 40
2.0
 40
2.0
 40
2.0
 40
3.0
 40
3.0
 40
3.0
 40
4.0
 40
4.0
 40
4.0
 40
4.0
 10
78.26893383652647
 20
-154.3302941280841
 30
0.0
 10
78.26893383652647
 20
-154.275154961431
 30
0.0
 10
78.31373661316124
 20
-154.2303874614425
 30
0.0
 10
78.36884050064431
 20
-154.2303874614425
 30
0.0
 10
78.42397966590426
 20
-154.2303874614425
 30
0.0
 10
78.46878244253902
 20
-154.275154961431
 30
0.0
 10
78.46878244253902
 20
-154.3302941280841
 30
0.0
 10
78.46878244253902
 20
-154.3861035725146
 30
0.0
 10
78.42397966590426
 20
-154.4308710725031
 30
0.0
 10
78.36884050064431
 20
-154.4308710725031
 30
0.0
 10
78.31373661316124
 20
-154.4308710725031
 30
0.0
 10
78.26893383652647
 20
-154.3861035725146
 30
0.0
 10
78.26893383652647
 20
-154.3302941280841
 30
0.0
  0
SPLINE
  5
133
330
41
100
AcDbEntity
  8
_U+30EC_U+30A4_U+30E4_U+30FC 1
 62
   179
420
  2234388
370
     9
100
AcDbSpline
210
0.0
220
0.0
230
1.0
 70
    11
 71
     3
 72
    17
 73
    13
 74
     0
 42
0.0000000001
 43
0.0000000001
 12
1.0
 22
0.0
 32
0.0
 13
1.0
 23
0.0
 33
0.0
 40
0.0
 40
0.0
 40
0.0
 40
0.0
 40
1.0
 40
1.0
 40
1.0
 40
2.0
 40
2.0
 40
2.0
 40
3.0
 40
3.0
 40
3.0
 40
4.0
 40
4.0
 40
4.0
 40
4.0
 10
82.26939845668834
 20
-158.3307235715284
 30
0.0
 10
82.26939845668834
 20
-158.2756196826535
 30
0.0
 10
82.31416595554623
 20
-158.2308169048867
 30
0.0
 10
82.36930512080617
 20
-158.2308169048867
 30
0.0
 10
82.42441109050509
 20
-158.2308169048867
 30
0.0
 10
82.4692138682715
 20
-158.2756196826535
 30
0.0
 10
82.4692138682715
 20
-158.3307235715284
 30
0.0
 10
82.4692138682715
 20
-158.3858627381814
 30
0.0
 10
82.42441109050509
 20
-158.43063023817
 30
0.0
 10
82.36930512080617
 20
-158.43063023817
 30
0.0
 10
82.31416595554623
 20
-158.43063023817
 30
0.0
 10
82.26939845668834
 20
-158.3858627381814
 30
0.0
 10
82.26939845668834
 20
-158.3307235715284
 30
0.0
  0
SPLINE
  5
134
330
41
100
AcDbEntity
  8
_U+30EC_U+30A4_U+30E4_U+30FC 1
 62
   179
420
  2234388
370
     9
100
AcDbSpline
210
0.0
220
0.0
230
1.0
 70
    11
 71
     3
 72
    17
 73
    13
 74
     0
 42
0.0000000001
 43
0.0000000001
 12
1.0
 22
0.0
 32
0.0
 13
1.0
 23
0.0
 33
0.0
 40
0.0
 40
0.0
 40
0.0
 40
0.0
 40
1.0
 40
1.0
 40
1.0
 40
2.0
 40
2.0
 40
2.0
 40
3.0
 40
3.0
 40
3.0
 40
4.0
 40
4.0
 40
4.0
 40
4.0
 10
102.269040446455
 20
-158.3307235715284
 30
0.0
 10
102.269040446455
 20
-158.2756196826535
 30
0.0
 10
102.3138079453129
 20
-158.2308169048867
 30
0.0
 10
102.3696173883335
 20
-158.2308169048867
 30
0.0
 10
102.4247565535934
 20
-158.2308169048867
 30
0.0
 10
102.4695240524513
 20
-158.2756196826535
 30
0.0
 10
102.4695240524513
 20
-158.3307235715284
 30
0.0
 10
102.4695240524513
 20
-158.3858627381814
 30
0.0
 10
102.4247565535934
 20
-158.43063023817
 30
0.0
 10
102.3696173883335
 20
-158.43063023817
 30
0.0
 10
102.3138079453129
 20
-158.43063023817
 30
0.0
 10
102.269040446455
 20
-158.3858627381814
 30
0.0
 10
102.269040446455
 20
-158.3307235715284
 30
0.0
  0
SPLINE
  5
135
330
41
100
AcDbEntity
  8
_U+30EC_U+30A4_U+30E4_U+30FC 1
 62
   179
420
  2234388
370
     9
100
AcDbSpline
210
0.0
220
0.0
230
1.0
 70
    11
 71
     3
 72
    17
 73
    13
 74
     0
 42
0.0000000001
 43
0.0000000001
 12
1.0
 22
0.0
 32
0.0
 13
1.0
 23
0.0
 33
0.0
 40
0.0
 40
0.0
 40
0.0
 40
0.0
 40
1.0
 40
1.0
 40
1.0
 40
2.0
 40
2.0
 40
2.0
 40
3.0
 40
3.0
 40
3.0
 40
4.0
 40
4.0
 40
4.0
 40
4.0
 10
106.26946978884
 20
-141.3305741313342
 30
0.0
 10
106.26946978884
 20
-141.2754349646811
 30
0.0
 10
106.3142725654747
 20
-141.2306674646926
 30
0.0
 10
106.3693764529578
 20
-141.2306674646926
 30
0.0
 10
106.4245156182177
 20
-141.2306674646926
 30
0.0
 10
106.4692831170756
 20
-141.2754349646811
 30
0.0
 10
106.4692831170756
 20
-141.3305741313342
 30
0.0
 10
106.4692831170756
 20
-141.3856780202091
 30
0.0
 10
106.4245156182177
 20
-141.4304807979758
 30
0.0
 10
106.3693764529578
 20
-141.4304807979758
 30
0.0
 10
106.3142725654747
 20
-141.4304807979758
 30
0.0
 10
106.26946978884
 20
-141.3856780202091
 30
0.0
 10
106.26946978884
 20
-141.3305741313342
 30
0.0
  0
SPLINE
  5
136
330
41
100
AcDbEntity
  8
_U+30EC_U+30A4_U+30E4_U+30FC 1
 62
   179
420
  2234388
370
     9
100
AcDbSpline
210
0.0
220
0.0
230
1.0
 70
    11
 71
     3
 72
    17
 73
    13
 74
     0
 42
0.0000000001
 43
0.0000000001
 12
1.0
 22
0.0
 32
0.0
 13
1.0
 23
0.0
 33
0.0
 40
0.0
 40
0.0
 40
0.0
 40
0.0
 40
1.0
 40
1.0
 40
1.0
 40
2.0
 40
2.0
 40
2.0
 40
3.0
 40
3.0
 40
3.0
 40
4.0
 40
4.0
 40
4.0
 40
4.0
 10
106.26946978884
 20
-151.3303071843898
 30
0.0
 10
106.26946978884
 20
-151.2751680177367
 30
0.0
 10
106.3142725654747
 20
-151.2304005177481
 30
0.0
 10
106.3693764529578
 20
-151.2304005177481
 30
0.0
 10
106.4245156182177
 20
-151.2304005177481
 30
0.0
 10
106.4692831170756
 20
-151.2751680177367
 30
0.0
 10
106.4692831170756
 20
-151.3303071843898
 30
0.0
 10
106.4692831170756
 20
-151.3861166288202
 30
0.0
 10
106.4245156182177
 20
-151.4308841288088
 30
0.0
 10
106.3693764529578
 20
-151.4308841288088
 30
0.0
 10
106.3142725654747
 20
-151.4308841288088
 30
0.0
 10
106.26946978884
 20
-151.3861166288202
 30
0.0
 10
106.26946978884
 20
-151.3303071843898
 30
0.0
  0
SPLINE
  5
137
330
41
100
AcDbEntity
  8
_U+30EC_U+30A4_U+30E4_U+30FC 1
 62
   179
420
  2234388
370
     9
100
AcDbSpline
210
0.0
220
0.0
230
1.0
 70
    11
 71
     3
 72
    17
 73
    13
 74
     0
 42
0.0000000001
 43
0.0000000001
 12
1.0
 22
0.0
 32
0.0
 13
1.0
 23
0.0
 33
0.0
 40
0.0
 40
0.0
 40
0.0
 40
0.0
 40
1.0
 40
1.0
 40
1.0
 40
2.0
 40
2.0
 40
2.0
 40
3.0
 40
3.0
 40
3.0
 40
4.0
 40
4.0
 40
4.0
 40
4.0
 10
106.26946978884
 20
-154.3302941280841
 30
0.0
 10
106.26946978884
 20
-154.275154961431
 30
0.0
 10
106.3142725654747
 20
-154.2303874614425
 30
0.0
 10
106.3693764529578
 20
-154.2303874614425
 30
0.0
 10
106.4245156182177
 20
-154.2303874614425
 30
0.0
 10
106.4692831170756
 20
-154.275154961431
 30
0.0
 10
106.4692831170756
 20
-154.3302941280841
 30
0.0
 10
106.4692831170756
 20
-154.3861035725146
 30
0.0
 10
106.4245156182177
 20
-154.4308710725031
 30
0.0
 10
106.3693764529578
 20
-154.4308710725031
 30
0.0
 10
106.3142725654747
 20
-154.4308710725031
 30
0.0
 10
106.26946978884
 20
-154.3861035725146
 30
0.0
 10
106.26946978884
 20
-154.3302941280841
 30
0.0
  0
POLYLINE
  5
138
330
41
100
AcDbEntity
  8
_U+30EC_U+30A4_U+30E4_U+30FC 1
 62
   179
420
  2234388
370
     9
100
AcDb2dPolyline
 66
     1
 10
0.0
 20
0.0
 30
0.0
  0
VERTEX
  5
139
330
138
100
AcDbEntity
  8
_U+30EC_U+30A4_U+30E4_U+30FC 1
 62
   179
420
  2234388
370
     9
100
AcDbVertex
100
AcDb2dVertex
 10
96.36964365251667
 20
-102.3308849744172
 30
0.0
  0
VERTEX
  5
13A
330
138
100
AcDbEntity
  8
_U+30EC_U+30A4_U+30E4_U+30FC 1
 62
   179
420
  2234388
370
     9
100
AcDbVertex
100
AcDb2dVertex
 10
100.139956056328
 20
-102.3308849744172
 30
0.0
  0
SEQEND
  5
13B
330
138
100
AcDbEntity
  8
_U+30EC_U+30A4_U+30E4_U+30FC 1
 62
   179
420
  2234388
370
     9
  0
POLYLINE
  5
13C
330
41
100
AcDbEntity
  8
_U+30EC_U+30A4_U+30E4_U+30FC 1
 62
   179
420
  2234388
370
     9
100
AcDb2dPolyline
 66
     1
 10
0.0
 20
0.0
 30
0.0
  0
VERTEX
  5
13D
330
13C
100
AcDbEntity
  8
_U+30EC_U+30A4_U+30E4_U+30FC 1
 62
   179
420
  2234388
370
     9
100
AcDbVertex
100
AcDb2dVertex
 10
96.36964365251667
 20
-102.3308849744172
 30
0.0
  0
VERTEX
  5
13E
330
13C
100
AcDbEntity
  8
_U+30EC_U+30A4_U+30E4_U+30FC 1
 62
   179
420
  2234388
370
     9
100
AcDbVertex
100
AcDb2dVertex
 10
94.36942898132418
 20
-102.3308849744172
 30
0.0
  0
SEQEND
  5
13F
330
13C
100
AcDbEntity
  8
_U+30EC_U+30A4_U+30E4_U+30FC 1
 62
   179
420
  2234388
370
     9
  0
POLYLINE
  5
140
330
41
100
AcDbEntity
  8
_U+30EC_U+30A4_U+30E4_U+30FC 1
 62
   179
420
  2234388
370
     9
100
AcDb2dPolyline
 66
     1
 10
0.0
 20
0.0
 30
0.0
  0
VERTEX
  5
141
330
140
100
AcDbEntity
  8
_U+30EC_U+30A4_U+30E4_U+30FC 1
 62
   179
420
  2234388
370
     9
100
AcDbVertex
100
AcDb2dVertex
 10
96.36964365251667
 20
-103.7908910851634
 30
0.0
  0
VERTEX
  5
142
330
140
100
AcDbEntity
  8
_U+30EC_U+30A4_U+30E4_U+30FC 1
 62
   179
420
  2234388
370
     9
100
AcDbVertex
100
AcDb2dVertex
 10
96.36964365251667
 20
-101.3307599746672
 30
0.0
  0
SEQEND
  5
143
330
140
100
AcDbEntity
  8
_U+30EC_U+30A4_U+30E4_U+30FC 1
 62
   179
420
  2234388
370
     9
  0
POLYLINE
  5
144
330
41
100
AcDbEntity
  8
_U+30EC_U+30A4_U+30E4_U+30FC 1
 62
   179
420
  2234388
370
     9
100
AcDb2dPolyline
 66
     1
 10
0.0
 20
0.0
 30
0.0
  0
VERTEX
  5
145
330
144
100
AcDbEntity
  8
_U+30EC_U+30A4_U+30E4_U+30FC 1
 62
   179
420
  2234388
370
     9
100
AcDbVertex
100
AcDb2dVertex
 10
95.36920117804009
 20
-103.7908910851634
 30
0.0
  0
VERTEX
  5
146
330
144
100
AcDbEntity
  8
_U+30EC_U+30A4_U+30E4_U+30FC 1
 62
   179
420
  2234388
370
     9
100
AcDbVertex
100
AcDb2dVertex
 10
95.36920117804009
 20
-101.3307599746672
 30
0.0
  0
SEQEND
  5
147
330
144
100
AcDbEntity
  8
_U+30EC_U+30A4_U+30E4_U+30FC 1
 62
   179
420
  2234388
370
     9
  0
POLYLINE
  5
148
330
41
100
AcDbEntity
  8
_U+30EC_U+30A4_U+30E4_U+30FC 1
 62
   179
420
  2234388
370
     9
100
AcDb2dPolyline
 66
     1
 10
0.0
 20
0.0
 30
0.0
  0
VERTEX
  5
149
330
148
100
AcDbEntity
  8
_U+30EC_U+30A4_U+30E4_U+30FC 1
 62
   179
420
  2234388
370
     9
100
AcDbVertex
100
AcDb2dVertex
 10
102.3696173883335
 20
-158.3307235715284
 30
0.0
  0
VERTEX
  5
14A
330
148
100
AcDbEntity
  8
_U+30EC_U+30A4_U+30E4_U+30FC 1
 62
   179
420
  2234388
370
     9
100
AcDbVertex
100
AcDb2dVertex
 10
82.36930512080617
 20
-158.3307235715284
 30
0.0
  0
SEQEND
  5
14B
330
148
100
AcDbEntity
  8
_U+30EC_U+30A4_U+30E4_U+30FC 1
 62
   179
420
  2234388
370
     9
  0
POLYLINE
  5
14C
330
41
100
AcDbEntity
  8
_U+30EC_U+30A4_U+30E4_U+30FC 1
 62
   179
420
  2234388
370
     9
100
AcDb2dPolyline
 66
     1
 10
0.0
 20
0.0
 30
0.0
  0
VERTEX
  5
14D
330
14C
100
AcDbEntity
  8
_U+30EC_U+30A4_U+30E4_U+30FC 1
 62
   179
420
  2234388
370
     9
100
AcDbVertex
100
AcDb2dVertex
 10
102.3696173883335
 20
-156.8707174607822
 30
0.0
  0
VERTEX
  5
14E
330
14C
100
AcDbEntity
  8
_U+30EC_U+30A4_U+30E4_U+30FC 1
 62
   179
420
  2234388
370
     9
100
AcDbVertex
100
AcDb2dVertex
 10
102.3696173883335
 20
-159.3304957935009
 30
0.0
  0
SEQEND
  5
14F
330
14C
100
AcDbEntity
  8
_U+30EC_U+30A4_U+30E4_U+30FC 1
 62
   179
420
  2234388
370
     9
  0
POLYLINE
  5
150
330
41
100
AcDbEntity
  8
_U+30EC_U+30A4_U+30E4_U+30FC 1
 62
   179
420
  2234388
370
     9
100
AcDb2dPolyline
 66
     1
 10
0.0
 20
0.0
 30
0.0
  0
VERTEX
  5
151
330
150
100
AcDbEntity
  8
_U+30EC_U+30A4_U+30E4_U+30FC 1
 62
   179
420
  2234388
370
     9
100
AcDbVertex
100
AcDb2dVertex
 10
82.36930512080617
 20
-156.8707174607822
 30
0.0
  0
VERTEX
  5
152
330
150
100
AcDbEntity
  8
_U+30EC_U+30A4_U+30E4_U+30FC 1
 62
   179
420
  2234388
370
     9
100
AcDbVertex
100
AcDb2dVertex
 10
82.36930512080617
 20
-159.3304957935009
 30
0.0
  0
SEQEND
  5
153
330
150
100
AcDbEntity
  8
_U+30EC_U+30A4_U+30E4_U+30FC 1
 62
   179
420
  2234388
370
     9
  0
POLYLINE
  5
154
330
41
100
AcDbEntity
  8
_U+30EC_U+30A4_U+30E4_U+30FC 1
 62
   179
420
  2234388
370
     9
100
AcDb2dPolyline
 66
     1
 10
0.0
 20
0.0
 30
0.0
  0
VERTEX
  5
155
330
154
100
AcDbEntity
  8
_U+30EC_U+30A4_U+30E4_U+30FC 1
 62
   179
420
  2234388
370
     9
100
AcDbVertex
100
AcDb2dVertex
 10
82.36930512080617
 20
-130.3303633007506
 30
0.0
  0
VERTEX
  5
156
330
154
100
AcDbEntity
  8
_U+30EC_U+30A4_U+30E4_U+30FC 1
 62
   179
420
  2234388
370
     9
100
AcDbVertex
100
AcDb2dVertex
 10
85.36929198871458
 20
-130.3303633007506
 30
0.0
  0
SEQEND
  5
157
330
154
100
AcDbEntity
  8
_U+30EC_U+30A4_U+30E4_U+30FC 1
 62
   179
420
  2234388
370
     9
  0
POLYLINE
  5
158
330
41
100
AcDbEntity
  8
_U+30EC_U+30A4_U+30E4_U+30FC 1
 62
   179
420
  2234388
370
     9
100
AcDb2dPolyline
 66
     1
 10
0.0
 20
0.0
 30
0.0
  0
VERTEX
  5
159
330
158
100
AcDbEntity
  8
_U+30EC_U+30A4_U+30E4_U+30FC 1
 62
   179
420
  2234388
370
     9
100
AcDbVertex
100
AcDb2dVertex
 10
82.36930512080617
 20
-131.7904046892749
 30
0.0
  0
VERTEX
  5
15A
330
158
100
AcDbEntity
  8
_U+30EC_U+30A4_U+30E4_U+30FC 1
 62
   179
420
  2234388
370
     9
100
AcDbVertex
100
AcDb2dVertex
 10
82.36930512080617
 20
-129.3305910787787
 30
0.0
  0
SEQEND
  5
15B
330
158
100
AcDbEntity
  8
_U+30EC_U+30A4_U+30E4_U+30FC 1
 62
   179
420
  2234388
370
     9
  0
POLYLINE
  5
15C
330
41
100
AcDbEntity
  8
_U+30EC_U+30A4_U+30E4_U+30FC 1
 62
   179
420
  2234388
370
     9
100
AcDb2dPolyline
 66
     1
 10
0.0
 20
0.0
 30
0.0
  0
VERTEX
  5
15D
330
15C
100
AcDbEntity
  8
_U+30EC_U+30A4_U+30E4_U+30FC 1
 62
   179
420
  2234388
370
     9
100
AcDbVertex
100
AcDb2dVertex
 10
85.36929198871458
 20
-131.7904046892749
 30
0.0
  0
VERTEX
  5
15E
330
15C
100
AcDbEntity
  8
_U+30EC_U+30A4_U+30E4_U+30FC 1
 62
   179
420
  2234388
370
     9
100
AcDbVertex
100
AcDb2dVertex
 10
85.36929198871458
 20
-129.3305910787787
 30
0.0
  0
SEQEND
  5
15F
330
15C
100
AcDbEntity
  8
_U+30EC_U+30A4_U+30E4_U+30FC 1
 62
   179
420
  2234388
370
     9
  0
POLYLINE
  5
160
330
41
100
AcDbEntity
  8
_U+30EC_U+30A4_U+30E4_U+30FC 1
 62
   179
420
  2234388
370
     9
100
AcDb2dPolyline
 66
     1
 10
0.0
 20
0.0
 30
0.0
  0
VERTEX
  5
161
330
160
100
AcDbEntity
  8
_U+30EC_U+30A4_U+30E4_U+30FC 1
 62
   179
420
  2234388
370
     9
100
AcDbVertex
100
AcDb2dVertex
 10
85.36929198871458
 20
-130.3303633007506
 30
0.0
  0
VERTEX
  5
162
330
160
100
AcDbEntity
  8
_U+30EC_U+30A4_U+30E4_U+30FC 1
 62
   179
420
  2234388
370
     9
100
AcDbVertex
100
AcDb2dVertex
 10
95.36920117804009
 20
-130.3303633007506
 30
0.0
  0
SEQEND
  5
163
330
160
100
AcDbEntity
  8
_U+30EC_U+30A4_U+30E4_U+30FC 1
 62
   179
420
  2234388
370
     9
  0
POLYLINE
  5
164
330
41
100
AcDbEntity
  8
_U+30EC_U+30A4_U+30E4_U+30FC 1
 62
   179
420
  2234388
370
     9
100
AcDb2dPolyline
 66
     1
 10
0.0
 20
0.0
 30
0.0
  0
VERTEX
  5
165
330
164
100
AcDbEntity
  8
_U+30EC_U+30A4_U+30E4_U+30FC 1
 62
   179
420
  2234388
370
     9
100
AcDbVertex
100
AcDb2dVertex
 10
78.36884050064431
 20
-154.3302941280841
 30
0.0
  0
VERTEX
  5
166
330
164
100
AcDbEntity
  8
_U+30EC_U+30A4_U+30E4_U+30FC 1
 62
   179
420
  2234388
370
     9
100
AcDbVertex
100
AcDb2dVertex
 10
78.36884050064431
 20
-134.330828021973
 30
0.0
  0
SEQEND
  5
167
330
164
100
AcDbEntity
  8
_U+30EC_U+30A4_U+30E4_U+30FC 1
 62
   179
420
  2234388
370
     9
  0
POLYLINE
  5
168
330
41
100
AcDbEntity
  8
_U+30EC_U+30A4_U+30E4_U+30FC 1
 62
   179
420
  2234388
370
     9
100
AcDb2dPolyline
 66
     1
 10
0.0
 20
0.0
 30
0.0
  0
VERTEX
  5
169
330
168
100
AcDbEntity
  8
_U+30EC_U+30A4_U+30E4_U+30FC 1
 62
   179
420
  2234388
370
     9
100
AcDbVertex
100
AcDb2dVertex
 10
79.82888185228444
 20
-154.3302941280841
 30
0.0
  0
VERTEX
  5
16A
330
168
100
AcDbEntity
  8
_U+30EC_U+30A4_U+30E4_U+30FC 1
 62
   179
420
  2234388
370
     9
100
AcDbVertex
100
AcDb2dVertex
 10
77.3691055362134
 20
-154.3302941280841
 30
0.0
  0
SEQEND
  5
16B
330
168
100
AcDbEntity
  8
_U+30EC_U+30A4_U+30E4_U+30FC 1
 62
   179
420
  2234388
370
     9
  0
POLYLINE
  5
16C
330
41
100
AcDbEntity
  8
_U+30EC_U+30A4_U+30E4_U+30FC 1
 62
   179
420
  2234388
370
     9
100
AcDb2dPolyline
 66
     1
 10
0.0
 20
0.0
 30
0.0
  0
VERTEX
  5
16D
330
16C
100
AcDbEntity
  8
_U+30EC_U+30A4_U+30E4_U+30FC 1
 62
   179
420
  2234388
370
     9
100
AcDbVertex
100
AcDb2dVertex
 10
79.82888185228444
 20
-134.330828021973
 30
0.0
  0
VERTEX
  5
16E
330
16C
100
AcDbEntity
  8
_U+30EC_U+30A4_U+30E4_U+30FC 1
 62
   179
420
  2234388
370
     9
100
AcDbVertex
100
AcDb2dVertex
 10
77.3691055362134
 20
-134.330828021973
 30
0.0
  0
SEQEND
  5
16F
330
16C
100
AcDbEntity
  8
_U+30EC_U+30A4_U+30E4_U+30FC 1
 62
   179
420
  2234388
370
     9
  0
POLYLINE
  5
170
330
41
100
AcDbEntity
  8
_U+30EC_U+30A4_U+30E4_U+30FC 1
 62
   179
420
  2234388
370
     9
100
AcDb2dPolyline
 66
     1
 10
0.0
 20
0.0
 30
0.0
  0
VERTEX
  5
171
330
170
100
AcDbEntity
  8
_U+30EC_U+30A4_U+30E4_U+30FC 1
 62
   179
420
  2234388
370
     9
100
AcDbVertex
100
AcDb2dVertex
 10
106.3693764529578
 20
-154.3302941280841
 30
0.0
  0
VERTEX
  5
172
330
170
100
AcDbEntity
  8
_U+30EC_U+30A4_U+30E4_U+30FC 1
 62
   179
420
  2234388
370
     9
100
AcDbVertex
100
AcDb2dVertex
 10
106.3693764529578
 20
-151.3303071843898
 30
0.0
  0
SEQEND
  5
173
330
170
100
AcDbEntity
  8
_U+30EC_U+30A4_U+30E4_U+30FC 1
 62
   179
420
  2234388
370
     9
  0
POLYLINE
  5
174
330
41
100
AcDbEntity
  8
_U+30EC_U+30A4_U+30E4_U+30FC 1
 62
   179
420
  2234388
370
     9
100
AcDb2dPolyline
 66
     1
 10
0.0
 20
0.0
 30
0.0
  0
VERTEX
  5
175
330
174
100
AcDbEntity
  8
_U+30EC_U+30A4_U+30E4_U+30FC 1
 62
   179
420
  2234388
370
     9
100
AcDbVertex
100
AcDb2dVertex
 10
104.9093703790945
 20
-154.3302941280841
 30
0.0
  0
VERTEX
  5
176
330
174
100
AcDbEntity
  8
_U+30EC_U+30A4_U+30E4_U+30FC 1
 62
   179
420
  2234388
370
     9
100
AcDbVertex
100
AcDb2dVertex
 10
107.3691486496737
 20
-154.3302941280841
 30
0.0
  0
SEQEND
  5
177
330
174
100
AcDbEntity
  8
_U+30EC_U+30A4_U+30E4_U+30FC 1
 62
   179
420
  2234388
370
     9
  0
POLYLINE
  5
178
330
41
100
AcDbEntity
  8
_U+30EC_U+30A4_U+30E4_U+30FC 1
 62
   179
420
  2234388
370
     9
100
AcDb2dPolyline
 66
     1
 10
0.0
 20
0.0
 30
0.0
  0
VERTEX
  5
179
330
178
100
AcDbEntity
  8
_U+30EC_U+30A4_U+30E4_U+30FC 1
 62
   179
420
  2234388
370
     9
100
AcDbVertex
100
AcDb2dVertex
 10
104.9093703790945
 20
-151.3303071843898
 30
0.0
  0
VERTEX
  5
17A
330
178
100
AcDbEntity
  8
_U+30EC_U+30A4_U+30E4_U+30FC 1
 62
   179
420
  2234388
370
     9
100
AcDbVertex
100
AcDb2dVertex
 10
107.3691486496737
 20
-151.3303071843898
 30
0.0
  0
SEQEND
  5
17B
330
178
100
AcDbEntity
  8
_U+30EC_U+30A4_U+30E4_U+30FC 1
 62
   179
420
  2234388
370
     9
  0
POLYLINE
  5
17C
330
41
100
AcDbEntity
  8
_U+30EC_U+30A4_U+30E4_U+30FC 1
 62
   179
420
  2234388
370
     9
100
AcDb2dPolyline
 66
     1
 10
0.0
 20
0.0
 30
0.0
  0
VERTEX
  5
17D
330
17C
100
AcDbEntity
  8
_U+30EC_U+30A4_U+30E4_U+30FC 1
 62
   179
420
  2234388
370
     9
100
AcDbVertex
100
AcDb2dVertex
 10
106.3693764529578
 20
-151.3303071843898
 30
0.0
  0
VERTEX
  5
17E
330
17C
100
AcDbEntity
  8
_U+30EC_U+30A4_U+30E4_U+30FC 1
 62
   179
420
  2234388
370
     9
100
AcDbVertex
100
AcDb2dVertex
 10
106.3693764529578
 20
-141.3305741313342
 30
0.0
  0
SEQEND
  5
17F
330
17C
100
AcDbEntity
  8
_U+30EC_U+30A4_U+30E4_U+30FC 1
 62
   179
420
  2234388
370
     9
  0
POLYLINE
  5
180
330
41
100
AcDbEntity
  8
_U+30EC_U+30A4_U+30E4_U+30FC 1
 62
   179
420
  2234388
370
     9
100
AcDb2dPolyline
 66
     1
 10
0.0
 20
0.0
 30
0.0
  0
VERTEX
  5
181
330
180
100
AcDbEntity
  8
_U+30EC_U+30A4_U+30E4_U+30FC 1
 62
   179
420
  2234388
370
     9
100
AcDbVertex
100
AcDb2dVertex
 10
98.9093638641614
 20
-141.3305741313342
 30
0.0
  0
VERTEX
  5
182
330
180
100
AcDbEntity
  8
_U+30EC_U+30A4_U+30E4_U+30FC 1
 62
   179
420
  2234388
370
     9
100
AcDbVertex
100
AcDb2dVertex
 10
107.3691486496737
 20
-141.3305741313342
 30
0.0
  0
SEQEND
  5
183
330
180
100
AcDbEntity
  8
_U+30EC_U+30A4_U+30E4_U+30FC 1
 62
   179
420
  2234388
370
     9
  0
POLYLINE
  5
184
330
41
100
AcDbEntity
  8
_U+30EC_U+30A4_U+30E4_U+30FC 1
 62
   179
420
  2234388
370
     9
100
AcDb2dPolyline
 66
     1
 10
0.0
 20
0.0
 30
0.0
  0
VERTEX
  5
185
330
184
100
AcDbEntity
  8
_U+30EC_U+30A4_U+30E4_U+30FC 1
 62
   179
420
  2234388
370
     9
100
AcDbVertex
100
AcDb2dVertex
 10
106.3693764529578
 20
-141.3305741313342
 30
0.0
  0
VERTEX
  5
186
330
184
100
AcDbEntity
  8
_U+30EC_U+30A4_U+30E4_U+30FC 1
 62
   179
420
  2234388
370
     9
100
AcDbVertex
100
AcDb2dVertex
 10
106.3693764529578
 20
-106.3306441400841
 30
0.0
  0
SEQEND
  5
187
330
184
100
AcDbEntity
  8
_U+30EC_U+30A4_U+30E4_U+30FC 1
 62
   179
420
  2234388
370
     9
  0
POLYLINE
  5
188
330
41
100
AcDbEntity
  8
_U+30EC_U+30A4_U+30E4_U+30FC 1
 62
   179
420
  2234388
370
     9
100
AcDb2dPolyline
 66
     1
 10
0.0
 20
0.0
 30
0.0
  0
VERTEX
  5
189
330
188
100
AcDbEntity
  8
_U+30EC_U+30A4_U+30E4_U+30FC 1
 62
   179
420
  2234388
370
     9
100
AcDbVertex
100
AcDb2dVertex
 10
98.9093638641614
 20
-106.3306441400841
 30
0.0
  0
VERTEX
  5
18A
330
188
100
AcDbEntity
  8
_U+30EC_U+30A4_U+30E4_U+30FC 1
 62
   179
420
  2234388
370
     9
100
AcDbVertex
100
AcDb2dVertex
 10
107.3691486496737
 20
-106.3306441400841
 30
0.0
  0
SEQEND
  5
18B
330
188
100
AcDbEntity
  8
_U+30EC_U+30A4_U+30E4_U+30FC 1
 62
   179
420
  2234388
370
     9
  0
INSERT
  5
18D
330
41
100
AcDbEntity
  8
_U+30EC_U+30A4_U+30E4_U+30FC 1
100
AcDbBlockReference
  2
block 3
 10
0.0
 20
0.0
 30
0.0
  0
INSERT
  5
1A1
330
41
100
AcDbEntity
  8
_U+30EC_U+30A4_U+30E4_U+30FC 1
100
AcDbBlockReference
  2
block 4
 10
0.0
 20
0.0
 30
0.0
  0
INSERT
  5
1A7
330
41
100
AcDbEntity
  8
_U+30EC_U+30A4_U+30E4_U+30FC 1
100
AcDbBlockReference
  2
block 5
 10
0.0
 20
0.0
 30
0.0
  0
INSERT
  5
1B0
330
41
100
AcDbEntity
  8
_U+30EC_U+30A4_U+30E4_U+30FC 1
100
AcDbBlockReference
  2
block 6
 10
0.0
 20
0.0
 30
0.0
  0
INSERT
  5
1B6
330
41
100
AcDbEntity
  8
_U+30EC_U+30A4_U+30E4_U+30FC 1
100
AcDbBlockReference
  2
block 7
 10
0.0
 20
0.0
 30
0.0
  0
INSERT
  5
1BF
330
41
100
AcDbEntity
  8
_U+30EC_U+30A4_U+30E4_U+30FC 1
100
AcDbBlockReference
  2
block 8
 10
0.0
 20
0.0
 30
0.0
  0
INSERT
  5
1C8
330
41
100
AcDbEntity
  8
_U+30EC_U+30A4_U+30E4_U+30FC 1
100
AcDbBlockReference
  2
block 9
 10
0.0
 20
0.0
 30
0.0
  0
INSERT
  5
1CE
330
41
100
AcDbEntity
  8
_U+30EC_U+30A4_U+30E4_U+30FC 1
100
AcDbBlockReference
  2
block 10
 10
0.0
 20
0.0
 30
0.0
  0
INSERT
  5
1D7
330
41
100
AcDbEntity
  8
_U+30EC_U+30A4_U+30E4_U+30FC 1
100
AcDbBlockReference
  2
block 11
 10
0.0
 20
0.0
 30
0.0
  0
ENDBLK
  5
44
330
41
100
AcDbEntity
  8
0
100
AcDbBlockEnd
  0
BLOCK
  5
18E
330
18C
100
AcDbEntity
  8
0
100
AcDbBlockBegin
  2
block 3
 70
     0
 10
0.0
 20
0.0
 30
0.0
  3
block 3
  1

  0
SPLINE
  5
190
330
18C
100
AcDbEntity
  8
_U+30EC_U+30A4_U+30E4_U+30FC 1
370
     0
100
AcDbSpline
210
0.0
220
0.0
230
1.0
 70
    11
 71
     3
 72
    20
 73
    16
 74
     0
 42
0.0000000001
 43
0.0000000001
 12
1.0
 22
0.0
 32
0.0
 13
1.0
 23
0.0
 33
0.0
 40
0.0
 40
0.0
 40
0.0
 40
0.0
 40
1.0
 40
1.0
 40
1.0
 40
2.0
 40
2.0
 40
2.0
 40
3.0
 40
3.0
 40
3.0
 40
4.0
 40
4.0
 40
4.0
 40
5.0
 40
5.0
 40
5.0
 40
5.0
 10
85.05079479210536
 20
-112.5717678212494
 30
0.0
 10
84.92952743102457
 20
-112.4637640777868
 30
0.0
 10
84.81549477046279
 20
-112.3748806142674
 30
0.0
 10
84.60999482476764
 20
-112.2649820682879
 30
0.0
 10
84.44187416508746
 20
-112.1740315474773
 30
0.0
 10
84.26824135263087
 20
-112.0935885678967
 30
0.0
 10
84.08513452758983
 20
-112.0575873200759
 30
0.0
 10
84.08513452758983
 20
-112.0575873200759
 30
0.0
 10
84.16368270465352
 20
-111.8629394251593
 30
0.0
 10
84.16368270465352
 20
-111.8629394251593
 30
0.0
 10
84.5335137049951
 20
-111.9709431686219
 30
0.0
 10
84.90334470533666
 20
-112.1633517514731
 30
0.0
 10
85.13485512194546
 20
-112.3538655318074
 30
0.0
 10
85.13485512194546
 20
-112.3538655318074
 30
0.0
 10
85.05079479210536
 20
-112.5717678212494
 30
0.0
 10
85.05079479210536
 20
-112.5717678212494
 30
0.0
  0
SPLINE
  5
191
330
18C
100
AcDbEntity
  8
_U+30EC_U+30A4_U+30E4_U+30FC 1
370
     0
100
AcDbSpline
210
0.0
220
0.0
230
1.0
 70
    11
 71
     3
 72
    17
 73
    13
 74
     0
 42
0.0000000001
 43
0.0000000001
 12
1.0
 22
0.0
 32
0.0
 13
1.0
 23
0.0
 33
0.0
 40
0.0
 40
0.0
 40
0.0
 40
0.0
 40
1.0
 40
1.0
 40
1.0
 40
2.0
 40
2.0
 40
2.0
 40
3.0
 40
3.0
 40
3.0
 40
4.0
 40
4.0
 40
4.0
 40
4.0
 10
84.95949976174624
 20
-111.803683782813
 30
0.0
 10
84.75933971405323
 20
-111.6365966517784
 30
0.0
 10
84.46805689077534
 20
-111.5096448831469
 30
0.0
 10
84.26634655011398
 20
-111.4738158901003
 30
0.0
 10
84.26634655011398
 20
-111.4738158901003
 30
0.0
 10
84.32801375929995
 20
-111.2748616258271
 30
0.0
 10
84.32801375929995
 20
-111.2748616258271
 30
0.0
 10
84.49234481394636
 20
-111.3065565042914
 30
0.0
 10
84.81721731820542
 20
-111.4546956101572
 30
0.0
 10
85.02840167145123
 20
-111.6069688306052
 30
0.0
 10
85.02840167145123
 20
-111.6069688306052
 30
0.0
 10
84.95949976174624
 20
-111.803683782813
 30
0.0
 10
84.95949976174624
 20
-111.803683782813
 30
0.0
  0
SPLINE
  5
192
330
18C
100
AcDbEntity
  8
_U+30EC_U+30A4_U+30E4_U+30FC 1
370
     0
100
AcDbSpline
210
0.0
220
0.0
230
1.0
 70
    11
 71
     3
 72
    20
 73
    16
 74
     0
 42
0.0000000001
 43
0.0000000001
 12
1.0
 22
0.0
 32
0.0
 13
1.0
 23
0.0
 33
0.0
 40
0.0
 40
0.0
 40
0.0
 40
0.0
 40
1.0
 40
1.0
 40
1.0
 40
2.0
 40
2.0
 40
2.0
 40
3.0
 40
3.0
 40
3.0
 40
4.0
 40
4.0
 40
4.0
 40
5.0
 40
5.0
 40
5.0
 40
5.0
 10
84.98740503517676
 20
-111.2367933207151
 30
0.0
 10
84.9312499787672
 20
-111.1818440477254
 30
0.0
 10
84.8678602218386
 20
-111.1182820360225
 30
0.0
 10
84.65116371581638
 20
-111.008383490043
 30
0.0
 10
84.44376896760434
 20
-110.904686115937
 30
0.0
 10
84.35781383524736
 20
-110.8878051480593
 30
0.0
 10
84.27013615514775
 20
-110.8707519254073
 30
0.0
 10
84.27013615514775
 20
-110.8707519254073
 30
0.0
 10
84.32990856181684
 20
-110.6655964892607
 30
0.0
 10
84.32990856181684
 20
-110.6655964892607
 30
0.0
 10
84.61188962728453
 20
-110.7291585009635
 30
0.0
 10
84.93882918883475
 20
-110.9236341411059
 30
0.0
 10
85.0528618493965
 20
-111.0209580885642
 30
0.0
 10
85.0528618493965
 20
-111.0209580885642
 30
0.0
 10
84.98740503517676
 20
-111.2367933207151
 30
0.0
 10
84.98740503517676
 20
-111.2367933207151
 30
0.0
  0
HATCH
  5
193
330
18C
100
AcDbEntity
  8
_U+30EC_U+30A4_U+30E4_U+30FC 1
 62
   179
420
  2234388
100
AcDbHatch
 10
0.0
 20
0.0
 30
0.0
210
0.0
220
0.0
230
1.0
  2
SOLID
 70
     1
 71
     0
 91
        3
 92
        1
 93
        1
 72
     4
 94
        3
 73
     0
 74
     1
 95
       20
 96
       16
 40
0.0
 40
0.0
 40
0.0
 40
0.0
 40
1.0
 40
1.0
 40
1.0
 40
2.0
 40
2.0
 40
2.0
 40
3.0
 40
3.0
 40
3.0
 40
4.0
 40
4.0
 40
4.0
 40
5.0
 40
5.0
 40
5.0
 40
5.0
 10
85.05079479210536
 20
-112.5717678212494
 10
84.92952743102457
 20
-112.4637640777868
 10
84.81549477046279
 20
-112.3748806142674
 10
84.60999482476764
 20
-112.2649820682879
 10
84.44187416508746
 20
-112.1740315474773
 10
84.26824135263087
 20
-112.0935885678967
 10
84.08513452758983
 20
-112.0575873200759
 10
84.08513452758983
 20
-112.0575873200759
 10
84.16368270465352
 20
-111.8629394251593
 10
84.16368270465352
 20
-111.8629394251593
 10
84.5335137049951
 20
-111.9709431686219
 10
84.90334470533666
 20
-112.1633517514731
 10
85.13485512194546
 20
-112.3538655318074
 10
85.13485512194546
 20
-112.3538655318074
 10
85.05079479210536
 20
-112.5717678212494
 10
85.05079479210536
 20
-112.5717678212494
 97
        0
 97
        0
 92
        1
 93
        1
 72
     4
 94
        3
 73
     0
 74
     1
 95
       17
 96
       13
 40
0.0
 40
0.0
 40
0.0
 40
0.0
 40
1.0
 40
1.0
 40
1.0
 40
2.0
 40
2.0
 40
2.0
 40
3.0
 40
3.0
 40
3.0
 40
4.0
 40
4.0
 40
4.0
 40
4.0
 10
84.95949976174624
 20
-111.803683782813
 10
84.75933971405323
 20
-111.6365966517784
 10
84.46805689077534
 20
-111.5096448831469
 10
84.26634655011398
 20
-111.4738158901003
 10
84.26634655011398
 20
-111.4738158901003
 10
84.32801375929995
 20
-111.2748616258271
 10
84.32801375929995
 20
-111.2748616258271
 10
84.49234481394636
 20
-111.3065565042914
 10
84.81721731820542
 20
-111.4546956101572
 10
85.02840167145123
 20
-111.6069688306052
 10
85.02840167145123
 20
-111.6069688306052
 10
84.95949976174624
 20
-111.803683782813
 10
84.95949976174624
 20
-111.803683782813
 97
        0
 97
        0
 92
        1
 93
        1
 72
     4
 94
        3
 73
     0
 74
     1
 95
       20
 96
       16
 40
0.0
 40
0.0
 40
0.0
 40
0.0
 40
1.0
 40
1.0
 40
1.0
 40
2.0
 40
2.0
 40
2.0
 40
3.0
 40
3.0
 40
3.0
 40
4.0
 40
4.0
 40
4.0
 40
5.0
 40
5.0
 40
5.0
 40
5.0
 10
84.98740503517676
 20
-111.2367933207151
 10
84.9312499787672
 20
-111.1818440477254
 10
84.8678602218386
 20
-111.1182820360225
 10
84.65116371581638
 20
-111.008383490043
 10
84.44376896760434
 20
-110.904686115937
 10
84.35781383524736
 20
-110.8878051480593
 10
84.27013615514775
 20
-110.8707519254073
 10
84.27013615514775
 20
-110.8707519254073
 10
84.32990856181684
 20
-110.6655964892607
 10
84.32990856181684
 20
-110.6655964892607
 10
84.61188962728453
 20
-110.7291585009635
 10
84.93882918883475
 20
-110.9236341411059
 10
85.0528618493965
 20
-111.0209580885642
 10
85.0528618493965
 20
-111.0209580885642
 10
84.98740503517676
 20
-111.2367933207151
 10
84.98740503517676
 20
-111.2367933207151
 97
        0
 97
        0
 75
     2
 76
     1
 98
        0
  0
SPLINE
  5
194
330
18C
100
AcDbEntity
  8
_U+30EC_U+30A4_U+30E4_U+30FC 1
370
     0
100
AcDbSpline
210
0.0
220
0.0
230
1.0
 70
    11
 71
     3
 72
    17
 73
    13
 74
     0
 42
0.0000000001
 43
0.0000000001
 12
1.0
 22
0.0
 32
0.0
 13
1.0
 23
0.0
 33
0.0
 40
0.0
 40
0.0
 40
0.0
 40
0.0
 40
1.0
 40
1.0
 40
1.0
 40
2.0
 40
2.0
 40
2.0
 40
3.0
 40
3.0
 40
3.0
 40
4.0
 40
4.0
 40
4.0
 40
4.0
 10
85.57169322947513
 20
-111.5900878627275
 30
0.0
 10
85.5382758032682
 20
-111.5055107685646
 30
0.0
 10
85.49693465744521
 20
-111.4102538783974
 30
0.0
 10
85.30469832936828
 20
-111.1649630798477
 30
0.0
 10
85.30469832936828
 20
-111.1649630798477
 30
0.0
 10
85.45421547342812
 20
-111.0252644579208
 30
0.0
 10
85.45421547342812
 20
-111.0252644579208
 30
0.0
 10
85.5586018666312
 20
-111.1310288893179
 30
0.0
 10
85.6857258900369
 20
-111.35943871999
 30
0.0
 10
85.73602428412156
 20
-111.4590019795137
 30
0.0
 10
85.73602428412156
 20
-111.4590019795137
 30
0.0
 10
85.57169322947513
 20
-111.5900878627275
 30
0.0
 10
85.57169322947513
 20
-111.5900878627275
 30
0.0
  0
SPLINE
  5
195
330
18C
100
AcDbEntity
  8
_U+30EC_U+30A4_U+30E4_U+30FC 1
370
     0
100
AcDbSpline
210
0.0
220
0.0
230
1.0
 70
    11
 71
     3
 72
    32
 73
    28
 74
     0
 42
0.0000000001
 43
0.0000000001
 12
1.0
 22
0.0
 32
0.0
 13
1.0
 23
0.0
 33
0.0
 40
0.0
 40
0.0
 40
0.0
 40
0.0
 40
1.0
 40
1.0
 40
1.0
 40
2.0
 40
2.0
 40
2.0
 40
3.0
 40
3.0
 40
3.0
 40
4.0
 40
4.0
 40
4.0
 40
5.0
 40
5.0
 40
5.0
 40
6.0
 40
6.0
 40
6.0
 40
7.0
 40
7.0
 40
7.0
 40
8.0
 40
8.0
 40
8.0
 40
9.0
 40
9.0
 40
9.0
 40
9.0
 10
86.71305336373841
 20
-111.1966579583119
 30
0.0
 10
86.6813584852741
 20
-111.207165499542
 30
0.0
 10
86.67756888024033
 20
-111.2092325568331
 30
0.0
 10
86.64759654951867
 20
-111.2219794101285
 30
0.0
 10
86.61417912331174
 20
-111.3742526305766
 30
0.0
 10
86.52081703566147
 20
-111.7952432988741
 30
0.0
 10
86.14323457047809
 20
-112.1909125153551
 30
0.0
 10
85.99957408874316
 20
-112.3411186785119
 30
0.0
 10
85.83696558183938
 20
-112.4680704471434
 30
0.0
 10
85.65024140653884
 20
-112.5336995161374
 30
0.0
 10
85.65024140653884
 20
-112.5336995161374
 30
0.0
 10
85.47833114182487
 20
-112.3495591624508
 30
0.0
 10
85.47833114182487
 20
-112.3495591624508
 30
0.0
 10
85.7491156469655
 20
-112.2670491255791
 30
0.0
 10
85.99957408874316
 20
-112.1104695357745
 30
0.0
 10
86.17320690119976
 20
-111.8629394251593
 30
0.0
 10
86.3489067709475
 20
-111.6112751999618
 30
0.0
 10
86.46845158428567
 20
-111.2114718688985
 30
0.0
 10
86.46638452699452
 20
-110.9935695794565
 30
0.0
 10
86.46638452699452
 20
-110.9935695794565
 30
0.0
 10
86.68893769534166
 20
-111.1141479214402
 30
0.0
 10
86.68893769534166
 20
-111.1141479214402
 30
0.0
 10
86.69996200089446
 20
-111.1205213480879
 30
0.0
 10
86.73716903213516
 20
-111.1437757426134
 30
0.0
 10
86.73716903213516
 20
-111.1711642517211
 30
0.0
 10
86.73716903213516
 20
-111.1839111050165
 30
0.0
 10
86.72235512154859
 20
-111.1923515889554
 30
0.0
 10
86.71305336373841
 20
-111.1966579583119
 30
0.0
  0
SPLINE
  5
196
330
18C
100
AcDbEntity
  8
_U+30EC_U+30A4_U+30E4_U+30FC 1
370
     0
100
AcDbSpline
210
0.0
220
0.0
230
1.0
 70
    11
 71
     3
 72
    17
 73
    13
 74
     0
 42
0.0000000001
 43
0.0000000001
 12
1.0
 22
0.0
 32
0.0
 13
1.0
 23
0.0
 33
0.0
 40
0.0
 40
0.0
 40
0.0
 40
0.0
 40
1.0
 40
1.0
 40
1.0
 40
2.0
 40
2.0
 40
2.0
 40
3.0
 40
3.0
 40
3.0
 40
4.0
 40
4.0
 40
4.0
 40
4.0
 10
86.42366534297742
 20
-110.9131265998759
 30
0.0
 10
86.3750894966354
 20
-110.8073621684787
 30
0.0
 10
86.3337483508124
 20
-110.7501735834236
 30
0.0
 10
86.2758707466602
 20
-110.6931572531427
 30
0.0
 10
86.2758707466602
 20
-110.6931572531427
 30
0.0
 10
86.38232419715442
 20
-110.6042737896232
 30
0.0
 10
86.38232419715442
 20
-110.6042737896232
 30
0.0
 10
86.45329316415057
 20
-110.6824774571384
 30
0.0
 10
86.49463430997356
 20
-110.7396660421936
 30
0.0
 10
86.54665525180084
 20
-110.828549505713
 30
0.0
 10
86.54665525180084
 20
-110.828549505713
 30
0.0
 10
86.42366534297742
 20
-110.9131265998759
 30
0.0
 10
86.42366534297742
 20
-110.9131265998759
 30
0.0
  0
SPLINE
  5
197
330
18C
100
AcDbEntity
  8
_U+30EC_U+30A4_U+30E4_U+30FC 1
370
     0
100
AcDbSpline
210
0.0
220
0.0
230
1.0
 70
    11
 71
     3
 72
    17
 73
    13
 74
     0
 42
0.0000000001
 43
0.0000000001
 12
1.0
 22
0.0
 32
0.0
 13
1.0
 23
0.0
 33
0.0
 40
0.0
 40
0.0
 40
0.0
 40
0.0
 40
1.0
 40
1.0
 40
1.0
 40
2.0
 40
2.0
 40
2.0
 40
3.0
 40
3.0
 40
3.0
 40
4.0
 40
4.0
 40
4.0
 40
4.0
 10
86.7447482422027
 20
-110.9343139371102
 30
0.0
 10
86.70547415367086
 20
-110.839057046943
 30
0.0
 10
86.68687063805051
 20
-110.8158026524176
 30
0.0
 10
86.59178600265761
 20
-110.7015977370816
 30
0.0
 10
86.59178600265761
 20
-110.7015977370816
 30
0.0
 10
86.68687063805051
 20
-110.6127142735621
 30
0.0
 10
86.68687063805051
 20
-110.6127142735621
 30
0.0
 10
86.76162921008043
 20
-110.676276285265
 30
0.0
 10
86.83638778211035
 20
-110.7925482578922
 30
0.0
 10
86.85326874998808
 20
-110.8581773268861
 30
0.0
 10
86.85326874998808
 20
-110.8581773268861
 30
0.0
 10
86.7447482422027
 20
-110.9343139371102
 30
0.0
 10
86.7447482422027
 20
-110.9343139371102
 30
0.0
  0
HATCH
  5
198
330
18C
100
AcDbEntity
  8
_U+30EC_U+30A4_U+30E4_U+30FC 1
 62
   179
420
  2234388
100
AcDbHatch
 10
0.0
 20
0.0
 30
0.0
210
0.0
220
0.0
230
1.0
  2
SOLID
 70
     1
 71
     0
 91
        4
 92
        1
 93
        1
 72
     4
 94
        3
 73
     0
 74
     1
 95
       17
 96
       13
 40
0.0
 40
0.0
 40
0.0
 40
0.0
 40
1.0
 40
1.0
 40
1.0
 40
2.0
 40
2.0
 40
2.0
 40
3.0
 40
3.0
 40
3.0
 40
4.0
 40
4.0
 40
4.0
 40
4.0
 10
85.57169322947513
 20
-111.5900878627275
 10
85.5382758032682
 20
-111.5055107685646
 10
85.49693465744521
 20
-111.4102538783974
 10
85.30469832936828
 20
-111.1649630798477
 10
85.30469832936828
 20
-111.1649630798477
 10
85.45421547342812
 20
-111.0252644579208
 10
85.45421547342812
 20
-111.0252644579208
 10
85.5586018666312
 20
-111.1310288893179
 10
85.6857258900369
 20
-111.35943871999
 10
85.73602428412156
 20
-111.4590019795137
 10
85.73602428412156
 20
-111.4590019795137
 10
85.57169322947513
 20
-111.5900878627275
 10
85.57169322947513
 20
-111.5900878627275
 97
        0
 97
        0
 92
        1
 93
        1
 72
     4
 94
        3
 73
     0
 74
     1
 95
       32
 96
       28
 40
0.0
 40
0.0
 40
0.0
 40
0.0
 40
1.0
 40
1.0
 40
1.0
 40
2.0
 40
2.0
 40
2.0
 40
3.0
 40
3.0
 40
3.0
 40
4.0
 40
4.0
 40
4.0
 40
5.0
 40
5.0
 40
5.0
 40
6.0
 40
6.0
 40
6.0
 40
7.0
 40
7.0
 40
7.0
 40
8.0
 40
8.0
 40
8.0
 40
9.0
 40
9.0
 40
9.0
 40
9.0
 10
86.71305336373841
 20
-111.1966579583119
 10
86.6813584852741
 20
-111.207165499542
 10
86.67756888024033
 20
-111.2092325568331
 10
86.64759654951867
 20
-111.2219794101285
 10
86.61417912331174
 20
-111.3742526305766
 10
86.52081703566147
 20
-111.7952432988741
 10
86.14323457047809
 20
-112.1909125153551
 10
85.99957408874316
 20
-112.3411186785119
 10
85.83696558183938
 20
-112.4680704471434
 10
85.65024140653884
 20
-112.5336995161374
 10
85.65024140653884
 20
-112.5336995161374
 10
85.47833114182487
 20
-112.3495591624508
 10
85.47833114182487
 20
-112.3495591624508
 10
85.7491156469655
 20
-112.2670491255791
 10
85.99957408874316
 20
-112.1104695357745
 10
86.17320690119976
 20
-111.8629394251593
 10
86.3489067709475
 20
-111.6112751999618
 10
86.46845158428567
 20
-111.2114718688985
 10
86.46638452699452
 20
-110.9935695794565
 10
86.46638452699452
 20
-110.9935695794565
 10
86.68893769534166
 20
-111.1141479214402
 10
86.68893769534166
 20
-111.1141479214402
 10
86.69996200089446
 20
-111.1205213480879
 10
86.73716903213516
 20
-111.1437757426134
 10
86.73716903213516
 20
-111.1711642517211
 10
86.73716903213516
 20
-111.1839111050165
 10
86.72235512154859
 20
-111.1923515889554
 10
86.71305336373841
 20
-111.1966579583119
 97
        0
 97
        0
 92
        1
 93
        1
 72
     4
 94
        3
 73
     0
 74
     1
 95
       17
 96
       13
 40
0.0
 40
0.0
 40
0.0
 40
0.0
 40
1.0
 40
1.0
 40
1.0
 40
2.0
 40
2.0
 40
2.0
 40
3.0
 40
3.0
 40
3.0
 40
4.0
 40
4.0
 40
4.0
 40
4.0
 10
86.42366534297742
 20
-110.9131265998759
 10
86.3750894966354
 20
-110.8073621684787
 10
86.3337483508124
 20
-110.7501735834236
 10
86.2758707466602
 20
-110.6931572531427
 10
86.2758707466602
 20
-110.6931572531427
 10
86.38232419715442
 20
-110.6042737896232
 10
86.38232419715442
 20
-110.6042737896232
 10
86.45329316415057
 20
-110.6824774571384
 10
86.49463430997356
 20
-110.7396660421936
 10
86.54665525180084
 20
-110.828549505713
 10
86.54665525180084
 20
-110.828549505713
 10
86.42366534297742
 20
-110.9131265998759
 10
86.42366534297742
 20
-110.9131265998759
 97
        0
 97
        0
 92
        1
 93
        1
 72
     4
 94
        3
 73
     0
 74
     1
 95
       17
 96
       13
 40
0.0
 40
0.0
 40
0.0
 40
0.0
 40
1.0
 40
1.0
 40
1.0
 40
2.0
 40
2.0
 40
2.0
 40
3.0
 40
3.0
 40
3.0
 40
4.0
 40
4.0
 40
4.0
 40
4.0
 10
86.7447482422027
 20
-110.9343139371102
 10
86.70547415367086
 20
-110.839057046943
 10
86.68687063805051
 20
-110.8158026524176
 10
86.59178600265761
 20
-110.7015977370816
 10
86.59178600265761
 20
-110.7015977370816
 10
86.68687063805051
 20
-110.6127142735621
 10
86.68687063805051
 20
-110.6127142735621
 10
86.76162921008043
 20
-110.676276285265
 10
86.83638778211035
 20
-110.7925482578922
 10
86.85326874998808
 20
-110.8581773268861
 10
86.85326874998808
 20
-110.8581773268861
 10
86.7447482422027
 20
-110.9343139371102
 10
86.7447482422027
 20
-110.9343139371102
 97
        0
 97
        0
 75
     2
 76
     1
 98
        0
  0
SPLINE
  5
199
330
18C
100
AcDbEntity
  8
_U+30EC_U+30A4_U+30E4_U+30FC 1
370
     0
100
AcDbSpline
210
0.0
220
0.0
230
1.0
 70
    11
 71
     3
 72
    98
 73
    94
 74
     0
 42
0.0000000001
 43
0.0000000001
 12
1.0
 22
0.0
 32
0.0
 13
1.0
 23
0.0
 33
0.0
 40
0.0
 40
0.0
 40
0.0
 40
0.0
 40
1.0
 40
1.0
 40
1.0
 40
2.0
 40
2.0
 40
2.0
 40
3.0
 40
3.0
 40
3.0
 40
4.0
 40
4.0
 40
4.0
 40
5.0
 40
5.0
 40
5.0
 40
6.0
 40
6.0
 40
6.0
 40
7.0
 40
7.0
 40
7.0
 40
8.0
 40
8.0
 40
8.0
 40
9.0
 40
9.0
 40
9.0
 40
10.0
 40
10.0
 40
10.0
 40
11.0
 40
11.0
 40
11.0
 40
12.0
 40
12.0
 40
12.0
 40
13.0
 40
13.0
 40
13.0
 40
14.0
 40
14.0
 40
14.0
 40
15.0
 40
15.0
 40
15.0
 40
16.0
 40
16.0
 40
16.0
 40
17.0
 40
17.0
 40
17.0
 40
18.0
 40
18.0
 40
18.0
 40
19.0
 40
19.0
 40
19.0
 40
20.0
 40
20.0
 40
20.0
 40
21.0
 40
21.0
 40
21.0
 40
22.0
 40
22.0
 40
22.0
 40
23.0
 40
23.0
 40
23.0
 40
24.0
 40
24.0
 40
24.0
 40
25.0
 40
25.0
 40
25.0
 40
26.0
 40
26.0
 40
26.0
 40
27.0
 40
27.0
 40
27.0
 40
28.0
 40
28.0
 40
28.0
 40
29.0
 40
29.0
 40
29.0
 40
30.0
 40
30.0
 40
30.0
 40
31.0
 40
31.0
 40
31.0
 40
31.0
 10
87.8299533200564
 20
-112.5399006880109
 30
0.0
 10
87.8299533200564
 20
-112.5399006880109
 30
0.0
 10
87.71626516904315
 20
-112.3728135569762
 30
0.0
 10
87.71626516904315
 20
-112.3728135569762
 30
0.0
 10
87.98326006915002
 20
-112.3304388825077
 30
0.0
 10
88.16998424445056
 20
-112.1569783248253
 30
0.0
 10
88.16998424445056
 20
-111.9242621247967
 30
0.0
 10
88.16998424445056
 20
-111.8672457945158
 30
0.0
 10
88.15138072883022
 20
-111.6409030211349
 30
0.0
 10
87.934684222808
 20
-111.5985283466663
 30
0.0
 10
87.87301701362203
 20
-111.7995496682307
 30
0.0
 10
87.77207571590421
 20
-111.9814507098519
 30
0.0
 10
87.6490858070808
 20
-112.1421644142388
 30
0.0
 10
87.65838756489096
 20
-112.1824720314162
 30
0.0
 10
87.6618326603762
 20
-112.1909125153551
 30
0.0
 10
87.69387204838904
 20
-112.2734225522268
 30
0.0
 10
87.69387204838904
 20
-112.2734225522268
 30
0.0
 10
87.54056529929542
 20
-112.389694524854
 30
0.0
 10
87.54056529929542
 20
-112.389694524854
 30
0.0
 10
87.51644963089866
 20
-112.3263047679254
 30
0.0
 10
87.51266002586489
 20
-112.3178642839865
 30
0.0
 10
87.50335826805473
 20
-112.2839300934568
 30
0.0
 10
87.43583439654383
 20
-112.3474921051597
 30
0.0
 10
87.3293809460496
 20
-112.4425767405526
 30
0.0
 10
87.19329967438223
 20
-112.4425767405526
 30
0.0
 10
87.06410859368536
 20
-112.4425767405526
 30
0.0
 10
86.96144474822492
 20
-112.3559325890985
 30
0.0
 10
86.96144474822492
 20
-112.152844210243
 30
0.0
 10
86.96144474822492
 20
-111.858805310577
 30
0.0
 10
87.15574813359301
 20
-111.5964612893752
 30
0.0
 10
87.41550833318085
 20
-111.4948309725603
 30
0.0
 10
87.40999618040445
 20
-111.4186943623363
 30
0.0
 10
87.42102048595724
 20
-111.3129299309391
 30
0.0
 10
87.4285996960248
 20
-111.2600477152405
 30
0.0
 10
87.24359806846688
 20
-111.2791679951837
 30
0.0
 10
87.19123261709109
 20
-111.2791679951837
 30
0.0
 10
87.11854110235231
 20
-111.2791679951837
 30
0.0
 10
87.11854110235231
 20
-111.2791679951837
 30
0.0
 10
87.05136174038994
 20
-111.0760796163282
 30
0.0
 10
87.05136174038994
 20
-111.0760796163282
 30
0.0
 10
87.09959307718344
 20
-111.0908935269148
 30
0.0
 10
87.15402558585039
 20
-111.1057074375014
 30
0.0
 10
87.30147567261908
 20
-111.1057074375014
 30
0.0
 10
87.35935327677127
 20
-111.1057074375014
 30
0.0
 10
87.3969048175605
 20
-111.1034681254359
 30
0.0
 10
87.44169105886874
 20
-111.0993340108536
 30
0.0
 10
87.46201712223173
 20
-110.894178574707
 30
0.0
 10
87.46408417952287
 20
-110.8707519254073
 30
0.0
 10
87.49198945295339
 20
-110.7057318516639
 30
0.0
 10
87.49198945295339
 20
-110.7057318516639
 30
0.0
 10
87.68629283832149
 20
-110.7649874940101
 30
0.0
 10
87.68629283832149
 20
-110.7649874940101
 30
0.0
 10
87.72005477407693
 20
-110.7756672900144
 30
0.0
 10
87.72349986956219
 20
-110.7777343473056
 30
0.0
 10
87.72349986956219
 20
-110.7925482578922
 30
0.0
 10
87.72349986956219
 20
-110.8158026524176
 30
0.0
 10
87.71798771678579
 20
-110.8201090217741
 30
0.0
 10
87.66768932270114
 20
-110.8559380148207
 30
0.0
 10
87.65253090256604
 20
-110.9174329692325
 30
0.0
 10
87.64322914475586
 20
-110.9596353889268
 30
0.0
 10
87.62290308139289
 20
-111.0717732469716
 30
0.0
 10
87.85441349800168
 20
-111.0337049418596
 30
0.0
 10
87.97016870630607
 20
-110.9935695794565
 30
0.0
 10
88.14380151876267
 20
-110.9110595425847
 30
0.0
 10
88.14380151876267
 20
-110.9110595425847
 30
0.0
 10
88.13071015591872
 20
-111.1119086093748
 30
0.0
 10
88.13071015591872
 20
-111.1119086093748
 30
0.0
 10
87.93296167506537
 20
-111.1711642517211
 30
0.0
 10
87.82271861953738
 20
-111.1966579583119
 30
0.0
 10
87.59465329841385
 20
-111.2410996900717
 30
0.0
 10
87.57777233053612
 20
-111.3361843254646
 30
0.0
 10
87.57604978279349
 20
-111.3742526305766
 30
0.0
 10
87.57432723505087
 20
-111.4419487568617
 30
0.0
 10
87.63220483920307
 20
-111.4186943623363
 30
0.0
 10
87.67147892773491
 20
-111.4081868211063
 30
0.0
 10
87.80962725669343
 20
-111.4102538783974
 30
0.0
 10
87.82444116728
 20
-111.3361843254646
 30
0.0
 10
87.82650822457116
 20
-111.321370414878
 30
0.0
 10
87.82650822457116
 20
-111.283302109766
 30
0.0
 10
87.82650822457116
 20
-111.283302109766
 30
0.0
 10
88.01495494761433
 20
-111.3129299309391
 30
0.0
 10
88.01495494761433
 20
-111.3129299309391
 30
0.0
 10
88.00772024709529
 20
-111.3446248094034
 30
0.0
 10
88.00393064206152
 20
-111.3532375481166
 30
0.0
 10
87.9815375214074
 20
-111.4378146422794
 30
0.0
 10
88.04113767330222
 20
-111.4546956101572
 30
0.0
 10
88.14759112379645
 20
-111.490696857978
 30
0.0
 10
88.23716360641293
 20
-111.6049017733141
 30
0.0
 10
88.32122393625303
 20
-111.7149725740678
 30
0.0
 10
88.34361705690715
 20
-111.8439913999904
 30
0.0
 10
88.34361705690715
 20
-111.9306355514444
 30
0.0
 10
88.34361705690715
 20
-112.1592176368908
 30
0.0
 10
88.17928600226074
 20
-112.4468831099091
 30
0.0
 10
87.8299533200564
 20
-112.5399006880109
 30
0.0
  0
SPLINE
  5
19A
330
18C
100
AcDbEntity
  8
_U+30EC_U+30A4_U+30E4_U+30FC 1
370
     0
100
AcDbSpline
210
0.0
220
0.0
230
1.0
 70
    11
 71
     3
 72
    23
 73
    19
 74
     0
 42
0.0000000001
 43
0.0000000001
 12
1.0
 22
0.0
 32
0.0
 13
1.0
 23
0.0
 33
0.0
 40
0.0
 40
0.0
 40
0.0
 40
0.0
 40
1.0
 40
1.0
 40
1.0
 40
2.0
 40
2.0
 40
2.0
 40
3.0
 40
3.0
 40
3.0
 40
4.0
 40
4.0
 40
4.0
 40
5.0
 40
5.0
 40
5.0
 40
6.0
 40
6.0
 40
6.0
 40
6.0
 10
87.40999618040445
 20
-111.6725978995992
 30
0.0
 10
87.3555636717375
 20
-111.7042927780635
 30
0.0
 10
87.31628958320566
 20
-111.727547172589
 30
0.0
 10
87.24911022124328
 20
-111.8122965215261
 30
0.0
 10
87.18951006934846
 20
-111.8905001890413
 30
0.0
 10
87.12956540790512
 20
-111.9898911937907
 30
0.0
 10
87.12956540790512
 20
-112.1295898157176
 30
0.0
 10
87.12956540790512
 20
-112.2394883616971
 30
0.0
 10
87.20811358496881
 20
-112.2501681577014
 30
0.0
 10
87.23222925336556
 20
-112.2501681577014
 30
0.0
 10
87.26599118912101
 20
-112.2501681577014
 30
0.0
 10
87.30698782539548
 20
-112.2332871898236
 30
0.0
 10
87.33696015611716
 20
-112.2141669098805
 30
0.0
 10
87.39483776026935
 20
-112.1781656620596
 30
0.0
 10
87.42653263873365
 20
-112.1380302996565
 30
0.0
 10
87.45650496945532
 20
-112.1020290518356
 30
0.0
 10
87.4285996960248
 20
-111.9561292580353
 30
0.0
 10
87.4134412758897
 20
-111.7487345098232
 30
0.0
 10
87.40999618040445
 20
-111.6725978995992
 30
0.0
  0
SPLINE
  5
19B
330
18C
100
AcDbEntity
  8
_U+30EC_U+30A4_U+30E4_U+30FC 1
370
     0
100
AcDbSpline
210
0.0
220
0.0
230
1.0
 70
    11
 71
     3
 72
    14
 73
    10
 74
     0
 42
0.0000000001
 43
0.0000000001
 12
1.0
 22
0.0
 32
0.0
 13
1.0
 23
0.0
 33
0.0
 40
0.0
 40
0.0
 40
0.0
 40
0.0
 40
1.0
 40
1.0
 40
1.0
 40
2.0
 40
2.0
 40
2.0
 40
3.0
 40
3.0
 40
3.0
 40
3.0
 10
87.56847057272594
 20
-111.6028347160229
 30
0.0
 10
87.57983938782726
 20
-111.7868028149352
 30
0.0
 10
87.58535154060367
 20
-111.831244546695
 30
0.0
 10
87.59844290344762
 20
-111.9328748635098
 30
0.0
 10
87.68629283832149
 20
-111.8016167255218
 30
0.0
 10
87.73865828969728
 20
-111.6789713262469
 30
0.0
 10
87.76863062041896
 20
-111.5689005254932
 30
0.0
 10
87.68078068554509
 20
-111.566833468202
 30
0.0
 10
87.63943953972209
 20
-111.5752739521409
 30
0.0
 10
87.56847057272594
 20
-111.6028347160229
 30
0.0
  0
HATCH
  5
19C
330
18C
100
AcDbEntity
  8
_U+30EC_U+30A4_U+30E4_U+30FC 1
 62
   179
420
  2234388
100
AcDbHatch
 10
0.0
 20
0.0
 30
0.0
210
0.0
220
0.0
230
1.0
  2
SOLID
 70
     1
 71
     0
 91
        3
 92
        1
 93
        1
 72
     4
 94
        3
 73
     0
 74
     1
 95
       98
 96
       94
 40
0.0
 40
0.0
 40
0.0
 40
0.0
 40
1.0
 40
1.0
 40
1.0
 40
2.0
 40
2.0
 40
2.0
 40
3.0
 40
3.0
 40
3.0
 40
4.0
 40
4.0
 40
4.0
 40
5.0
 40
5.0
 40
5.0
 40
6.0
 40
6.0
 40
6.0
 40
7.0
 40
7.0
 40
7.0
 40
8.0
 40
8.0
 40
8.0
 40
9.0
 40
9.0
 40
9.0
 40
10.0
 40
10.0
 40
10.0
 40
11.0
 40
11.0
 40
11.0
 40
12.0
 40
12.0
 40
12.0
 40
13.0
 40
13.0
 40
13.0
 40
14.0
 40
14.0
 40
14.0
 40
15.0
 40
15.0
 40
15.0
 40
16.0
 40
16.0
 40
16.0
 40
17.0
 40
17.0
 40
17.0
 40
18.0
 40
18.0
 40
18.0
 40
19.0
 40
19.0
 40
19.0
 40
20.0
 40
20.0
 40
20.0
 40
21.0
 40
21.0
 40
21.0
 40
22.0
 40
22.0
 40
22.0
 40
23.0
 40
23.0
 40
23.0
 40
24.0
 40
24.0
 40
24.0
 40
25.0
 40
25.0
 40
25.0
 40
26.0
 40
26.0
 40
26.0
 40
27.0
 40
27.0
 40
27.0
 40
28.0
 40
28.0
 40
28.0
 40
29.0
 40
29.0
 40
29.0
 40
30.0
 40
30.0
 40
30.0
 40
31.0
 40
31.0
 40
31.0
 40
31.0
 10
87.8299533200564
 20
-112.5399006880109
 10
87.8299533200564
 20
-112.5399006880109
 10
87.71626516904315
 20
-112.3728135569762
 10
87.71626516904315
 20
-112.3728135569762
 10
87.98326006915002
 20
-112.3304388825077
 10
88.16998424445056
 20
-112.1569783248253
 10
88.16998424445056
 20
-111.9242621247967
 10
88.16998424445056
 20
-111.8672457945158
 10
88.15138072883022
 20
-111.6409030211349
 10
87.934684222808
 20
-111.5985283466663
 10
87.87301701362203
 20
-111.7995496682307
 10
87.77207571590421
 20
-111.9814507098519
 10
87.6490858070808
 20
-112.1421644142388
 10
87.65838756489096
 20
-112.1824720314162
 10
87.6618326603762
 20
-112.1909125153551
 10
87.69387204838904
 20
-112.2734225522268
 10
87.69387204838904
 20
-112.2734225522268
 10
87.54056529929542
 20
-112.389694524854
 10
87.54056529929542
 20
-112.389694524854
 10
87.51644963089866
 20
-112.3263047679254
 10
87.51266002586489
 20
-112.3178642839865
 10
87.50335826805473
 20
-112.2839300934568
 10
87.43583439654383
 20
-112.3474921051597
 10
87.3293809460496
 20
-112.4425767405526
 10
87.19329967438223
 20
-112.4425767405526
 10
87.06410859368536
 20
-112.4425767405526
 10
86.96144474822492
 20
-112.3559325890985
 10
86.96144474822492
 20
-112.152844210243
 10
86.96144474822492
 20
-111.858805310577
 10
87.15574813359301
 20
-111.5964612893752
 10
87.41550833318085
 20
-111.4948309725603
 10
87.40999618040445
 20
-111.4186943623363
 10
87.42102048595724
 20
-111.3129299309391
 10
87.4285996960248
 20
-111.2600477152405
 10
87.24359806846688
 20
-111.2791679951837
 10
87.19123261709109
 20
-111.2791679951837
 10
87.11854110235231
 20
-111.2791679951837
 10
87.11854110235231
 20
-111.2791679951837
 10
87.05136174038994
 20
-111.0760796163282
 10
87.05136174038994
 20
-111.0760796163282
 10
87.09959307718344
 20
-111.0908935269148
 10
87.15402558585039
 20
-111.1057074375014
 10
87.30147567261908
 20
-111.1057074375014
 10
87.35935327677127
 20
-111.1057074375014
 10
87.3969048175605
 20
-111.1034681254359
 10
87.44169105886874
 20
-111.0993340108536
 10
87.46201712223173
 20
-110.894178574707
 10
87.46408417952287
 20
-110.8707519254073
 10
87.49198945295339
 20
-110.7057318516639
 10
87.49198945295339
 20
-110.7057318516639
 10
87.68629283832149
 20
-110.7649874940101
 10
87.68629283832149
 20
-110.7649874940101
 10
87.72005477407693
 20
-110.7756672900144
 10
87.72349986956219
 20
-110.7777343473056
 10
87.72349986956219
 20
-110.7925482578922
 10
87.72349986956219
 20
-110.8158026524176
 10
87.71798771678579
 20
-110.8201090217741
 10
87.66768932270114
 20
-110.8559380148207
 10
87.65253090256604
 20
-110.9174329692325
 10
87.64322914475586
 20
-110.9596353889268
 10
87.62290308139289
 20
-111.0717732469716
 10
87.85441349800168
 20
-111.0337049418596
 10
87.97016870630607
 20
-110.9935695794565
 10
88.14380151876267
 20
-110.9110595425847
 10
88.14380151876267
 20
-110.9110595425847
 10
88.13071015591872
 20
-111.1119086093748
 10
88.13071015591872
 20
-111.1119086093748
 10
87.93296167506537
 20
-111.1711642517211
 10
87.82271861953738
 20
-111.1966579583119
 10
87.59465329841385
 20
-111.2410996900717
 10
87.57777233053612
 20
-111.3361843254646
 10
87.57604978279349
 20
-111.3742526305766
 10
87.57432723505087
 20
-111.4419487568617
 10
87.63220483920307
 20
-111.4186943623363
 10
87.67147892773491
 20
-111.4081868211063
 10
87.80962725669343
 20
-111.4102538783974
 10
87.82444116728
 20
-111.3361843254646
 10
87.82650822457116
 20
-111.321370414878
 10
87.82650822457116
 20
-111.283302109766
 10
87.82650822457116
 20
-111.283302109766
 10
88.01495494761433
 20
-111.3129299309391
 10
88.01495494761433
 20
-111.3129299309391
 10
88.00772024709529
 20
-111.3446248094034
 10
88.00393064206152
 20
-111.3532375481166
 10
87.9815375214074
 20
-111.4378146422794
 10
88.04113767330222
 20
-111.4546956101572
 10
88.14759112379645
 20
-111.490696857978
 10
88.23716360641293
 20
-111.6049017733141
 10
88.32122393625303
 20
-111.7149725740678
 10
88.34361705690715
 20
-111.8439913999904
 10
88.34361705690715
 20
-111.9306355514444
 10
88.34361705690715
 20
-112.1592176368908
 10
88.17928600226074
 20
-112.4468831099091
 10
87.8299533200564
 20
-112.5399006880109
 97
        0
 97
        0
 92
        1
 93
        1
 72
     4
 94
        3
 73
     0
 74
     1
 95
       23
 96
       19
 40
0.0
 40
0.0
 40
0.0
 40
0.0
 40
1.0
 40
1.0
 40
1.0
 40
2.0
 40
2.0
 40
2.0
 40
3.0
 40
3.0
 40
3.0
 40
4.0
 40
4.0
 40
4.0
 40
5.0
 40
5.0
 40
5.0
 40
6.0
 40
6.0
 40
6.0
 40
6.0
 10
87.40999618040445
 20
-111.6725978995992
 10
87.3555636717375
 20
-111.7042927780635
 10
87.31628958320566
 20
-111.727547172589
 10
87.24911022124328
 20
-111.8122965215261
 10
87.18951006934846
 20
-111.8905001890413
 10
87.12956540790512
 20
-111.9898911937907
 10
87.12956540790512
 20
-112.1295898157176
 10
87.12956540790512
 20
-112.2394883616971
 10
87.20811358496881
 20
-112.2501681577014
 10
87.23222925336556
 20
-112.2501681577014
 10
87.26599118912101
 20
-112.2501681577014
 10
87.30698782539548
 20
-112.2332871898236
 10
87.33696015611716
 20
-112.2141669098805
 10
87.39483776026935
 20
-112.1781656620596
 10
87.42653263873365
 20
-112.1380302996565
 10
87.45650496945532
 20
-112.1020290518356
 10
87.4285996960248
 20
-111.9561292580353
 10
87.4134412758897
 20
-111.7487345098232
 10
87.40999618040445
 20
-111.6725978995992
 97
        0
 97
        0
 92
        1
 93
        1
 72
     4
 94
        3
 73
     0
 74
     1
 95
       14
 96
       10
 40
0.0
 40
0.0
 40
0.0
 40
0.0
 40
1.0
 40
1.0
 40
1.0
 40
2.0
 40
2.0
 40
2.0
 40
3.0
 40
3.0
 40
3.0
 40
3.0
 10
87.56847057272594
 20
-111.6028347160229
 10
87.57983938782726
 20
-111.7868028149352
 10
87.58535154060367
 20
-111.831244546695
 10
87.59844290344762
 20
-111.9328748635098
 10
87.68629283832149
 20
-111.8016167255218
 10
87.73865828969728
 20
-111.6789713262469
 10
87.76863062041896
 20
-111.5689005254932
 10
87.68078068554509
 20
-111.566833468202
 10
87.63943953972209
 20
-111.5752739521409
 10
87.56847057272594
 20
-111.6028347160229
 97
        0
 97
        0
 75
     2
 76
     1
 98
        0
  0
SPLINE
  5
19D
330
18C
100
AcDbEntity
  8
_U+30EC_U+30A4_U+30E4_U+30FC 1
370
     0
100
AcDbSpline
210
0.0
220
0.0
230
1.0
 70
    11
 71
     3
 72
    41
 73
    37
 74
     0
 42
0.0000000001
 43
0.0000000001
 12
1.0
 22
0.0
 32
0.0
 13
1.0
 23
0.0
 33
0.0
 40
0.0
 40
0.0
 40
0.0
 40
0.0
 40
1.0
 40
1.0
 40
1.0
 40
2.0
 40
2.0
 40
2.0
 40
3.0
 40
3.0
 40
3.0
 40
4.0
 40
4.0
 40
4.0
 40
5.0
 40
5.0
 40
5.0
 40
6.0
 40
6.0
 40
6.0
 40
7.0
 40
7.0
 40
7.0
 40
8.0
 40
8.0
 40
8.0
 40
9.0
 40
9.0
 40
9.0
 40
10.0
 40
10.0
 40
10.0
 40
11.0
 40
11.0
 40
11.0
 40
12.0
 40
12.0
 40
12.0
 40
12.0
 10
88.8255859152936
 20
-111.9857570792084
 30
0.0
 10
88.8255859152936
 20
-111.9857570792084
 30
0.0
 10
88.68950464362624
 20
-112.0238253843204
 30
0.0
 10
88.68950464362624
 20
-112.0238253843204
 30
0.0
 10
88.61853567663009
 20
-111.8355509160515
 30
0.0
 10
88.5923529509422
 20
-111.6133422572529
 30
0.0
 10
88.5923529509422
 20
-111.4081868211063
 30
0.0
 10
88.5923529509422
 20
-111.2178452955462
 30
0.0
 10
88.62232528166386
 20
-110.9787556688699
 30
0.0
 10
88.66332191793833
 20
-110.7544799527801
 30
0.0
 10
88.66332191793833
 20
-110.7544799527801
 30
0.0
 10
88.86692706111661
 20
-110.800988741831
 30
0.0
 10
88.86692706111661
 20
-110.800988741831
 30
0.0
 10
88.88174097170318
 20
-110.8052951111876
 30
0.0
 10
88.90413409235731
 20
-110.8116685378353
 30
0.0
 10
88.90413409235731
 20
-110.8349229323607
 30
0.0
 10
88.90413409235731
 20
-110.8538709575296
 30
0.0
 10
88.88174097170318
 20
-110.8707519254073
 30
0.0
 10
88.83867727813755
 20
-110.8983126892893
 30
0.0
 10
88.7677083111414
 20
-111.0697061896805
 30
0.0
 10
88.74910479552106
 20
-111.2621147725317
 30
0.0
 10
88.74910479552106
 20
-111.4505614955749
 30
0.0
 10
88.74910479552106
 20
-111.5203246791512
 30
0.0
 10
88.75668400558861
 20
-111.6388359638438
 30
0.0
 10
88.77149791617518
 20
-111.6388359638438
 30
0.0
 10
88.77907712624274
 20
-111.6388359638438
 30
0.0
 10
88.78079967398536
 20
-111.6345295944872
 30
0.0
 10
88.79595809412046
 20
-111.5985283466663
 30
0.0
 10
88.8145616097408
 20
-111.5540866149066
 30
0.0
 10
88.92480466526881
 20
-111.2812350524748
 30
0.0
 10
88.9358289708216
 20
-111.2600477152405
 30
0.0
 10
88.9358289708216
 20
-111.2600477152405
 30
0.0
 10
89.02574596298662
 20
-111.3954399678109
 30
0.0
 10
89.02574596298662
 20
-111.3954399678109
 30
0.0
 10
88.94340818088915
 20
-111.5859537481452
 30
0.0
 10
88.8517686409815
 20
-111.793176241583
 30
0.0
 10
88.8255859152936
 20
-111.9857570792084
 30
0.0
  0
SPLINE
  5
19E
330
18C
100
AcDbEntity
  8
_U+30EC_U+30A4_U+30E4_U+30FC 1
370
     0
100
AcDbSpline
210
0.0
220
0.0
230
1.0
 70
    11
 71
     3
 72
    32
 73
    28
 74
     0
 42
0.0000000001
 43
0.0000000001
 12
1.0
 22
0.0
 32
0.0
 13
1.0
 23
0.0
 33
0.0
 40
0.0
 40
0.0
 40
0.0
 40
0.0
 40
1.0
 40
1.0
 40
1.0
 40
2.0
 40
2.0
 40
2.0
 40
3.0
 40
3.0
 40
3.0
 40
4.0
 40
4.0
 40
4.0
 40
5.0
 40
5.0
 40
5.0
 40
6.0
 40
6.0
 40
6.0
 40
7.0
 40
7.0
 40
7.0
 40
8.0
 40
8.0
 40
8.0
 40
9.0
 40
9.0
 40
9.0
 40
9.0
 10
89.63656139252141
 20
-110.8623114414684
 30
0.0
 10
89.63828394026405
 20
-110.9195000265236
 30
0.0
 10
89.64379609304045
 20
-111.0548922790939
 30
0.0
 10
89.64379609304045
 20
-111.2240464674197
 30
0.0
 10
89.64379609304045
 20
-111.7022257207724
 30
0.0
 10
89.59728730398957
 20
-112.1824720314162
 30
0.0
 10
89.26655813740558
 20
-112.49339189896
 30
0.0
 10
89.26655813740558
 20
-112.49339189896
 30
0.0
 10
89.06467554196995
 20
-112.3643730730374
 30
0.0
 10
89.06467554196995
 20
-112.3643730730374
 30
0.0
 10
89.11531844560312
 20
-112.3347452518642
 30
0.0
 10
89.2403754117177
 20
-112.2629150109968
 30
0.0
 10
89.32994789433418
 20
-112.059654377367
 30
0.0
 10
89.44019094986218
 20
-111.8059230948784
 30
0.0
 10
89.46086152277368
 20
-111.5180853670858
 30
0.0
 10
89.46086152277368
 20
-111.3341172681734
 30
0.0
 10
89.46086152277368
 20
-111.141536430548
 30
0.0
 10
89.44398055489596
 20
-110.9470607904056
 30
0.0
 10
89.4253770392756
 20
-110.7565470100713
 30
0.0
 10
89.4253770392756
 20
-110.7565470100713
 30
0.0
 10
89.63828394026405
 20
-110.7713609206579
 30
0.0
 10
89.63828394026405
 20
-110.7713609206579
 30
0.0
 10
89.65516490814177
 20
-110.7736002327233
 30
0.0
 10
89.68513723886345
 20
-110.7756672900144
 30
0.0
 10
89.68513723886345
 20
-110.8052951111876
 30
0.0
 10
89.68513723886345
 20
-110.8306165630042
 30
0.0
 10
89.65516490814177
 20
-110.8497368429473
 30
0.0
 10
89.63656139252141
 20
-110.8623114414684
 30
0.0
  0
HATCH
  5
19F
330
18C
100
AcDbEntity
  8
_U+30EC_U+30A4_U+30E4_U+30FC 1
 62
   179
420
  2234388
100
AcDbHatch
 10
0.0
 20
0.0
 30
0.0
210
0.0
220
0.0
230
1.0
  2
SOLID
 70
     1
 71
     0
 91
        2
 92
        1
 93
        1
 72
     4
 94
        3
 73
     0
 74
     1
 95
       41
 96
       37
 40
0.0
 40
0.0
 40
0.0
 40
0.0
 40
1.0
 40
1.0
 40
1.0
 40
2.0
 40
2.0
 40
2.0
 40
3.0
 40
3.0
 40
3.0
 40
4.0
 40
4.0
 40
4.0
 40
5.0
 40
5.0
 40
5.0
 40
6.0
 40
6.0
 40
6.0
 40
7.0
 40
7.0
 40
7.0
 40
8.0
 40
8.0
 40
8.0
 40
9.0
 40
9.0
 40
9.0
 40
10.0
 40
10.0
 40
10.0
 40
11.0
 40
11.0
 40
11.0
 40
12.0
 40
12.0
 40
12.0
 40
12.0
 10
88.8255859152936
 20
-111.9857570792084
 10
88.8255859152936
 20
-111.9857570792084
 10
88.68950464362624
 20
-112.0238253843204
 10
88.68950464362624
 20
-112.0238253843204
 10
88.61853567663009
 20
-111.8355509160515
 10
88.5923529509422
 20
-111.6133422572529
 10
88.5923529509422
 20
-111.4081868211063
 10
88.5923529509422
 20
-111.2178452955462
 10
88.62232528166386
 20
-110.9787556688699
 10
88.66332191793833
 20
-110.7544799527801
 10
88.66332191793833
 20
-110.7544799527801
 10
88.86692706111661
 20
-110.800988741831
 10
88.86692706111661
 20
-110.800988741831
 10
88.88174097170318
 20
-110.8052951111876
 10
88.90413409235731
 20
-110.8116685378353
 10
88.90413409235731
 20
-110.8349229323607
 10
88.90413409235731
 20
-110.8538709575296
 10
88.88174097170318
 20
-110.8707519254073
 10
88.83867727813755
 20
-110.8983126892893
 10
88.7677083111414
 20
-111.0697061896805
 10
88.74910479552106
 20
-111.2621147725317
 10
88.74910479552106
 20
-111.4505614955749
 10
88.74910479552106
 20
-111.5203246791512
 10
88.75668400558861
 20
-111.6388359638438
 10
88.77149791617518
 20
-111.6388359638438
 10
88.77907712624274
 20
-111.6388359638438
 10
88.78079967398536
 20
-111.6345295944872
 10
88.79595809412046
 20
-111.5985283466663
 10
88.8145616097408
 20
-111.5540866149066
 10
88.92480466526881
 20
-111.2812350524748
 10
88.9358289708216
 20
-111.2600477152405
 10
88.9358289708216
 20
-111.2600477152405
 10
89.02574596298662
 20
-111.3954399678109
 10
89.02574596298662
 20
-111.3954399678109
 10
88.94340818088915
 20
-111.5859537481452
 10
88.8517686409815
 20
-111.793176241583
 10
88.8255859152936
 20
-111.9857570792084
 97
        0
 97
        0
 92
        1
 93
        1
 72
     4
 94
        3
 73
     0
 74
     1
 95
       32
 96
       28
 40
0.0
 40
0.0
 40
0.0
 40
0.0
 40
1.0
 40
1.0
 40
1.0
 40
2.0
 40
2.0
 40
2.0
 40
3.0
 40
3.0
 40
3.0
 40
4.0
 40
4.0
 40
4.0
 40
5.0
 40
5.0
 40
5.0
 40
6.0
 40
6.0
 40
6.0
 40
7.0
 40
7.0
 40
7.0
 40
8.0
 40
8.0
 40
8.0
 40
9.0
 40
9.0
 40
9.0
 40
9.0
 10
89.63656139252141
 20
-110.8623114414684
 10
89.63828394026405
 20
-110.9195000265236
 10
89.64379609304045
 20
-111.0548922790939
 10
89.64379609304045
 20
-111.2240464674197
 10
89.64379609304045
 20
-111.7022257207724
 10
89.59728730398957
 20
-112.1824720314162
 10
89.26655813740558
 20
-112.49339189896
 10
89.26655813740558
 20
-112.49339189896
 10
89.06467554196995
 20
-112.3643730730374
 10
89.06467554196995
 20
-112.3643730730374
 10
89.11531844560312
 20
-112.3347452518642
 10
89.2403754117177
 20
-112.2629150109968
 10
89.32994789433418
 20
-112.059654377367
 10
89.44019094986218
 20
-111.8059230948784
 10
89.46086152277368
 20
-111.5180853670858
 10
89.46086152277368
 20
-111.3341172681734
 10
89.46086152277368
 20
-111.141536430548
 10
89.44398055489596
 20
-110.9470607904056
 10
89.4253770392756
 20
-110.7565470100713
 10
89.4253770392756
 20
-110.7565470100713
 10
89.63828394026405
 20
-110.7713609206579
 10
89.63828394026405
 20
-110.7713609206579
 10
89.65516490814177
 20
-110.7736002327233
 10
89.68513723886345
 20
-110.7756672900144
 10
89.68513723886345
 20
-110.8052951111876
 10
89.68513723886345
 20
-110.8306165630042
 10
89.65516490814177
 20
-110.8497368429473
 10
89.63656139252141
 20
-110.8623114414684
 97
        0
 97
        0
 75
     2
 76
     1
 98
        0
  0
ENDBLK
  5
18F
330
18C
100
AcDbEntity
  8
0
100
AcDbBlockEnd
  0
BLOCK
  5
1A2
330
1A0
100
AcDbEntity
  8
0
100
AcDbBlockBegin
  2
block 4
 70
     0
 10
0.0
 20
0.0
 30
0.0
  3
block 4
  1

  0
SPLINE
  5
1A4
330
1A0
100
AcDbEntity
  8
_U+30EC_U+30A4_U+30E4_U+30FC 1
370
     0
100
AcDbSpline
210
0.0
220
0.0
230
1.0
 70
    11
 71
     3
 72
    26
 73
    22
 74
     0
 42
0.0000000001
 43
0.0000000001
 12
1.0
 22
0.0
 32
0.0
 13
1.0
 23
0.0
 33
0.0
 40
0.0
 40
0.0
 40
0.0
 40
0.0
 40
1.0
 40
1.0
 40
1.0
 40
2.0
 40
2.0
 40
2.0
 40
3.0
 40
3.0
 40
3.0
 40
4.0
 40
4.0
 40
4.0
 40
5.0
 40
5.0
 40
5.0
 40
6.0
 40
6.0
 40
6.0
 40
7.0
 40
7.0
 40
7.0
 40
7.0
 10
95.7974256487937
 20
-100.6260714809199
 30
0.0
 10
95.7974256487937
 20
-100.6260714809199
 30
0.0
 10
95.7974256487937
 20
-99.52174612312304
 30
0.0
 10
95.7974256487937
 20
-99.52174612312304
 30
0.0
 10
95.7974256487937
 20
-99.52174612312304
 30
0.0
 10
95.5063150802901
 20
-99.52174612312304
 30
0.0
 10
95.5063150802901
 20
-99.52174612312304
 30
0.0
 10
95.5063150802901
 20
-99.52174612312304
 30
0.0
 10
95.5063150802901
 20
-99.37377927203156
 30
0.0
 10
95.5063150802901
 20
-99.37377927203156
 30
0.0
 10
95.79949270608485
 20
-99.35896536144499
 30
0.0
 10
95.84048934235933
 20
-99.19601234499267
 30
0.0
 10
95.86667206804722
 20
-99.08180742965664
 30
0.0
 10
95.86667206804722
 20
-99.08180742965664
 30
0.0
 10
95.99551863919557
 20
-99.08180742965664
 30
0.0
 10
95.99551863919557
 20
-99.08180742965664
 30
0.0
 10
95.99551863919557
 20
-99.08180742965664
 30
0.0
 10
95.99551863919557
 20
-100.6260714809199
 30
0.0
 10
95.99551863919557
 20
-100.6260714809199
 30
0.0
 10
95.99551863919557
 20
-100.6260714809199
 30
0.0
 10
95.7974256487937
 20
-100.6260714809199
 30
0.0
 10
95.7974256487937
 20
-100.6260714809199
 30
0.0
  0
HATCH
  5
1A5
330
1A0
100
AcDbEntity
  8
_U+30EC_U+30A4_U+30E4_U+30FC 1
 62
   179
420
  2234388
100
AcDbHatch
 10
0.0
 20
0.0
 30
0.0
210
0.0
220
0.0
230
1.0
  2
SOLID
 70
     1
 71
     0
 91
        1
 92
        1
 93
        1
 72
     4
 94
        3
 73
     0
 74
     1
 95
       26
 96
       22
 40
0.0
 40
0.0
 40
0.0
 40
0.0
 40
1.0
 40
1.0
 40
1.0
 40
2.0
 40
2.0
 40
2.0
 40
3.0
 40
3.0
 40
3.0
 40
4.0
 40
4.0
 40
4.0
 40
5.0
 40
5.0
 40
5.0
 40
6.0
 40
6.0
 40
6.0
 40
7.0
 40
7.0
 40
7.0
 40
7.0
 10
95.7974256487937
 20
-100.6260714809199
 10
95.7974256487937
 20
-100.6260714809199
 10
95.7974256487937
 20
-99.52174612312304
 10
95.7974256487937
 20
-99.52174612312304
 10
95.7974256487937
 20
-99.52174612312304
 10
95.5063150802901
 20
-99.52174612312304
 10
95.5063150802901
 20
-99.52174612312304
 10
95.5063150802901
 20
-99.52174612312304
 10
95.5063150802901
 20
-99.37377927203156
 10
95.5063150802901
 20
-99.37377927203156
 10
95.79949270608485
 20
-99.35896536144499
 10
95.84048934235933
 20
-99.19601234499267
 10
95.86667206804722
 20
-99.08180742965664
 10
95.86667206804722
 20
-99.08180742965664
 10
95.99551863919557
 20
-99.08180742965664
 10
95.99551863919557
 20
-99.08180742965664
 10
95.99551863919557
 20
-99.08180742965664
 10
95.99551863919557
 20
-100.6260714809199
 10
95.99551863919557
 20
-100.6260714809199
 10
95.99551863919557
 20
-100.6260714809199
 10
95.7974256487937
 20
-100.6260714809199
 10
95.7974256487937
 20
-100.6260714809199
 97
        0
 97
        0
 75
     2
 76
     1
 98
        0
  0
ENDBLK
  5
1A3
330
1A0
100
AcDbEntity
  8
0
100
AcDbBlockEnd
  0
BLOCK
  5
1A8
330
1A6
100
AcDbEntity
  8
0
100
AcDbBlockBegin
  2
block 5
 70
     0
 10
0.0
 20
0.0
 30
0.0
  3
block 5
  1

  0
SPLINE
  5
1AA
330
1A6
100
AcDbEntity
  8
_U+30EC_U+30A4_U+30E4_U+30FC 1
370
     0
100
AcDbSpline
210
0.0
220
0.0
230
1.0
 70
    11
 71
     3
 72
    44
 73
    40
 74
     0
 42
0.0000000001
 43
0.0000000001
 12
1.0
 22
0.0
 32
0.0
 13
1.0
 23
0.0
 33
0.0
 40
0.0
 40
0.0
 40
0.0
 40
0.0
 40
1.0
 40
1.0
 40
1.0
 40
2.0
 40
2.0
 40
2.0
 40
3.0
 40
3.0
 40
3.0
 40
4.0
 40
4.0
 40
4.0
 40
5.0
 40
5.0
 40
5.0
 40
6.0
 40
6.0
 40
6.0
 40
7.0
 40
7.0
 40
7.0
 40
8.0
 40
8.0
 40
8.0
 40
9.0
 40
9.0
 40
9.0
 40
10.0
 40
10.0
 40
10.0
 40
11.0
 40
11.0
 40
11.0
 40
12.0
 40
12.0
 40
12.0
 40
13.0
 40
13.0
 40
13.0
 40
13.0
 10
91.93099498569781
 20
-156.9854220527675
 30
0.0
 10
91.73841414807235
 20
-157.1442409546376
 30
0.0
 10
91.6564208755234
 20
-157.2183105075704
 30
0.0
 10
91.61335718195778
 20
-157.3619709893053
 30
0.0
 10
91.61335718195778
 20
-157.3619709893053
 30
0.0
 10
92.30065373126511
 20
-157.3619709893053
 30
0.0
 10
92.30065373126511
 20
-157.3619709893053
 30
0.0
 10
92.30065373126511
 20
-157.3619709893053
 30
0.0
 10
92.30065373126511
 20
-157.5672986802262
 30
0.0
 10
92.30065373126511
 20
-157.5672986802262
 30
0.0
 10
92.30065373126511
 20
-157.5672986802262
 30
0.0
 10
91.39287107090179
 20
-157.5672986802262
 30
0.0
 10
91.39287107090179
 20
-157.5672986802262
 30
0.0
 10
91.42077634433231
 20
-157.2096977688573
 30
0.0
 10
91.47899845803303
 20
-157.1314941013421
 30
0.0
 10
91.81868487287866
 20
-156.8331488323195
 30
0.0
 10
92.04468313671106
 20
-156.6343668228206
 30
0.0
 10
92.10256074086325
 20
-156.5664984417612
 30
0.0
 10
92.10256074086325
 20
-156.4290391318997
 30
0.0
 10
92.10256074086325
 20
-156.3105278472071
 30
0.0
 10
92.03917098393465
 20
-156.1796142187676
 30
0.0
 10
91.86553817147806
 20
-156.1796142187676
 30
0.0
 10
91.6357503026119
 20
-156.1796142187676
 30
0.0
 10
91.62817109254435
 20
-156.4100911067308
 30
0.0
 10
91.62438148751058
 20
-156.5265353341323
 30
0.0
 10
91.62438148751058
 20
-156.5265353341323
 30
0.0
 10
91.42663300665724
 20
-156.5265353341323
 30
0.0
 10
91.42663300665724
 20
-156.5265353341323
 30
0.0
 10
91.43386770717626
 20
-156.3994113107265
 30
0.0
 10
91.44316946498644
 20
-156.2874457074559
 30
0.0
 10
91.5144829415311
 20
-156.1689344227633
 30
0.0
 10
91.61129012466662
 20
-156.0080484636022
 30
0.0
 10
91.77596568886158
 20
-155.9742865278467
 30
0.0
 10
91.87862953432202
 20
-155.9742865278467
 30
0.0
 10
92.12323131377475
 20
-155.9742865278467
 30
0.0
 10
92.30616588404152
 20
-156.1582546267591
 30
0.0
 10
92.30616588404152
 20
-156.4311061891908
 30
0.0
 10
92.30616588404152
 20
-156.6598605294114
 30
0.0
 10
92.20350203858108
 20
-156.7590792793866
 30
0.0
 10
91.93099498569781
 20
-156.9854220527675
 30
0.0
  0
HATCH
  5
1AB
330
1A6
100
AcDbEntity
  8
_U+30EC_U+30A4_U+30E4_U+30FC 1
 62
   179
420
  2234388
100
AcDbHatch
 10
0.0
 20
0.0
 30
0.0
210
0.0
220
0.0
230
1.0
  2
SOLID
 70
     1
 71
     0
 91
        1
 92
        1
 93
        1
 72
     4
 94
        3
 73
     0
 74
     1
 95
       44
 96
       40
 40
0.0
 40
0.0
 40
0.0
 40
0.0
 40
1.0
 40
1.0
 40
1.0
 40
2.0
 40
2.0
 40
2.0
 40
3.0
 40
3.0
 40
3.0
 40
4.0
 40
4.0
 40
4.0
 40
5.0
 40
5.0
 40
5.0
 40
6.0
 40
6.0
 40
6.0
 40
7.0
 40
7.0
 40
7.0
 40
8.0
 40
8.0
 40
8.0
 40
9.0
 40
9.0
 40
9.0
 40
10.0
 40
10.0
 40
10.0
 40
11.0
 40
11.0
 40
11.0
 40
12.0
 40
12.0
 40
12.0
 40
13.0
 40
13.0
 40
13.0
 40
13.0
 10
91.93099498569781
 20
-156.9854220527675
 10
91.73841414807235
 20
-157.1442409546376
 10
91.6564208755234
 20
-157.2183105075704
 10
91.61335718195778
 20
-157.3619709893053
 10
91.61335718195778
 20
-157.3619709893053
 10
92.30065373126511
 20
-157.3619709893053
 10
92.30065373126511
 20
-157.3619709893053
 10
92.30065373126511
 20
-157.3619709893053
 10
92.30065373126511
 20
-157.5672986802262
 10
92.30065373126511
 20
-157.5672986802262
 10
92.30065373126511
 20
-157.5672986802262
 10
91.39287107090179
 20
-157.5672986802262
 10
91.39287107090179
 20
-157.5672986802262
 10
91.42077634433231
 20
-157.2096977688573
 10
91.47899845803303
 20
-157.1314941013421
 10
91.81868487287866
 20
-156.8331488323195
 10
92.04468313671106
 20
-156.6343668228206
 10
92.10256074086325
 20
-156.5664984417612
 10
92.10256074086325
 20
-156.4290391318997
 10
92.10256074086325
 20
-156.3105278472071
 10
92.03917098393465
 20
-156.1796142187676
 10
91.86553817147806
 20
-156.1796142187676
 10
91.6357503026119
 20
-156.1796142187676
 10
91.62817109254435
 20
-156.4100911067308
 10
91.62438148751058
 20
-156.5265353341323
 10
91.62438148751058
 20
-156.5265353341323
 10
91.42663300665724
 20
-156.5265353341323
 10
91.42663300665724
 20
-156.5265353341323
 10
91.43386770717626
 20
-156.3994113107265
 10
91.44316946498644
 20
-156.2874457074559
 10
91.5144829415311
 20
-156.1689344227633
 10
91.61129012466662
 20
-156.0080484636022
 10
91.77596568886158
 20
-155.9742865278467
 10
91.87862953432202
 20
-155.9742865278467
 10
92.12323131377475
 20
-155.9742865278467
 10
92.30616588404152
 20
-156.1582546267591
 10
92.30616588404152
 20
-156.4311061891908
 10
92.30616588404152
 20
-156.6598605294114
 10
92.20350203858108
 20
-156.7590792793866
 10
91.93099498569781
 20
-156.9854220527675
 97
        0
 97
        0
 75
     2
 76
     1
 98
        0
  0
SPLINE
  5
1AC
330
1A6
100
AcDbEntity
  8
_U+30EC_U+30A4_U+30E4_U+30FC 1
370
     0
100
AcDbSpline
210
0.0
220
0.0
230
1.0
 70
    11
 71
     3
 72
    29
 73
    25
 74
     0
 42
0.0000000001
 43
0.0000000001
 12
1.0
 22
0.0
 32
0.0
 13
1.0
 23
0.0
 33
0.0
 40
0.0
 40
0.0
 40
0.0
 40
0.0
 40
1.0
 40
1.0
 40
1.0
 40
2.0
 40
2.0
 40
2.0
 40
3.0
 40
3.0
 40
3.0
 40
4.0
 40
4.0
 40
4.0
 40
5.0
 40
5.0
 40
5.0
 40
6.0
 40
6.0
 40
6.0
 40
7.0
 40
7.0
 40
7.0
 40
8.0
 40
8.0
 40
8.0
 40
8.0
 10
93.23978676054422
 20
-157.3895317531874
 30
0.0
 10
93.1443576156028
 20
-157.5989935586905
 30
0.0
 10
92.99105086650918
 20
-157.6179415838594
 30
0.0
 10
92.88838702104874
 20
-157.6179415838594
 30
0.0
 10
92.74644908705645
 20
-157.6179415838594
 30
0.0
 10
92.62139212094188
 20
-157.5714327948085
 30
0.0
 10
92.53733179110178
 20
-157.3895317531874
 30
0.0
 10
92.44569225119413
 20
-157.1948838582707
 30
0.0
 10
92.4288112833164
 20
-156.9578612888855
 30
0.0
 10
92.4288112833164
 20
-156.7952527819818
 30
0.0
 10
92.4288112833164
 20
-156.6512477906983
 30
0.0
 10
92.44396970345151
 20
-156.3994113107265
 30
0.0
 10
92.53733179110178
 20
-156.2006293012276
 30
0.0
 10
92.63241642649467
 20
-155.9977131771464
 30
0.0
 10
92.7746988700355
 20
-155.9742865278467
 30
0.0
 10
92.88838702104874
 20
-155.9742865278467
 30
0.0
 10
93.02860240729841
 20
-155.9742865278467
 30
0.0
 10
93.15572643070414
 20
-156.0187282596064
 30
0.0
 10
93.23978676054422
 20
-156.2006293012276
 30
0.0
 10
93.32729218586957
 20
-156.3932101388531
 30
0.0
 10
93.34796275878107
 20
-156.6216199695252
 30
0.0
 10
93.34796275878107
 20
-156.7952527819818
 30
0.0
 10
93.34796275878107
 20
-156.9664740275987
 30
0.0
 10
93.32935924316072
 20
-157.1969509155619
 30
0.0
 10
93.23978676054422
 20
-157.3895317531874
 30
0.0
  0
SPLINE
  5
1AD
330
1A6
100
AcDbEntity
  8
_U+30EC_U+30A4_U+30E4_U+30FC 1
370
     0
100
AcDbSpline
210
0.0
220
0.0
230
1.0
 70
    11
 71
     3
 72
    17
 73
    13
 74
     0
 42
0.0000000001
 43
0.0000000001
 12
1.0
 22
0.0
 32
0.0
 13
1.0
 23
0.0
 33
0.0
 40
0.0
 40
0.0
 40
0.0
 40
0.0
 40
1.0
 40
1.0
 40
1.0
 40
2.0
 40
2.0
 40
2.0
 40
3.0
 40
3.0
 40
3.0
 40
4.0
 40
4.0
 40
4.0
 40
4.0
 10
92.88838702104874
 20
-156.1668673654722
 30
0.0
 10
92.66790090999275
 20
-156.1668673654722
 30
0.0
 10
92.62690427371828
 20
-156.4503987239083
 30
0.0
 10
92.62690427371828
 20
-156.7952527819818
 30
0.0
 10
92.62690427371828
 20
-157.1146131334644
 30
0.0
 10
92.65859915218257
 20
-157.4232936889428
 30
0.0
 10
92.88838702104874
 20
-157.4232936889428
 30
0.0
 10
93.1071505843621
 20
-157.4232936889428
 30
0.0
 10
93.1498697683792
 20
-157.1421738973464
 30
0.0
 10
93.1498697683792
 20
-156.7952527819818
 30
0.0
 10
93.1498697683792
 20
-156.4755479209506
 30
0.0
 10
93.11645234217228
 20
-156.1668673654722
 30
0.0
 10
92.88838702104874
 20
-156.1668673654722
 30
0.0
  0
HATCH
  5
1AE
330
1A6
100
AcDbEntity
  8
_U+30EC_U+30A4_U+30E4_U+30FC 1
 62
   179
420
  2234388
100
AcDbHatch
 10
0.0
 20
0.0
 30
0.0
210
0.0
220
0.0
230
1.0
  2
SOLID
 70
     1
 71
     0
 91
        2
 92
        1
 93
        1
 72
     4
 94
        3
 73
     0
 74
     1
 95
       29
 96
       25
 40
0.0
 40
0.0
 40
0.0
 40
0.0
 40
1.0
 40
1.0
 40
1.0
 40
2.0
 40
2.0
 40
2.0
 40
3.0
 40
3.0
 40
3.0
 40
4.0
 40
4.0
 40
4.0
 40
5.0
 40
5.0
 40
5.0
 40
6.0
 40
6.0
 40
6.0
 40
7.0
 40
7.0
 40
7.0
 40
8.0
 40
8.0
 40
8.0
 40
8.0
 10
93.23978676054422
 20
-157.3895317531874
 10
93.1443576156028
 20
-157.5989935586905
 10
92.99105086650918
 20
-157.6179415838594
 10
92.88838702104874
 20
-157.6179415838594
 10
92.74644908705645
 20
-157.6179415838594
 10
92.62139212094188
 20
-157.5714327948085
 10
92.53733179110178
 20
-157.3895317531874
 10
92.44569225119413
 20
-157.1948838582707
 10
92.4288112833164
 20
-156.9578612888855
 10
92.4288112833164
 20
-156.7952527819818
 10
92.4288112833164
 20
-156.6512477906983
 10
92.44396970345151
 20
-156.3994113107265
 10
92.53733179110178
 20
-156.2006293012276
 10
92.63241642649467
 20
-155.9977131771464
 10
92.7746988700355
 20
-155.9742865278467
 10
92.88838702104874
 20
-155.9742865278467
 10
93.02860240729841
 20
-155.9742865278467
 10
93.15572643070414
 20
-156.0187282596064
 10
93.23978676054422
 20
-156.2006293012276
 10
93.32729218586957
 20
-156.3932101388531
 10
93.34796275878107
 20
-156.6216199695252
 10
93.34796275878107
 20
-156.7952527819818
 10
93.34796275878107
 20
-156.9664740275987
 10
93.32935924316072
 20
-157.1969509155619
 10
93.23978676054422
 20
-157.3895317531874
 97
        0
 97
        0
 92
        1
 93
        1
 72
     4
 94
        3
 73
     0
 74
     1
 95
       17
 96
       13
 40
0.0
 40
0.0
 40
0.0
 40
0.0
 40
1.0
 40
1.0
 40
1.0
 40
2.0
 40
2.0
 40
2.0
 40
3.0
 40
3.0
 40
3.0
 40
4.0
 40
4.0
 40
4.0
 40
4.0
 10
92.88838702104874
 20
-156.1668673654722
 10
92.66790090999275
 20
-156.1668673654722
 10
92.62690427371828
 20
-156.4503987239083
 10
92.62690427371828
 20
-156.7952527819818
 10
92.62690427371828
 20
-157.1146131334644
 10
92.65859915218257
 20
-157.4232936889428
 10
92.88838702104874
 20
-157.4232936889428
 10
93.1071505843621
 20
-157.4232936889428
 10
93.1498697683792
 20
-157.1421738973464
 10
93.1498697683792
 20
-156.7952527819818
 10
93.1498697683792
 20
-156.4755479209506
 10
93.11645234217228
 20
-156.1668673654722
 10
92.88838702104874
 20
-156.1668673654722
 97
        0
 97
        0
 75
     2
 76
     1
 98
        0
  0
ENDBLK
  5
1A9
330
1A6
100
AcDbEntity
  8
0
100
AcDbBlockEnd
  0
BLOCK
  5
1B1
330
1AF
100
AcDbEntity
  8
0
100
AcDbBlockBegin
  2
block 6
 70
     0
 10
0.0
 20
0.0
 30
0.0
  3
block 6
  1

  0
SPLINE
  5
1B3
330
1AF
100
AcDbEntity
  8
_U+30EC_U+30A4_U+30E4_U+30FC 1
370
     0
100
AcDbSpline
210
0.0
220
0.0
230
1.0
 70
    11
 71
     3
 72
    62
 73
    58
 74
     0
 42
0.0000000001
 43
0.0000000001
 12
1.0
 22
0.0
 32
0.0
 13
1.0
 23
0.0
 33
0.0
 40
0.0
 40
0.0
 40
0.0
 40
0.0
 40
1.0
 40
1.0
 40
1.0
 40
2.0
 40
2.0
 40
2.0
 40
3.0
 40
3.0
 40
3.0
 40
4.0
 40
4.0
 40
4.0
 40
5.0
 40
5.0
 40
5.0
 40
6.0
 40
6.0
 40
6.0
 40
7.0
 40
7.0
 40
7.0
 40
8.0
 40
8.0
 40
8.0
 40
9.0
 40
9.0
 40
9.0
 40
10.0
 40
10.0
 40
10.0
 40
11.0
 40
11.0
 40
11.0
 40
12.0
 40
12.0
 40
12.0
 40
13.0
 40
13.0
 40
13.0
 40
14.0
 40
14.0
 40
14.0
 40
15.0
 40
15.0
 40
15.0
 40
16.0
 40
16.0
 40
16.0
 40
17.0
 40
17.0
 40
17.0
 40
18.0
 40
18.0
 40
18.0
 40
19.0
 40
19.0
 40
19.0
 40
19.0
 10
83.86120332104859
 20
-129.8535725586825
 30
0.0
 10
83.77714299120849
 20
-129.8535725586825
 30
0.0
 10
83.58456215358304
 20
-129.8322129666739
 30
0.0
 10
83.47431909805503
 20
-129.6461778104704
 30
0.0
 10
83.40886228383529
 20
-129.5338676976513
 30
0.0
 10
83.40541718835004
 20
-129.4346489476761
 30
0.0
 10
83.40162758331627
 20
-129.3498995987389
 30
0.0
 10
83.40162758331627
 20
-129.3498995987389
 30
0.0
 10
83.59593096868436
 20
-129.3498995987389
 30
0.0
 10
83.59593096868436
 20
-129.3498995987389
 30
0.0
 10
83.59765351642697
 20
-129.4239691516718
 30
0.0
 10
83.60695527423715
 20
-129.6589246637658
 30
0.0
 10
83.85741371601482
 20
-129.6589246637658
 30
0.0
 10
83.97868107709562
 20
-129.6589246637658
 30
0.0
 10
84.11338431056888
 20
-129.5889892254152
 30
0.0
 10
84.11338431056888
 20
-129.3605793947432
 30
0.0
 10
84.11338431056888
 20
-129.2441351673417
 30
0.0
 10
84.07962237481343
 20
-129.1955593209997
 30
0.0
 10
84.0517171013829
 20
-129.1638644425354
 30
0.0
 10
83.98626028716316
 20
-129.0897948896026
 30
0.0
 10
83.88359644170272
 20
-129.0770480363071
 30
0.0
 10
83.83502059536069
 20
-129.0770480363071
 30
0.0
 10
83.81813962748296
 20
-129.0770480363071
 30
0.0
 10
83.78644474901867
 20
-129.0791150935983
 30
0.0
 10
83.7619845710734
 20
-129.0832492081806
 30
0.0
 10
83.7619845710734
 20
-129.0832492081806
 30
0.0
 10
83.7619845710734
 20
-128.888601313264
 30
0.0
 10
83.7619845710734
 20
-128.888601313264
 30
0.0
 10
83.79574650682885
 20
-128.8951469946859
 30
0.0
 10
83.83295353806955
 20
-128.8972140519771
 30
0.0
 10
83.83881020039446
 20
-128.8972140519771
 30
0.0
 10
83.89668780454666
 20
-128.8972140519771
 30
0.0
 10
84.07204316474588
 20
-128.8761989695171
 30
0.0
 10
84.07204316474588
 20
-128.6390041453576
 30
0.0
 10
84.07204316474588
 20
-128.461409473093
 30
0.0
 10
83.95628795644149
 20
-128.406287945329
 30
0.0
 10
83.85913626375743
 20
-128.406287945329
 30
0.0
 10
83.62555878985751
 20
-128.406287945329
 30
0.0
 10
83.61832408933847
 20
-128.6390041453576
 30
0.0
 10
83.6145344843047
 20
-128.7110066409993
 30
0.0
 10
83.6145344843047
 20
-128.7110066409993
 30
0.0
 10
83.4350450095232
 20
-128.7110066409993
 30
0.0
 10
83.4350450095232
 20
-128.7110066409993
 30
0.0
 10
83.44262421959074
 20
-128.586121929659
 30
0.0
 10
83.46708439753601
 20
-128.2095729931212
 30
0.0
 10
83.87050507885877
 20
-128.2095729931212
 30
0.0
 10
84.0682535597121
 20
-128.2095729931212
 30
0.0
 10
84.28150497024907
 20
-128.3365247617527
 30
0.0
 10
84.28150497024907
 20
-128.6326307187099
 30
0.0
 10
84.28150497024907
 20
-128.8190103844619
 30
0.0
 10
84.19744464040897
 20
-128.9013481665594
 30
0.0
 10
84.1095947055351
 20
-128.9626708661968
 30
0.0
 10
84.16368270465352
 20
-128.9902316300788
 30
0.0
 10
84.32422415426618
 20
-129.0708468644337
 30
0.0
 10
84.32422415426618
 20
-129.3478325414478
 30
0.0
 10
84.32422415426618
 20
-129.6864854276478
 30
0.0
 10
84.10580510050133
 20
-129.8535725586825
 30
0.0
 10
83.86120332104859
 20
-129.8535725586825
 30
0.0
  0
HATCH
  5
1B4
330
1AF
100
AcDbEntity
  8
_U+30EC_U+30A4_U+30E4_U+30FC 1
 62
   179
420
  2234388
100
AcDbHatch
 10
0.0
 20
0.0
 30
0.0
210
0.0
220
0.0
230
1.0
  2
SOLID
 70
     1
 71
     0
 91
        1
 92
        1
 93
        1
 72
     4
 94
        3
 73
     0
 74
     1
 95
       62
 96
       58
 40
0.0
 40
0.0
 40
0.0
 40
0.0
 40
1.0
 40
1.0
 40
1.0
 40
2.0
 40
2.0
 40
2.0
 40
3.0
 40
3.0
 40
3.0
 40
4.0
 40
4.0
 40
4.0
 40
5.0
 40
5.0
 40
5.0
 40
6.0
 40
6.0
 40
6.0
 40
7.0
 40
7.0
 40
7.0
 40
8.0
 40
8.0
 40
8.0
 40
9.0
 40
9.0
 40
9.0
 40
10.0
 40
10.0
 40
10.0
 40
11.0
 40
11.0
 40
11.0
 40
12.0
 40
12.0
 40
12.0
 40
13.0
 40
13.0
 40
13.0
 40
14.0
 40
14.0
 40
14.0
 40
15.0
 40
15.0
 40
15.0
 40
16.0
 40
16.0
 40
16.0
 40
17.0
 40
17.0
 40
17.0
 40
18.0
 40
18.0
 40
18.0
 40
19.0
 40
19.0
 40
19.0
 40
19.0
 10
83.86120332104859
 20
-129.8535725586825
 10
83.77714299120849
 20
-129.8535725586825
 10
83.58456215358304
 20
-129.8322129666739
 10
83.47431909805503
 20
-129.6461778104704
 10
83.40886228383529
 20
-129.5338676976513
 10
83.40541718835004
 20
-129.4346489476761
 10
83.40162758331627
 20
-129.3498995987389
 10
83.40162758331627
 20
-129.3498995987389
 10
83.59593096868436
 20
-129.3498995987389
 10
83.59593096868436
 20
-129.3498995987389
 10
83.59765351642697
 20
-129.4239691516718
 10
83.60695527423715
 20
-129.6589246637658
 10
83.85741371601482
 20
-129.6589246637658
 10
83.97868107709562
 20
-129.6589246637658
 10
84.11338431056888
 20
-129.5889892254152
 10
84.11338431056888
 20
-129.3605793947432
 10
84.11338431056888
 20
-129.2441351673417
 10
84.07962237481343
 20
-129.1955593209997
 10
84.0517171013829
 20
-129.1638644425354
 10
83.98626028716316
 20
-129.0897948896026
 10
83.88359644170272
 20
-129.0770480363071
 10
83.83502059536069
 20
-129.0770480363071
 10
83.81813962748296
 20
-129.0770480363071
 10
83.78644474901867
 20
-129.0791150935983
 10
83.7619845710734
 20
-129.0832492081806
 10
83.7619845710734
 20
-129.0832492081806
 10
83.7619845710734
 20
-128.888601313264
 10
83.7619845710734
 20
-128.888601313264
 10
83.79574650682885
 20
-128.8951469946859
 10
83.83295353806955
 20
-128.8972140519771
 10
83.83881020039446
 20
-128.8972140519771
 10
83.89668780454666
 20
-128.8972140519771
 10
84.07204316474588
 20
-128.8761989695171
 10
84.07204316474588
 20
-128.6390041453576
 10
84.07204316474588
 20
-128.461409473093
 10
83.95628795644149
 20
-128.406287945329
 10
83.85913626375743
 20
-128.406287945329
 10
83.62555878985751
 20
-128.406287945329
 10
83.61832408933847
 20
-128.6390041453576
 10
83.6145344843047
 20
-128.7110066409993
 10
83.6145344843047
 20
-128.7110066409993
 10
83.4350450095232
 20
-128.7110066409993
 10
83.4350450095232
 20
-128.7110066409993
 10
83.44262421959074
 20
-128.586121929659
 10
83.46708439753601
 20
-128.2095729931212
 10
83.87050507885877
 20
-128.2095729931212
 10
84.0682535597121
 20
-128.2095729931212
 10
84.28150497024907
 20
-128.3365247617527
 10
84.28150497024907
 20
-128.6326307187099
 10
84.28150497024907
 20
-128.8190103844619
 10
84.19744464040897
 20
-128.9013481665594
 10
84.1095947055351
 20
-128.9626708661968
 10
84.16368270465352
 20
-128.9902316300788
 10
84.32422415426618
 20
-129.0708468644337
 10
84.32422415426618
 20
-129.3478325414478
 10
84.32422415426618
 20
-129.6864854276478
 10
84.10580510050133
 20
-129.8535725586825
 10
83.86120332104859
 20
-129.8535725586825
 97
        0
 97
        0
 75
     2
 76
     1
 98
        0
  0
ENDBLK
  5
1B2
330
1AF
100
AcDbEntity
  8
0
100
AcDbBlockEnd
  0
BLOCK
  5
1B7
330
1B5
100
AcDbEntity
  8
0
100
AcDbBlockBegin
  2
block 7
 70
     0
 10
0.0
 20
0.0
 30
0.0
  3
block 7
  1

  0
SPLINE
  5
1B9
330
1B5
100
AcDbEntity
  8
_U+30EC_U+30A4_U+30E4_U+30FC 1
370
     0
100
AcDbSpline
210
0.0
220
0.0
230
1.0
 70
    11
 71
     3
 72
    26
 73
    22
 74
     0
 42
0.0000000001
 43
0.0000000001
 12
1.0
 22
0.0
 32
0.0
 13
1.0
 23
0.0
 33
0.0
 40
0.0
 40
0.0
 40
0.0
 40
0.0
 40
1.0
 40
1.0
 40
1.0
 40
2.0
 40
2.0
 40
2.0
 40
3.0
 40
3.0
 40
3.0
 40
4.0
 40
4.0
 40
4.0
 40
5.0
 40
5.0
 40
5.0
 40
6.0
 40
6.0
 40
6.0
 40
7.0
 40
7.0
 40
7.0
 40
7.0
 10
89.80571558084719
 20
-129.8025851455008
 30
0.0
 10
89.80571558084719
 20
-129.8025851455008
 30
0.0
 10
89.80571558084719
 20
-128.6982597877039
 30
0.0
 10
89.80571558084719
 20
-128.6982597877039
 30
0.0
 10
89.80571558084719
 20
-128.6982597877039
 30
0.0
 10
89.51426050279505
 20
-128.6982597877039
 30
0.0
 10
89.51426050279505
 20
-128.6982597877039
 30
0.0
 10
89.51426050279505
 20
-128.6982597877039
 30
0.0
 10
89.51426050279505
 20
-128.5502929366124
 30
0.0
 10
89.51426050279505
 20
-128.5502929366124
 30
0.0
 10
89.80743812858981
 20
-128.5354790260259
 30
0.0
 10
89.84843476486428
 20
-128.3725260095735
 30
0.0
 10
89.87461749055218
 20
-128.2583210942375
 30
0.0
 10
89.87461749055218
 20
-128.2583210942375
 30
0.0
 10
90.00346406170053
 20
-128.2583210942375
 30
0.0
 10
90.00346406170053
 20
-128.2583210942375
 30
0.0
 10
90.00346406170053
 20
-128.2583210942375
 30
0.0
 10
90.00346406170053
 20
-129.8025851455008
 30
0.0
 10
90.00346406170053
 20
-129.8025851455008
 30
0.0
 10
90.00346406170053
 20
-129.8025851455008
 30
0.0
 10
89.80571558084719
 20
-129.8025851455008
 30
0.0
 10
89.80571558084719
 20
-129.8025851455008
 30
0.0
  0
HATCH
  5
1BA
330
1B5
100
AcDbEntity
  8
_U+30EC_U+30A4_U+30E4_U+30FC 1
 62
   179
420
  2234388
100
AcDbHatch
 10
0.0
 20
0.0
 30
0.0
210
0.0
220
0.0
230
1.0
  2
SOLID
 70
     1
 71
     0
 91
        1
 92
        1
 93
        1
 72
     4
 94
        3
 73
     0
 74
     1
 95
       26
 96
       22
 40
0.0
 40
0.0
 40
0.0
 40
0.0
 40
1.0
 40
1.0
 40
1.0
 40
2.0
 40
2.0
 40
2.0
 40
3.0
 40
3.0
 40
3.0
 40
4.0
 40
4.0
 40
4.0
 40
5.0
 40
5.0
 40
5.0
 40
6.0
 40
6.0
 40
6.0
 40
7.0
 40
7.0
 40
7.0
 40
7.0
 10
89.80571558084719
 20
-129.8025851455008
 10
89.80571558084719
 20
-129.8025851455008
 10
89.80571558084719
 20
-128.6982597877039
 10
89.80571558084719
 20
-128.6982597877039
 10
89.80571558084719
 20
-128.6982597877039
 10
89.51426050279505
 20
-128.6982597877039
 10
89.51426050279505
 20
-128.6982597877039
 10
89.51426050279505
 20
-128.6982597877039
 10
89.51426050279505
 20
-128.5502929366124
 10
89.51426050279505
 20
-128.5502929366124
 10
89.80743812858981
 20
-128.5354790260259
 10
89.84843476486428
 20
-128.3725260095735
 10
89.87461749055218
 20
-128.2583210942375
 10
89.87461749055218
 20
-128.2583210942375
 10
90.00346406170053
 20
-128.2583210942375
 10
90.00346406170053
 20
-128.2583210942375
 10
90.00346406170053
 20
-128.2583210942375
 10
90.00346406170053
 20
-129.8025851455008
 10
90.00346406170053
 20
-129.8025851455008
 10
90.00346406170053
 20
-129.8025851455008
 10
89.80571558084719
 20
-129.8025851455008
 10
89.80571558084719
 20
-129.8025851455008
 97
        0
 97
        0
 75
     2
 76
     1
 98
        0
  0
SPLINE
  5
1BB
330
1B5
100
AcDbEntity
  8
_U+30EC_U+30A4_U+30E4_U+30FC 1
370
     0
100
AcDbSpline
210
0.0
220
0.0
230
1.0
 70
    11
 71
     3
 72
    29
 73
    25
 74
     0
 42
0.0000000001
 43
0.0000000001
 12
1.0
 22
0.0
 32
0.0
 13
1.0
 23
0.0
 33
0.0
 40
0.0
 40
0.0
 40
0.0
 40
0.0
 40
1.0
 40
1.0
 40
1.0
 40
2.0
 40
2.0
 40
2.0
 40
3.0
 40
3.0
 40
3.0
 40
4.0
 40
4.0
 40
4.0
 40
5.0
 40
5.0
 40
5.0
 40
6.0
 40
6.0
 40
6.0
 40
7.0
 40
7.0
 40
7.0
 40
8.0
 40
8.0
 40
8.0
 40
8.0
 10
91.23956432180817
 20
-129.6248182184619
 30
0.0
 10
91.14413517686675
 20
-129.8342800239651
 30
0.0
 10
90.99082842777312
 20
-129.8535725586825
 30
0.0
 10
90.88816458231268
 20
-129.8535725586825
 30
0.0
 10
90.74622664832039
 20
-129.8535725586825
 30
0.0
 10
90.62116968220582
 20
-129.8070637696316
 30
0.0
 10
90.53710935236573
 20
-129.6248182184619
 30
0.0
 10
90.44546981245809
 20
-129.4301703235452
 30
0.0
 10
90.42858884458036
 20
-129.1934922637086
 30
0.0
 10
90.42858884458036
 20
-129.0305392472563
 30
0.0
 10
90.42858884458036
 20
-128.8865342559728
 30
0.0
 10
90.44374726471546
 20
-128.6348700307753
 30
0.0
 10
90.53710935236573
 20
-128.4359157665021
 30
0.0
 10
90.63219398775863
 20
-128.2328273876467
 30
0.0
 10
90.77447643129945
 20
-128.2095729931212
 30
0.0
 10
90.88816458231268
 20
-128.2095729931212
 30
0.0
 10
91.02837996856235
 20
-128.2095729931212
 30
0.0
 10
91.15550399196808
 20
-128.254014724881
 30
0.0
 10
91.23956432180817
 20
-128.4359157665021
 30
0.0
 10
91.32706974713352
 20
-128.6284966041276
 30
0.0
 10
91.34774032004502
 20
-128.8569064347997
 30
0.0
 10
91.34774032004502
 20
-129.0305392472563
 30
0.0
 10
91.34774032004502
 20
-129.2017604928732
 30
0.0
 10
91.32913680442466
 20
-129.4325818903849
 30
0.0
 10
91.23956432180817
 20
-129.6248182184619
 30
0.0
  0
SPLINE
  5
1BC
330
1B5
100
AcDbEntity
  8
_U+30EC_U+30A4_U+30E4_U+30FC 1
370
     0
100
AcDbSpline
210
0.0
220
0.0
230
1.0
 70
    11
 71
     3
 72
    17
 73
    13
 74
     0
 42
0.0000000001
 43
0.0000000001
 12
1.0
 22
0.0
 32
0.0
 13
1.0
 23
0.0
 33
0.0
 40
0.0
 40
0.0
 40
0.0
 40
0.0
 40
1.0
 40
1.0
 40
1.0
 40
2.0
 40
2.0
 40
2.0
 40
3.0
 40
3.0
 40
3.0
 40
4.0
 40
4.0
 40
4.0
 40
4.0
 10
90.88816458231268
 20
-128.4021538307467
 30
0.0
 10
90.66767847125669
 20
-128.4021538307467
 30
0.0
 10
90.62668183498222
 20
-128.6856851891827
 30
0.0
 10
90.62668183498222
 20
-129.0305392472563
 30
0.0
 10
90.62668183498222
 20
-129.3498995987389
 30
0.0
 10
90.65837671344651
 20
-129.6589246637658
 30
0.0
 10
90.88816458231268
 20
-129.6589246637658
 30
0.0
 10
91.10692814562606
 20
-129.6589246637658
 30
0.0
 10
91.14964732964314
 20
-129.3774603626209
 30
0.0
 10
91.14964732964314
 20
-129.0305392472563
 30
0.0
 10
91.14964732964314
 20
-128.7110066409993
 30
0.0
 10
91.11622990343622
 20
-128.4021538307467
 30
0.0
 10
90.88816458231268
 20
-128.4021538307467
 30
0.0
  0
HATCH
  5
1BD
330
1B5
100
AcDbEntity
  8
_U+30EC_U+30A4_U+30E4_U+30FC 1
 62
   179
420
  2234388
100
AcDbHatch
 10
0.0
 20
0.0
 30
0.0
210
0.0
220
0.0
230
1.0
  2
SOLID
 70
     1
 71
     0
 91
        2
 92
        1
 93
        1
 72
     4
 94
        3
 73
     0
 74
     1
 95
       29
 96
       25
 40
0.0
 40
0.0
 40
0.0
 40
0.0
 40
1.0
 40
1.0
 40
1.0
 40
2.0
 40
2.0
 40
2.0
 40
3.0
 40
3.0
 40
3.0
 40
4.0
 40
4.0
 40
4.0
 40
5.0
 40
5.0
 40
5.0
 40
6.0
 40
6.0
 40
6.0
 40
7.0
 40
7.0
 40
7.0
 40
8.0
 40
8.0
 40
8.0
 40
8.0
 10
91.23956432180817
 20
-129.6248182184619
 10
91.14413517686675
 20
-129.8342800239651
 10
90.99082842777312
 20
-129.8535725586825
 10
90.88816458231268
 20
-129.8535725586825
 10
90.74622664832039
 20
-129.8535725586825
 10
90.62116968220582
 20
-129.8070637696316
 10
90.53710935236573
 20
-129.6248182184619
 10
90.44546981245809
 20
-129.4301703235452
 10
90.42858884458036
 20
-129.1934922637086
 10
90.42858884458036
 20
-129.0305392472563
 10
90.42858884458036
 20
-128.8865342559728
 10
90.44374726471546
 20
-128.6348700307753
 10
90.53710935236573
 20
-128.4359157665021
 10
90.63219398775863
 20
-128.2328273876467
 10
90.77447643129945
 20
-128.2095729931212
 10
90.88816458231268
 20
-128.2095729931212
 10
91.02837996856235
 20
-128.2095729931212
 10
91.15550399196808
 20
-128.254014724881
 10
91.23956432180817
 20
-128.4359157665021
 10
91.32706974713352
 20
-128.6284966041276
 10
91.34774032004502
 20
-128.8569064347997
 10
91.34774032004502
 20
-129.0305392472563
 10
91.34774032004502
 20
-129.2017604928732
 10
91.32913680442466
 20
-129.4325818903849
 10
91.23956432180817
 20
-129.6248182184619
 97
        0
 97
        0
 92
        1
 93
        1
 72
     4
 94
        3
 73
     0
 74
     1
 95
       17
 96
       13
 40
0.0
 40
0.0
 40
0.0
 40
0.0
 40
1.0
 40
1.0
 40
1.0
 40
2.0
 40
2.0
 40
2.0
 40
3.0
 40
3.0
 40
3.0
 40
4.0
 40
4.0
 40
4.0
 40
4.0
 10
90.88816458231268
 20
-128.4021538307467
 10
90.66767847125669
 20
-128.4021538307467
 10
90.62668183498222
 20
-128.6856851891827
 10
90.62668183498222
 20
-129.0305392472563
 10
90.62668183498222
 20
-129.3498995987389
 10
90.65837671344651
 20
-129.6589246637658
 10
90.88816458231268
 20
-129.6589246637658
 10
91.10692814562606
 20
-129.6589246637658
 10
91.14964732964314
 20
-129.3774603626209
 10
91.14964732964314
 20
-129.0305392472563
 10
91.14964732964314
 20
-128.7110066409993
 10
91.11622990343622
 20
-128.4021538307467
 10
90.88816458231268
 20
-128.4021538307467
 97
        0
 97
        0
 75
     2
 76
     1
 98
        0
  0
ENDBLK
  5
1B8
330
1B5
100
AcDbEntity
  8
0
100
AcDbBlockEnd
  0
BLOCK
  5
1C0
330
1BE
100
AcDbEntity
  8
0
100
AcDbBlockBegin
  2
block 8
 70
     0
 10
0.0
 20
0.0
 30
0.0
  3
block 8
  1

  0
SPLINE
  5
1C2
330
1BE
100
AcDbEntity
  8
_U+30EC_U+30A4_U+30E4_U+30FC 1
370
     0
100
AcDbSpline
210
0.0
220
0.0
230
1.0
 70
    11
 71
     3
 72
    44
 73
    40
 74
     0
 42
0.0000000001
 43
0.0000000001
 12
1.0
 22
0.0
 32
0.0
 13
1.0
 23
0.0
 33
0.0
 40
0.0
 40
0.0
 40
0.0
 40
0.0
 40
1.0
 40
1.0
 40
1.0
 40
2.0
 40
2.0
 40
2.0
 40
3.0
 40
3.0
 40
3.0
 40
4.0
 40
4.0
 40
4.0
 40
5.0
 40
5.0
 40
5.0
 40
6.0
 40
6.0
 40
6.0
 40
7.0
 40
7.0
 40
7.0
 40
8.0
 40
8.0
 40
8.0
 40
9.0
 40
9.0
 40
9.0
 40
10.0
 40
10.0
 40
10.0
 40
11.0
 40
11.0
 40
11.0
 40
12.0
 40
12.0
 40
12.0
 40
13.0
 40
13.0
 40
13.0
 40
13.0
 10
77.01717663005127
 20
-144.7701469907172
 30
0.0
 10
77.17599553192129
 20
-144.9627278283427
 30
0.0
 10
77.25006508485416
 20
-145.0447211008916
 30
0.0
 10
77.39372556658907
 20
-145.0877847944572
 30
0.0
 10
77.39372556658907
 20
-145.0877847944572
 30
0.0
 10
77.39372556658907
 20
-144.4004882451499
 30
0.0
 10
77.39372556658907
 20
-144.4004882451499
 30
0.0
 10
77.39372556658907
 20
-144.4004882451499
 30
0.0
 10
77.59905325750996
 20
-144.4004882451499
 30
0.0
 10
77.59905325750996
 20
-144.4004882451499
 30
0.0
 10
77.59905325750996
 20
-144.4004882451499
 30
0.0
 10
77.59905325750996
 20
-145.3082709055132
 30
0.0
 10
77.59905325750996
 20
-145.3082709055132
 30
0.0
 10
77.24145234614103
 20
-145.2800211225342
 30
0.0
 10
77.16324867862586
 20
-145.222143518382
 30
0.0
 10
76.86490340960322
 20
-144.8821125939878
 30
0.0
 10
76.6661214001043
 20
-144.6561143301554
 30
0.0
 10
76.59825301904489
 20
-144.5982367260032
 30
0.0
 10
76.46079370918342
 20
-144.5982367260032
 30
0.0
 10
76.34228242449082
 20
-144.5982367260032
 30
0.0
 10
76.21136879605133
 20
-144.6619709924803
 30
0.0
 10
76.21136879605133
 20
-144.8356038049369
 30
0.0
 10
76.21136879605133
 20
-145.0653916738031
 30
0.0
 10
76.44184568401454
 20
-145.0729708838707
 30
0.0
 10
76.55828991141598
 20
-145.0764159793559
 30
0.0
 10
76.55828991141598
 20
-145.0764159793559
 30
0.0
 10
76.55828991141598
 20
-145.2745089697578
 30
0.0
 10
76.55828991141598
 20
-145.2745089697578
 30
0.0
 10
76.43116588801027
 20
-145.2669297596902
 30
0.0
 10
76.31920028473965
 20
-145.2576280018801
 30
0.0
 10
76.20068900004705
 20
-145.1866590348839
 30
0.0
 10
76.03980304088589
 20
-145.0895073421999
 30
0.0
 10
76.00604110513044
 20
-144.9251762875534
 30
0.0
 10
76.00604110513044
 20
-144.822512442093
 30
0.0
 10
76.00604110513044
 20
-144.5779106626402
 30
0.0
 10
76.19000920404278
 20
-144.394631582825
 30
0.0
 10
76.46286076647456
 20
-144.394631582825
 30
0.0
 10
76.69161510669515
 20
-144.394631582825
 30
0.0
 10
76.79083385667035
 20
-144.4976399378339
 30
0.0
 10
77.01717663005127
 20
-144.7701469907172
 30
0.0
  0
HATCH
  5
1C3
330
1BE
100
AcDbEntity
  8
_U+30EC_U+30A4_U+30E4_U+30FC 1
 62
   179
420
  2234388
100
AcDbHatch
 10
0.0
 20
0.0
 30
0.0
210
0.0
220
0.0
230
1.0
  2
SOLID
 70
     1
 71
     0
 91
        1
 92
        1
 93
        1
 72
     4
 94
        3
 73
     0
 74
     1
 95
       44
 96
       40
 40
0.0
 40
0.0
 40
0.0
 40
0.0
 40
1.0
 40
1.0
 40
1.0
 40
2.0
 40
2.0
 40
2.0
 40
3.0
 40
3.0
 40
3.0
 40
4.0
 40
4.0
 40
4.0
 40
5.0
 40
5.0
 40
5.0
 40
6.0
 40
6.0
 40
6.0
 40
7.0
 40
7.0
 40
7.0
 40
8.0
 40
8.0
 40
8.0
 40
9.0
 40
9.0
 40
9.0
 40
10.0
 40
10.0
 40
10.0
 40
11.0
 40
11.0
 40
11.0
 40
12.0
 40
12.0
 40
12.0
 40
13.0
 40
13.0
 40
13.0
 40
13.0
 10
77.01717663005127
 20
-144.7701469907172
 10
77.17599553192129
 20
-144.9627278283427
 10
77.25006508485416
 20
-145.0447211008916
 10
77.39372556658907
 20
-145.0877847944572
 10
77.39372556658907
 20
-145.0877847944572
 10
77.39372556658907
 20
-144.4004882451499
 10
77.39372556658907
 20
-144.4004882451499
 10
77.39372556658907
 20
-144.4004882451499
 10
77.59905325750996
 20
-144.4004882451499
 10
77.59905325750996
 20
-144.4004882451499
 10
77.59905325750996
 20
-144.4004882451499
 10
77.59905325750996
 20
-145.3082709055132
 10
77.59905325750996
 20
-145.3082709055132
 10
77.24145234614103
 20
-145.2800211225342
 10
77.16324867862586
 20
-145.222143518382
 10
76.86490340960322
 20
-144.8821125939878
 10
76.6661214001043
 20
-144.6561143301554
 10
76.59825301904489
 20
-144.5982367260032
 10
76.46079370918342
 20
-144.5982367260032
 10
76.34228242449082
 20
-144.5982367260032
 10
76.21136879605133
 20
-144.6619709924803
 10
76.21136879605133
 20
-144.8356038049369
 10
76.21136879605133
 20
-145.0653916738031
 10
76.44184568401454
 20
-145.0729708838707
 10
76.55828991141598
 20
-145.0764159793559
 10
76.55828991141598
 20
-145.0764159793559
 10
76.55828991141598
 20
-145.2745089697578
 10
76.55828991141598
 20
-145.2745089697578
 10
76.43116588801027
 20
-145.2669297596902
 10
76.31920028473965
 20
-145.2576280018801
 10
76.20068900004705
 20
-145.1866590348839
 10
76.03980304088589
 20
-145.0895073421999
 10
76.00604110513044
 20
-144.9251762875534
 10
76.00604110513044
 20
-144.822512442093
 10
76.00604110513044
 20
-144.5779106626402
 10
76.19000920404278
 20
-144.394631582825
 10
76.46286076647456
 20
-144.394631582825
 10
76.69161510669515
 20
-144.394631582825
 10
76.79083385667035
 20
-144.4976399378339
 10
77.01717663005127
 20
-144.7701469907172
 97
        0
 97
        0
 75
     2
 76
     1
 98
        0
  0
SPLINE
  5
1C4
330
1BE
100
AcDbEntity
  8
_U+30EC_U+30A4_U+30E4_U+30FC 1
370
     0
100
AcDbSpline
210
0.0
220
0.0
230
1.0
 70
    11
 71
     3
 72
    29
 73
    25
 74
     0
 42
0.0000000001
 43
0.0000000001
 12
1.0
 22
0.0
 32
0.0
 13
1.0
 23
0.0
 33
0.0
 40
0.0
 40
0.0
 40
0.0
 40
0.0
 40
1.0
 40
1.0
 40
1.0
 40
2.0
 40
2.0
 40
2.0
 40
3.0
 40
3.0
 40
3.0
 40
4.0
 40
4.0
 40
4.0
 40
5.0
 40
5.0
 40
5.0
 40
6.0
 40
6.0
 40
6.0
 40
7.0
 40
7.0
 40
7.0
 40
8.0
 40
8.0
 40
8.0
 40
8.0
 10
77.42128633047108
 20
-143.4613552158708
 30
0.0
 10
77.63074813597426
 20
-143.5567843608122
 30
0.0
 10
77.64969616114314
 20
-143.7100911099058
 30
0.0
 10
77.64969616114314
 20
-143.8127549553663
 30
0.0
 10
77.64969616114314
 20
-143.9546928893586
 30
0.0
 10
77.60318737209226
 20
-144.0797498554731
 30
0.0
 10
77.42128633047108
 20
-144.1638101853132
 30
0.0
 10
77.22663843555445
 20
-144.2554497252209
 30
0.0
 10
76.98961586616926
 20
-144.2723306930986
 30
0.0
 10
76.82700735926548
 20
-144.2723306930986
 30
0.0
 10
76.68300236798203
 20
-144.2723306930986
 30
0.0
 10
76.43116588801027
 20
-144.2571722729635
 30
0.0
 10
76.23238387851136
 20
-144.1638101853132
 30
0.0
 10
76.02946775443014
 20
-144.0687255499203
 30
0.0
 10
76.00604110513044
 20
-143.9264431063795
 30
0.0
 10
76.00604110513044
 20
-143.8127549553663
 30
0.0
 10
76.00604110513044
 20
-143.6725395691166
 30
0.0
 10
76.05048283689015
 20
-143.5454155457109
 30
0.0
 10
76.23238387851136
 20
-143.4613552158708
 30
0.0
 10
76.42496471613681
 20
-143.3738497905454
 30
0.0
 10
76.65337454680888
 20
-143.3531792176339
 30
0.0
 10
76.82700735926548
 20
-143.3531792176339
 30
0.0
 10
76.99822860488239
 20
-143.3531792176339
 30
0.0
 10
77.2287054928456
 20
-143.3717827332543
 30
0.0
 10
77.42128633047108
 20
-143.4613552158708
 30
0.0
  0
SPLINE
  5
1C5
330
1BE
100
AcDbEntity
  8
_U+30EC_U+30A4_U+30E4_U+30FC 1
370
     0
100
AcDbSpline
210
0.0
220
0.0
230
1.0
 70
    11
 71
     3
 72
    17
 73
    13
 74
     0
 42
0.0000000001
 43
0.0000000001
 12
1.0
 22
0.0
 32
0.0
 13
1.0
 23
0.0
 33
0.0
 40
0.0
 40
0.0
 40
0.0
 40
0.0
 40
1.0
 40
1.0
 40
1.0
 40
2.0
 40
2.0
 40
2.0
 40
3.0
 40
3.0
 40
3.0
 40
4.0
 40
4.0
 40
4.0
 40
4.0
 10
76.1986219427559
 20
-143.8127549553663
 30
0.0
 10
76.1986219427559
 20
-144.0332410664222
 30
0.0
 10
76.48215330119197
 20
-144.0742377026967
 30
0.0
 10
76.82700735926548
 20
-144.0742377026967
 30
0.0
 10
77.14636771074814
 20
-144.0742377026967
 30
0.0
 10
77.45504826622651
 20
-144.0425428242324
 30
0.0
 10
77.45504826622651
 20
-143.8127549553663
 30
0.0
 10
77.45504826622651
 20
-143.5939913920529
 30
0.0
 10
77.17392847463013
 20
-143.5512722080358
 30
0.0
 10
76.82700735926548
 20
-143.5512722080358
 30
0.0
 10
76.5073024982343
 20
-143.5512722080358
 30
0.0
 10
76.1986219427559
 20
-143.5846896342427
 30
0.0
 10
76.1986219427559
 20
-143.8127549553663
 30
0.0
  0
HATCH
  5
1C6
330
1BE
100
AcDbEntity
  8
_U+30EC_U+30A4_U+30E4_U+30FC 1
 62
   179
420
  2234388
100
AcDbHatch
 10
0.0
 20
0.0
 30
0.0
210
0.0
220
0.0
230
1.0
  2
SOLID
 70
     1
 71
     0
 91
        2
 92
        1
 93
        1
 72
     4
 94
        3
 73
     0
 74
     1
 95
       29
 96
       25
 40
0.0
 40
0.0
 40
0.0
 40
0.0
 40
1.0
 40
1.0
 40
1.0
 40
2.0
 40
2.0
 40
2.0
 40
3.0
 40
3.0
 40
3.0
 40
4.0
 40
4.0
 40
4.0
 40
5.0
 40
5.0
 40
5.0
 40
6.0
 40
6.0
 40
6.0
 40
7.0
 40
7.0
 40
7.0
 40
8.0
 40
8.0
 40
8.0
 40
8.0
 10
77.42128633047108
 20
-143.4613552158708
 10
77.63074813597426
 20
-143.5567843608122
 10
77.64969616114314
 20
-143.7100911099058
 10
77.64969616114314
 20
-143.8127549553663
 10
77.64969616114314
 20
-143.9546928893586
 10
77.60318737209226
 20
-144.0797498554731
 10
77.42128633047108
 20
-144.1638101853132
 10
77.22663843555445
 20
-144.2554497252209
 10
76.98961586616926
 20
-144.2723306930986
 10
76.82700735926548
 20
-144.2723306930986
 10
76.68300236798203
 20
-144.2723306930986
 10
76.43116588801027
 20
-144.2571722729635
 10
76.23238387851136
 20
-144.1638101853132
 10
76.02946775443014
 20
-144.0687255499203
 10
76.00604110513044
 20
-143.9264431063795
 10
76.00604110513044
 20
-143.8127549553663
 10
76.00604110513044
 20
-143.6725395691166
 10
76.05048283689015
 20
-143.5454155457109
 10
76.23238387851136
 20
-143.4613552158708
 10
76.42496471613681
 20
-143.3738497905454
 10
76.65337454680888
 20
-143.3531792176339
 10
76.82700735926548
 20
-143.3531792176339
 10
76.99822860488239
 20
-143.3531792176339
 10
77.2287054928456
 20
-143.3717827332543
 10
77.42128633047108
 20
-143.4613552158708
 97
        0
 97
        0
 92
        1
 93
        1
 72
     4
 94
        3
 73
     0
 74
     1
 95
       17
 96
       13
 40
0.0
 40
0.0
 40
0.0
 40
0.0
 40
1.0
 40
1.0
 40
1.0
 40
2.0
 40
2.0
 40
2.0
 40
3.0
 40
3.0
 40
3.0
 40
4.0
 40
4.0
 40
4.0
 40
4.0
 10
76.1986219427559
 20
-143.8127549553663
 10
76.1986219427559
 20
-144.0332410664222
 10
76.48215330119197
 20
-144.0742377026967
 10
76.82700735926548
 20
-144.0742377026967
 10
77.14636771074814
 20
-144.0742377026967
 10
77.45504826622651
 20
-144.0425428242324
 10
77.45504826622651
 20
-143.8127549553663
 10
77.45504826622651
 20
-143.5939913920529
 10
77.17392847463013
 20
-143.5512722080358
 10
76.82700735926548
 20
-143.5512722080358
 10
76.5073024982343
 20
-143.5512722080358
 10
76.1986219427559
 20
-143.5846896342427
 10
76.1986219427559
 20
-143.8127549553663
 97
        0
 97
        0
 75
     2
 76
     1
 98
        0
  0
ENDBLK
  5
1C1
330
1BE
100
AcDbEntity
  8
0
100
AcDbBlockEnd
  0
BLOCK
  5
1C9
330
1C7
100
AcDbEntity
  8
0
100
AcDbBlockBegin
  2
block 9
 70
     0
 10
0.0
 20
0.0
 30
0.0
  3
block 9
  1

  0
SPLINE
  5
1CB
330
1C7
100
AcDbEntity
  8
_U+30EC_U+30A4_U+30E4_U+30FC 1
370
     0
100
AcDbSpline
210
0.0
220
0.0
230
1.0
 70
    11
 71
     3
 72
    62
 73
    58
 74
     0
 42
0.0000000001
 43
0.0000000001
 12
1.0
 22
0.0
 32
0.0
 13
1.0
 23
0.0
 33
0.0
 40
0.0
 40
0.0
 40
0.0
 40
0.0
 40
1.0
 40
1.0
 40
1.0
 40
2.0
 40
2.0
 40
2.0
 40
3.0
 40
3.0
 40
3.0
 40
4.0
 40
4.0
 40
4.0
 40
5.0
 40
5.0
 40
5.0
 40
6.0
 40
6.0
 40
6.0
 40
7.0
 40
7.0
 40
7.0
 40
8.0
 40
8.0
 40
8.0
 40
9.0
 40
9.0
 40
9.0
 40
10.0
 40
10.0
 40
10.0
 40
11.0
 40
11.0
 40
11.0
 40
12.0
 40
12.0
 40
12.0
 40
13.0
 40
13.0
 40
13.0
 40
14.0
 40
14.0
 40
14.0
 40
15.0
 40
15.0
 40
15.0
 40
16.0
 40
16.0
 40
16.0
 40
17.0
 40
17.0
 40
17.0
 40
18.0
 40
18.0
 40
18.0
 40
19.0
 40
19.0
 40
19.0
 40
19.0
 10
105.7413492574188
 20
-152.8399386553664
 30
0.0
 10
105.7413492574188
 20
-152.9239989852065
 30
0.0
 10
105.7203341749588
 20
-153.116579822832
 30
0.0
 10
105.5342990187553
 20
-153.22682287836
 30
0.0
 10
105.4219889059362
 20
-153.2922796925797
 30
0.0
 10
105.322770155961
 20
-153.295724788065
 30
0.0
 10
105.2380208070238
 20
-153.2995143930987
 30
0.0
 10
105.2380208070238
 20
-153.2995143930987
 30
0.0
 10
105.2380208070238
 20
-153.1052110077306
 30
0.0
 10
105.2380208070238
 20
-153.1052110077306
 30
0.0
 10
105.3120903599567
 20
-153.103488459988
 30
0.0
 10
105.5467013625022
 20
-153.0941867021778
 30
0.0
 10
105.5467013625022
 20
-152.8437282604002
 30
0.0
 10
105.5467013625022
 20
-152.7224608993194
 30
0.0
 10
105.4771104337002
 20
-152.5877576658461
 30
0.0
 10
105.2487006030281
 20
-152.5877576658461
 30
0.0
 10
105.1322563756267
 20
-152.5877576658461
 30
0.0
 10
105.0836805292846
 20
-152.6215196016016
 30
0.0
 10
105.0519856508203
 20
-152.6494248750321
 30
0.0
 10
104.9779160978875
 20
-152.7148816892519
 30
0.0
 10
104.965169244592
 20
-152.8175455347123
 30
0.0
 10
104.965169244592
 20
-152.8661213810543
 30
0.0
 10
104.965169244592
 20
-152.883002348932
 30
0.0
 10
104.9672363018832
 20
-152.9146972273963
 30
0.0
 10
104.9713704164655
 20
-152.9391574053416
 30
0.0
 10
104.9713704164655
 20
-152.9391574053416
 30
0.0
 10
104.7767225215489
 20
-152.9391574053416
 30
0.0
 10
104.7767225215489
 20
-152.9391574053416
 30
0.0
 10
104.7832682029709
 20
-152.9053954695862
 30
0.0
 10
104.785335260262
 20
-152.8681884383455
 30
0.0
 10
104.785335260262
 20
-152.8623317760205
 30
0.0
 10
104.785335260262
 20
-152.8044541718683
 30
0.0
 10
104.7639756682535
 20
-152.6290988116691
 30
0.0
 10
104.5272976084168
 20
-152.6290988116691
 30
0.0
 10
104.3495306813779
 20
-152.6290988116691
 30
0.0
 10
104.2944091536139
 20
-152.7448540199735
 30
0.0
 10
104.2944091536139
 20
-152.8420057126576
 30
0.0
 10
104.2944091536139
 20
-153.0755831865575
 30
0.0
 10
104.5272976084168
 20
-153.0828178870765
 30
0.0
 10
104.59895559451
 20
-153.0866074921103
 30
0.0
 10
104.59895559451
 20
-153.0866074921103
 30
0.0
 10
104.59895559451
 20
-153.2660969668918
 30
0.0
 10
104.59895559451
 20
-153.2660969668918
 30
0.0
 10
104.4742431379439
 20
-153.2585177568243
 30
0.0
 10
104.0976942014061
 20
-153.234057578879
 30
0.0
 10
104.0976942014061
 20
-152.8306368975562
 30
0.0
 10
104.0976942014061
 20
-152.6328884167029
 30
0.0
 10
104.2248182248119
 20
-152.4196370061659
 30
0.0
 10
104.5207519269948
 20
-152.4196370061659
 30
0.0
 10
104.7071315927468
 20
-152.4196370061659
 30
0.0
 10
104.7894693748443
 20
-152.503697336006
 30
0.0
 10
104.8507920744817
 20
-152.5915472708799
 30
0.0
 10
104.8783528383638
 20
-152.5374592717615
 30
0.0
 10
104.9586235631701
 20
-152.3769178221488
 30
0.0
 10
105.2359537497327
 20
-152.3769178221488
 30
0.0
 10
105.5742621263842
 20
-152.3769178221488
 30
0.0
 10
105.7413492574188
 20
-152.5953368759137
 30
0.0
 10
105.7413492574188
 20
-152.8399386553664
 30
0.0
  0
HATCH
  5
1CC
330
1C7
100
AcDbEntity
  8
_U+30EC_U+30A4_U+30E4_U+30FC 1
 62
   179
420
  2234388
100
AcDbHatch
 10
0.0
 20
0.0
 30
0.0
210
0.0
220
0.0
230
1.0
  2
SOLID
 70
     1
 71
     0
 91
        1
 92
        1
 93
        1
 72
     4
 94
        3
 73
     0
 74
     1
 95
       62
 96
       58
 40
0.0
 40
0.0
 40
0.0
 40
0.0
 40
1.0
 40
1.0
 40
1.0
 40
2.0
 40
2.0
 40
2.0
 40
3.0
 40
3.0
 40
3.0
 40
4.0
 40
4.0
 40
4.0
 40
5.0
 40
5.0
 40
5.0
 40
6.0
 40
6.0
 40
6.0
 40
7.0
 40
7.0
 40
7.0
 40
8.0
 40
8.0
 40
8.0
 40
9.0
 40
9.0
 40
9.0
 40
10.0
 40
10.0
 40
10.0
 40
11.0
 40
11.0
 40
11.0
 40
12.0
 40
12.0
 40
12.0
 40
13.0
 40
13.0
 40
13.0
 40
14.0
 40
14.0
 40
14.0
 40
15.0
 40
15.0
 40
15.0
 40
16.0
 40
16.0
 40
16.0
 40
17.0
 40
17.0
 40
17.0
 40
18.0
 40
18.0
 40
18.0
 40
19.0
 40
19.0
 40
19.0
 40
19.0
 10
105.7413492574188
 20
-152.8399386553664
 10
105.7413492574188
 20
-152.9239989852065
 10
105.7203341749588
 20
-153.116579822832
 10
105.5342990187553
 20
-153.22682287836
 10
105.4219889059362
 20
-153.2922796925797
 10
105.322770155961
 20
-153.295724788065
 10
105.2380208070238
 20
-153.2995143930987
 10
105.2380208070238
 20
-153.2995143930987
 10
105.2380208070238
 20
-153.1052110077306
 10
105.2380208070238
 20
-153.1052110077306
 10
105.3120903599567
 20
-153.103488459988
 10
105.5467013625022
 20
-153.0941867021778
 10
105.5467013625022
 20
-152.8437282604002
 10
105.5467013625022
 20
-152.7224608993194
 10
105.4771104337002
 20
-152.5877576658461
 10
105.2487006030281
 20
-152.5877576658461
 10
105.1322563756267
 20
-152.5877576658461
 10
105.0836805292846
 20
-152.6215196016016
 10
105.0519856508203
 20
-152.6494248750321
 10
104.9779160978875
 20
-152.7148816892519
 10
104.965169244592
 20
-152.8175455347123
 10
104.965169244592
 20
-152.8661213810543
 10
104.965169244592
 20
-152.883002348932
 10
104.9672363018832
 20
-152.9146972273963
 10
104.9713704164655
 20
-152.9391574053416
 10
104.9713704164655
 20
-152.9391574053416
 10
104.7767225215489
 20
-152.9391574053416
 10
104.7767225215489
 20
-152.9391574053416
 10
104.7832682029709
 20
-152.9053954695862
 10
104.785335260262
 20
-152.8681884383455
 10
104.785335260262
 20
-152.8623317760205
 10
104.785335260262
 20
-152.8044541718683
 10
104.7639756682535
 20
-152.6290988116691
 10
104.5272976084168
 20
-152.6290988116691
 10
104.3495306813779
 20
-152.6290988116691
 10
104.2944091536139
 20
-152.7448540199735
 10
104.2944091536139
 20
-152.8420057126576
 10
104.2944091536139
 20
-153.0755831865575
 10
104.5272976084168
 20
-153.0828178870765
 10
104.59895559451
 20
-153.0866074921103
 10
104.59895559451
 20
-153.0866074921103
 10
104.59895559451
 20
-153.2660969668918
 10
104.59895559451
 20
-153.2660969668918
 10
104.4742431379439
 20
-153.2585177568243
 10
104.0976942014061
 20
-153.234057578879
 10
104.0976942014061
 20
-152.8306368975562
 10
104.0976942014061
 20
-152.6328884167029
 10
104.2248182248119
 20
-152.4196370061659
 10
104.5207519269948
 20
-152.4196370061659
 10
104.7071315927468
 20
-152.4196370061659
 10
104.7894693748443
 20
-152.503697336006
 10
104.8507920744817
 20
-152.5915472708799
 10
104.8783528383638
 20
-152.5374592717615
 10
104.9586235631701
 20
-152.3769178221488
 10
105.2359537497327
 20
-152.3769178221488
 10
105.5742621263842
 20
-152.3769178221488
 10
105.7413492574188
 20
-152.5953368759137
 10
105.7413492574188
 20
-152.8399386553664
 97
        0
 97
        0
 75
     2
 76
     1
 98
        0
  0
ENDBLK
  5
1CA
330
1C7
100
AcDbEntity
  8
0
100
AcDbBlockEnd
  0
BLOCK
  5
1CF
330
1CD
100
AcDbEntity
  8
0
100
AcDbBlockBegin
  2
block 10
 70
     0
 10
0.0
 20
0.0
 30
0.0
  3
block 10
  1

  0
SPLINE
  5
1D1
330
1CD
100
AcDbEntity
  8
_U+30EC_U+30A4_U+30E4_U+30FC 1
370
     0
100
AcDbSpline
210
0.0
220
0.0
230
1.0
 70
    11
 71
     3
 72
    26
 73
    22
 74
     0
 42
0.0000000001
 43
0.0000000001
 12
1.0
 22
0.0
 32
0.0
 13
1.0
 23
0.0
 33
0.0
 40
0.0
 40
0.0
 40
0.0
 40
0.0
 40
1.0
 40
1.0
 40
1.0
 40
2.0
 40
2.0
 40
2.0
 40
3.0
 40
3.0
 40
3.0
 40
4.0
 40
4.0
 40
4.0
 40
5.0
 40
5.0
 40
5.0
 40
6.0
 40
6.0
 40
6.0
 40
7.0
 40
7.0
 40
7.0
 40
7.0
 10
105.6903618442371
 20
-146.8950818860193
 30
0.0
 10
105.6903618442371
 20
-146.8950818860193
 30
0.0
 10
104.5862087412146
 20
-146.8950818860193
 30
0.0
 10
104.5862087412146
 20
-146.8950818860193
 30
0.0
 10
104.5862087412146
 20
-146.8950818860193
 30
0.0
 10
104.5862087412146
 20
-147.1865369640714
 30
0.0
 10
104.5862087412146
 20
-147.1865369640714
 30
0.0
 10
104.5862087412146
 20
-147.1865369640714
 30
0.0
 10
104.4380696353488
 20
-147.1865369640714
 30
0.0
 10
104.4380696353488
 20
-147.1865369640714
 30
0.0
 10
104.4232557247622
 20
-146.8933593382767
 30
0.0
 10
104.2603027083099
 20
-146.8523627020022
 30
0.0
 10
104.1459255381996
 20
-146.8261799763143
 30
0.0
 10
104.1459255381996
 20
-146.8261799763143
 30
0.0
 10
104.1459255381996
 20
-146.6973334051659
 30
0.0
 10
104.1459255381996
 20
-146.6973334051659
 30
0.0
 10
104.1459255381996
 20
-146.6973334051659
 30
0.0
 10
105.6903618442371
 20
-146.6973334051659
 30
0.0
 10
105.6903618442371
 20
-146.6973334051659
 30
0.0
 10
105.6903618442371
 20
-146.6973334051659
 30
0.0
 10
105.6903618442371
 20
-146.8950818860193
 30
0.0
 10
105.6903618442371
 20
-146.8950818860193
 30
0.0
  0
HATCH
  5
1D2
330
1CD
100
AcDbEntity
  8
_U+30EC_U+30A4_U+30E4_U+30FC 1
 62
   179
420
  2234388
100
AcDbHatch
 10
0.0
 20
0.0
 30
0.0
210
0.0
220
0.0
230
1.0
  2
SOLID
 70
     1
 71
     0
 91
        1
 92
        1
 93
        1
 72
     4
 94
        3
 73
     0
 74
     1
 95
       26
 96
       22
 40
0.0
 40
0.0
 40
0.0
 40
0.0
 40
1.0
 40
1.0
 40
1.0
 40
2.0
 40
2.0
 40
2.0
 40
3.0
 40
3.0
 40
3.0
 40
4.0
 40
4.0
 40
4.0
 40
5.0
 40
5.0
 40
5.0
 40
6.0
 40
6.0
 40
6.0
 40
7.0
 40
7.0
 40
7.0
 40
7.0
 10
105.6903618442371
 20
-146.8950818860193
 10
105.6903618442371
 20
-146.8950818860193
 10
104.5862087412146
 20
-146.8950818860193
 10
104.5862087412146
 20
-146.8950818860193
 10
104.5862087412146
 20
-146.8950818860193
 10
104.5862087412146
 20
-147.1865369640714
 10
104.5862087412146
 20
-147.1865369640714
 10
104.5862087412146
 20
-147.1865369640714
 10
104.4380696353488
 20
-147.1865369640714
 10
104.4380696353488
 20
-147.1865369640714
 10
104.4232557247622
 20
-146.8933593382767
 10
104.2603027083099
 20
-146.8523627020022
 10
104.1459255381996
 20
-146.8261799763143
 10
104.1459255381996
 20
-146.8261799763143
 10
104.1459255381996
 20
-146.6973334051659
 10
104.1459255381996
 20
-146.6973334051659
 10
104.1459255381996
 20
-146.6973334051659
 10
105.6903618442371
 20
-146.6973334051659
 10
105.6903618442371
 20
-146.6973334051659
 10
105.6903618442371
 20
-146.6973334051659
 10
105.6903618442371
 20
-146.8950818860193
 10
105.6903618442371
 20
-146.8950818860193
 97
        0
 97
        0
 75
     2
 76
     1
 98
        0
  0
SPLINE
  5
1D3
330
1CD
100
AcDbEntity
  8
_U+30EC_U+30A4_U+30E4_U+30FC 1
370
     0
100
AcDbSpline
210
0.0
220
0.0
230
1.0
 70
    11
 71
     3
 72
    29
 73
    25
 74
     0
 42
0.0000000001
 43
0.0000000001
 12
1.0
 22
0.0
 32
0.0
 13
1.0
 23
0.0
 33
0.0
 40
0.0
 40
0.0
 40
0.0
 40
0.0
 40
1.0
 40
1.0
 40
1.0
 40
2.0
 40
2.0
 40
2.0
 40
3.0
 40
3.0
 40
3.0
 40
4.0
 40
4.0
 40
4.0
 40
5.0
 40
5.0
 40
5.0
 40
6.0
 40
6.0
 40
6.0
 40
7.0
 40
7.0
 40
7.0
 40
8.0
 40
8.0
 40
8.0
 40
8.0
 10
105.5125949171982
 20
-145.4612331450583
 30
0.0
 10
105.7220567227014
 20
-145.5566622899997
 30
0.0
 10
105.7410047478703
 20
-145.7099690390934
 30
0.0
 10
105.7410047478703
 20
-145.8126328845538
 30
0.0
 10
105.7410047478703
 20
-145.9545708185461
 30
0.0
 10
105.6944959588194
 20
-146.0796277846607
 30
0.0
 10
105.5125949171982
 20
-146.1636881145008
 30
0.0
 10
105.3179470222816
 20
-146.2553276544084
 30
0.0
 10
105.0809244528964
 20
-146.2718641127376
 30
0.0
 10
104.9183159459926
 20
-146.2718641127376
 30
0.0
 10
104.7743109547092
 20
-146.2718641127376
 30
0.0
 10
104.5224744747374
 20
-146.257050202151
 30
0.0
 10
104.3236924652385
 20
-146.1636881145008
 30
0.0
 10
104.1207763411573
 20
-146.0686034791078
 30
0.0
 10
104.0973496918576
 20
-145.926321035567
 30
0.0
 10
104.0973496918576
 20
-145.8126328845538
 30
0.0
 10
104.0973496918576
 20
-145.6724174983041
 30
0.0
 10
104.1417914236173
 20
-145.5452934748984
 30
0.0
 10
104.3236924652385
 20
-145.4612331450583
 30
0.0
 10
104.516273302864
 20
-145.373727719733
 30
0.0
 10
104.7446831335361
 20
-145.3530571468215
 30
0.0
 10
104.9183159459926
 20
-145.3530571468215
 30
0.0
 10
105.0895371916096
 20
-145.3530571468215
 30
0.0
 10
105.3200140795728
 20
-145.3716606624418
 30
0.0
 10
105.5125949171982
 20
-145.4612331450583
 30
0.0
  0
SPLINE
  5
1D4
330
1CD
100
AcDbEntity
  8
_U+30EC_U+30A4_U+30E4_U+30FC 1
370
     0
100
AcDbSpline
210
0.0
220
0.0
230
1.0
 70
    11
 71
     3
 72
    17
 73
    13
 74
     0
 42
0.0000000001
 43
0.0000000001
 12
1.0
 22
0.0
 32
0.0
 13
1.0
 23
0.0
 33
0.0
 40
0.0
 40
0.0
 40
0.0
 40
0.0
 40
1.0
 40
1.0
 40
1.0
 40
2.0
 40
2.0
 40
2.0
 40
3.0
 40
3.0
 40
3.0
 40
4.0
 40
4.0
 40
4.0
 40
4.0
 10
104.2899305294831
 20
-145.8126328845538
 30
0.0
 10
104.2899305294831
 20
-146.0327744860613
 30
0.0
 10
104.5734618879191
 20
-146.0741156318843
 30
0.0
 10
104.9183159459926
 20
-146.0741156318843
 30
0.0
 10
105.2376762974753
 20
-146.0741156318843
 30
0.0
 10
105.5463568529537
 20
-146.0424207534199
 30
0.0
 10
105.5463568529537
 20
-145.8126328845538
 30
0.0
 10
105.5463568529537
 20
-145.5938693212404
 30
0.0
 10
105.2652370613573
 20
-145.5511501372233
 30
0.0
 10
104.9183159459926
 20
-145.5511501372233
 30
0.0
 10
104.5986110849615
 20
-145.5511501372233
 30
0.0
 10
104.2899305294831
 20
-145.5845675634303
 30
0.0
 10
104.2899305294831
 20
-145.8126328845538
 30
0.0
  0
HATCH
  5
1D5
330
1CD
100
AcDbEntity
  8
_U+30EC_U+30A4_U+30E4_U+30FC 1
 62
   179
420
  2234388
100
AcDbHatch
 10
0.0
 20
0.0
 30
0.0
210
0.0
220
0.0
230
1.0
  2
SOLID
 70
     1
 71
     0
 91
        2
 92
        1
 93
        1
 72
     4
 94
        3
 73
     0
 74
     1
 95
       29
 96
       25
 40
0.0
 40
0.0
 40
0.0
 40
0.0
 40
1.0
 40
1.0
 40
1.0
 40
2.0
 40
2.0
 40
2.0
 40
3.0
 40
3.0
 40
3.0
 40
4.0
 40
4.0
 40
4.0
 40
5.0
 40
5.0
 40
5.0
 40
6.0
 40
6.0
 40
6.0
 40
7.0
 40
7.0
 40
7.0
 40
8.0
 40
8.0
 40
8.0
 40
8.0
 10
105.5125949171982
 20
-145.4612331450583
 10
105.7220567227014
 20
-145.5566622899997
 10
105.7410047478703
 20
-145.7099690390934
 10
105.7410047478703
 20
-145.8126328845538
 10
105.7410047478703
 20
-145.9545708185461
 10
105.6944959588194
 20
-146.0796277846607
 10
105.5125949171982
 20
-146.1636881145008
 10
105.3179470222816
 20
-146.2553276544084
 10
105.0809244528964
 20
-146.2718641127376
 10
104.9183159459926
 20
-146.2718641127376
 10
104.7743109547092
 20
-146.2718641127376
 10
104.5224744747374
 20
-146.257050202151
 10
104.3236924652385
 20
-146.1636881145008
 10
104.1207763411573
 20
-146.0686034791078
 10
104.0973496918576
 20
-145.926321035567
 10
104.0973496918576
 20
-145.8126328845538
 10
104.0973496918576
 20
-145.6724174983041
 10
104.1417914236173
 20
-145.5452934748984
 10
104.3236924652385
 20
-145.4612331450583
 10
104.516273302864
 20
-145.373727719733
 10
104.7446831335361
 20
-145.3530571468215
 10
104.9183159459926
 20
-145.3530571468215
 10
105.0895371916096
 20
-145.3530571468215
 10
105.3200140795728
 20
-145.3716606624418
 10
105.5125949171982
 20
-145.4612331450583
 97
        0
 97
        0
 92
        1
 93
        1
 72
     4
 94
        3
 73
     0
 74
     1
 95
       17
 96
       13
 40
0.0
 40
0.0
 40
0.0
 40
0.0
 40
1.0
 40
1.0
 40
1.0
 40
2.0
 40
2.0
 40
2.0
 40
3.0
 40
3.0
 40
3.0
 40
4.0
 40
4.0
 40
4.0
 40
4.0
 10
104.2899305294831
 20
-145.8126328845538
 10
104.2899305294831
 20
-146.0327744860613
 10
104.5734618879191
 20
-146.0741156318843
 10
104.9183159459926
 20
-146.0741156318843
 10
105.2376762974753
 20
-146.0741156318843
 10
105.5463568529537
 20
-146.0424207534199
 10
105.5463568529537
 20
-145.8126328845538
 10
105.5463568529537
 20
-145.5938693212404
 10
105.2652370613573
 20
-145.5511501372233
 10
104.9183159459926
 20
-145.5511501372233
 10
104.5986110849615
 20
-145.5511501372233
 10
104.2899305294831
 20
-145.5845675634303
 10
104.2899305294831
 20
-145.8126328845538
 97
        0
 97
        0
 75
     2
 76
     1
 98
        0
  0
ENDBLK
  5
1D0
330
1CD
100
AcDbEntity
  8
0
100
AcDbBlockEnd
  0
BLOCK
  5
1D8
330
1D6
100
AcDbEntity
  8
0
100
AcDbBlockBegin
  2
block 11
 70
     0
 10
0.0
 20
0.0
 30
0.0
  3
block 11
  1

  0
SPLINE
  5
1DA
330
1D6
100
AcDbEntity
  8
_U+30EC_U+30A4_U+30E4_U+30FC 1
370
     0
100
AcDbSpline
210
0.0
220
0.0
230
1.0
 70
    11
 71
     3
 72
    62
 73
    58
 74
     0
 42
0.0000000001
 43
0.0000000001
 12
1.0
 22
0.0
 32
0.0
 13
1.0
 23
0.0
 33
0.0
 40
0.0
 40
0.0
 40
0.0
 40
0.0
 40
1.0
 40
1.0
 40
1.0
 40
2.0
 40
2.0
 40
2.0
 40
3.0
 40
3.0
 40
3.0
 40
4.0
 40
4.0
 40
4.0
 40
5.0
 40
5.0
 40
5.0
 40
6.0
 40
6.0
 40
6.0
 40
7.0
 40
7.0
 40
7.0
 40
8.0
 40
8.0
 40
8.0
 40
9.0
 40
9.0
 40
9.0
 40
10.0
 40
10.0
 40
10.0
 40
11.0
 40
11.0
 40
11.0
 40
12.0
 40
12.0
 40
12.0
 40
13.0
 40
13.0
 40
13.0
 40
14.0
 40
14.0
 40
14.0
 40
15.0
 40
15.0
 40
15.0
 40
16.0
 40
16.0
 40
16.0
 40
17.0
 40
17.0
 40
17.0
 40
18.0
 40
18.0
 40
18.0
 40
19.0
 40
19.0
 40
19.0
 40
19.0
 10
105.7410047478703
 20
-124.3596787883545
 30
0.0
 10
105.7410047478703
 20
-124.4437391181946
 30
0.0
 10
105.7199896654103
 20
-124.6363199558201
 30
0.0
 10
105.5339545092068
 20
-124.7465630113481
 30
0.0
 10
105.4216443963876
 20
-124.8116753160193
 30
0.0
 10
105.3224256464125
 20
-124.8154649210531
 30
0.0
 10
105.2376762974753
 20
-124.8192545260869
 30
0.0
 10
105.2376762974753
 20
-124.8192545260869
 30
0.0
 10
105.2376762974753
 20
-124.6249511407188
 30
0.0
 10
105.2376762974753
 20
-124.6249511407188
 30
0.0
 10
105.3117458504082
 20
-124.6232285929761
 30
0.0
 10
105.5463568529537
 20
-124.613926835166
 30
0.0
 10
105.5463568529537
 20
-124.3634683933883
 30
0.0
 10
105.5463568529537
 20
-124.2422010323075
 30
0.0
 10
105.4767659241516
 20
-124.1074977988342
 30
0.0
 10
105.2483560934796
 20
-124.1074977988342
 30
0.0
 10
105.1319118660781
 20
-124.1074977988342
 30
0.0
 10
105.0833360197361
 20
-124.1412597345897
 30
0.0
 10
105.0516411412718
 20
-124.1691650080202
 30
0.0
 10
104.9775715883389
 20
-124.23462182224
 30
0.0
 10
104.9648247350435
 20
-124.3372856677004
 30
0.0
 10
104.9648247350435
 20
-124.3858615140424
 30
0.0
 10
104.9648247350435
 20
-124.4027424819202
 30
0.0
 10
104.9668917923347
 20
-124.4344373603845
 30
0.0
 10
104.971025906917
 20
-124.4588975383297
 30
0.0
 10
104.971025906917
 20
-124.4588975383297
 30
0.0
 10
104.7763780120004
 20
-124.4588975383297
 30
0.0
 10
104.7763780120004
 20
-124.4588975383297
 30
0.0
 10
104.7829236934223
 20
-124.4251356025743
 30
0.0
 10
104.7849907507135
 20
-124.3879285713336
 30
0.0
 10
104.7849907507135
 20
-124.3820719090087
 30
0.0
 10
104.7849907507135
 20
-124.3241943048565
 30
0.0
 10
104.7636311587049
 20
-124.1488389446572
 30
0.0
 10
104.5269530988683
 20
-124.1488389446572
 30
0.0
 10
104.3491861718294
 20
-124.1488389446572
 30
0.0
 10
104.2940646440654
 20
-124.2645941529616
 30
0.0
 10
104.2940646440654
 20
-124.3617458456457
 30
0.0
 10
104.2940646440654
 20
-124.5953233195456
 30
0.0
 10
104.5269530988683
 20
-124.6025580200646
 30
0.0
 10
104.5986110849615
 20
-124.6063476250984
 30
0.0
 10
104.5986110849615
 20
-124.6063476250984
 30
0.0
 10
104.5986110849615
 20
-124.7858370998799
 30
0.0
 10
104.5986110849615
 20
-124.7858370998799
 30
0.0
 10
104.4738986283954
 20
-124.7782578898124
 30
0.0
 10
104.0973496918576
 20
-124.7537977118671
 30
0.0
 10
104.0973496918576
 20
-124.3503770305444
 30
0.0
 10
104.0973496918576
 20
-124.152628549691
 30
0.0
 10
104.2244737152633
 20
-123.939377139154
 30
0.0
 10
104.5204074174463
 20
-123.939377139154
 30
0.0
 10
104.7067870831983
 20
-123.939377139154
 30
0.0
 10
104.7891248652958
 20
-124.0234374689941
 30
0.0
 10
104.8504475649332
 20
-124.111287403868
 30
0.0
 10
104.8780083288152
 20
-124.0571994047496
 30
0.0
 10
104.9582790536216
 20
-123.896657955137
 30
0.0
 10
105.2356092401842
 20
-123.896657955137
 30
0.0
 10
105.5739176168357
 20
-123.896657955137
 30
0.0
 10
105.7410047478703
 20
-124.1150770089018
 30
0.0
 10
105.7410047478703
 20
-124.3596787883545
 30
0.0
  0
HATCH
  5
1DB
330
1D6
100
AcDbEntity
  8
_U+30EC_U+30A4_U+30E4_U+30FC 1
 62
   179
420
  2234388
100
AcDbHatch
 10
0.0
 20
0.0
 30
0.0
210
0.0
220
0.0
230
1.0
  2
SOLID
 70
     1
 71
     0
 91
        1
 92
        1
 93
        1
 72
     4
 94
        3
 73
     0
 74
     1
 95
       62
 96
       58
 40
0.0
 40
0.0
 40
0.0
 40
0.0
 40
1.0
 40
1.0
 40
1.0
 40
2.0
 40
2.0
 40
2.0
 40
3.0
 40
3.0
 40
3.0
 40
4.0
 40
4.0
 40
4.0
 40
5.0
 40
5.0
 40
5.0
 40
6.0
 40
6.0
 40
6.0
 40
7.0
 40
7.0
 40
7.0
 40
8.0
 40
8.0
 40
8.0
 40
9.0
 40
9.0
 40
9.0
 40
10.0
 40
10.0
 40
10.0
 40
11.0
 40
11.0
 40
11.0
 40
12.0
 40
12.0
 40
12.0
 40
13.0
 40
13.0
 40
13.0
 40
14.0
 40
14.0
 40
14.0
 40
15.0
 40
15.0
 40
15.0
 40
16.0
 40
16.0
 40
16.0
 40
17.0
 40
17.0
 40
17.0
 40
18.0
 40
18.0
 40
18.0
 40
19.0
 40
19.0
 40
19.0
 40
19.0
 10
105.7410047478703
 20
-124.3596787883545
 10
105.7410047478703
 20
-124.4437391181946
 10
105.7199896654103
 20
-124.6363199558201
 10
105.5339545092068
 20
-124.7465630113481
 10
105.4216443963876
 20
-124.8116753160193
 10
105.3224256464125
 20
-124.8154649210531
 10
105.2376762974753
 20
-124.8192545260869
 10
105.2376762974753
 20
-124.8192545260869
 10
105.2376762974753
 20
-124.6249511407188
 10
105.2376762974753
 20
-124.6249511407188
 10
105.3117458504082
 20
-124.6232285929761
 10
105.5463568529537
 20
-124.613926835166
 10
105.5463568529537
 20
-124.3634683933883
 10
105.5463568529537
 20
-124.2422010323075
 10
105.4767659241516
 20
-124.1074977988342
 10
105.2483560934796
 20
-124.1074977988342
 10
105.1319118660781
 20
-124.1074977988342
 10
105.0833360197361
 20
-124.1412597345897
 10
105.0516411412718
 20
-124.1691650080202
 10
104.9775715883389
 20
-124.23462182224
 10
104.9648247350435
 20
-124.3372856677004
 10
104.9648247350435
 20
-124.3858615140424
 10
104.9648247350435
 20
-124.4027424819202
 10
104.9668917923347
 20
-124.4344373603845
 10
104.971025906917
 20
-124.4588975383297
 10
104.971025906917
 20
-124.4588975383297
 10
104.7763780120004
 20
-124.4588975383297
 10
104.7763780120004
 20
-124.4588975383297
 10
104.7829236934223
 20
-124.4251356025743
 10
104.7849907507135
 20
-124.3879285713336
 10
104.7849907507135
 20
-124.3820719090087
 10
104.7849907507135
 20
-124.3241943048565
 10
104.7636311587049
 20
-124.1488389446572
 10
104.5269530988683
 20
-124.1488389446572
 10
104.3491861718294
 20
-124.1488389446572
 10
104.2940646440654
 20
-124.2645941529616
 10
104.2940646440654
 20
-124.3617458456457
 10
104.2940646440654
 20
-124.5953233195456
 10
104.5269530988683
 20
-124.6025580200646
 10
104.5986110849615
 20
-124.6063476250984
 10
104.5986110849615
 20
-124.6063476250984
 10
104.5986110849615
 20
-124.7858370998799
 10
104.5986110849615
 20
-124.7858370998799
 10
104.4738986283954
 20
-124.7782578898124
 10
104.0973496918576
 20
-124.7537977118671
 10
104.0973496918576
 20
-124.3503770305444
 10
104.0973496918576
 20
-124.152628549691
 10
104.2244737152633
 20
-123.939377139154
 10
104.5204074174463
 20
-123.939377139154
 10
104.7067870831983
 20
-123.939377139154
 10
104.7891248652958
 20
-124.0234374689941
 10
104.8504475649332
 20
-124.111287403868
 10
104.8780083288152
 20
-124.0571994047496
 10
104.9582790536216
 20
-123.896657955137
 10
105.2356092401842
 20
-123.896657955137
 10
105.5739176168357
 20
-123.896657955137
 10
105.7410047478703
 20
-124.1150770089018
 10
105.7410047478703
 20
-124.3596787883545
 97
        0
 97
        0
 75
     2
 76
     1
 98
        0
  0
SPLINE
  5
1DC
330
1D6
100
AcDbEntity
  8
_U+30EC_U+30A4_U+30E4_U+30FC 1
370
     0
100
AcDbSpline
210
0.0
220
0.0
230
1.0
 70
    11
 71
     3
 72
    53
 73
    49
 74
     0
 42
0.0000000001
 43
0.0000000001
 12
1.0
 22
0.0
 32
0.0
 13
1.0
 23
0.0
 33
0.0
 40
0.0
 40
0.0
 40
0.0
 40
0.0
 40
1.0
 40
1.0
 40
1.0
 40
2.0
 40
2.0
 40
2.0
 40
3.0
 40
3.0
 40
3.0
 40
4.0
 40
4.0
 40
4.0
 40
5.0
 40
5.0
 40
5.0
 40
6.0
 40
6.0
 40
6.0
 40
7.0
 40
7.0
 40
7.0
 40
8.0
 40
8.0
 40
8.0
 40
9.0
 40
9.0
 40
9.0
 40
10.0
 40
10.0
 40
10.0
 40
11.0
 40
11.0
 40
11.0
 40
12.0
 40
12.0
 40
12.0
 40
13.0
 40
13.0
 40
13.0
 40
14.0
 40
14.0
 40
14.0
 40
15.0
 40
15.0
 40
15.0
 40
16.0
 40
16.0
 40
16.0
 40
16.0
 10
105.7410047478703
 20
-123.3295952382648
 30
0.0
 10
105.7410047478703
 20
-123.3984971479698
 30
0.0
 10
105.7241237799926
 20
-123.4880696305863
 30
0.0
 10
105.660734023064
 20
-123.5779866227513
 30
0.0
 10
105.5508354770845
 20
-123.7309488622964
 30
0.0
 10
105.4195773390965
 20
-123.7495523779168
 30
0.0
 10
105.3117458504082
 20
-123.7664333457945
 30
0.0
 10
105.3117458504082
 20
-123.7664333457945
 30
0.0
 10
105.3117458504082
 20
-123.5704074126838
 30
0.0
 10
105.3117458504082
 20
-123.5704074126838
 30
0.0
 10
105.5105278599071
 20
-123.5218315663418
 30
0.0
 10
105.5401556810803
 20
-123.4098659630712
 30
0.0
 10
105.5401556810803
 20
-123.3275281809737
 30
0.0
 10
105.5401556810803
 20
-123.2041937626017
 30
0.0
 10
105.4405924215565
 20
-123.069835038677
 30
0.0
 10
105.2080484763022
 20
-123.069835038677
 30
0.0
 10
104.9520778817481
 20
-123.069835038677
 30
0.0
 10
104.8821424433975
 20
-123.228653940547
 30
0.0
 10
104.8821424433975
 20
-123.3351073910412
 30
0.0
 10
104.8821424433975
 20
-123.3630126644718
 30
0.0
 10
104.8821424433975
 20
-123.4880696305863
 30
0.0
 10
105.0113335240944
 20
-123.56661780765
 30
0.0
 10
105.0113335240944
 20
-123.56661780765
 30
0.0
 10
104.9923854989255
 20
-123.7216471044863
 30
0.0
 10
104.9923854989255
 20
-123.7216471044863
 30
0.0
 10
104.9923854989255
 20
-123.7216471044863
 30
0.0
 10
104.1459255381996
 20
-123.615193653992
 30
0.0
 10
104.1459255381996
 20
-123.615193653992
 30
0.0
 10
104.1459255381996
 20
-123.615193653992
 30
0.0
 10
104.1459255381996
 20
-122.9278971046847
 30
0.0
 10
104.1459255381996
 20
-122.9278971046847
 30
0.0
 10
104.1459255381996
 20
-122.9278971046847
 30
0.0
 10
104.3405734331162
 20
-122.9278971046847
 30
0.0
 10
104.3405734331162
 20
-122.9278971046847
 30
0.0
 10
104.3405734331162
 20
-122.9278971046847
 30
0.0
 10
104.3405734331162
 20
-123.4715331722571
 30
0.0
 10
104.3405734331162
 20
-123.4715331722571
 30
0.0
 10
104.3405734331162
 20
-123.4715331722571
 30
0.0
 10
104.7636311587049
 20
-123.5294107764093
 30
0.0
 10
104.7636311587049
 20
-123.5294107764093
 30
0.0
 10
104.7298692229495
 20
-123.4749782677424
 30
0.0
 10
104.6895616057721
 20
-123.4022867530036
 30
0.0
 10
104.6895616057721
 20
-123.297555850252
 30
0.0
 10
104.6895616057721
 20
-123.0736246437108
 30
0.0
 10
104.8759412715241
 20
-122.8641628382076
 30
0.0
 10
105.1891004511333
 20
-122.8641628382076
 30
0.0
 10
105.5063937453248
 20
-122.8641628382076
 30
0.0
 10
105.7410047478703
 20
-123.0622558286094
 30
0.0
 10
105.7410047478703
 20
-123.3295952382648
 30
0.0
  0
HATCH
  5
1DD
330
1D6
100
AcDbEntity
  8
_U+30EC_U+30A4_U+30E4_U+30FC 1
 62
   179
420
  2234388
100
AcDbHatch
 10
0.0
 20
0.0
 30
0.0
210
0.0
220
0.0
230
1.0
  2
SOLID
 70
     1
 71
     0
 91
        1
 92
        1
 93
        1
 72
     4
 94
        3
 73
     0
 74
     1
 95
       53
 96
       49
 40
0.0
 40
0.0
 40
0.0
 40
0.0
 40
1.0
 40
1.0
 40
1.0
 40
2.0
 40
2.0
 40
2.0
 40
3.0
 40
3.0
 40
3.0
 40
4.0
 40
4.0
 40
4.0
 40
5.0
 40
5.0
 40
5.0
 40
6.0
 40
6.0
 40
6.0
 40
7.0
 40
7.0
 40
7.0
 40
8.0
 40
8.0
 40
8.0
 40
9.0
 40
9.0
 40
9.0
 40
10.0
 40
10.0
 40
10.0
 40
11.0
 40
11.0
 40
11.0
 40
12.0
 40
12.0
 40
12.0
 40
13.0
 40
13.0
 40
13.0
 40
14.0
 40
14.0
 40
14.0
 40
15.0
 40
15.0
 40
15.0
 40
16.0
 40
16.0
 40
16.0
 40
16.0
 10
105.7410047478703
 20
-123.3295952382648
 10
105.7410047478703
 20
-123.3984971479698
 10
105.7241237799926
 20
-123.4880696305863
 10
105.660734023064
 20
-123.5779866227513
 10
105.5508354770845
 20
-123.7309488622964
 10
105.4195773390965
 20
-123.7495523779168
 10
105.3117458504082
 20
-123.7664333457945
 10
105.3117458504082
 20
-123.7664333457945
 10
105.3117458504082
 20
-123.5704074126838
 10
105.3117458504082
 20
-123.5704074126838
 10
105.5105278599071
 20
-123.5218315663418
 10
105.5401556810803
 20
-123.4098659630712
 10
105.5401556810803
 20
-123.3275281809737
 10
105.5401556810803
 20
-123.2041937626017
 10
105.4405924215565
 20
-123.069835038677
 10
105.2080484763022
 20
-123.069835038677
 10
104.9520778817481
 20
-123.069835038677
 10
104.8821424433975
 20
-123.228653940547
 10
104.8821424433975
 20
-123.3351073910412
 10
104.8821424433975
 20
-123.3630126644718
 10
104.8821424433975
 20
-123.4880696305863
 10
105.0113335240944
 20
-123.56661780765
 10
105.0113335240944
 20
-123.56661780765
 10
104.9923854989255
 20
-123.7216471044863
 10
104.9923854989255
 20
-123.7216471044863
 10
104.9923854989255
 20
-123.7216471044863
 10
104.1459255381996
 20
-123.615193653992
 10
104.1459255381996
 20
-123.615193653992
 10
104.1459255381996
 20
-123.615193653992
 10
104.1459255381996
 20
-122.9278971046847
 10
104.1459255381996
 20
-122.9278971046847
 10
104.1459255381996
 20
-122.9278971046847
 10
104.3405734331162
 20
-122.9278971046847
 10
104.3405734331162
 20
-122.9278971046847
 10
104.3405734331162
 20
-122.9278971046847
 10
104.3405734331162
 20
-123.4715331722571
 10
104.3405734331162
 20
-123.4715331722571
 10
104.3405734331162
 20
-123.4715331722571
 10
104.7636311587049
 20
-123.5294107764093
 10
104.7636311587049
 20
-123.5294107764093
 10
104.7298692229495
 20
-123.4749782677424
 10
104.6895616057721
 20
-123.4022867530036
 10
104.6895616057721
 20
-123.297555850252
 10
104.6895616057721
 20
-123.0736246437108
 10
104.8759412715241
 20
-122.8641628382076
 10
105.1891004511333
 20
-122.8641628382076
 10
105.5063937453248
 20
-122.8641628382076
 10
105.7410047478703
 20
-123.0622558286094
 10
105.7410047478703
 20
-123.3295952382648
 97
        0
 97
        0
 75
     2
 76
     1
 98
        0
  0
ENDBLK
  5
1D9
330
1D6
100
AcDbEntity
  8
0
100
AcDbBlockEnd
  0
ENDSEC
  0
SECTION
  2
ENTITIES
  0
INSERT
  5
42
330
1F
100
AcDbEntity
  8
_U+30EC_U+30A4_U+30E4_U+30FC 1
100
AcDbBlockReference
  2
block 2
 10
0.0
 20
0.0
 30
0.0
  0
ENDSEC
  0
SECTION
  2
OBJECTS
  0
DICTIONARY
  5
C
330
0
100
AcDbDictionary
281
     1
  3
ACAD_GROUP
350
D
  3
ACAD_LAYOUT
350
1A
  3
ACAD_MATERIAL
350
3B
  3
ACAD_MLEADERSTYLE
350
1DF
  3
ACAD_MLINESTYLE
350
17
  3
ACAD_PLOTSETTINGS
350
19
  3
ACAD_PLOTSTYLENAME
350
E
  3
ACAD_TABLESTYLE
350
1DE
  3
ACAD_VISUALSTYLE
350
2A
  0
SUN
  5
3F
330
29
100
AcDbSun
 90
        1
290
     0
 63
     7
421
 16777215
 40
1.0
291
     1
 91
  2455826
 92
 54000000
292
     0
 70
     2
 71
   256
280
     1
  0
DICTIONARY
  5
D
102
{ACAD_REACTORS
330
C
102
}
330
C
100
AcDbDictionary
281
     1
  0
DICTIONARY
  5
1A
102
{ACAD_REACTORS
330
C
102
}
330
C
100
AcDbDictionary
281
     1
  3
Layout1
350
1E
  3
Layout2
350
26
  3
Model
350
22
  0
DICTIONARY
  5
3B
102
{ACAD_REACTORS
330
C
102
}
330
C
100
AcDbDictionary
281
     1
  3
ByBlock
350
3D
  3
ByLayer
350
3C
  3
Global
350
3E
  0
DICTIONARY
  5
1DF
102
{ACAD_REACTORS
330
C
102
}
330
C
100
AcDbDictionary
281
     1
  0
DICTIONARY
  5
17
102
{ACAD_REACTORS
330
C
102
}
330
C
100
AcDbDictionary
281
     1
  3
Standard
350
18
  0
DICTIONARY
  5
19
102
{ACAD_REACTORS
330
C
102
}
330
C
100
AcDbDictionary
281
     1
  0
ACDBDICTIONARYWDFLT
  5
E
102
{ACAD_REACTORS
330
C
102
}
330
C
100
AcDbDictionary
281
     1
  3
Normal
350
F
100
AcDbDictionaryWithDefault
340
F
  0
DICTIONARY
  5
1DE
102
{ACAD_REACTORS
330
C
102
}
330
C
100
AcDbDictionary
281
     1
  0
DICTIONARY
  5
2A
102
{ACAD_REACTORS
330
C
102
}
330
C
100
AcDbDictionary
281
     1
  3
2dWireframe
350
2F
  3
3D Hidden
350
31
  3
3dWireframe
350
30
  3
Basic
350
32
  3
Brighten
350
36
  3
ColorChange
350
3A
  3
Conceptual
350
34
  3
Dim
350
35
  3
Facepattern
350
39
  3
Flat
350
2B
  3
FlatWithEdges
350
2C
  3
Gouraud
350
2D
  3
GouraudWithEdges
350
2E
  3
Linepattern
350
38
  3
Realistic
350
33
  3
Thicken
350
37
  0
LAYOUT
  5
1E
102
{ACAD_REACTORS
330
1A
102
}
330
1A
100
AcDbPlotSettings
  1

  2
none_device
  4

  6

 40
0.0
 41
0.0
 42
0.0
 43
0.0
 44
0.0
 45
0.0
 46
0.0
 47
0.0
 48
0.0
 49
0.0
140
0.0
141
0.0
142
1.0
143
1.0
 70
   688
 72
     0
 73
     0
 74
     5
  7

 75
    16
 76
     0
 77
     2
 78
   300
147
1.0
148
0.0
149
0.0
100
AcDbLayout
  1
Layout1
 70
     1
 71
     1
 10
0.0
 20
0.0
 11
12.0
 21
9.0
 12
0.0
 22
0.0
 32
0.0
 14
1.000000000000000E+20
 24
1.000000000000000E+20
 34
1.000000000000000E+20
 15
-1.000000000000000E+20
 25
-1.000000000000000E+20
 35
-1.000000000000000E+20
146
0.0
 13
0.0
 23
0.0
 33
0.0
 16
1.0
 26
0.0
 36
0.0
 17
0.0
 27
1.0
 37
0.0
 76
     0
330
1B
  0
LAYOUT
  5
26
102
{ACAD_REACTORS
330
1A
102
}
330
1A
100
AcDbPlotSettings
  1

  2
none_device
  4

  6

 40
0.0
 41
0.0
 42
0.0
 43
0.0
 44
0.0
 45
0.0
 46
0.0
 47
0.0
 48
0.0
 49
0.0
140
0.0
141
0.0
142
1.0
143
1.0
 70
   688
 72
     0
 73
     0
 74
     5
  7

 75
    16
 76
     0
 77
     2
 78
   300
147
1.0
148
0.0
149
0.0
100
AcDbLayout
  1
Layout2
 70
     1
 71
     2
 10
0.0
 20
0.0
 11
0.0
 21
0.0
 12
0.0
 22
0.0
 32
0.0
 14
0.0
 24
0.0
 34
0.0
 15
0.0
 25
0.0
 35
0.0
146
0.0
 13
0.0
 23
0.0
 33
0.0
 16
1.0
 26
0.0
 36
0.0
 17
0.0
 27
1.0
 37
0.0
 76
     0
330
23
  0
LAYOUT
  5
22
102
{ACAD_REACTORS
330
1A
102
}
330
1A
100
AcDbPlotSettings
  1

  2
none_device
  4

  6

 40
0.0
 41
0.0
 42
0.0
 43
0.0
 44
0.0
 45
0.0
 46
0.0
 47
0.0
 48
0.0
 49
0.0
140
0.0
141
0.0
142
1.0
143
1.0
 70
  1712
 72
     0
 73
     0
 74
     0
  7

 75
     0
 76
     0
 77
     2
 78
   300
147
1.0
148
0.0
149
0.0
100
AcDbLayout
  1
Model
 70
     1
 71
     0
 10
0.0
 20
0.0
 11
12.0
 21
9.0
 12
0.0
 22
0.0
 32
0.0
 14
1.000000000000000E+20
 24
1.000000000000000E+20
 34
1.000000000000000E+20
 15
-1.000000000000000E+20
 25
-1.000000000000000E+20
 35
-1.000000000000000E+20
146
0.0
 13
0.0
 23
0.0
 33
0.0
 16
1.0
 26
0.0
 36
0.0
 17
0.0
 27
1.0
 37
0.0
 76
     0
330
1F
331
29
  0
MATERIAL
  5
3D
102
{ACAD_REACTORS
330
3B
102
}
330
3B
100
AcDbMaterial
  1
ByBlock
 72
     1
 94
      127
  0
MATERIAL
  5
3C
102
{ACAD_REACTORS
330
3B
102
}
330
3B
100
AcDbMaterial
  1
ByLayer
 72
     1
 94
      127
  0
MATERIAL
  5
3E
102
{ACAD_REACTORS
330
3B
102
}
330
3B
100
AcDbMaterial
  1
Global
 72
     1
 94
      127
  0
MLINESTYLE
  5
18
102
{ACAD_REACTORS
330
17
102
}
330
17
100
AcDbMlineStyle
  2
Standard
 70
     0
  3

 62
   256
 51
90.0
 52
90.0
 71
     2
 49
0.5
 62
   256
  6
BYLAYER
 49
-0.5
 62
   256
  6
BYLAYER
  0
ACDBPLACEHOLDER
  5
F
102
{ACAD_REACTORS
330
E
102
}
330
E
  0
VISUALSTYLE
  5
2F
102
{ACAD_REACTORS
330
2A
102
}
330
2A
100
AcDbVisualStyle
  2
2dWireframe
 70
     4
177
     2
291
     0
 71
     0
176
     1
 72
     2
176
     1
 73
     0
176
     1
 90
        0
176
     1
 40
-0.6
176
     1
 41
-30.0
176
     1
 62
     5
 63
     7
421
 16777215
176
     1
 74
     1
176
     1
 91
        4
176
     1
 64
     7
176
     1
 65
   257
176
     1
 75
     1
176
     1
175
     1
176
     1
 42
1.0
176
     1
 92
        0
176
     1
 66
   257
176
     1
 43
1.0
176
     1
 76
     1
176
     1
 77
     6
176
     1
 78
     2
176
     1
 67
     7
176
     1
 79
     5
176
     1
170
     0
176
     1
171
     0
176
     1
290
     0
176
     1
 93
        1
176
     1
 44
0.0
176
     1
173
     0
176
     1
  0
VISUALSTYLE
  5
31
102
{ACAD_REACTORS
330
2A
102
}
330
2A
100
AcDbVisualStyle
  2
3D Hidden
 70
     6
177
     2
291
     0
 71
     1
176
     1
 72
     2
176
     1
 73
     2
176
     1
 90
        0
176
     1
 40
-0.6
176
     1
 41
-30.0
176
     1
 62
     5
 63
     7
421
 16777215
176
     1
 74
     2
176
     1
 91
        2
176
     1
 64
     7
176
     1
 65
   257
176
     1
 75
     2
176
     1
175
     1
176
     1
 42
40.0
176
     1
 92
        0
176
     1
 66
   257
176
     1
 43
1.0
176
     1
 76
     1
176
     1
 77
     6
176
     1
 78
     2
176
     1
 67
     7
176
     1
 79
     3
176
     1
170
     0
176
     1
171
     0
176
     1
290
     0
176
     1
 93
        1
176
     1
 44
0.0
176
     1
173
     0
176
     1
  0
VISUALSTYLE
  5
30
102
{ACAD_REACTORS
330
2A
102
}
330
2A
100
AcDbVisualStyle
  2
3dWireframe
 70
     5
177
     2
291
     0
 71
     0
176
     1
 72
     2
176
     1
 73
     0
176
     1
 90
        0
176
     1
 40
-0.6
176
     1
 41
-30.0
176
     1
 62
     5
 63
     7
421
 16777215
176
     1
 74
     1
176
     1
 91
        4
176
     1
 64
     7
176
     1
 65
   257
176
     1
 75
     1
176
     1
175
     1
176
     1
 42
1.0
176
     1
 92
        0
176
     1
 66
   257
176
     1
 43
1.0
176
     1
 76
     1
176
     1
 77
     6
176
     1
 78
     2
176
     1
 67
     7
176
     1
 79
     5
176
     1
170
     0
176
     1
171
     0
176
     1
290
     0
176
     1
 93
        1
176
     1
 44
0.0
176
     1
173
     0
176
     1
  0
VISUALSTYLE
  5
32
102
{ACAD_REACTORS
330
2A
102
}
330
2A
100
AcDbVisualStyle
  2
Basic
 70
     7
177
     2
291
     1
 71
     1
176
     1
 72
     0
176
     1
 73
     1
176
     1
 90
        0
176
     1
 40
-0.6
176
     1
 41
-30.0
176
     1
 62
     5
 63
     7
421
 16777215
176
     1
 74
     0
176
     1
 91
        4
176
     1
 64
     7
176
     1
 65
   257
176
     1
 75
     1
176
     1
175
     1
176
     1
 42
1.0
176
     1
 92
        8
176
     1
 66
     7
176
     1
 43
1.0
176
     1
 76
     1
176
     1
 77
     6
176
     1
 78
     2
176
     1
 67
     7
176
     1
 79
     5
176
     1
170
     0
176
     1
171
     0
176
     1
290
     0
176
     1
 93
        1
176
     1
 44
0.0
176
     1
173
     0
176
     1
  0
VISUALSTYLE
  5
36
102
{ACAD_REACTORS
330
2A
102
}
330
2A
100
AcDbVisualStyle
  2
Brighten
 70
    12
177
     2
291
     1
 71
     2
176
     1
 72
     2
176
     1
 73
     0
176
     1
 90
        0
176
     1
 40
-0.6
176
     1
 41
-30.0
176
     1
 62
     5
 63
     7
421
 16777215
176
     1
 74
     1
176
     1
 91
        4
176
     1
 64
     7
176
     1
 65
   257
176
     1
 75
     1
176
     1
175
     1
176
     1
 42
1.0
176
     1
 92
        8
176
     1
 66
     7
176
     1
 43
1.0
176
     1
 76
     1
176
     1
 77
     6
176
     1
 78
     2
176
     1
 67
     7
176
     1
 79
     5
176
     1
170
     0
176
     1
171
     0
176
     1
290
     0
176
     1
 93
        1
176
     1
 44
50.0
176
     1
173
     0
176
     1
  0
VISUALSTYLE
  5
3A
102
{ACAD_REACTORS
330
2A
102
}
330
2A
100
AcDbVisualStyle
  2
ColorChange
 70
    16
177
     2
291
     1
 71
     2
176
     1
 72
     2
176
     1
 73
     3
176
     1
 90
        0
176
     1
 40
-0.6
176
     1
 41
-30.0
176
     1
 62
     5
 63
     8
421
  8421504
176
     1
 74
     1
176
     1
 91
        4
176
     1
 64
     7
176
     1
 65
   257
176
     1
 75
     1
176
     1
175
     1
176
     1
 42
1.0
176
     1
 92
        8
176
     1
 66
     8
424
  8421504
176
     1
 43
1.0
176
     1
 76
     1
176
     1
 77
     6
176
     1
 78
     2
176
     1
 67
     7
176
     1
 79
     5
176
     1
170
     0
176
     1
171
     0
176
     1
290
     0
176
     1
 93
        1
176
     1
 44
0.0
176
     1
173
     0
176
     1
  0
VISUALSTYLE
  5
34
102
{ACAD_REACTORS
330
2A
102
}
330
2A
100
AcDbVisualStyle
  2
Conceptual
 70
     9
177
     2
291
     0
 71
     3
176
     1
 72
     2
176
     1
 73
     0
176
     1
 90
        0
176
     1
 40
-0.6
176
     1
 41
-30.0
176
     1
 62
     5
 63
     7
421
 16777215
176
     1
 74
     2
176
     1
 91
        2
176
     1
 64
     7
176
     1
 65
   257
176
     1
 75
     1
176
     1
175
     1
176
     1
 42
40.0
176
     1
 92
        8
176
     1
 66
     7
176
     1
 43
1.0
176
     1
 76
     1
176
     1
 77
     6
176
     1
 78
     2
176
     1
 67
     7
176
     1
 79
     3
176
     1
170
     0
176
     1
171
     0
176
     1
290
     0
176
     1
 93
        1
176
     1
 44
0.0
176
     1
173
     0
176
     1
  0
VISUALSTYLE
  5
35
102
{ACAD_REACTORS
330
2A
102
}
330
2A
100
AcDbVisualStyle
  2
Dim
 70
    11
177
     2
291
     1
 71
     2
176
     1
 72
     2
176
     1
 73
     0
176
     1
 90
        0
176
     1
 40
-0.6
176
     1
 41
-30.0
176
     1
 62
     5
 63
     7
421
 16777215
176
     1
 74
     1
176
     1
 91
        4
176
     1
 64
     7
176
     1
 65
   257
176
     1
 75
     1
176
     1
175
     1
176
     1
 42
1.0
176
     1
 92
        8
176
     1
 66
     7
176
     1
 43
1.0
176
     1
 76
     1
176
     1
 77
     6
176
     1
 78
     2
176
     1
 67
     7
176
     1
 79
     5
176
     1
170
     0
176
     1
171
     0
176
     1
290
     0
176
     1
 93
        1
176
     1
 44
-50.0
176
     1
173
     0
176
     1
  0
VISUALSTYLE
  5
39
102
{ACAD_REACTORS
330
2A
102
}
330
2A
100
AcDbVisualStyle
  2
Facepattern
 70
    15
177
     2
291
     1
 71
     2
176
     1
 72
     2
176
     1
 73
     0
176
     1
 90
        0
176
     1
 40
-0.6
176
     1
 41
-30.0
176
     1
 62
     5
 63
     7
421
 16777215
176
     1
 74
     1
176
     1
 91
        4
176
     1
 64
     7
176
     1
 65
   257
176
     1
 75
     1
176
     1
175
     1
176
     1
 42
1.0
176
     1
 92
        8
176
     1
 66
     7
176
     1
 43
1.0
176
     1
 76
     1
176
     1
 77
     6
176
     1
 78
     2
176
     1
 67
     7
176
     1
 79
     5
176
     1
170
     0
176
     1
171
     0
176
     1
290
     0
176
     1
 93
        1
176
     1
 44
0.0
176
     1
173
     0
176
     1
  0
VISUALSTYLE
  5
2B
102
{ACAD_REACTORS
330
2A
102
}
330
2A
100
AcDbVisualStyle
  2
Flat
 70
     0
177
     2
291
     1
 71
     2
176
     1
 72
     1
176
     1
 73
     1
176
     1
 90
        2
176
     1
 40
-0.6
176
     1
 41
30.0
176
     1
 62
     5
 63
     7
421
 16777215
176
     1
 74
     0
176
     1
 91
        4
176
     1
 64
     7
176
     1
 65
   257
176
     1
 75
     1
176
     1
175
     1
176
     1
 42
1.0
176
     1
 92
        8
176
     1
 66
     7
176
     1
 43
1.0
176
     1
 76
     1
176
     1
 77
     6
176
     1
 78
     2
176
     1
 67
     7
176
     1
 79
     5
176
     1
170
     0
176
     1
171
     0
176
     1
290
     0
176
     1
 93
       13
176
     1
 44
0.0
176
     1
173
     0
176
     1
  0
VISUALSTYLE
  5
2C
102
{ACAD_REACTORS
330
2A
102
}
330
2A
100
AcDbVisualStyle
  2
FlatWithEdges
 70
     1
177
     2
291
     1
 71
     2
176
     1
 72
     1
176
     1
 73
     1
176
     1
 90
        2
176
     1
 40
-0.6
176
     1
 41
30.0
176
     1
 62
     5
 63
     7
421
 16777215
176
     1
 74
     1
176
     1
 91
        4
176
     1
 64
     7
176
     1
 65
   257
176
     1
 75
     1
176
     1
175
     1
176
     1
 42
1.0
176
     1
 92
        0
176
     1
 66
   257
176
     1
 43
1.0
176
     1
 76
     1
176
     1
 77
     6
176
     1
 78
     2
176
     1
 67
     7
176
     1
 79
     5
176
     1
170
     0
176
     1
171
     0
176
     1
290
     0
176
     1
 93
       13
176
     1
 44
0.0
176
     1
173
     0
176
     1
  0
VISUALSTYLE
  5
2D
102
{ACAD_REACTORS
330
2A
102
}
330
2A
100
AcDbVisualStyle
  2
Gouraud
 70
     2
177
     2
291
     1
 71
     2
176
     1
 72
     2
176
     1
 73
     1
176
     1
 90
        2
176
     1
 40
-0.6
176
     1
 41
30.0
176
     1
 62
     5
 63
     7
421
 16777215
176
     1
 74
     0
176
     1
 91
        4
176
     1
 64
     7
176
     1
 65
   257
176
     1
 75
     1
176
     1
175
     1
176
     1
 42
1.0
176
     1
 92
        0
176
     1
 66
     7
176
     1
 43
1.0
176
     1
 76
     1
176
     1
 77
     6
176
     1
 78
     2
176
     1
 67
     7
176
     1
 79
     5
176
     1
170
     0
176
     1
171
     0
176
     1
290
     0
176
     1
 93
       13
176
     1
 44
0.0
176
     1
173
     0
176
     1
  0
VISUALSTYLE
  5
2E
102
{ACAD_REACTORS
330
2A
102
}
330
2A
100
AcDbVisualStyle
  2
GouraudWithEdges
 70
     3
177
     2
291
     1
 71
     2
176
     1
 72
     2
176
     1
 73
     1
176
     1
 90
        2
176
     1
 40
-0.6
176
     1
 41
30.0
176
     1
 62
     5
 63
     7
421
 16777215
176
     1
 74
     1
176
     1
 91
        4
176
     1
 64
     7
176
     1
 65
   257
176
     1
 75
     1
176
     1
175
     1
176
     1
 42
1.0
176
     1
 92
        0
176
     1
 66
   257
176
     1
 43
1.0
176
     1
 76
     1
176
     1
 77
     6
176
     1
 78
     2
176
     1
 67
     7
176
     1
 79
     5
176
     1
170
     0
176
     1
171
     0
176
     1
290
     0
176
     1
 93
       13
176
     1
 44
0.0
176
     1
173
     0
176
     1
  0
VISUALSTYLE
  5
38
102
{ACAD_REACTORS
330
2A
102
}
330
2A
100
AcDbVisualStyle
  2
Linepattern
 70
    14
177
     2
291
     1
 71
     2
176
     1
 72
     2
176
     1
 73
     0
176
     1
 90
        0
176
     1
 40
-0.6
176
     1
 41
-30.0
176
     1
 62
     5
 63
     7
421
 16777215
176
     1
 74
     1
176
     1
 91
        4
176
     1
 64
     7
176
     1
 65
   257
176
     1
 75
     7
176
     1
175
     7
176
     1
 42
1.0
176
     1
 92
        8
176
     1
 66
     7
176
     1
 43
1.0
176
     1
 76
     1
176
     1
 77
     6
176
     1
 78
     2
176
     1
 67
     7
176
     1
 79
     5
176
     1
170
     0
176
     1
171
     0
176
     1
290
     0
176
     1
 93
        1
176
     1
 44
0.0
176
     1
173
     0
176
     1
  0
VISUALSTYLE
  5
33
102
{ACAD_REACTORS
330
2A
102
}
330
2A
100
AcDbVisualStyle
  2
Realistic
 70
     8
177
     2
291
     0
 71
     2
176
     1
 72
     2
176
     1
 73
     0
176
     1
 90
        0
176
     1
 40
-0.6
176
     1
 41
-30.0
176
     1
 62
     5
 63
     7
421
 16777215
176
     1
 74
     1
176
     1
 91
        0
176
     1
 64
     7
176
     1
 65
   257
176
     1
 75
     1
176
     1
175
     1
176
     1
 42
1.0
176
     1
 92
        8
176
     1
 66
     8
424
  7895160
176
     1
 43
1.0
176
     1
 76
     1
176
     1
 77
     6
176
     1
 78
     2
176
     1
 67
     7
176
     1
 79
     5
176
     1
170
     0
176
     1
171
     0
176
     1
290
     0
176
     1
 93
       13
176
     1
 44
0.0
176
     1
173
     0
176
     1
  0
VISUALSTYLE
  5
37
102
{ACAD_REACTORS
330
2A
102
}
330
2A
100
AcDbVisualStyle
  2
Thicken
 70
    13
177
     2
291
     1
 71
     2
176
     1
 72
     2
176
     1
 73
     0
176
     1
 90
        0
176
     1
 40
-0.6
176
     1
 41
-30.0
176
     1
 62
     5
 63
     7
421
 16777215
176
     1
 74
     1
176
     1
 91
        4
176
     1
 64
     7
176
     1
 65
   257
176
     1
 75
     1
176
     1
175
     1
176
     1
 42
1.0
176
     1
 92
       12
176
     1
 66
     7
176
     1
 43
1.0
176
     1
 76
     1
176
     1
 77
     6
176
     1
 78
     2
176
     1
 67
     7
176
     1
 79
     5
176
     1
170
     0
176
     1
171
     0
176
     1
290
     0
176
     1
 93
        1
176
     1
 44
0.0
176
     1
173
     0
176
     1
  0
ENDSEC
  0
EOF
