  0
SECTION
  2
HEADER
  9
$ACADVER
  1
AC1024
  9
$ACADMAINTVER
 70
     6
  9
$DWGCODEPAGE
  3
UNDEFINED
  9
$INSBASE
 10
0.0
 20
0.0
 30
0.0
  9
$EXTMIN
 10
1.000000000000000E+20
 20
1.000000000000000E+20
 30
1.000000000000000E+20
  9
$EXTMAX
 10
-1.000000000000000E+20
 20
-1.000000000000000E+20
 30
-1.000000000000000E+20
  9
$LIMMIN
 10
0.0
 20
0.0
  9
$LIMMAX
 10
12.0
 20
9.0
  9
$ORTHOMODE
 70
     0
  9
$REGENMODE
 70
     1
  9
$FILLMODE
 70
     1
  9
$QTEXTMODE
 70
     0
  9
$MIRRTEXT
 70
     1
  9
$LTSCALE
 40
1.0
  9
$ATTMODE
 70
     1
  9
$TEXTSIZE
 40
0.2
  9
$TRACEWID
 40
0.05
  9
$TEXTSTYLE
  7
Standard
  9
$CLAYER
  8
0
  9
$CELTYPE
  6
ByLayer
  9
$CECOLOR
 62
   256
  9
$CELTSCALE
 40
1.0
  9
$DISPSILH
 70
     0
  9
$DIMSCALE
 40
1.0
  9
$DIMASZ
 40
0.18
  9
$DIMEXO
 40
0.0625
  9
$DIMDLI
 40
0.38
  9
$DIMRND
 40
0.0
  9
$DIMDLE
 40
0.0
  9
$DIMEXE
 40
0.18
  9
$DIMTP
 40
0.0
  9
$DIMTM
 40
0.0
  9
$DIMTXT
 40
0.18
  9
$DIMCEN
 40
0.09
  9
$DIMTSZ
 40
0.0
  9
$DIMTOL
 70
     0
  9
$DIMLIM
 70
     0
  9
$DIMTIH
 70
     1
  9
$DIMTOH
 70
     1
  9
$DIMSE1
 70
     0
  9
$DIMSE2
 70
     0
  9
$DIMTAD
 70
     0
  9
$DIMZIN
 70
     0
  9
$DIMBLK
  1

  9
$DIMASO
 70
     1
  9
$DIMSHO
 70
     1
  9
$DIMPOST
  1

  9
$DIMAPOST
  1

  9
$DIMALT
 70
     0
  9
$DIMALTD
 70
     2
  9
$DIMALTF
 40
25.4
  9
$DIMLFAC
 40
1.0
  9
$DIMTOFL
 70
     0
  9
$DIMTVP
 40
0.0
  9
$DIMTIX
 70
     0
  9
$DIMSOXD
 70
     0
  9
$DIMSAH
 70
     0
  9
$DIMBLK1
  1

  9
$DIMBLK2
  1

  9
$DIMSTYLE
  2
Standard
  9
$DIMCLRD
 70
     0
  9
$DIMCLRE
 70
     0
  9
$DIMCLRT
 70
     0
  9
$DIMTFAC
 40
1.0
  9
$DIMGAP
 40
0.09
  9
$DIMJUST
 70
     0
  9
$DIMSD1
 70
     0
  9
$DIMSD2
 70
     0
  9
$DIMTOLJ
 70
     1
  9
$DIMTZIN
 70
     0
  9
$DIMALTZ
 70
     0
  9
$DIMALTTZ
 70
     0
  9
$DIMUPT
 70
     0
  9
$DIMDEC
 70
     4
  9
$DIMTDEC
 70
     4
  9
$DIMALTU
 70
     2
  9
$DIMALTTD
 70
     2
  9
$DIMTXSTY
  7
Standard
  9
$DIMAUNIT
 70
     0
  9
$DIMADEC
 70
     0
  9
$DIMALTRND
 40
0.0
  9
$DIMAZIN
 70
     0
  9
$DIMDSEP
 70
    46
  9
$DIMATFIT
 70
     3
  9
$DIMFRAC
 70
     0
  9
$DIMLDRBLK
  1

  9
$DIMLUNIT
 70
     2
  9
$DIMLWD
 70
    -2
  9
$DIMLWE
 70
    -2
  9
$DIMTMOVE
 70
     0
  9
$DIMFXL
 40
1.0
  9
$DIMFXLON
 70
     0
  9
$DIMJOGANG
 40
0.7853981633974483
  9
$DIMTFILL
 70
     0
  9
$DIMTFILLCLR
 70
     0
  9
$DIMARCSYM
 70
     0
  9
$DIMLTYPE
  6

  9
$DIMLTEX1
  6

  9
$DIMLTEX2
  6

  9
$DIMTXTDIRECTION
 70
     0
  9
$LUNITS
 70
     2
  9
$LUPREC
 70
     4
  9
$SKETCHINC
 40
0.1
  9
$FILLETRAD
 40
0.5
  9
$AUNITS
 70
     0
  9
$AUPREC
 70
     0
  9
$MENU
  1
.
  9
$ELEVATION
 40
0.0
  9
$PELEVATION
 40
0.0
  9
$THICKNESS
 40
0.0
  9
$LIMCHECK
 70
     0
  9
$CHAMFERA
 40
0.5
  9
$CHAMFERB
 40
0.5
  9
$CHAMFERC
 40
1.0
  9
$CHAMFERD
 40
0.0
  9
$SKPOLY
 70
     0
  9
$TDCREATE
 40
2457917.61349537
  9
$TDUCREATE
 40
2457917.23849537
  9
$TDUPDATE
 40
2457917.61349537
  9
$TDUUPDATE
 40
2457917.23849537
  9
$TDINDWG
 40
0.0000000116
  9
$TDUSRTIMER
 40
0.0000000116
  9
$USRTIMER
 70
     1
  9
$ANGBASE
 50
0.0
  9
$ANGDIR
 70
     0
  9
$PDMODE
 70
     0
  9
$PDSIZE
 40
0.0
  9
$PLINEWID
 40
0.0
  9
$SPLFRAME
 70
     0
  9
$SPLINETYPE
 70
     6
  9
$SPLINESEGS
 70
     8
  9
$HANDSEED
  5
143
  9
$SURFTAB1
 70
     6
  9
$SURFTAB2
 70
     6
  9
$SURFTYPE
 70
     6
  9
$SURFU
 70
     6
  9
$SURFV
 70
     6
  9
$UCSBASE
  2

  9
$UCSNAME
  2

  9
$UCSORG
 10
0.0
 20
0.0
 30
0.0
  9
$UCSXDIR
 10
1.0
 20
0.0
 30
0.0
  9
$UCSYDIR
 10
0.0
 20
1.0
 30
0.0
  9
$UCSORTHOREF
  2

  9
$UCSORTHOVIEW
 70
     0
  9
$UCSORGTOP
 10
0.0
 20
0.0
 30
0.0
  9
$UCSORGBOTTOM
 10
0.0
 20
0.0
 30
0.0
  9
$UCSORGLEFT
 10
0.0
 20
0.0
 30
0.0
  9
$UCSORGRIGHT
 10
0.0
 20
0.0
 30
0.0
  9
$UCSORGFRONT
 10
0.0
 20
0.0
 30
0.0
  9
$UCSORGBACK
 10
0.0
 20
0.0
 30
0.0
  9
$PUCSBASE
  2

  9
$PUCSNAME
  2

  9
$PUCSORG
 10
0.0
 20
0.0
 30
0.0
  9
$PUCSXDIR
 10
1.0
 20
0.0
 30
0.0
  9
$PUCSYDIR
 10
0.0
 20
1.0
 30
0.0
  9
$PUCSORTHOREF
  2

  9
$PUCSORTHOVIEW
 70
     0
  9
$PUCSORGTOP
 10
0.0
 20
0.0
 30
0.0
  9
$PUCSORGBOTTOM
 10
0.0
 20
0.0
 30
0.0
  9
$PUCSORGLEFT
 10
0.0
 20
0.0
 30
0.0
  9
$PUCSORGRIGHT
 10
0.0
 20
0.0
 30
0.0
  9
$PUCSORGFRONT
 10
0.0
 20
0.0
 30
0.0
  9
$PUCSORGBACK
 10
0.0
 20
0.0
 30
0.0
  9
$USERI1
 70
     0
  9
$USERI2
 70
     0
  9
$USERI3
 70
     0
  9
$USERI4
 70
     0
  9
$USERI5
 70
     0
  9
$USERR1
 40
0.0
  9
$USERR2
 40
0.0
  9
$USERR3
 40
0.0
  9
$USERR4
 40
0.0
  9
$USERR5
 40
0.0
  9
$WORLDVIEW
 70
     1
  9
$SHADEDGE
 70
     3
  9
$SHADEDIF
 70
    70
  9
$TILEMODE
 70
     1
  9
$MAXACTVP
 70
    64
  9
$PINSBASE
 10
0.0
 20
0.0
 30
0.0
  9
$PLIMCHECK
 70
     0
  9
$PEXTMIN
 10
1.000000000000000E+20
 20
1.000000000000000E+20
 30
1.000000000000000E+20
  9
$PEXTMAX
 10
-1.000000000000000E+20
 20
-1.000000000000000E+20
 30
-1.000000000000000E+20
  9
$PLIMMIN
 10
0.0
 20
0.0
  9
$PLIMMAX
 10
12.0
 20
9.0
  9
$UNITMODE
 70
     0
  9
$VISRETAIN
 70
     1
  9
$PLINEGEN
 70
     0
  9
$PSLTSCALE
 70
     1
  9
$TREEDEPTH
 70
  3020
  9
$CMLSTYLE
  2
Standard
  9
$CMLJUST
 70
     0
  9
$CMLSCALE
 40
1.0
  9
$PROXYGRAPHICS
 70
     1
  9
$MEASUREMENT
 70
     0
  9
$CELWEIGHT
370
    -1
  9
$ENDCAPS
280
     0
  9
$JOINSTYLE
280
     0
  9
$LWDISPLAY
290
     1
  9
$INSUNITS
 70
     1
  9
$HYPERLINKBASE
  1

  9
$STYLESHEET
  1

  9
$XEDIT
290
     1
  9
$CEPSNTYPE
380
     0
  9
$PSTYLEMODE
290
     1
  9
$FINGERPRINTGUID
  2
{5998EB12-EDAB-F5D2-B73C-2C4D85951E97}
  9
$VERSIONGUID
  2
{FAEB1C32-E019-11D5-929B-00C0DF256EC4}
  9
$EXTNAMES
290
     1
  9
$PSVPSCALE
 40
0.0
  9
$OLESTARTUP
290
     0
  9
$SORTENTS
280
   127
  9
$INDEXCTL
280
     0
  9
$HIDETEXT
280
     1
  9
$XCLIPFRAME
280
     2
  9
$HALOGAP
280
     0
  9
$OBSCOLOR
 70
   257
  9
$OBSLTYPE
280
     0
  9
$INTERSECTIONDISPLAY
280
     0
  9
$INTERSECTIONCOLOR
 70
   257
  9
$DIMASSOC
280
     2
  9
$PROJECTNAME
  1

  9
$CAMERADISPLAY
290
     0
  9
$LENSLENGTH
 40
50.0
  9
$CAMERAHEIGHT
 40
0.0
  9
$STEPSPERSEC
 40
2.0
  9
$STEPSIZE
 40
6.0
  9
$3DDWFPREC
 40
2.0
  9
$PSOLWIDTH
 40
0.25
  9
$PSOLHEIGHT
 40
4.0
  9
$LOFTANG1
 40
1.570796326794897
  9
$LOFTANG2
 40
1.570796326794897
  9
$LOFTMAG1
 40
0.0
  9
$LOFTMAG2
 40
0.0
  9
$LOFTPARAM
 70
     7
  9
$LOFTNORMALS
280
     1
  9
$LATITUDE
 40
37.795
  9
$LONGITUDE
 40
-122.394
  9
$NORTHDIRECTION
 40
0.0
  9
$TIMEZONE
 70
 -8000
  9
$LIGHTGLYPHDISPLAY
280
     1
  9
$TILEMODELIGHTSYNCH
280
     1
  9
$CMATERIAL
347
3C
  9
$SOLIDHIST
280
     1
  9
$SHOWHIST
280
     1
  9
$DWFFRAME
280
     2
  9
$DGNFRAME
280
     2
  9
$REALWORLDSCALE
290
     1
  9
$INTERFERECOLOR
 62
   256
  9
$CSHADOW
280
     0
  9
$SHADOWPLANELOCATION
 40
0.0
  0
ENDSEC
  0
SECTION
  2
CLASSES
  0
CLASS
  1
ACDBDICTIONARYWDFLT
  2
AcDbDictionaryWithDefault
  3
ObjectDBX Classes
 90
        0
 91
        4
280
     0
281
     0
  0
CLASS
  1
VISUALSTYLE
  2
AcDbVisualStyle
  3
ObjectDBX Classes
 90
     4095
 91
        4
280
     0
281
     0
  0
CLASS
  1
MATERIAL
  2
AcDbMaterial
  3
ObjectDBX Classes
 90
     1153
 91
        4
280
     0
281
     0
  0
CLASS
  1
SUN
  2
AcDbSun
  3
SCENEOE
 90
     1024
 91
        4
280
     0
281
     0
  0
ENDSEC
  0
SECTION
  2
TABLES
  0
TABLE
  2
VPORT
  5
8
330
0
100
AcDbSymbolTable
 70
     1
  0
VPORT
  5
29
330
8
100
AcDbSymbolTableRecord
100
AcDbViewportTableRecord
  2
*Active
 70
     0
 10
0.0
 20
0.0
 11
1.0
 21
1.0
 12
0.0
 22
0.0
 13
0.0
 23
0.0
 14
0.5
 24
0.5
 15
0.5
 25
0.5
 16
0.0
 26
0.0
 36
1.0
 17
91.00082462281999
 27
-128.4993055234307
 37
0.0
 40
256.9986110468615
 41
0.7081814508812795
 42
50.0
 43
0.0
 44
0.0
 50
0.0
 51
0.0
 71
     0
 72
   100
 73
     1
 74
     3
 75
     0
 76
     0
 77
     0
 78
     0
281
     0
 65
     1
110
0.0
120
0.0
130
0.0
111
1.0
121
0.0
131
0.0
112
0.0
122
1.0
132
0.0
 79
     0
146
0.0
 60
     3
 61
     5
292
     1
282
     1
141
0.0
142
0.0
 63
   250
361
3F
  0
ENDTAB
  0
TABLE
  2
LTYPE
  5
5
330
0
100
AcDbSymbolTable
 70
     1
  0
LTYPE
  5
14
330
5
100
AcDbSymbolTableRecord
100
AcDbLinetypeTableRecord
  2
ByBlock
 70
     0
  3

 72
    65
 73
     0
 40
0.0
  0
LTYPE
  5
15
330
5
100
AcDbSymbolTableRecord
100
AcDbLinetypeTableRecord
  2
ByLayer
 70
     0
  3

 72
    65
 73
     0
 40
0.0
  0
LTYPE
  5
16
330
5
100
AcDbSymbolTableRecord
100
AcDbLinetypeTableRecord
  2
Continuous
 70
     0
  3
Solid line
 72
    65
 73
     0
 40
0.0
  0
ENDTAB
  0
TABLE
  2
LAYER
  5
2
330
0
100
AcDbSymbolTable
 70
     2
  0
LAYER
  5
10
330
2
100
AcDbSymbolTableRecord
100
AcDbLayerTableRecord
  2
0
 70
     0
 62
     7
  6
Continuous
370
    -3
390
F
347
3E
  0
LAYER
  5
40
330
2
100
AcDbSymbolTableRecord
100
AcDbLayerTableRecord
  2
_U+30EC_U+30A4_U+30E4_U+30FC 1
 70
     0
 62
     7
  6
Continuous
370
    -3
390
F
347
3E
  0
ENDTAB
  0
TABLE
  2
STYLE
  5
3
330
0
100
AcDbSymbolTable
 70
     1
  0
STYLE
  5
11
330
3
100
AcDbSymbolTableRecord
100
AcDbTextStyleTableRecord
  2
Standard
 70
     0
 40
0.0
 41
1.0
 50
0.0
 71
     0
 42
0.2
  3
txt
  4

  0
ENDTAB
  0
TABLE
  2
VIEW
  5
6
330
0
100
AcDbSymbolTable
 70
     0
  0
ENDTAB
  0
TABLE
  2
UCS
  5
7
330
0
100
AcDbSymbolTable
 70
     0
  0
ENDTAB
  0
TABLE
  2
APPID
  5
9
330
0
100
AcDbSymbolTable
 70
     1
  0
APPID
  5
12
330
9
100
AcDbSymbolTableRecord
100
AcDbRegAppTableRecord
  2
ACAD
 70
     0
  0
ENDTAB
  0
TABLE
  2
DIMSTYLE
  5
A
330
0
100
AcDbSymbolTable
 70
     1
100
AcDbDimStyleTable
  0
DIMSTYLE
105
27
330
A
100
AcDbSymbolTableRecord
100
AcDbDimStyleTableRecord
  2
Standard
 70
     0
178
     0
340
11
  0
ENDTAB
  0
TABLE
  2
BLOCK_RECORD
  5
1
330
0
100
AcDbSymbolTable
 70
     8
  0
BLOCK_RECORD
  5
1F
330
1
100
AcDbSymbolTableRecord
100
AcDbBlockTableRecord
  2
*Model_Space
340
22
 70
     0
280
     1
281
     0
  0
BLOCK_RECORD
  5
1B
330
1
100
AcDbSymbolTableRecord
100
AcDbBlockTableRecord
  2
*Paper_Space
340
1E
 70
     0
280
     1
281
     0
  0
BLOCK_RECORD
  5
23
330
1
100
AcDbSymbolTableRecord
100
AcDbBlockTableRecord
  2
*Paper_Space0
340
26
 70
     0
280
     1
281
     0
  0
BLOCK_RECORD
  5
E3
330
1
100
AcDbSymbolTableRecord
100
AcDbBlockTableRecord
  2
block 2
340
0
102
{BLKREFS
331
E4
102
}
 70
     0
280
     1
281
     0
  0
BLOCK_RECORD
  5
EC
330
1
100
AcDbSymbolTableRecord
100
AcDbBlockTableRecord
  2
block 3
340
0
102
{BLKREFS
331
ED
102
}
 70
     0
280
     1
281
     0
  0
BLOCK_RECORD
  5
111
330
1
100
AcDbSymbolTableRecord
100
AcDbBlockTableRecord
  2
block 4
340
0
102
{BLKREFS
331
112
102
}
 70
     0
280
     1
281
     0
  0
BLOCK_RECORD
  5
11A
330
1
100
AcDbSymbolTableRecord
100
AcDbBlockTableRecord
  2
block 5
340
0
102
{BLKREFS
331
11B
102
}
 70
     0
280
     1
281
     0
  0
BLOCK_RECORD
  5
12A
330
1
100
AcDbSymbolTableRecord
100
AcDbBlockTableRecord
  2
block 6
340
0
102
{BLKREFS
331
12B
102
}
 70
     0
280
     1
281
     0
  0
BLOCK_RECORD
  5
130
330
1
100
AcDbSymbolTableRecord
100
AcDbBlockTableRecord
  2
block 7
340
0
102
{BLKREFS
331
131
102
}
 70
     0
280
     1
281
     0
  0
BLOCK_RECORD
  5
139
330
1
100
AcDbSymbolTableRecord
100
AcDbBlockTableRecord
  2
block 8
340
0
102
{BLKREFS
331
13A
102
}
 70
     0
280
     1
281
     0
  0
ENDTAB
  0
ENDSEC
  0
SECTION
  2
BLOCKS
  0
BLOCK
  5
20
330
1F
100
AcDbEntity
  8
0
100
AcDbBlockBegin
  2
*Model_Space
 70
     0
 10
0.0
 20
0.0
 30
0.0
  3
*Model_Space
  1

  0
ENDBLK
  5
21
330
1F
100
AcDbEntity
  8
0
100
AcDbBlockEnd
  0
BLOCK
  5
1C
330
1B
100
AcDbEntity
 67
     1
  8
0
100
AcDbBlockBegin
  2
*Paper_Space
 70
     0
 10
0.0
 20
0.0
 30
0.0
  3
*Paper_Space
  1

  0
ENDBLK
  5
1D
330
1B
100
AcDbEntity
 67
     1
  8
0
100
AcDbBlockEnd
  0
BLOCK
  5
24
330
23
100
AcDbEntity
  8
0
100
AcDbBlockBegin
  2
*Paper_Space0
 70
     0
 10
0.0
 20
0.0
 30
0.0
  3
*Paper_Space0
  1

  0
ENDBLK
  5
25
330
23
100
AcDbEntity
  8
0
100
AcDbBlockEnd
  0
BLOCK
  5
E5
330
E3
100
AcDbEntity
  8
0
100
AcDbBlockBegin
  2
block 2
 70
     0
 10
0.0
 20
0.0
 30
0.0
  3
block 2
  1

  0
SPLINE
  5
E7
330
E3
100
AcDbEntity
  8
_U+30EC_U+30A4_U+30E4_U+30FC 1
370
     0
100
AcDbSpline
210
0.0
220
0.0
230
1.0
 70
    11
 71
     3
 72
    26
 73
    22
 74
     0
 42
0.0000000001
 43
0.0000000001
 12
1.0
 22
0.0
 32
0.0
 13
1.0
 23
0.0
 33
0.0
 40
0.0
 40
0.0
 40
0.0
 40
0.0
 40
1.0
 40
1.0
 40
1.0
 40
2.0
 40
2.0
 40
2.0
 40
3.0
 40
3.0
 40
3.0
 40
4.0
 40
4.0
 40
4.0
 40
5.0
 40
5.0
 40
5.0
 40
6.0
 40
6.0
 40
6.0
 40
7.0
 40
7.0
 40
7.0
 40
7.0
 10
103.1640733249034
 20
-141.4604437580377
 30
0.0
 10
103.1640733249034
 20
-141.4604437580377
 30
0.0
 10
102.0599202218809
 20
-141.4604437580377
 30
0.0
 10
102.0599202218809
 20
-141.4604437580377
 30
0.0
 10
102.0599202218809
 20
-141.4604437580377
 30
0.0
 10
102.0599202218809
 20
-141.7518988360898
 30
0.0
 10
102.0599202218809
 20
-141.7518988360898
 30
0.0
 10
102.0599202218809
 20
-141.7518988360898
 30
0.0
 10
101.9117811160151
 20
-141.7518988360898
 30
0.0
 10
101.9117811160151
 20
-141.7518988360898
 30
0.0
 10
101.8969672054285
 20
-141.458721210295
 30
0.0
 10
101.7340141889762
 20
-141.4177245740206
 30
0.0
 10
101.6196370188659
 20
-141.3915418483327
 30
0.0
 10
101.6196370188659
 20
-141.3915418483327
 30
0.0
 10
101.6196370188659
 20
-141.2626952771843
 30
0.0
 10
101.6196370188659
 20
-141.2626952771843
 30
0.0
 10
101.6196370188659
 20
-141.2626952771843
 30
0.0
 10
103.1640733249034
 20
-141.2626952771843
 30
0.0
 10
103.1640733249034
 20
-141.2626952771843
 30
0.0
 10
103.1640733249034
 20
-141.2626952771843
 30
0.0
 10
103.1640733249034
 20
-141.4604437580377
 30
0.0
 10
103.1640733249034
 20
-141.4604437580377
 30
0.0
  0
HATCH
  5
E8
330
E3
100
AcDbEntity
  8
_U+30EC_U+30A4_U+30E4_U+30FC 1
 62
   179
420
  2234388
100
AcDbHatch
 10
0.0
 20
0.0
 30
0.0
210
0.0
220
0.0
230
1.0
  2
SOLID
 70
     1
 71
     0
 91
        1
 92
        1
 93
        1
 72
     4
 94
        3
 73
     0
 74
     1
 95
       26
 96
       22
 40
0.0
 40
0.0
 40
0.0
 40
0.0
 40
1.0
 40
1.0
 40
1.0
 40
2.0
 40
2.0
 40
2.0
 40
3.0
 40
3.0
 40
3.0
 40
4.0
 40
4.0
 40
4.0
 40
5.0
 40
5.0
 40
5.0
 40
6.0
 40
6.0
 40
6.0
 40
7.0
 40
7.0
 40
7.0
 40
7.0
 10
103.1640733249034
 20
-141.4604437580377
 10
103.1640733249034
 20
-141.4604437580377
 10
102.0599202218809
 20
-141.4604437580377
 10
102.0599202218809
 20
-141.4604437580377
 10
102.0599202218809
 20
-141.4604437580377
 10
102.0599202218809
 20
-141.7518988360898
 10
102.0599202218809
 20
-141.7518988360898
 10
102.0599202218809
 20
-141.7518988360898
 10
101.9117811160151
 20
-141.7518988360898
 10
101.9117811160151
 20
-141.7518988360898
 10
101.8969672054285
 20
-141.458721210295
 10
101.7340141889762
 20
-141.4177245740206
 10
101.6196370188659
 20
-141.3915418483327
 10
101.6196370188659
 20
-141.3915418483327
 10
101.6196370188659
 20
-141.2626952771843
 10
101.6196370188659
 20
-141.2626952771843
 10
101.6196370188659
 20
-141.2626952771843
 10
103.1640733249034
 20
-141.2626952771843
 10
103.1640733249034
 20
-141.2626952771843
 10
103.1640733249034
 20
-141.2626952771843
 10
103.1640733249034
 20
-141.4604437580377
 10
103.1640733249034
 20
-141.4604437580377
 97
        0
 97
        0
 75
     2
 76
     1
 98
        0
  0
SPLINE
  5
E9
330
E3
100
AcDbEntity
  8
_U+30EC_U+30A4_U+30E4_U+30FC 1
370
     0
100
AcDbSpline
210
0.0
220
0.0
230
1.0
 70
    11
 71
     3
 72
    29
 73
    25
 74
     0
 42
0.0000000001
 43
0.0000000001
 12
1.0
 22
0.0
 32
0.0
 13
1.0
 23
0.0
 33
0.0
 40
0.0
 40
0.0
 40
0.0
 40
0.0
 40
1.0
 40
1.0
 40
1.0
 40
2.0
 40
2.0
 40
2.0
 40
3.0
 40
3.0
 40
3.0
 40
4.0
 40
4.0
 40
4.0
 40
5.0
 40
5.0
 40
5.0
 40
6.0
 40
6.0
 40
6.0
 40
7.0
 40
7.0
 40
7.0
 40
8.0
 40
8.0
 40
8.0
 40
8.0
 10
102.9863063978645
 20
-140.0265950170767
 30
0.0
 10
103.1957682033677
 20
-140.1220241620181
 30
0.0
 10
103.2147162285366
 20
-140.2753309111117
 30
0.0
 10
103.2147162285366
 20
-140.3779947565722
 30
0.0
 10
103.2147162285366
 20
-140.5199326905645
 30
0.0
 10
103.1682074394857
 20
-140.644989656679
 30
0.0
 10
102.9863063978645
 20
-140.7290499865191
 30
0.0
 10
102.7916585029479
 20
-140.8206895264268
 30
0.0
 10
102.5546359335627
 20
-140.8375704943045
 30
0.0
 10
102.3920274266589
 20
-140.8375704943045
 30
0.0
 10
102.2480224353755
 20
-140.8375704943045
 30
0.0
 10
101.9961859554037
 20
-140.8224120741694
 30
0.0
 10
101.7974039459048
 20
-140.7290499865191
 30
0.0
 10
101.5944878218236
 20
-140.6339653511262
 30
0.0
 10
101.5710611725239
 20
-140.4916829075854
 30
0.0
 10
101.5710611725239
 20
-140.3779947565722
 30
0.0
 10
101.5710611725239
 20
-140.2377793703225
 30
0.0
 10
101.6155029042836
 20
-140.1106553469168
 30
0.0
 10
101.7974039459048
 20
-140.0265950170767
 30
0.0
 10
101.9899847835303
 20
-139.9390895917514
 30
0.0
 10
102.2183946142024
 20
-139.9184190188398
 30
0.0
 10
102.3920274266589
 20
-139.9184190188398
 30
0.0
 10
102.5632486722759
 20
-139.9184190188398
 30
0.0
 10
102.7937255602391
 20
-139.9370225344602
 30
0.0
 10
102.9863063978645
 20
-140.0265950170767
 30
0.0
  0
SPLINE
  5
EA
330
E3
100
AcDbEntity
  8
_U+30EC_U+30A4_U+30E4_U+30FC 1
370
     0
100
AcDbSpline
210
0.0
220
0.0
230
1.0
 70
    11
 71
     3
 72
    17
 73
    13
 74
     0
 42
0.0000000001
 43
0.0000000001
 12
1.0
 22
0.0
 32
0.0
 13
1.0
 23
0.0
 33
0.0
 40
0.0
 40
0.0
 40
0.0
 40
0.0
 40
1.0
 40
1.0
 40
1.0
 40
2.0
 40
2.0
 40
2.0
 40
3.0
 40
3.0
 40
3.0
 40
4.0
 40
4.0
 40
4.0
 40
4.0
 10
101.7636420101494
 20
-140.3779947565722
 30
0.0
 10
101.7636420101494
 20
-140.5984808676282
 30
0.0
 10
102.0471733685854
 20
-140.6394775039026
 30
0.0
 10
102.3920274266589
 20
-140.6394775039026
 30
0.0
 10
102.7113877781416
 20
-140.6394775039026
 30
0.0
 10
103.02006833362
 20
-140.6077826254383
 30
0.0
 10
103.02006833362
 20
-140.3779947565722
 30
0.0
 10
103.02006833362
 20
-140.1592311932588
 30
0.0
 10
102.7389485420236
 20
-140.1165120092417
 30
0.0
 10
102.3920274266589
 20
-140.1165120092417
 30
0.0
 10
102.0723225656278
 20
-140.1165120092417
 30
0.0
 10
101.7636420101494
 20
-140.1499294354486
 30
0.0
 10
101.7636420101494
 20
-140.3779947565722
 30
0.0
  0
HATCH
  5
EB
330
E3
100
AcDbEntity
  8
_U+30EC_U+30A4_U+30E4_U+30FC 1
 62
   179
420
  2234388
100
AcDbHatch
 10
0.0
 20
0.0
 30
0.0
210
0.0
220
0.0
230
1.0
  2
SOLID
 70
     1
 71
     0
 91
        2
 92
        1
 93
        1
 72
     4
 94
        3
 73
     0
 74
     1
 95
       29
 96
       25
 40
0.0
 40
0.0
 40
0.0
 40
0.0
 40
1.0
 40
1.0
 40
1.0
 40
2.0
 40
2.0
 40
2.0
 40
3.0
 40
3.0
 40
3.0
 40
4.0
 40
4.0
 40
4.0
 40
5.0
 40
5.0
 40
5.0
 40
6.0
 40
6.0
 40
6.0
 40
7.0
 40
7.0
 40
7.0
 40
8.0
 40
8.0
 40
8.0
 40
8.0
 10
102.9863063978645
 20
-140.0265950170767
 10
103.1957682033677
 20
-140.1220241620181
 10
103.2147162285366
 20
-140.2753309111117
 10
103.2147162285366
 20
-140.3779947565722
 10
103.2147162285366
 20
-140.5199326905645
 10
103.1682074394857
 20
-140.644989656679
 10
102.9863063978645
 20
-140.7290499865191
 10
102.7916585029479
 20
-140.8206895264268
 10
102.5546359335627
 20
-140.8375704943045
 10
102.3920274266589
 20
-140.8375704943045
 10
102.2480224353755
 20
-140.8375704943045
 10
101.9961859554037
 20
-140.8224120741694
 10
101.7974039459048
 20
-140.7290499865191
 10
101.5944878218236
 20
-140.6339653511262
 10
101.5710611725239
 20
-140.4916829075854
 10
101.5710611725239
 20
-140.3779947565722
 10
101.5710611725239
 20
-140.2377793703225
 10
101.6155029042836
 20
-140.1106553469168
 10
101.7974039459048
 20
-140.0265950170767
 10
101.9899847835303
 20
-139.9390895917514
 10
102.2183946142024
 20
-139.9184190188398
 10
102.3920274266589
 20
-139.9184190188398
 10
102.5632486722759
 20
-139.9184190188398
 10
102.7937255602391
 20
-139.9370225344602
 10
102.9863063978645
 20
-140.0265950170767
 97
        0
 97
        0
 92
        1
 93
        1
 72
     4
 94
        3
 73
     0
 74
     1
 95
       17
 96
       13
 40
0.0
 40
0.0
 40
0.0
 40
0.0
 40
1.0
 40
1.0
 40
1.0
 40
2.0
 40
2.0
 40
2.0
 40
3.0
 40
3.0
 40
3.0
 40
4.0
 40
4.0
 40
4.0
 40
4.0
 10
101.7636420101494
 20
-140.3779947565722
 10
101.7636420101494
 20
-140.5984808676282
 10
102.0471733685854
 20
-140.6394775039026
 10
102.3920274266589
 20
-140.6394775039026
 10
102.7113877781416
 20
-140.6394775039026
 10
103.02006833362
 20
-140.6077826254383
 10
103.02006833362
 20
-140.3779947565722
 10
103.02006833362
 20
-140.1592311932588
 10
102.7389485420236
 20
-140.1165120092417
 10
102.3920274266589
 20
-140.1165120092417
 10
102.0723225656278
 20
-140.1165120092417
 10
101.7636420101494
 20
-140.1499294354486
 10
101.7636420101494
 20
-140.3779947565722
 97
        0
 97
        0
 75
     2
 76
     1
 98
        0
  0
ENDBLK
  5
E6
330
E3
100
AcDbEntity
  8
0
100
AcDbBlockEnd
  0
BLOCK
  5
EE
330
EC
100
AcDbEntity
  8
0
100
AcDbBlockBegin
  2
block 3
 70
     0
 10
0.0
 20
0.0
 30
0.0
  3
block 3
  1

  0
SPLINE
  5
F0
330
EC
100
AcDbEntity
  8
_U+30EC_U+30A4_U+30E4_U+30FC 1
370
     0
100
AcDbSpline
210
0.0
220
0.0
230
1.0
 70
    11
 71
     3
 72
    44
 73
    40
 74
     0
 42
0.0000000001
 43
0.0000000001
 12
1.0
 22
0.0
 32
0.0
 13
1.0
 23
0.0
 33
0.0
 40
0.0
 40
0.0
 40
0.0
 40
0.0
 40
1.0
 40
1.0
 40
1.0
 40
2.0
 40
2.0
 40
2.0
 40
3.0
 40
3.0
 40
3.0
 40
4.0
 40
4.0
 40
4.0
 40
5.0
 40
5.0
 40
5.0
 40
6.0
 40
6.0
 40
6.0
 40
7.0
 40
7.0
 40
7.0
 40
8.0
 40
8.0
 40
8.0
 40
9.0
 40
9.0
 40
9.0
 40
10.0
 40
10.0
 40
10.0
 40
11.0
 40
11.0
 40
11.0
 40
12.0
 40
12.0
 40
12.0
 40
13.0
 40
13.0
 40
13.0
 40
13.0
 10
102.5821966974447
 20
-124.8471597995174
 30
0.0
 10
102.7410155993147
 20
-125.0397406371428
 30
0.0
 10
102.8150851522476
 20
-125.1217339096918
 30
0.0
 10
102.9587456339825
 20
-125.1647976032574
 30
0.0
 10
102.9587456339825
 20
-125.1647976032574
 30
0.0
 10
102.9587456339825
 20
-124.4775010539501
 30
0.0
 10
102.9587456339825
 20
-124.4775010539501
 30
0.0
 10
102.9587456339825
 20
-124.4775010539501
 30
0.0
 10
103.1640733249034
 20
-124.4775010539501
 30
0.0
 10
103.1640733249034
 20
-124.4775010539501
 30
0.0
 10
103.1640733249034
 20
-124.4775010539501
 30
0.0
 10
103.1640733249034
 20
-125.3852837143134
 30
0.0
 10
103.1640733249034
 20
-125.3852837143134
 30
0.0
 10
102.8064724135345
 20
-125.3570339313344
 30
0.0
 10
102.7282687460193
 20
-125.2991563271822
 30
0.0
 10
102.4299234769967
 20
-124.959125402788
 30
0.0
 10
102.2311414674978
 20
-124.7331271389556
 30
0.0
 10
102.1632730864384
 20
-124.6752495348034
 30
0.0
 10
102.0258137765769
 20
-124.6752495348034
 30
0.0
 10
101.9073024918843
 20
-124.6752495348034
 30
0.0
 10
101.7763888634448
 20
-124.7389838012805
 30
0.0
 10
101.7763888634448
 20
-124.9126166137371
 30
0.0
 10
101.7763888634448
 20
-125.1424044826033
 30
0.0
 10
102.006865751408
 20
-125.1499836926708
 30
0.0
 10
102.1233099788095
 20
-125.1534287881561
 30
0.0
 10
102.1233099788095
 20
-125.1534287881561
 30
0.0
 10
102.1233099788095
 20
-125.351521778558
 30
0.0
 10
102.1233099788095
 20
-125.351521778558
 30
0.0
 10
101.9961859554037
 20
-125.3439425684904
 30
0.0
 10
101.8842203521331
 20
-125.3346408106802
 30
0.0
 10
101.7657090674405
 20
-125.2636718436841
 30
0.0
 10
101.6048231082793
 20
-125.166520151
 30
0.0
 10
101.5710611725239
 20
-125.0021890963536
 30
0.0
 10
101.5710611725239
 20
-124.8995252508932
 30
0.0
 10
101.5710611725239
 20
-124.6549234714404
 30
0.0
 10
101.7550292714362
 20
-124.4716443916251
 30
0.0
 10
102.027880833868
 20
-124.4716443916251
 30
0.0
 10
102.2566351740886
 20
-124.4716443916251
 30
0.0
 10
102.3558539240638
 20
-124.5746527466341
 30
0.0
 10
102.5821966974447
 20
-124.8471597995174
 30
0.0
  0
HATCH
  5
F1
330
EC
100
AcDbEntity
  8
_U+30EC_U+30A4_U+30E4_U+30FC 1
 62
   179
420
  2234388
100
AcDbHatch
 10
0.0
 20
0.0
 30
0.0
210
0.0
220
0.0
230
1.0
  2
SOLID
 70
     1
 71
     0
 91
        1
 92
        1
 93
        1
 72
     4
 94
        3
 73
     0
 74
     1
 95
       44
 96
       40
 40
0.0
 40
0.0
 40
0.0
 40
0.0
 40
1.0
 40
1.0
 40
1.0
 40
2.0
 40
2.0
 40
2.0
 40
3.0
 40
3.0
 40
3.0
 40
4.0
 40
4.0
 40
4.0
 40
5.0
 40
5.0
 40
5.0
 40
6.0
 40
6.0
 40
6.0
 40
7.0
 40
7.0
 40
7.0
 40
8.0
 40
8.0
 40
8.0
 40
9.0
 40
9.0
 40
9.0
 40
10.0
 40
10.0
 40
10.0
 40
11.0
 40
11.0
 40
11.0
 40
12.0
 40
12.0
 40
12.0
 40
13.0
 40
13.0
 40
13.0
 40
13.0
 10
102.5821966974447
 20
-124.8471597995174
 10
102.7410155993147
 20
-125.0397406371428
 10
102.8150851522476
 20
-125.1217339096918
 10
102.9587456339825
 20
-125.1647976032574
 10
102.9587456339825
 20
-125.1647976032574
 10
102.9587456339825
 20
-124.4775010539501
 10
102.9587456339825
 20
-124.4775010539501
 10
102.9587456339825
 20
-124.4775010539501
 10
103.1640733249034
 20
-124.4775010539501
 10
103.1640733249034
 20
-124.4775010539501
 10
103.1640733249034
 20
-124.4775010539501
 10
103.1640733249034
 20
-125.3852837143134
 10
103.1640733249034
 20
-125.3852837143134
 10
102.8064724135345
 20
-125.3570339313344
 10
102.7282687460193
 20
-125.2991563271822
 10
102.4299234769967
 20
-124.959125402788
 10
102.2311414674978
 20
-124.7331271389556
 10
102.1632730864384
 20
-124.6752495348034
 10
102.0258137765769
 20
-124.6752495348034
 10
101.9073024918843
 20
-124.6752495348034
 10
101.7763888634448
 20
-124.7389838012805
 10
101.7763888634448
 20
-124.9126166137371
 10
101.7763888634448
 20
-125.1424044826033
 10
102.006865751408
 20
-125.1499836926708
 10
102.1233099788095
 20
-125.1534287881561
 10
102.1233099788095
 20
-125.1534287881561
 10
102.1233099788095
 20
-125.351521778558
 10
102.1233099788095
 20
-125.351521778558
 10
101.9961859554037
 20
-125.3439425684904
 10
101.8842203521331
 20
-125.3346408106802
 10
101.7657090674405
 20
-125.2636718436841
 10
101.6048231082793
 20
-125.166520151
 10
101.5710611725239
 20
-125.0021890963536
 10
101.5710611725239
 20
-124.8995252508932
 10
101.5710611725239
 20
-124.6549234714404
 10
101.7550292714362
 20
-124.4716443916251
 10
102.027880833868
 20
-124.4716443916251
 10
102.2566351740886
 20
-124.4716443916251
 10
102.3558539240638
 20
-124.5746527466341
 10
102.5821966974447
 20
-124.8471597995174
 97
        0
 97
        0
 75
     2
 76
     1
 98
        0
  0
POLYLINE
  5
F2
330
EC
100
AcDbEntity
  8
_U+30EC_U+30A4_U+30E4_U+30FC 1
370
     0
100
AcDb2dPolyline
 66
     1
 10
0.0
 20
0.0
 30
0.0
  0
VERTEX
  5
F3
330
F2
100
AcDbEntity
  8
_U+30EC_U+30A4_U+30E4_U+30FC 1
370
     0
100
AcDbVertex
100
AcDb2dVertex
 10
102.8171522095388
 20
-123.5962456288232
 30
0.0
  0
VERTEX
  5
F4
330
F2
100
AcDbEntity
  8
_U+30EC_U+30A4_U+30E4_U+30FC 1
370
     0
100
AcDbVertex
100
AcDb2dVertex
 10
103.1640733249034
 20
-123.5962456288232
 30
0.0
  0
VERTEX
  5
F5
330
F2
100
AcDbEntity
  8
_U+30EC_U+30A4_U+30E4_U+30FC 1
370
     0
100
AcDbVertex
100
AcDb2dVertex
 10
103.1640733249034
 20
-123.7888264664486
 30
0.0
  0
VERTEX
  5
F6
330
F2
100
AcDbEntity
  8
_U+30EC_U+30A4_U+30E4_U+30FC 1
370
     0
100
AcDbVertex
100
AcDb2dVertex
 10
102.8171522095388
 20
-123.7888264664486
 30
0.0
  0
VERTEX
  5
F7
330
F2
100
AcDbEntity
  8
_U+30EC_U+30A4_U+30E4_U+30FC 1
370
     0
100
AcDbVertex
100
AcDb2dVertex
 10
102.8171522095388
 20
-124.3679470175191
 30
0.0
  0
VERTEX
  5
F8
330
F2
100
AcDbEntity
  8
_U+30EC_U+30A4_U+30E4_U+30FC 1
370
     0
100
AcDbVertex
100
AcDb2dVertex
 10
102.592876493449
 20
-124.3679470175191
 30
0.0
  0
VERTEX
  5
F9
330
F2
100
AcDbEntity
  8
_U+30EC_U+30A4_U+30E4_U+30FC 1
370
     0
100
AcDbVertex
100
AcDb2dVertex
 10
101.6196370188659
 20
-123.7681558935371
 30
0.0
  0
VERTEX
  5
FA
330
F2
100
AcDbEntity
  8
_U+30EC_U+30A4_U+30E4_U+30FC 1
370
     0
100
AcDbVertex
100
AcDb2dVertex
 10
101.6196370188659
 20
-123.5962456288232
 30
0.0
  0
VERTEX
  5
FB
330
F2
100
AcDbEntity
  8
_U+30EC_U+30A4_U+30E4_U+30FC 1
370
     0
100
AcDbVertex
100
AcDb2dVertex
 10
102.6183702000399
 20
-123.5962456288232
 30
0.0
  0
VERTEX
  5
FC
330
F2
100
AcDbEntity
  8
_U+30EC_U+30A4_U+30E4_U+30FC 1
370
     0
100
AcDbVertex
100
AcDb2dVertex
 10
102.6183702000399
 20
-123.4133110585564
 30
0.0
  0
VERTEX
  5
FD
330
F2
100
AcDbEntity
  8
_U+30EC_U+30A4_U+30E4_U+30FC 1
370
     0
100
AcDbVertex
100
AcDb2dVertex
 10
102.8171522095388
 20
-123.4133110585564
 30
0.0
  0
VERTEX
  5
FE
330
F2
100
AcDbEntity
  8
_U+30EC_U+30A4_U+30E4_U+30FC 1
370
     0
100
AcDbVertex
100
AcDb2dVertex
 10
102.8171522095388
 20
-123.5962456288232
 30
0.0
  0
SEQEND
  5
FF
330
F2
100
AcDbEntity
  8
_U+30EC_U+30A4_U+30E4_U+30FC 1
370
     0
  0
POLYLINE
  5
100
330
EC
100
AcDbEntity
  8
_U+30EC_U+30A4_U+30E4_U+30FC 1
370
     0
100
AcDb2dPolyline
 66
     1
 10
0.0
 20
0.0
 30
0.0
  0
VERTEX
  5
101
330
100
100
AcDbEntity
  8
_U+30EC_U+30A4_U+30E4_U+30FC 1
370
     0
100
AcDbVertex
100
AcDb2dVertex
 10
101.9624240196483
 20
-123.7888264664486
 30
0.0
  0
VERTEX
  5
102
330
100
100
AcDbEntity
  8
_U+30EC_U+30A4_U+30E4_U+30FC 1
370
     0
100
AcDbVertex
100
AcDb2dVertex
 10
102.6183702000399
 20
-124.1922471477714
 30
0.0
  0
VERTEX
  5
103
330
100
100
AcDbEntity
  8
_U+30EC_U+30A4_U+30E4_U+30FC 1
370
     0
100
AcDbVertex
100
AcDb2dVertex
 10
102.6183702000399
 20
-123.7888264664486
 30
0.0
  0
VERTEX
  5
104
330
100
100
AcDbEntity
  8
_U+30EC_U+30A4_U+30E4_U+30FC 1
370
     0
100
AcDbVertex
100
AcDb2dVertex
 10
101.9624240196483
 20
-123.7888264664486
 30
0.0
  0
SEQEND
  5
105
330
100
100
AcDbEntity
  8
_U+30EC_U+30A4_U+30E4_U+30FC 1
370
     0
  0
HATCH
  5
106
330
EC
100
AcDbEntity
  8
_U+30EC_U+30A4_U+30E4_U+30FC 1
 62
   179
420
  2234388
100
AcDbHatch
 10
0.0
 20
0.0
 30
0.0
210
0.0
220
0.0
230
1.0
  2
SOLID
 70
     1
 71
     0
 91
        2
 92
        1
 93
       11
 72
     1
 10
102.8171522095388
 20
-123.5962456288232
 11
103.1640733249034
 21
-123.5962456288232
 72
     1
 10
103.1640733249034
 20
-123.5962456288232
 11
103.1640733249034
 21
-123.7888264664486
 72
     1
 10
103.1640733249034
 20
-123.7888264664486
 11
102.8171522095388
 21
-123.7888264664486
 72
     1
 10
102.8171522095388
 20
-123.7888264664486
 11
102.8171522095388
 21
-124.3679470175191
 72
     1
 10
102.8171522095388
 20
-124.3679470175191
 11
102.592876493449
 21
-124.3679470175191
 72
     1
 10
102.592876493449
 20
-124.3679470175191
 11
101.6196370188659
 21
-123.7681558935371
 72
     1
 10
101.6196370188659
 20
-123.7681558935371
 11
101.6196370188659
 21
-123.5962456288232
 72
     1
 10
101.6196370188659
 20
-123.5962456288232
 11
102.6183702000399
 21
-123.5962456288232
 72
     1
 10
102.6183702000399
 20
-123.5962456288232
 11
102.6183702000399
 21
-123.4133110585564
 72
     1
 10
102.6183702000399
 20
-123.4133110585564
 11
102.8171522095388
 21
-123.4133110585564
 72
     1
 10
102.8171522095388
 20
-123.4133110585564
 11
102.8171522095388
 21
-123.5962456288232
 97
        0
 92
        1
 93
        3
 72
     1
 10
101.9624240196483
 20
-123.7888264664486
 11
102.6183702000399
 21
-124.1922471477714
 72
     1
 10
102.6183702000399
 20
-124.1922471477714
 11
102.6183702000399
 21
-123.7888264664486
 72
     1
 10
102.6183702000399
 20
-123.7888264664486
 11
101.9624240196483
 21
-123.7888264664486
 97
        0
 75
     2
 76
     1
 98
        0
  0
POLYLINE
  5
107
330
EC
100
AcDbEntity
  8
_U+30EC_U+30A4_U+30E4_U+30FC 1
370
     0
100
AcDb2dPolyline
 66
     1
 10
0.0
 20
0.0
 30
0.0
  0
VERTEX
  5
108
330
107
100
AcDbEntity
  8
_U+30EC_U+30A4_U+30E4_U+30FC 1
370
     0
100
AcDbVertex
100
AcDb2dVertex
 10
103.1640733249034
 20
-123.2383002079057
 30
0.0
  0
VERTEX
  5
109
330
107
100
AcDbEntity
  8
_U+30EC_U+30A4_U+30E4_U+30FC 1
370
     0
100
AcDbVertex
100
AcDb2dVertex
 10
102.9122368449317
 20
-123.2383002079057
 30
0.0
  0
VERTEX
  5
10A
330
107
100
AcDbEntity
  8
_U+30EC_U+30A4_U+30E4_U+30FC 1
370
     0
100
AcDbVertex
100
AcDb2dVertex
 10
102.9122368449317
 20
-123.0160915491071
 30
0.0
  0
VERTEX
  5
10B
330
107
100
AcDbEntity
  8
_U+30EC_U+30A4_U+30E4_U+30FC 1
370
     0
100
AcDbVertex
100
AcDb2dVertex
 10
103.1640733249034
 20
-123.0160915491071
 30
0.0
  0
VERTEX
  5
10C
330
107
100
AcDbEntity
  8
_U+30EC_U+30A4_U+30E4_U+30FC 1
370
     0
100
AcDbVertex
100
AcDb2dVertex
 10
103.1640733249034
 20
-123.2383002079057
 30
0.0
  0
SEQEND
  5
10D
330
107
100
AcDbEntity
  8
_U+30EC_U+30A4_U+30E4_U+30FC 1
370
     0
  0
HATCH
  5
10E
330
EC
100
AcDbEntity
  8
_U+30EC_U+30A4_U+30E4_U+30FC 1
 62
   179
420
  2234388
100
AcDbHatch
 10
0.0
 20
0.0
 30
0.0
210
0.0
220
0.0
230
1.0
  2
SOLID
 70
     1
 71
     0
 91
        1
 92
        1
 93
        4
 72
     1
 10
103.1640733249034
 20
-123.2383002079057
 11
102.9122368449317
 21
-123.2383002079057
 72
     1
 10
102.9122368449317
 20
-123.2383002079057
 11
102.9122368449317
 21
-123.0160915491071
 72
     1
 10
102.9122368449317
 20
-123.0160915491071
 11
103.1640733249034
 21
-123.0160915491071
 72
     1
 10
103.1640733249034
 20
-123.0160915491071
 11
103.1640733249034
 21
-123.2383002079057
 97
        0
 75
     2
 76
     1
 98
        0
  0
SPLINE
  5
10F
330
EC
100
AcDbEntity
  8
_U+30EC_U+30A4_U+30E4_U+30FC 1
370
     0
100
AcDbSpline
210
0.0
220
0.0
230
1.0
 70
    11
 71
     3
 72
    53
 73
    49
 74
     0
 42
0.0000000001
 43
0.0000000001
 12
1.0
 22
0.0
 32
0.0
 13
1.0
 23
0.0
 33
0.0
 40
0.0
 40
0.0
 40
0.0
 40
0.0
 40
1.0
 40
1.0
 40
1.0
 40
2.0
 40
2.0
 40
2.0
 40
3.0
 40
3.0
 40
3.0
 40
4.0
 40
4.0
 40
4.0
 40
5.0
 40
5.0
 40
5.0
 40
6.0
 40
6.0
 40
6.0
 40
7.0
 40
7.0
 40
7.0
 40
8.0
 40
8.0
 40
8.0
 40
9.0
 40
9.0
 40
9.0
 40
10.0
 40
10.0
 40
10.0
 40
11.0
 40
11.0
 40
11.0
 40
12.0
 40
12.0
 40
12.0
 40
13.0
 40
13.0
 40
13.0
 40
14.0
 40
14.0
 40
14.0
 40
15.0
 40
15.0
 40
15.0
 40
16.0
 40
16.0
 40
16.0
 40
16.0
 10
103.2147162285366
 20
-122.3825384893697
 30
0.0
 10
103.2147162285366
 20
-122.4514403990746
 30
0.0
 10
103.1978352606589
 20
-122.5410128816911
 30
0.0
 10
103.1344455037303
 20
-122.6309298738562
 30
0.0
 10
103.0245469577508
 20
-122.7838921134013
 30
0.0
 10
102.8932888197628
 20
-122.8024956290216
 30
0.0
 10
102.7854573310745
 20
-122.8193765968993
 30
0.0
 10
102.7854573310745
 20
-122.8193765968993
 30
0.0
 10
102.7854573310745
 20
-122.6233506637886
 30
0.0
 10
102.7854573310745
 20
-122.6233506637886
 30
0.0
 10
102.9842393405734
 20
-122.5747748174466
 30
0.0
 10
103.0138671617465
 20
-122.462809214176
 30
0.0
 10
103.0138671617465
 20
-122.3804714320785
 30
0.0
 10
103.0138671617465
 20
-122.2571370137066
 30
0.0
 10
102.9143039022228
 20
-122.1227782897818
 30
0.0
 10
102.6817599569684
 20
-122.1227782897818
 30
0.0
 10
102.4257893624144
 20
-122.1227782897818
 30
0.0
 10
102.3558539240638
 20
-122.2815971916518
 30
0.0
 10
102.3558539240638
 20
-122.3880506421461
 30
0.0
 10
102.3558539240638
 20
-122.4159559155766
 30
0.0
 10
102.3558539240638
 20
-122.5410128816911
 30
0.0
 10
102.4850450047607
 20
-122.6195610587548
 30
0.0
 10
102.4850450047607
 20
-122.6195610587548
 30
0.0
 10
102.4660969795918
 20
-122.7745903555911
 30
0.0
 10
102.4660969795918
 20
-122.7745903555911
 30
0.0
 10
102.4660969795918
 20
-122.7745903555911
 30
0.0
 10
101.6196370188659
 20
-122.6681369050969
 30
0.0
 10
101.6196370188659
 20
-122.6681369050969
 30
0.0
 10
101.6196370188659
 20
-122.6681369050969
 30
0.0
 10
101.6196370188659
 20
-121.9808403557895
 30
0.0
 10
101.6196370188659
 20
-121.9808403557895
 30
0.0
 10
101.6196370188659
 20
-121.9808403557895
 30
0.0
 10
101.8142849137825
 20
-121.9808403557895
 30
0.0
 10
101.8142849137825
 20
-121.9808403557895
 30
0.0
 10
101.8142849137825
 20
-121.9808403557895
 30
0.0
 10
101.8142849137825
 20
-122.5244764233619
 30
0.0
 10
101.8142849137825
 20
-122.5244764233619
 30
0.0
 10
101.8142849137825
 20
-122.5244764233619
 30
0.0
 10
102.2373426393712
 20
-122.5823540275141
 30
0.0
 10
102.2373426393712
 20
-122.5823540275141
 30
0.0
 10
102.2035807036158
 20
-122.5279215188472
 30
0.0
 10
102.1632730864384
 20
-122.4552300041084
 30
0.0
 10
102.1632730864384
 20
-122.3504991013568
 30
0.0
 10
102.1632730864384
 20
-122.1265678948156
 30
0.0
 10
102.3496527521904
 20
-121.9171060893124
 30
0.0
 10
102.6628119317996
 20
-121.9171060893124
 30
0.0
 10
102.9801052259911
 20
-121.9171060893124
 30
0.0
 10
103.2147162285366
 20
-122.1151990797143
 30
0.0
 10
103.2147162285366
 20
-122.3825384893697
 30
0.0
  0
HATCH
  5
110
330
EC
100
AcDbEntity
  8
_U+30EC_U+30A4_U+30E4_U+30FC 1
 62
   179
420
  2234388
100
AcDbHatch
 10
0.0
 20
0.0
 30
0.0
210
0.0
220
0.0
230
1.0
  2
SOLID
 70
     1
 71
     0
 91
        1
 92
        1
 93
        1
 72
     4
 94
        3
 73
     0
 74
     1
 95
       53
 96
       49
 40
0.0
 40
0.0
 40
0.0
 40
0.0
 40
1.0
 40
1.0
 40
1.0
 40
2.0
 40
2.0
 40
2.0
 40
3.0
 40
3.0
 40
3.0
 40
4.0
 40
4.0
 40
4.0
 40
5.0
 40
5.0
 40
5.0
 40
6.0
 40
6.0
 40
6.0
 40
7.0
 40
7.0
 40
7.0
 40
8.0
 40
8.0
 40
8.0
 40
9.0
 40
9.0
 40
9.0
 40
10.0
 40
10.0
 40
10.0
 40
11.0
 40
11.0
 40
11.0
 40
12.0
 40
12.0
 40
12.0
 40
13.0
 40
13.0
 40
13.0
 40
14.0
 40
14.0
 40
14.0
 40
15.0
 40
15.0
 40
15.0
 40
16.0
 40
16.0
 40
16.0
 40
16.0
 10
103.2147162285366
 20
-122.3825384893697
 10
103.2147162285366
 20
-122.4514403990746
 10
103.1978352606589
 20
-122.5410128816911
 10
103.1344455037303
 20
-122.6309298738562
 10
103.0245469577508
 20
-122.7838921134013
 10
102.8932888197628
 20
-122.8024956290216
 10
102.7854573310745
 20
-122.8193765968993
 10
102.7854573310745
 20
-122.8193765968993
 10
102.7854573310745
 20
-122.6233506637886
 10
102.7854573310745
 20
-122.6233506637886
 10
102.9842393405734
 20
-122.5747748174466
 10
103.0138671617465
 20
-122.462809214176
 10
103.0138671617465
 20
-122.3804714320785
 10
103.0138671617465
 20
-122.2571370137066
 10
102.9143039022228
 20
-122.1227782897818
 10
102.6817599569684
 20
-122.1227782897818
 10
102.4257893624144
 20
-122.1227782897818
 10
102.3558539240638
 20
-122.2815971916518
 10
102.3558539240638
 20
-122.3880506421461
 10
102.3558539240638
 20
-122.4159559155766
 10
102.3558539240638
 20
-122.5410128816911
 10
102.4850450047607
 20
-122.6195610587548
 10
102.4850450047607
 20
-122.6195610587548
 10
102.4660969795918
 20
-122.7745903555911
 10
102.4660969795918
 20
-122.7745903555911
 10
102.4660969795918
 20
-122.7745903555911
 10
101.6196370188659
 20
-122.6681369050969
 10
101.6196370188659
 20
-122.6681369050969
 10
101.6196370188659
 20
-122.6681369050969
 10
101.6196370188659
 20
-121.9808403557895
 10
101.6196370188659
 20
-121.9808403557895
 10
101.6196370188659
 20
-121.9808403557895
 10
101.8142849137825
 20
-121.9808403557895
 10
101.8142849137825
 20
-121.9808403557895
 10
101.8142849137825
 20
-121.9808403557895
 10
101.8142849137825
 20
-122.5244764233619
 10
101.8142849137825
 20
-122.5244764233619
 10
101.8142849137825
 20
-122.5244764233619
 10
102.2373426393712
 20
-122.5823540275141
 10
102.2373426393712
 20
-122.5823540275141
 10
102.2035807036158
 20
-122.5279215188472
 10
102.1632730864384
 20
-122.4552300041084
 10
102.1632730864384
 20
-122.3504991013568
 10
102.1632730864384
 20
-122.1265678948156
 10
102.3496527521904
 20
-121.9171060893124
 10
102.6628119317996
 20
-121.9171060893124
 10
102.9801052259911
 20
-121.9171060893124
 10
103.2147162285366
 20
-122.1151990797143
 10
103.2147162285366
 20
-122.3825384893697
 97
        0
 97
        0
 75
     2
 76
     1
 98
        0
  0
ENDBLK
  5
EF
330
EC
100
AcDbEntity
  8
0
100
AcDbBlockEnd
  0
BLOCK
  5
113
330
111
100
AcDbEntity
  8
0
100
AcDbBlockBegin
  2
block 4
 70
     0
 10
0.0
 20
0.0
 30
0.0
  3
block 4
  1

  0
SPLINE
  5
115
330
111
100
AcDbEntity
  8
_U+30EC_U+30A4_U+30E4_U+30FC 1
370
     0
100
AcDbSpline
210
0.0
220
0.0
230
1.0
 70
    11
 71
     3
 72
    26
 73
    22
 74
     0
 42
0.0000000001
 43
0.0000000001
 12
1.0
 22
0.0
 32
0.0
 13
1.0
 23
0.0
 33
0.0
 40
0.0
 40
0.0
 40
0.0
 40
0.0
 40
1.0
 40
1.0
 40
1.0
 40
2.0
 40
2.0
 40
2.0
 40
3.0
 40
3.0
 40
3.0
 40
4.0
 40
4.0
 40
4.0
 40
5.0
 40
5.0
 40
5.0
 40
6.0
 40
6.0
 40
6.0
 40
7.0
 40
7.0
 40
7.0
 40
7.0
 10
90.21895478430291
 20
-125.017519771263
 30
0.0
 10
90.21895478430291
 20
-125.017519771263
 30
0.0
 10
90.21895478430291
 20
-123.9131944134662
 30
0.0
 10
90.21895478430291
 20
-123.9131944134662
 30
0.0
 10
90.21895478430291
 20
-123.9131944134662
 30
0.0
 10
89.92767196102503
 20
-123.9131944134662
 30
0.0
 10
89.92767196102503
 20
-123.9131944134662
 30
0.0
 10
89.92767196102503
 20
-123.9131944134662
 30
0.0
 10
89.92767196102503
 20
-123.7652275623747
 30
0.0
 10
89.92767196102503
 20
-123.7652275623747
 30
0.0
 10
90.2208495868198
 20
-123.7504136517881
 30
0.0
 10
90.26201847786852
 20
-123.5874606353358
 30
0.0
 10
90.28802894878217
 20
-123.4732557199997
 30
0.0
 10
90.28802894878217
 20
-123.4732557199997
 30
0.0
 10
90.41704777470477
 20
-123.4732557199997
 30
0.0
 10
90.41704777470477
 20
-123.4732557199997
 30
0.0
 10
90.41704777470477
 20
-123.4732557199997
 30
0.0
 10
90.41704777470477
 20
-125.017519771263
 30
0.0
 10
90.41704777470477
 20
-125.017519771263
 30
0.0
 10
90.41704777470477
 20
-125.017519771263
 30
0.0
 10
90.21895478430291
 20
-125.017519771263
 30
0.0
 10
90.21895478430291
 20
-125.017519771263
 30
0.0
  0
HATCH
  5
116
330
111
100
AcDbEntity
  8
_U+30EC_U+30A4_U+30E4_U+30FC 1
 62
   179
420
  2234388
100
AcDbHatch
 10
0.0
 20
0.0
 30
0.0
210
0.0
220
0.0
230
1.0
  2
SOLID
 70
     1
 71
     0
 91
        1
 92
        1
 93
        1
 72
     4
 94
        3
 73
     0
 74
     1
 95
       26
 96
       22
 40
0.0
 40
0.0
 40
0.0
 40
0.0
 40
1.0
 40
1.0
 40
1.0
 40
2.0
 40
2.0
 40
2.0
 40
3.0
 40
3.0
 40
3.0
 40
4.0
 40
4.0
 40
4.0
 40
5.0
 40
5.0
 40
5.0
 40
6.0
 40
6.0
 40
6.0
 40
7.0
 40
7.0
 40
7.0
 40
7.0
 10
90.21895478430291
 20
-125.017519771263
 10
90.21895478430291
 20
-125.017519771263
 10
90.21895478430291
 20
-123.9131944134662
 10
90.21895478430291
 20
-123.9131944134662
 10
90.21895478430291
 20
-123.9131944134662
 10
89.92767196102503
 20
-123.9131944134662
 10
89.92767196102503
 20
-123.9131944134662
 10
89.92767196102503
 20
-123.9131944134662
 10
89.92767196102503
 20
-123.7652275623747
 10
89.92767196102503
 20
-123.7652275623747
 10
90.2208495868198
 20
-123.7504136517881
 10
90.26201847786852
 20
-123.5874606353358
 10
90.28802894878217
 20
-123.4732557199997
 10
90.28802894878217
 20
-123.4732557199997
 10
90.41704777470477
 20
-123.4732557199997
 10
90.41704777470477
 20
-123.4732557199997
 10
90.41704777470477
 20
-123.4732557199997
 10
90.41704777470477
 20
-125.017519771263
 10
90.41704777470477
 20
-125.017519771263
 10
90.41704777470477
 20
-125.017519771263
 10
90.21895478430291
 20
-125.017519771263
 10
90.21895478430291
 20
-125.017519771263
 97
        0
 97
        0
 75
     2
 76
     1
 98
        0
  0
SPLINE
  5
117
330
111
100
AcDbEntity
  8
_U+30EC_U+30A4_U+30E4_U+30FC 1
370
     0
100
AcDbSpline
210
0.0
220
0.0
230
1.0
 70
    11
 71
     3
 72
    29
 73
    25
 74
     0
 42
0.0000000001
 43
0.0000000001
 12
1.0
 22
0.0
 32
0.0
 13
1.0
 23
0.0
 33
0.0
 40
0.0
 40
0.0
 40
0.0
 40
0.0
 40
1.0
 40
1.0
 40
1.0
 40
2.0
 40
2.0
 40
2.0
 40
3.0
 40
3.0
 40
3.0
 40
4.0
 40
4.0
 40
4.0
 40
5.0
 40
5.0
 40
5.0
 40
6.0
 40
6.0
 40
6.0
 40
7.0
 40
7.0
 40
7.0
 40
8.0
 40
8.0
 40
8.0
 40
8.0
 10
91.65263127048962
 20
-124.8397528442241
 30
0.0
 10
91.55754663509673
 20
-125.0492146497273
 30
0.0
 10
91.40423988600311
 20
-125.0683349296704
 30
0.0
 10
91.30174829531693
 20
-125.0683349296704
 30
0.0
 10
91.15963810655037
 20
-125.0683349296704
 30
0.0
 10
91.0345811404358
 20
-125.0218261406196
 30
0.0
 10
90.9505208105957
 20
-124.8397528442241
 30
0.0
 10
90.85905352546233
 20
-124.6451049493075
 30
0.0
 10
90.8421725575846
 20
-124.4082546346965
 30
0.0
 10
90.8421725575846
 20
-124.2453016182442
 30
0.0
 10
90.8421725575846
 20
-124.1014688817351
 30
0.0
 10
90.85715872294544
 20
-123.8498046565376
 30
0.0
 10
90.9505208105957
 20
-123.6508503922644
 30
0.0
 10
91.04577770076287
 20
-123.4477620134089
 30
0.0
 10
91.18771563475516
 20
-123.4245076188835
 30
0.0
 10
91.30174829531693
 20
-123.4245076188835
 30
0.0
 10
91.44179142679234
 20
-123.4245076188835
 30
0.0
 10
91.56857094064952
 20
-123.4689493506432
 30
0.0
 10
91.65263127048962
 20
-123.6508503922644
 30
0.0
 10
91.7404812053635
 20
-123.8434312298898
 30
0.0
 10
91.76115177827499
 20
-124.0718410605619
 30
0.0
 10
91.76115177827499
 20
-124.2453016182442
 30
0.0
 10
91.76115177827499
 20
-124.4166951186354
 30
0.0
 10
91.74254826265465
 20
-124.6473442613729
 30
0.0
 10
91.65263127048962
 20
-124.8397528442241
 30
0.0
  0
SPLINE
  5
118
330
111
100
AcDbEntity
  8
_U+30EC_U+30A4_U+30E4_U+30FC 1
370
     0
100
AcDbSpline
210
0.0
220
0.0
230
1.0
 70
    11
 71
     3
 72
    17
 73
    13
 74
     0
 42
0.0000000001
 43
0.0000000001
 12
1.0
 22
0.0
 32
0.0
 13
1.0
 23
0.0
 33
0.0
 40
0.0
 40
0.0
 40
0.0
 40
0.0
 40
1.0
 40
1.0
 40
1.0
 40
2.0
 40
2.0
 40
2.0
 40
3.0
 40
3.0
 40
3.0
 40
4.0
 40
4.0
 40
4.0
 40
4.0
 10
91.30174829531693
 20
-123.6170884565089
 30
0.0
 10
91.08126218426094
 20
-123.6170884565089
 30
0.0
 10
91.04009329321221
 20
-123.900619814945
 30
0.0
 10
91.04009329321221
 20
-124.2453016182442
 30
0.0
 10
91.04009329321221
 20
-124.5648342245012
 30
0.0
 10
91.07196042645076
 20
-124.8736870347538
 30
0.0
 10
91.30174829531693
 20
-124.8736870347538
 30
0.0
 10
91.5199950943075
 20
-124.8736870347538
 30
0.0
 10
91.56305878787313
 20
-124.5922227336089
 30
0.0
 10
91.56305878787313
 20
-124.2453016182442
 30
0.0
 10
91.56305878787313
 20
-123.9259412667616
 30
0.0
 10
91.52964136166621
 20
-123.6170884565089
 30
0.0
 10
91.30174829531693
 20
-123.6170884565089
 30
0.0
  0
HATCH
  5
119
330
111
100
AcDbEntity
  8
_U+30EC_U+30A4_U+30E4_U+30FC 1
 62
   179
420
  2234388
100
AcDbHatch
 10
0.0
 20
0.0
 30
0.0
210
0.0
220
0.0
230
1.0
  2
SOLID
 70
     1
 71
     0
 91
        2
 92
        1
 93
        1
 72
     4
 94
        3
 73
     0
 74
     1
 95
       29
 96
       25
 40
0.0
 40
0.0
 40
0.0
 40
0.0
 40
1.0
 40
1.0
 40
1.0
 40
2.0
 40
2.0
 40
2.0
 40
3.0
 40
3.0
 40
3.0
 40
4.0
 40
4.0
 40
4.0
 40
5.0
 40
5.0
 40
5.0
 40
6.0
 40
6.0
 40
6.0
 40
7.0
 40
7.0
 40
7.0
 40
8.0
 40
8.0
 40
8.0
 40
8.0
 10
91.65263127048962
 20
-124.8397528442241
 10
91.55754663509673
 20
-125.0492146497273
 10
91.40423988600311
 20
-125.0683349296704
 10
91.30174829531693
 20
-125.0683349296704
 10
91.15963810655037
 20
-125.0683349296704
 10
91.0345811404358
 20
-125.0218261406196
 10
90.9505208105957
 20
-124.8397528442241
 10
90.85905352546233
 20
-124.6451049493075
 10
90.8421725575846
 20
-124.4082546346965
 10
90.8421725575846
 20
-124.2453016182442
 10
90.8421725575846
 20
-124.1014688817351
 10
90.85715872294544
 20
-123.8498046565376
 10
90.9505208105957
 20
-123.6508503922644
 10
91.04577770076287
 20
-123.4477620134089
 10
91.18771563475516
 20
-123.4245076188835
 10
91.30174829531693
 20
-123.4245076188835
 10
91.44179142679234
 20
-123.4245076188835
 10
91.56857094064952
 20
-123.4689493506432
 10
91.65263127048962
 20
-123.6508503922644
 10
91.7404812053635
 20
-123.8434312298898
 10
91.76115177827499
 20
-124.0718410605619
 10
91.76115177827499
 20
-124.2453016182442
 10
91.76115177827499
 20
-124.4166951186354
 10
91.74254826265465
 20
-124.6473442613729
 10
91.65263127048962
 20
-124.8397528442241
 97
        0
 97
        0
 92
        1
 93
        1
 72
     4
 94
        3
 73
     0
 74
     1
 95
       17
 96
       13
 40
0.0
 40
0.0
 40
0.0
 40
0.0
 40
1.0
 40
1.0
 40
1.0
 40
2.0
 40
2.0
 40
2.0
 40
3.0
 40
3.0
 40
3.0
 40
4.0
 40
4.0
 40
4.0
 40
4.0
 10
91.30174829531693
 20
-123.6170884565089
 10
91.08126218426094
 20
-123.6170884565089
 10
91.04009329321221
 20
-123.900619814945
 10
91.04009329321221
 20
-124.2453016182442
 10
91.04009329321221
 20
-124.5648342245012
 10
91.07196042645076
 20
-124.8736870347538
 10
91.30174829531693
 20
-124.8736870347538
 10
91.5199950943075
 20
-124.8736870347538
 10
91.56305878787313
 20
-124.5922227336089
 10
91.56305878787313
 20
-124.2453016182442
 10
91.56305878787313
 20
-123.9259412667616
 10
91.52964136166621
 20
-123.6170884565089
 10
91.30174829531693
 20
-123.6170884565089
 97
        0
 97
        0
 75
     2
 76
     1
 98
        0
  0
ENDBLK
  5
114
330
111
100
AcDbEntity
  8
0
100
AcDbBlockEnd
  0
BLOCK
  5
11C
330
11A
100
AcDbEntity
  8
0
100
AcDbBlockBegin
  2
block 5
 70
     0
 10
0.0
 20
0.0
 30
0.0
  3
block 5
  1

  0
SPLINE
  5
11E
330
11A
100
AcDbEntity
  8
_U+30EC_U+30A4_U+30E4_U+30FC 1
370
     0
100
AcDbSpline
210
0.0
220
0.0
230
1.0
 70
    11
 71
     3
 72
    26
 73
    22
 74
     0
 42
0.0000000001
 43
0.0000000001
 12
1.0
 22
0.0
 32
0.0
 13
1.0
 23
0.0
 33
0.0
 40
0.0
 40
0.0
 40
0.0
 40
0.0
 40
1.0
 40
1.0
 40
1.0
 40
2.0
 40
2.0
 40
2.0
 40
3.0
 40
3.0
 40
3.0
 40
4.0
 40
4.0
 40
4.0
 40
5.0
 40
5.0
 40
5.0
 40
6.0
 40
6.0
 40
6.0
 40
7.0
 40
7.0
 40
7.0
 40
7.0
 10
95.29650876523837
 20
-105.782173638919
 30
0.0
 10
95.29650876523837
 20
-105.782173638919
 30
0.0
 10
95.29650876523837
 20
-104.6778482811222
 30
0.0
 10
95.29650876523837
 20
-104.6778482811222
 30
0.0
 10
95.29650876523837
 20
-104.6778482811222
 30
0.0
 10
95.00505368718625
 20
-104.6778482811222
 30
0.0
 10
95.00505368718625
 20
-104.6778482811222
 30
0.0
 10
95.00505368718625
 20
-104.6778482811222
 30
0.0
 10
95.00505368718625
 20
-104.5298814300307
 30
0.0
 10
95.00505368718625
 20
-104.5298814300307
 30
0.0
 10
95.298231312981
 20
-104.5150675194442
 30
0.0
 10
95.339572458804
 20
-104.3521145029918
 30
0.0
 10
95.36541067494338
 20
-104.2379095876558
 30
0.0
 10
95.36541067494338
 20
-104.2379095876558
 30
0.0
 10
95.49460175564025
 20
-104.2379095876558
 30
0.0
 10
95.49460175564025
 20
-104.2379095876558
 30
0.0
 10
95.49460175564025
 20
-104.2379095876558
 30
0.0
 10
95.49460175564025
 20
-105.782173638919
 30
0.0
 10
95.49460175564025
 20
-105.782173638919
 30
0.0
 10
95.49460175564025
 20
-105.782173638919
 30
0.0
 10
95.29650876523837
 20
-105.782173638919
 30
0.0
 10
95.29650876523837
 20
-105.782173638919
 30
0.0
  0
HATCH
  5
11F
330
11A
100
AcDbEntity
  8
_U+30EC_U+30A4_U+30E4_U+30FC 1
 62
   179
420
  2234388
100
AcDbHatch
 10
0.0
 20
0.0
 30
0.0
210
0.0
220
0.0
230
1.0
  2
SOLID
 70
     1
 71
     0
 91
        1
 92
        1
 93
        1
 72
     4
 94
        3
 73
     0
 74
     1
 95
       26
 96
       22
 40
0.0
 40
0.0
 40
0.0
 40
0.0
 40
1.0
 40
1.0
 40
1.0
 40
2.0
 40
2.0
 40
2.0
 40
3.0
 40
3.0
 40
3.0
 40
4.0
 40
4.0
 40
4.0
 40
5.0
 40
5.0
 40
5.0
 40
6.0
 40
6.0
 40
6.0
 40
7.0
 40
7.0
 40
7.0
 40
7.0
 10
95.29650876523837
 20
-105.782173638919
 10
95.29650876523837
 20
-105.782173638919
 10
95.29650876523837
 20
-104.6778482811222
 10
95.29650876523837
 20
-104.6778482811222
 10
95.29650876523837
 20
-104.6778482811222
 10
95.00505368718625
 20
-104.6778482811222
 10
95.00505368718625
 20
-104.6778482811222
 10
95.00505368718625
 20
-104.6778482811222
 10
95.00505368718625
 20
-104.5298814300307
 10
95.00505368718625
 20
-104.5298814300307
 10
95.298231312981
 20
-104.5150675194442
 10
95.339572458804
 20
-104.3521145029918
 10
95.36541067494338
 20
-104.2379095876558
 10
95.36541067494338
 20
-104.2379095876558
 10
95.49460175564025
 20
-104.2379095876558
 10
95.49460175564025
 20
-104.2379095876558
 10
95.49460175564025
 20
-104.2379095876558
 10
95.49460175564025
 20
-105.782173638919
 10
95.49460175564025
 20
-105.782173638919
 10
95.49460175564025
 20
-105.782173638919
 10
95.29650876523837
 20
-105.782173638919
 10
95.29650876523837
 20
-105.782173638919
 97
        0
 97
        0
 75
     2
 76
     1
 98
        0
  0
POLYLINE
  5
120
330
11A
100
AcDbEntity
  8
_U+30EC_U+30A4_U+30E4_U+30FC 1
370
     0
100
AcDb2dPolyline
 66
     1
 10
0.0
 20
0.0
 30
0.0
  0
VERTEX
  5
121
330
120
100
AcDbEntity
  8
_U+30EC_U+30A4_U+30E4_U+30FC 1
370
     0
100
AcDbVertex
100
AcDb2dVertex
 10
95.99069550551621
 20
-105.782173638919
 30
0.0
  0
VERTEX
  5
122
330
120
100
AcDbEntity
  8
_U+30EC_U+30A4_U+30E4_U+30FC 1
370
     0
100
AcDbVertex
100
AcDb2dVertex
 10
95.99069550551621
 20
-105.5305094137215
 30
0.0
  0
VERTEX
  5
123
330
120
100
AcDbEntity
  8
_U+30EC_U+30A4_U+30E4_U+30FC 1
370
     0
100
AcDbVertex
100
AcDb2dVertex
 10
96.21290416431484
 20
-105.5305094137215
 30
0.0
  0
VERTEX
  5
124
330
120
100
AcDbEntity
  8
_U+30EC_U+30A4_U+30E4_U+30FC 1
370
     0
100
AcDbVertex
100
AcDb2dVertex
 10
96.21290416431484
 20
-105.782173638919
 30
0.0
  0
VERTEX
  5
125
330
120
100
AcDbEntity
  8
_U+30EC_U+30A4_U+30E4_U+30FC 1
370
     0
100
AcDbVertex
100
AcDb2dVertex
 10
95.99069550551621
 20
-105.782173638919
 30
0.0
  0
SEQEND
  5
126
330
120
100
AcDbEntity
  8
_U+30EC_U+30A4_U+30E4_U+30FC 1
370
     0
  0
HATCH
  5
127
330
11A
100
AcDbEntity
  8
_U+30EC_U+30A4_U+30E4_U+30FC 1
 62
   179
420
  2234388
100
AcDbHatch
 10
0.0
 20
0.0
 30
0.0
210
0.0
220
0.0
230
1.0
  2
SOLID
 70
     1
 71
     0
 91
        1
 92
        1
 93
        4
 72
     1
 10
95.99069550551621
 20
-105.782173638919
 11
95.99069550551621
 21
-105.5305094137215
 72
     1
 10
95.99069550551621
 20
-105.5305094137215
 11
96.21290416431484
 21
-105.5305094137215
 72
     1
 10
96.21290416431484
 20
-105.5305094137215
 11
96.21290416431484
 21
-105.782173638919
 72
     1
 10
96.21290416431484
 20
-105.782173638919
 11
95.99069550551621
 21
-105.782173638919
 97
        0
 75
     2
 76
     1
 98
        0
  0
SPLINE
  5
128
330
11A
100
AcDbEntity
  8
_U+30EC_U+30A4_U+30E4_U+30FC 1
370
     0
100
AcDbSpline
210
0.0
220
0.0
230
1.0
 70
    11
 71
     3
 72
    44
 73
    40
 74
     0
 42
0.0000000001
 43
0.0000000001
 12
1.0
 22
0.0
 32
0.0
 13
1.0
 23
0.0
 33
0.0
 40
0.0
 40
0.0
 40
0.0
 40
0.0
 40
1.0
 40
1.0
 40
1.0
 40
2.0
 40
2.0
 40
2.0
 40
3.0
 40
3.0
 40
3.0
 40
4.0
 40
4.0
 40
4.0
 40
5.0
 40
5.0
 40
5.0
 40
6.0
 40
6.0
 40
6.0
 40
7.0
 40
7.0
 40
7.0
 40
8.0
 40
8.0
 40
8.0
 40
9.0
 40
9.0
 40
9.0
 40
10.0
 40
10.0
 40
10.0
 40
11.0
 40
11.0
 40
11.0
 40
12.0
 40
12.0
 40
12.0
 40
13.0
 40
13.0
 40
13.0
 40
13.0
 10
96.94567597402748
 20
-105.2004692662346
 30
0.0
 10
96.75343964595054
 20
-105.3591159133304
 30
0.0
 10
96.67110186385307
 20
-105.4331854662632
 30
0.0
 10
96.62803817028744
 20
-105.5770182027724
 30
0.0
 10
96.62803817028744
 20
-105.5770182027724
 30
0.0
 10
97.31567922914331
 20
-105.5770182027724
 30
0.0
 10
97.31567922914331
 20
-105.5770182027724
 30
0.0
 10
97.31567922914331
 20
-105.5770182027724
 30
0.0
 10
97.31567922914331
 20
-105.782173638919
 30
0.0
 10
97.31567922914331
 20
-105.782173638919
 30
0.0
 10
97.31567922914331
 20
-105.782173638919
 30
0.0
 10
96.40789656877998
 20
-105.782173638919
 30
0.0
 10
96.40789656877998
 20
-105.782173638919
 30
0.0
 10
96.4358018422105
 20
-105.4245727275501
 30
0.0
 10
96.49367944636269
 20
-105.3463690600349
 30
0.0
 10
96.83371037075686
 20
-105.0480237910123
 30
0.0
 10
97.05970863458924
 20
-104.8492417815134
 30
0.0
 10
97.11758623874144
 20
-104.7815456552282
 30
0.0
 10
97.11758623874144
 20
-104.6440863453668
 30
0.0
 10
97.11758623874144
 20
-104.5255750606742
 30
0.0
 10
97.05419648181284
 20
-104.3944891774604
 30
0.0
 10
96.88021915980772
 20
-104.3944891774604
 30
0.0
 10
96.65043129094157
 20
-104.3944891774604
 30
0.0
 10
96.64319659042253
 20
-104.6249660654236
 30
0.0
 10
96.63940698538876
 20
-104.7414102928251
 30
0.0
 10
96.63940698538876
 20
-104.7414102928251
 30
0.0
 10
96.4413139949869
 20
-104.7414102928251
 30
0.0
 10
96.4413139949869
 20
-104.7414102928251
 30
0.0
 10
96.44889320505445
 20
-104.6144585241936
 30
0.0
 10
96.45819496286462
 20
-104.5023206661487
 30
0.0
 10
96.52916392986077
 20
-104.3838093814561
 30
0.0
 10
96.62631562254481
 20
-104.2230956770692
 30
0.0
 10
96.79064667719123
 20
-104.1891614865395
 30
0.0
 10
96.89331052265167
 20
-104.1891614865395
 30
0.0
 10
97.13825681165294
 20
-104.1891614865395
 30
0.0
 10
97.3211913819197
 20
-104.3733018402261
 30
0.0
 10
97.3211913819197
 20
-104.6461534026579
 30
0.0
 10
97.3211913819197
 20
-104.87456323333
 30
0.0
 10
97.21852753645926
 20
-104.9741264928537
 30
0.0
 10
96.94567597402748
 20
-105.2004692662346
 30
0.0
  0
HATCH
  5
129
330
11A
100
AcDbEntity
  8
_U+30EC_U+30A4_U+30E4_U+30FC 1
 62
   179
420
  2234388
100
AcDbHatch
 10
0.0
 20
0.0
 30
0.0
210
0.0
220
0.0
230
1.0
  2
SOLID
 70
     1
 71
     0
 91
        1
 92
        1
 93
        1
 72
     4
 94
        3
 73
     0
 74
     1
 95
       44
 96
       40
 40
0.0
 40
0.0
 40
0.0
 40
0.0
 40
1.0
 40
1.0
 40
1.0
 40
2.0
 40
2.0
 40
2.0
 40
3.0
 40
3.0
 40
3.0
 40
4.0
 40
4.0
 40
4.0
 40
5.0
 40
5.0
 40
5.0
 40
6.0
 40
6.0
 40
6.0
 40
7.0
 40
7.0
 40
7.0
 40
8.0
 40
8.0
 40
8.0
 40
9.0
 40
9.0
 40
9.0
 40
10.0
 40
10.0
 40
10.0
 40
11.0
 40
11.0
 40
11.0
 40
12.0
 40
12.0
 40
12.0
 40
13.0
 40
13.0
 40
13.0
 40
13.0
 10
96.94567597402748
 20
-105.2004692662346
 10
96.75343964595054
 20
-105.3591159133304
 10
96.67110186385307
 20
-105.4331854662632
 10
96.62803817028744
 20
-105.5770182027724
 10
96.62803817028744
 20
-105.5770182027724
 10
97.31567922914331
 20
-105.5770182027724
 10
97.31567922914331
 20
-105.5770182027724
 10
97.31567922914331
 20
-105.5770182027724
 10
97.31567922914331
 20
-105.782173638919
 10
97.31567922914331
 20
-105.782173638919
 10
97.31567922914331
 20
-105.782173638919
 10
96.40789656877998
 20
-105.782173638919
 10
96.40789656877998
 20
-105.782173638919
 10
96.4358018422105
 20
-105.4245727275501
 10
96.49367944636269
 20
-105.3463690600349
 10
96.83371037075686
 20
-105.0480237910123
 10
97.05970863458924
 20
-104.8492417815134
 10
97.11758623874144
 20
-104.7815456552282
 10
97.11758623874144
 20
-104.6440863453668
 10
97.11758623874144
 20
-104.5255750606742
 10
97.05419648181284
 20
-104.3944891774604
 10
96.88021915980772
 20
-104.3944891774604
 10
96.65043129094157
 20
-104.3944891774604
 10
96.64319659042253
 20
-104.6249660654236
 10
96.63940698538876
 20
-104.7414102928251
 10
96.63940698538876
 20
-104.7414102928251
 10
96.4413139949869
 20
-104.7414102928251
 10
96.4413139949869
 20
-104.7414102928251
 10
96.44889320505445
 20
-104.6144585241936
 10
96.45819496286462
 20
-104.5023206661487
 10
96.52916392986077
 20
-104.3838093814561
 10
96.62631562254481
 20
-104.2230956770692
 10
96.79064667719123
 20
-104.1891614865395
 10
96.89331052265167
 20
-104.1891614865395
 10
97.13825681165294
 20
-104.1891614865395
 10
97.3211913819197
 20
-104.3733018402261
 10
97.3211913819197
 20
-104.6461534026579
 10
97.3211913819197
 20
-104.87456323333
 10
97.21852753645926
 20
-104.9741264928537
 10
96.94567597402748
 20
-105.2004692662346
 97
        0
 97
        0
 75
     2
 76
     1
 98
        0
  0
ENDBLK
  5
11D
330
11A
100
AcDbEntity
  8
0
100
AcDbBlockEnd
  0
BLOCK
  5
12C
330
12A
100
AcDbEntity
  8
0
100
AcDbBlockBegin
  2
block 6
 70
     0
 10
0.0
 20
0.0
 30
0.0
  3
block 6
  1

  0
SPLINE
  5
12E
330
12A
100
AcDbEntity
  8
_U+30EC_U+30A4_U+30E4_U+30FC 1
370
     0
100
AcDbSpline
210
0.0
220
0.0
230
1.0
 70
    11
 71
     3
 72
    62
 73
    58
 74
     0
 42
0.0000000001
 43
0.0000000001
 12
1.0
 22
0.0
 32
0.0
 13
1.0
 23
0.0
 33
0.0
 40
0.0
 40
0.0
 40
0.0
 40
0.0
 40
1.0
 40
1.0
 40
1.0
 40
2.0
 40
2.0
 40
2.0
 40
3.0
 40
3.0
 40
3.0
 40
4.0
 40
4.0
 40
4.0
 40
5.0
 40
5.0
 40
5.0
 40
6.0
 40
6.0
 40
6.0
 40
7.0
 40
7.0
 40
7.0
 40
8.0
 40
8.0
 40
8.0
 40
9.0
 40
9.0
 40
9.0
 40
10.0
 40
10.0
 40
10.0
 40
11.0
 40
11.0
 40
11.0
 40
12.0
 40
12.0
 40
12.0
 40
13.0
 40
13.0
 40
13.0
 40
14.0
 40
14.0
 40
14.0
 40
15.0
 40
15.0
 40
15.0
 40
16.0
 40
16.0
 40
16.0
 40
17.0
 40
17.0
 40
17.0
 40
18.0
 40
18.0
 40
18.0
 40
19.0
 40
19.0
 40
19.0
 40
19.0
 10
103.2147162285366
 20
-147.4049560178363
 30
0.0
 10
103.2147162285366
 20
-147.4890163476764
 30
0.0
 10
103.1937011460766
 20
-147.6815971853018
 30
0.0
 10
103.0076659898731
 20
-147.7918402408298
 30
0.0
 10
102.8953558770539
 20
-147.8572970550496
 30
0.0
 10
102.7961371270788
 20
-147.8607421505348
 30
0.0
 10
102.7113877781416
 20
-147.8645317555686
 30
0.0
 10
102.7113877781416
 20
-147.8645317555686
 30
0.0
 10
102.7113877781416
 20
-147.6702283702005
 30
0.0
 10
102.7113877781416
 20
-147.6702283702005
 30
0.0
 10
102.7854573310745
 20
-147.6685058224579
 30
0.0
 10
103.02006833362
 20
-147.6592040646477
 30
0.0
 10
103.02006833362
 20
-147.40874562287
 30
0.0
 10
103.02006833362
 20
-147.2874782617893
 30
0.0
 10
102.9504774048179
 20
-147.152775028316
 30
0.0
 10
102.7220675741459
 20
-147.152775028316
 30
0.0
 10
102.6056233467444
 20
-147.152775028316
 30
0.0
 10
102.5570475004024
 20
-147.1865369640714
 30
0.0
 10
102.5253526219381
 20
-147.2144422375019
 30
0.0
 10
102.4512830690052
 20
-147.2798990517217
 30
0.0
 10
102.4385362157098
 20
-147.3825628971821
 30
0.0
 10
102.4385362157098
 20
-147.4311387435242
 30
0.0
 10
102.4385362157098
 20
-147.4480197114019
 30
0.0
 10
102.440603273001
 20
-147.4797145898662
 30
0.0
 10
102.4447373875833
 20
-147.5041747678115
 30
0.0
 10
102.4447373875833
 20
-147.5041747678115
 30
0.0
 10
102.2500894926666
 20
-147.5041747678115
 30
0.0
 10
102.2500894926666
 20
-147.5041747678115
 30
0.0
 10
102.2566351740886
 20
-147.470412832056
 30
0.0
 10
102.2587022313798
 20
-147.4332058008153
 30
0.0
 10
102.2587022313798
 20
-147.4273491384904
 30
0.0
 10
102.2587022313798
 20
-147.3694715343382
 30
0.0
 10
102.2373426393712
 20
-147.194116174139
 30
0.0
 10
102.0006645795346
 20
-147.194116174139
 30
0.0
 10
101.8228976524957
 20
-147.194116174139
 30
0.0
 10
101.7677761247317
 20
-147.3098713824434
 30
0.0
 10
101.7677761247317
 20
-147.4070230751274
 30
0.0
 10
101.7677761247317
 20
-147.6406005490274
 30
0.0
 10
102.0006645795346
 20
-147.6478352495464
 30
0.0
 10
102.0723225656278
 20
-147.6516248545801
 30
0.0
 10
102.0723225656278
 20
-147.6516248545801
 30
0.0
 10
102.0723225656278
 20
-147.8311143293617
 30
0.0
 10
102.0723225656278
 20
-147.8311143293617
 30
0.0
 10
101.9476101090617
 20
-147.8235351192941
 30
0.0
 10
101.5710611725239
 20
-147.7990749413489
 30
0.0
 10
101.5710611725239
 20
-147.3956542600261
 30
0.0
 10
101.5710611725239
 20
-147.1979057791727
 30
0.0
 10
101.6981851959296
 20
-146.9846543686358
 30
0.0
 10
101.9941188981126
 20
-146.9846543686358
 30
0.0
 10
102.1804985638646
 20
-146.9846543686358
 30
0.0
 10
102.2628363459621
 20
-147.0687146984759
 30
0.0
 10
102.3241590455995
 20
-147.1565646333497
 30
0.0
 10
102.3517198094815
 20
-147.1024766342313
 30
0.0
 10
102.4319905342878
 20
-146.9419351846187
 30
0.0
 10
102.7093207208505
 20
-146.9419351846187
 30
0.0
 10
103.047629097502
 20
-146.9419351846187
 30
0.0
 10
103.2147162285366
 20
-147.1603542383835
 30
0.0
 10
103.2147162285366
 20
-147.4049560178363
 30
0.0
  0
HATCH
  5
12F
330
12A
100
AcDbEntity
  8
_U+30EC_U+30A4_U+30E4_U+30FC 1
 62
   179
420
  2234388
100
AcDbHatch
 10
0.0
 20
0.0
 30
0.0
210
0.0
220
0.0
230
1.0
  2
SOLID
 70
     1
 71
     0
 91
        1
 92
        1
 93
        1
 72
     4
 94
        3
 73
     0
 74
     1
 95
       62
 96
       58
 40
0.0
 40
0.0
 40
0.0
 40
0.0
 40
1.0
 40
1.0
 40
1.0
 40
2.0
 40
2.0
 40
2.0
 40
3.0
 40
3.0
 40
3.0
 40
4.0
 40
4.0
 40
4.0
 40
5.0
 40
5.0
 40
5.0
 40
6.0
 40
6.0
 40
6.0
 40
7.0
 40
7.0
 40
7.0
 40
8.0
 40
8.0
 40
8.0
 40
9.0
 40
9.0
 40
9.0
 40
10.0
 40
10.0
 40
10.0
 40
11.0
 40
11.0
 40
11.0
 40
12.0
 40
12.0
 40
12.0
 40
13.0
 40
13.0
 40
13.0
 40
14.0
 40
14.0
 40
14.0
 40
15.0
 40
15.0
 40
15.0
 40
16.0
 40
16.0
 40
16.0
 40
17.0
 40
17.0
 40
17.0
 40
18.0
 40
18.0
 40
18.0
 40
19.0
 40
19.0
 40
19.0
 40
19.0
 10
103.2147162285366
 20
-147.4049560178363
 10
103.2147162285366
 20
-147.4890163476764
 10
103.1937011460766
 20
-147.6815971853018
 10
103.0076659898731
 20
-147.7918402408298
 10
102.8953558770539
 20
-147.8572970550496
 10
102.7961371270788
 20
-147.8607421505348
 10
102.7113877781416
 20
-147.8645317555686
 10
102.7113877781416
 20
-147.8645317555686
 10
102.7113877781416
 20
-147.6702283702005
 10
102.7113877781416
 20
-147.6702283702005
 10
102.7854573310745
 20
-147.6685058224579
 10
103.02006833362
 20
-147.6592040646477
 10
103.02006833362
 20
-147.40874562287
 10
103.02006833362
 20
-147.2874782617893
 10
102.9504774048179
 20
-147.152775028316
 10
102.7220675741459
 20
-147.152775028316
 10
102.6056233467444
 20
-147.152775028316
 10
102.5570475004024
 20
-147.1865369640714
 10
102.5253526219381
 20
-147.2144422375019
 10
102.4512830690052
 20
-147.2798990517217
 10
102.4385362157098
 20
-147.3825628971821
 10
102.4385362157098
 20
-147.4311387435242
 10
102.4385362157098
 20
-147.4480197114019
 10
102.440603273001
 20
-147.4797145898662
 10
102.4447373875833
 20
-147.5041747678115
 10
102.4447373875833
 20
-147.5041747678115
 10
102.2500894926666
 20
-147.5041747678115
 10
102.2500894926666
 20
-147.5041747678115
 10
102.2566351740886
 20
-147.470412832056
 10
102.2587022313798
 20
-147.4332058008153
 10
102.2587022313798
 20
-147.4273491384904
 10
102.2587022313798
 20
-147.3694715343382
 10
102.2373426393712
 20
-147.194116174139
 10
102.0006645795346
 20
-147.194116174139
 10
101.8228976524957
 20
-147.194116174139
 10
101.7677761247317
 20
-147.3098713824434
 10
101.7677761247317
 20
-147.4070230751274
 10
101.7677761247317
 20
-147.6406005490274
 10
102.0006645795346
 20
-147.6478352495464
 10
102.0723225656278
 20
-147.6516248545801
 10
102.0723225656278
 20
-147.6516248545801
 10
102.0723225656278
 20
-147.8311143293617
 10
102.0723225656278
 20
-147.8311143293617
 10
101.9476101090617
 20
-147.8235351192941
 10
101.5710611725239
 20
-147.7990749413489
 10
101.5710611725239
 20
-147.3956542600261
 10
101.5710611725239
 20
-147.1979057791727
 10
101.6981851959296
 20
-146.9846543686358
 10
101.9941188981126
 20
-146.9846543686358
 10
102.1804985638646
 20
-146.9846543686358
 10
102.2628363459621
 20
-147.0687146984759
 10
102.3241590455995
 20
-147.1565646333497
 10
102.3517198094815
 20
-147.1024766342313
 10
102.4319905342878
 20
-146.9419351846187
 10
102.7093207208505
 20
-146.9419351846187
 10
103.047629097502
 20
-146.9419351846187
 10
103.2147162285366
 20
-147.1603542383835
 10
103.2147162285366
 20
-147.4049560178363
 97
        0
 97
        0
 75
     2
 76
     1
 98
        0
  0
ENDBLK
  5
12D
330
12A
100
AcDbEntity
  8
0
100
AcDbBlockEnd
  0
BLOCK
  5
132
330
130
100
AcDbEntity
  8
0
100
AcDbBlockBegin
  2
block 7
 70
     0
 10
0.0
 20
0.0
 30
0.0
  3
block 7
  1

  0
SPLINE
  5
134
330
130
100
AcDbEntity
  8
_U+30EC_U+30A4_U+30E4_U+30FC 1
370
     0
100
AcDbSpline
210
0.0
220
0.0
230
1.0
 70
    11
 71
     3
 72
    26
 73
    22
 74
     0
 42
0.0000000001
 43
0.0000000001
 12
1.0
 22
0.0
 32
0.0
 13
1.0
 23
0.0
 33
0.0
 40
0.0
 40
0.0
 40
0.0
 40
0.0
 40
1.0
 40
1.0
 40
1.0
 40
2.0
 40
2.0
 40
2.0
 40
3.0
 40
3.0
 40
3.0
 40
4.0
 40
4.0
 40
4.0
 40
5.0
 40
5.0
 40
5.0
 40
6.0
 40
6.0
 40
6.0
 40
7.0
 40
7.0
 40
7.0
 40
7.0
 10
80.06815319178853
 20
-139.9604491837599
 30
0.0
 10
80.06815319178853
 20
-139.9604491837599
 30
0.0
 10
78.96400008876594
 20
-139.9604491837599
 30
0.0
 10
78.96400008876594
 20
-139.9604491837599
 30
0.0
 10
78.96400008876594
 20
-139.9604491837599
 30
0.0
 10
78.96400008876594
 20
-140.251904261812
 30
0.0
 10
78.96400008876594
 20
-140.251904261812
 30
0.0
 10
78.96400008876594
 20
-140.251904261812
 30
0.0
 10
78.8158609829002
 20
-140.251904261812
 30
0.0
 10
78.8158609829002
 20
-140.251904261812
 30
0.0
 10
78.80104707231364
 20
-139.9587266360173
 30
0.0
 10
78.63809405586132
 20
-139.9177299997428
 30
0.0
 10
78.52371688575101
 20
-139.8915472740549
 30
0.0
 10
78.52371688575101
 20
-139.8915472740549
 30
0.0
 10
78.52371688575101
 20
-139.7627007029066
 30
0.0
 10
78.52371688575101
 20
-139.7627007029066
 30
0.0
 10
78.52371688575101
 20
-139.7627007029066
 30
0.0
 10
80.06815319178853
 20
-139.7627007029066
 30
0.0
 10
80.06815319178853
 20
-139.7627007029066
 30
0.0
 10
80.06815319178853
 20
-139.7627007029066
 30
0.0
 10
80.06815319178853
 20
-139.9604491837599
 30
0.0
 10
80.06815319178853
 20
-139.9604491837599
 30
0.0
  0
HATCH
  5
135
330
130
100
AcDbEntity
  8
_U+30EC_U+30A4_U+30E4_U+30FC 1
 62
   179
420
  2234388
100
AcDbHatch
 10
0.0
 20
0.0
 30
0.0
210
0.0
220
0.0
230
1.0
  2
SOLID
 70
     1
 71
     0
 91
        1
 92
        1
 93
        1
 72
     4
 94
        3
 73
     0
 74
     1
 95
       26
 96
       22
 40
0.0
 40
0.0
 40
0.0
 40
0.0
 40
1.0
 40
1.0
 40
1.0
 40
2.0
 40
2.0
 40
2.0
 40
3.0
 40
3.0
 40
3.0
 40
4.0
 40
4.0
 40
4.0
 40
5.0
 40
5.0
 40
5.0
 40
6.0
 40
6.0
 40
6.0
 40
7.0
 40
7.0
 40
7.0
 40
7.0
 10
80.06815319178853
 20
-139.9604491837599
 10
80.06815319178853
 20
-139.9604491837599
 10
78.96400008876594
 20
-139.9604491837599
 10
78.96400008876594
 20
-139.9604491837599
 10
78.96400008876594
 20
-139.9604491837599
 10
78.96400008876594
 20
-140.251904261812
 10
78.96400008876594
 20
-140.251904261812
 10
78.96400008876594
 20
-140.251904261812
 10
78.8158609829002
 20
-140.251904261812
 10
78.8158609829002
 20
-140.251904261812
 10
78.80104707231364
 20
-139.9587266360173
 10
78.63809405586132
 20
-139.9177299997428
 10
78.52371688575101
 20
-139.8915472740549
 10
78.52371688575101
 20
-139.8915472740549
 10
78.52371688575101
 20
-139.7627007029066
 10
78.52371688575101
 20
-139.7627007029066
 10
78.52371688575101
 20
-139.7627007029066
 10
80.06815319178853
 20
-139.7627007029066
 10
80.06815319178853
 20
-139.7627007029066
 10
80.06815319178853
 20
-139.7627007029066
 10
80.06815319178853
 20
-139.9604491837599
 10
80.06815319178853
 20
-139.9604491837599
 97
        0
 97
        0
 75
     2
 76
     1
 98
        0
  0
SPLINE
  5
136
330
130
100
AcDbEntity
  8
_U+30EC_U+30A4_U+30E4_U+30FC 1
370
     0
100
AcDbSpline
210
0.0
220
0.0
230
1.0
 70
    11
 71
     3
 72
    32
 73
    28
 74
     0
 42
0.0000000001
 43
0.0000000001
 12
1.0
 22
0.0
 32
0.0
 13
1.0
 23
0.0
 33
0.0
 40
0.0
 40
0.0
 40
0.0
 40
0.0
 40
1.0
 40
1.0
 40
1.0
 40
2.0
 40
2.0
 40
2.0
 40
3.0
 40
3.0
 40
3.0
 40
4.0
 40
4.0
 40
4.0
 40
5.0
 40
5.0
 40
5.0
 40
6.0
 40
6.0
 40
6.0
 40
7.0
 40
7.0
 40
7.0
 40
8.0
 40
8.0
 40
8.0
 40
9.0
 40
9.0
 40
9.0
 40
9.0
 10
80.1187960954217
 20
-138.9152072135351
 30
0.0
 10
80.1187960954217
 20
-139.0685139626287
 30
0.0
 10
80.04920516661964
 20
-139.2852104686509
 30
0.0
 10
79.71709796184156
 20
-139.3186278948579
 30
0.0
 10
79.71709796184156
 20
-139.3186278948579
 30
0.0
 10
79.71709796184156
 20
-139.1301811718147
 30
0.0
 10
79.71709796184156
 20
-139.1301811718147
 30
0.0
 10
79.77635360418786
 20
-139.1208794140045
 30
0.0
 10
79.92414820050507
 20
-139.0926296310255
 30
0.0
 10
79.92414820050507
 20
-138.9134846657925
 30
0.0
 10
79.92414820050507
 20
-138.6557915234958
 30
0.0
 10
79.59445256256667
 20
-138.6220295877403
 30
0.0
 10
79.38912487164578
 20
-138.610660772639
 30
0.0
 10
79.4693955964521
 20
-138.6912760069939
 30
0.0
 10
79.52658418150725
 20
-138.7508761588887
 30
0.0
 10
79.52658418150725
 20
-138.9114176085013
 30
0.0
 10
79.52658418150725
 20
-139.0702365103713
 30
0.0
 10
79.42081975011007
 20
-139.3375759200267
 30
0.0
 10
79.01464299239912
 20
-139.3375759200267
 30
0.0
 10
78.69528264091646
 20
-139.3375759200267
 30
0.0
 10
78.475141039409
 20
-139.161876050279
 30
0.0
 10
78.475141039409
 20
-138.8817897873282
 30
0.0
 10
78.475141039409
 20
-138.4277262023722
 30
0.0
 10
79.0294569029857
 20
-138.4184244445621
 30
0.0
 10
79.24305282307118
 20
-138.4184244445621
 30
0.0
 10
79.4735297110344
 20
-138.4184244445621
 30
0.0
 10
80.1187960954217
 20
-138.4353054124398
 30
0.0
 10
80.1187960954217
 20
-138.9152072135351
 30
0.0
  0
SPLINE
  5
137
330
130
100
AcDbEntity
  8
_U+30EC_U+30A4_U+30E4_U+30FC 1
370
     0
100
AcDbSpline
210
0.0
220
0.0
230
1.0
 70
    11
 71
     3
 72
    17
 73
    13
 74
     0
 42
0.0000000001
 43
0.0000000001
 12
1.0
 22
0.0
 32
0.0
 13
1.0
 23
0.0
 33
0.0
 40
0.0
 40
0.0
 40
0.0
 40
0.0
 40
1.0
 40
1.0
 40
1.0
 40
2.0
 40
2.0
 40
2.0
 40
3.0
 40
3.0
 40
3.0
 40
4.0
 40
4.0
 40
4.0
 40
4.0
 10
78.66772187703447
 20
-138.879722730037
 30
0.0
 10
78.66772187703447
 20
-138.9844536327886
 30
0.0
 10
78.72491046208961
 20
-139.1394829296248
 30
0.0
 10
79.01050887781682
 20
-139.1394829296248
 30
0.0
 10
79.23685165119774
 20
-139.1394829296248
 30
0.0
 10
79.33193628659063
 20
-139.0161485112529
 30
0.0
 10
79.33193628659063
 20
-138.8966036979147
 30
0.0
 10
79.33193628659063
 20
-138.665093281306
 30
0.0
 10
79.12247448108744
 20
-138.6313313455505
 30
0.0
 10
79.00603025368599
 20
-138.6313313455505
 30
0.0
 10
78.83067489348677
 20
-138.6313313455505
 30
0.0
 10
78.66772187703447
 20
-138.7153916753906
 30
0.0
 10
78.66772187703447
 20
-138.879722730037
 30
0.0
  0
HATCH
  5
138
330
130
100
AcDbEntity
  8
_U+30EC_U+30A4_U+30E4_U+30FC 1
 62
   179
420
  2234388
100
AcDbHatch
 10
0.0
 20
0.0
 30
0.0
210
0.0
220
0.0
230
1.0
  2
SOLID
 70
     1
 71
     0
 91
        2
 92
        1
 93
        1
 72
     4
 94
        3
 73
     0
 74
     1
 95
       32
 96
       28
 40
0.0
 40
0.0
 40
0.0
 40
0.0
 40
1.0
 40
1.0
 40
1.0
 40
2.0
 40
2.0
 40
2.0
 40
3.0
 40
3.0
 40
3.0
 40
4.0
 40
4.0
 40
4.0
 40
5.0
 40
5.0
 40
5.0
 40
6.0
 40
6.0
 40
6.0
 40
7.0
 40
7.0
 40
7.0
 40
8.0
 40
8.0
 40
8.0
 40
9.0
 40
9.0
 40
9.0
 40
9.0
 10
80.1187960954217
 20
-138.9152072135351
 10
80.1187960954217
 20
-139.0685139626287
 10
80.04920516661964
 20
-139.2852104686509
 10
79.71709796184156
 20
-139.3186278948579
 10
79.71709796184156
 20
-139.3186278948579
 10
79.71709796184156
 20
-139.1301811718147
 10
79.71709796184156
 20
-139.1301811718147
 10
79.77635360418786
 20
-139.1208794140045
 10
79.92414820050507
 20
-139.0926296310255
 10
79.92414820050507
 20
-138.9134846657925
 10
79.92414820050507
 20
-138.6557915234958
 10
79.59445256256667
 20
-138.6220295877403
 10
79.38912487164578
 20
-138.610660772639
 10
79.4693955964521
 20
-138.6912760069939
 10
79.52658418150725
 20
-138.7508761588887
 10
79.52658418150725
 20
-138.9114176085013
 10
79.52658418150725
 20
-139.0702365103713
 10
79.42081975011007
 20
-139.3375759200267
 10
79.01464299239912
 20
-139.3375759200267
 10
78.69528264091646
 20
-139.3375759200267
 10
78.475141039409
 20
-139.161876050279
 10
78.475141039409
 20
-138.8817897873282
 10
78.475141039409
 20
-138.4277262023722
 10
79.0294569029857
 20
-138.4184244445621
 10
79.24305282307118
 20
-138.4184244445621
 10
79.4735297110344
 20
-138.4184244445621
 10
80.1187960954217
 20
-138.4353054124398
 10
80.1187960954217
 20
-138.9152072135351
 97
        0
 97
        0
 92
        1
 93
        1
 72
     4
 94
        3
 73
     0
 74
     1
 95
       17
 96
       13
 40
0.0
 40
0.0
 40
0.0
 40
0.0
 40
1.0
 40
1.0
 40
1.0
 40
2.0
 40
2.0
 40
2.0
 40
3.0
 40
3.0
 40
3.0
 40
4.0
 40
4.0
 40
4.0
 40
4.0
 10
78.66772187703447
 20
-138.879722730037
 10
78.66772187703447
 20
-138.9844536327886
 10
78.72491046208961
 20
-139.1394829296248
 10
79.01050887781682
 20
-139.1394829296248
 10
79.23685165119774
 20
-139.1394829296248
 10
79.33193628659063
 20
-139.0161485112529
 10
79.33193628659063
 20
-138.8966036979147
 10
79.33193628659063
 20
-138.665093281306
 10
79.12247448108744
 20
-138.6313313455505
 10
79.00603025368599
 20
-138.6313313455505
 10
78.83067489348677
 20
-138.6313313455505
 10
78.66772187703447
 20
-138.7153916753906
 10
78.66772187703447
 20
-138.879722730037
 97
        0
 97
        0
 75
     2
 76
     1
 98
        0
  0
ENDBLK
  5
133
330
130
100
AcDbEntity
  8
0
100
AcDbBlockEnd
  0
BLOCK
  5
13B
330
139
100
AcDbEntity
  8
0
100
AcDbBlockBegin
  2
block 8
 70
     0
 10
0.0
 20
0.0
 30
0.0
  3
block 8
  1

  0
SPLINE
  5
13D
330
139
100
AcDbEntity
  8
_U+30EC_U+30A4_U+30E4_U+30FC 1
370
     0
100
AcDbSpline
210
0.0
220
0.0
230
1.0
 70
    11
 71
     3
 72
    26
 73
    22
 74
     0
 42
0.0000000001
 43
0.0000000001
 12
1.0
 22
0.0
 32
0.0
 13
1.0
 23
0.0
 33
0.0
 40
0.0
 40
0.0
 40
0.0
 40
0.0
 40
1.0
 40
1.0
 40
1.0
 40
2.0
 40
2.0
 40
2.0
 40
3.0
 40
3.0
 40
3.0
 40
4.0
 40
4.0
 40
4.0
 40
5.0
 40
5.0
 40
5.0
 40
6.0
 40
6.0
 40
6.0
 40
7.0
 40
7.0
 40
7.0
 40
7.0
 10
91.71877710380642
 20
-152.3703721407269
 30
0.0
 10
91.71877710380642
 20
-152.3703721407269
 30
0.0
 10
91.71877710380642
 20
-151.2658745281558
 30
0.0
 10
91.71877710380642
 20
-151.2658745281558
 30
0.0
 10
91.71877710380642
 20
-151.2658745281558
 30
0.0
 10
91.42732202575428
 20
-151.2658745281558
 30
0.0
 10
91.42732202575428
 20
-151.2658745281558
 30
0.0
 10
91.42732202575428
 20
-151.2658745281558
 30
0.0
 10
91.42732202575428
 20
-151.11773542229
 30
0.0
 10
91.42732202575428
 20
-151.11773542229
 30
0.0
 10
91.72084416109757
 20
-151.103266021252
 30
0.0
 10
91.76184079737205
 20
-150.9399684952511
 30
0.0
 10
91.78767901351142
 20
-150.8255913251408
 30
0.0
 10
91.78767901351142
 20
-150.8255913251408
 30
0.0
 10
91.91687009420829
 20
-150.8255913251408
 30
0.0
 10
91.91687009420829
 20
-150.8255913251408
 30
0.0
 10
91.91687009420829
 20
-150.8255913251408
 30
0.0
 10
91.91687009420829
 20
-152.3703721407269
 30
0.0
 10
91.91687009420829
 20
-152.3703721407269
 30
0.0
 10
91.91687009420829
 20
-152.3703721407269
 30
0.0
 10
91.71877710380642
 20
-152.3703721407269
 30
0.0
 10
91.71877710380642
 20
-152.3703721407269
 30
0.0
  0
HATCH
  5
13E
330
139
100
AcDbEntity
  8
_U+30EC_U+30A4_U+30E4_U+30FC 1
 62
   179
420
  2234388
100
AcDbHatch
 10
0.0
 20
0.0
 30
0.0
210
0.0
220
0.0
230
1.0
  2
SOLID
 70
     1
 71
     0
 91
        1
 92
        1
 93
        1
 72
     4
 94
        3
 73
     0
 74
     1
 95
       26
 96
       22
 40
0.0
 40
0.0
 40
0.0
 40
0.0
 40
1.0
 40
1.0
 40
1.0
 40
2.0
 40
2.0
 40
2.0
 40
3.0
 40
3.0
 40
3.0
 40
4.0
 40
4.0
 40
4.0
 40
5.0
 40
5.0
 40
5.0
 40
6.0
 40
6.0
 40
6.0
 40
7.0
 40
7.0
 40
7.0
 40
7.0
 10
91.71877710380642
 20
-152.3703721407269
 10
91.71877710380642
 20
-152.3703721407269
 10
91.71877710380642
 20
-151.2658745281558
 10
91.71877710380642
 20
-151.2658745281558
 10
91.71877710380642
 20
-151.2658745281558
 10
91.42732202575428
 20
-151.2658745281558
 10
91.42732202575428
 20
-151.2658745281558
 10
91.42732202575428
 20
-151.2658745281558
 10
91.42732202575428
 20
-151.11773542229
 10
91.42732202575428
 20
-151.11773542229
 10
91.72084416109757
 20
-151.103266021252
 10
91.76184079737205
 20
-150.9399684952511
 10
91.78767901351142
 20
-150.8255913251408
 10
91.78767901351142
 20
-150.8255913251408
 10
91.91687009420829
 20
-150.8255913251408
 10
91.91687009420829
 20
-150.8255913251408
 10
91.91687009420829
 20
-150.8255913251408
 10
91.91687009420829
 20
-152.3703721407269
 10
91.91687009420829
 20
-152.3703721407269
 10
91.91687009420829
 20
-152.3703721407269
 10
91.71877710380642
 20
-152.3703721407269
 10
91.71877710380642
 20
-152.3703721407269
 97
        0
 97
        0
 75
     2
 76
     1
 98
        0
  0
SPLINE
  5
13F
330
139
100
AcDbEntity
  8
_U+30EC_U+30A4_U+30E4_U+30FC 1
370
     0
100
AcDbSpline
210
0.0
220
0.0
230
1.0
 70
    11
 71
     3
 72
    53
 73
    49
 74
     0
 42
0.0000000001
 43
0.0000000001
 12
1.0
 22
0.0
 32
0.0
 13
1.0
 23
0.0
 33
0.0
 40
0.0
 40
0.0
 40
0.0
 40
0.0
 40
1.0
 40
1.0
 40
1.0
 40
2.0
 40
2.0
 40
2.0
 40
3.0
 40
3.0
 40
3.0
 40
4.0
 40
4.0
 40
4.0
 40
5.0
 40
5.0
 40
5.0
 40
6.0
 40
6.0
 40
6.0
 40
7.0
 40
7.0
 40
7.0
 40
8.0
 40
8.0
 40
8.0
 40
9.0
 40
9.0
 40
9.0
 40
10.0
 40
10.0
 40
10.0
 40
11.0
 40
11.0
 40
11.0
 40
12.0
 40
12.0
 40
12.0
 40
13.0
 40
13.0
 40
13.0
 40
14.0
 40
14.0
 40
14.0
 40
15.0
 40
15.0
 40
15.0
 40
16.0
 40
16.0
 40
16.0
 40
16.0
 10
92.78468964694272
 20
-152.4206705348115
 30
0.0
 10
92.71578773723772
 20
-152.4206705348115
 30
0.0
 10
92.6258707450727
 20
-152.4041340764823
 30
0.0
 10
92.53629826245621
 20
-152.3407443195537
 30
0.0
 10
92.38299151336258
 20
-152.2305012640257
 30
0.0
 10
92.36438799774224
 20
-152.0995876355862
 30
0.0
 10
92.34785153941304
 20
-151.9914116373494
 30
0.0
 10
92.34785153941304
 20
-151.9914116373494
 30
0.0
 10
92.54353296297523
 20
-151.9914116373494
 30
0.0
 10
92.54353296297523
 20
-151.9914116373494
 30
0.0
 10
92.59245331886578
 20
-152.1905381563968
 30
0.0
 10
92.7044189221364
 20
-152.22016597757
 30
0.0
 10
92.78675670423387
 20
-152.22016597757
 30
0.0
 10
92.9097466130573
 20
-152.22016597757
 30
0.0
 10
93.04444984653055
 20
-152.1202582084977
 30
0.0
 10
93.04444984653055
 20
-151.8880587727919
 30
0.0
 10
93.04444984653055
 20
-151.6317436686893
 30
0.0
 10
92.88563094466055
 20
-151.5621527398872
 30
0.0
 10
92.77917749416632
 20
-151.5621527398872
 30
0.0
 10
92.75092771118727
 20
-151.5621527398872
 30
0.0
 10
92.6258707450727
 20
-151.5621527398872
 30
0.0
 10
92.54766707755753
 20
-151.6909993110356
 30
0.0
 10
92.54766707755753
 20
-151.6909993110356
 30
0.0
 10
92.39263778072129
 20
-151.6723957954152
 30
0.0
 10
92.39263778072129
 20
-151.6723957954152
 30
0.0
 10
92.39263778072129
 20
-151.6723957954152
 30
0.0
 10
92.49874672166699
 20
-150.8255913251408
 30
0.0
 10
92.49874672166699
 20
-150.8255913251408
 30
0.0
 10
92.49874672166699
 20
-150.8255913251408
 30
0.0
 10
93.18638778052285
 20
-150.8255913251408
 30
0.0
 10
93.18638778052285
 20
-150.8255913251408
 30
0.0
 10
93.18638778052285
 20
-150.8255913251408
 30
0.0
 10
93.18638778052285
 20
-151.020583729606
 30
0.0
 10
93.18638778052285
 20
-151.020583729606
 30
0.0
 10
93.18638778052285
 20
-151.020583729606
 30
0.0
 10
92.64275171295043
 20
-151.020583729606
 30
0.0
 10
92.64275171295043
 20
-151.020583729606
 30
0.0
 10
92.64275171295043
 20
-151.020583729606
 30
0.0
 10
92.58487410879823
 20
-151.4436414551947
 30
0.0
 10
92.58487410879823
 20
-151.4436414551947
 30
0.0
 10
92.63896210791665
 20
-151.4098795194392
 30
0.0
 10
92.71165362265542
 20
-151.3692273927132
 30
0.0
 10
92.81638452540702
 20
-151.3692273927132
 30
0.0
 10
93.04066024149678
 20
-151.3692273927132
 30
0.0
 10
93.24977753745145
 20
-151.5559515680138
 30
0.0
 10
93.24977753745145
 20
-151.8687662380745
 30
0.0
 10
93.24977753745145
 20
-152.1864040418145
 30
0.0
 10
93.0520290565981
 20
-152.4206705348115
 30
0.0
 10
92.78468964694272
 20
-152.4206705348115
 30
0.0
  0
HATCH
  5
140
330
139
100
AcDbEntity
  8
_U+30EC_U+30A4_U+30E4_U+30FC 1
 62
   179
420
  2234388
100
AcDbHatch
 10
0.0
 20
0.0
 30
0.0
210
0.0
220
0.0
230
1.0
  2
SOLID
 70
     1
 71
     0
 91
        1
 92
        1
 93
        1
 72
     4
 94
        3
 73
     0
 74
     1
 95
       53
 96
       49
 40
0.0
 40
0.0
 40
0.0
 40
0.0
 40
1.0
 40
1.0
 40
1.0
 40
2.0
 40
2.0
 40
2.0
 40
3.0
 40
3.0
 40
3.0
 40
4.0
 40
4.0
 40
4.0
 40
5.0
 40
5.0
 40
5.0
 40
6.0
 40
6.0
 40
6.0
 40
7.0
 40
7.0
 40
7.0
 40
8.0
 40
8.0
 40
8.0
 40
9.0
 40
9.0
 40
9.0
 40
10.0
 40
10.0
 40
10.0
 40
11.0
 40
11.0
 40
11.0
 40
12.0
 40
12.0
 40
12.0
 40
13.0
 40
13.0
 40
13.0
 40
14.0
 40
14.0
 40
14.0
 40
15.0
 40
15.0
 40
15.0
 40
16.0
 40
16.0
 40
16.0
 40
16.0
 10
92.78468964694272
 20
-152.4206705348115
 10
92.71578773723772
 20
-152.4206705348115
 10
92.6258707450727
 20
-152.4041340764823
 10
92.53629826245621
 20
-152.3407443195537
 10
92.38299151336258
 20
-152.2305012640257
 10
92.36438799774224
 20
-152.0995876355862
 10
92.34785153941304
 20
-151.9914116373494
 10
92.34785153941304
 20
-151.9914116373494
 10
92.54353296297523
 20
-151.9914116373494
 10
92.54353296297523
 20
-151.9914116373494
 10
92.59245331886578
 20
-152.1905381563968
 10
92.7044189221364
 20
-152.22016597757
 10
92.78675670423387
 20
-152.22016597757
 10
92.9097466130573
 20
-152.22016597757
 10
93.04444984653055
 20
-152.1202582084977
 10
93.04444984653055
 20
-151.8880587727919
 10
93.04444984653055
 20
-151.6317436686893
 10
92.88563094466055
 20
-151.5621527398872
 10
92.77917749416632
 20
-151.5621527398872
 10
92.75092771118727
 20
-151.5621527398872
 10
92.6258707450727
 20
-151.5621527398872
 10
92.54766707755753
 20
-151.6909993110356
 10
92.54766707755753
 20
-151.6909993110356
 10
92.39263778072129
 20
-151.6723957954152
 10
92.39263778072129
 20
-151.6723957954152
 10
92.39263778072129
 20
-151.6723957954152
 10
92.49874672166699
 20
-150.8255913251408
 10
92.49874672166699
 20
-150.8255913251408
 10
92.49874672166699
 20
-150.8255913251408
 10
93.18638778052285
 20
-150.8255913251408
 10
93.18638778052285
 20
-150.8255913251408
 10
93.18638778052285
 20
-150.8255913251408
 10
93.18638778052285
 20
-151.020583729606
 10
93.18638778052285
 20
-151.020583729606
 10
93.18638778052285
 20
-151.020583729606
 10
92.64275171295043
 20
-151.020583729606
 10
92.64275171295043
 20
-151.020583729606
 10
92.64275171295043
 20
-151.020583729606
 10
92.58487410879823
 20
-151.4436414551947
 10
92.58487410879823
 20
-151.4436414551947
 10
92.63896210791665
 20
-151.4098795194392
 10
92.71165362265542
 20
-151.3692273927132
 10
92.81638452540702
 20
-151.3692273927132
 10
93.04066024149678
 20
-151.3692273927132
 10
93.24977753745145
 20
-151.5559515680138
 10
93.24977753745145
 20
-151.8687662380745
 10
93.24977753745145
 20
-152.1864040418145
 10
93.0520290565981
 20
-152.4206705348115
 10
92.78468964694272
 20
-152.4206705348115
 97
        0
 97
        0
 75
     2
 76
     1
 98
        0
  0
ENDBLK
  5
13C
330
139
100
AcDbEntity
  8
0
100
AcDbBlockEnd
  0
ENDSEC
  0
SECTION
  2
ENTITIES
  0
POLYLINE
  5
41
330
1F
100
AcDbEntity
  8
_U+30EC_U+30A4_U+30E4_U+30FC 1
370
     0
100
AcDb2dPolyline
 66
     1
 10
0.0
 20
0.0
 30
0.0
  0
VERTEX
  5
42
330
41
100
AcDbEntity
  8
_U+30EC_U+30A4_U+30E4_U+30FC 1
370
     0
100
AcDbVertex
100
AcDb2dVertex
 10
85.7833825337058
 20
-134.8982357996086
 30
0.0
  0
VERTEX
  5
43
330
41
100
AcDbEntity
  8
_U+30EC_U+30A4_U+30E4_U+30FC 1
370
     0
100
AcDbVertex
100
AcDb2dVertex
 10
95.78329172303131
 20
-134.8982357996086
 30
0.0
  0
VERTEX
  5
44
330
41
100
AcDbEntity
  8
_U+30EC_U+30A4_U+30E4_U+30FC 1
370
     0
100
AcDbVertex
100
AcDb2dVertex
 10
95.78329172303131
 20
-111.3978383054839
 30
0.0
  0
VERTEX
  5
45
330
41
100
AcDbEntity
  8
_U+30EC_U+30A4_U+30E4_U+30FC 1
370
     0
100
AcDbVertex
100
AcDb2dVertex
 10
96.98358280352045
 20
-111.3978383054839
 30
0.0
  0
VERTEX
  5
46
330
41
100
AcDbEntity
  8
_U+30EC_U+30A4_U+30E4_U+30FC 1
370
     0
100
AcDbVertex
100
AcDb2dVertex
 10
96.98358280352045
 20
-135.8980080215811
 30
0.0
  0
VERTEX
  5
47
330
41
100
AcDbEntity
  8
_U+30EC_U+30A4_U+30E4_U+30FC 1
370
     0
100
AcDbVertex
100
AcDb2dVertex
 10
85.7833825337058
 20
-135.8980080215811
 30
0.0
  0
VERTEX
  5
48
330
41
100
AcDbEntity
  8
_U+30EC_U+30A4_U+30E4_U+30FC 1
370
     0
100
AcDbVertex
100
AcDb2dVertex
 10
85.7833825337058
 20
-147.8979557963592
 30
0.0
  0
VERTEX
  5
49
330
41
100
AcDbEntity
  8
_U+30EC_U+30A4_U+30E4_U+30FC 1
370
     0
100
AcDbVertex
100
AcDb2dVertex
 10
98.78327859093972
 20
-147.8979557963592
 30
0.0
  0
VERTEX
  5
4A
330
41
100
AcDbEntity
  8
_U+30EC_U+30A4_U+30E4_U+30FC 1
370
     0
100
AcDbVertex
100
AcDb2dVertex
 10
98.78327859093972
 20
-145.8984113524141
 30
0.0
  0
VERTEX
  5
4B
330
41
100
AcDbEntity
  8
_U+30EC_U+30A4_U+30E4_U+30FC 1
370
     0
100
AcDbVertex
100
AcDb2dVertex
 10
99.78375634319318
 20
-145.8984113524141
 30
0.0
  0
VERTEX
  5
4C
330
41
100
AcDbEntity
  8
_U+30EC_U+30A4_U+30E4_U+30FC 1
370
     0
100
AcDbVertex
100
AcDb2dVertex
 10
99.78375634319318
 20
-148.8983982961084
 30
0.0
  0
VERTEX
  5
4D
330
41
100
AcDbEntity
  8
_U+30EC_U+30A4_U+30E4_U+30FC 1
370
     0
100
AcDbVertex
100
AcDb2dVertex
 10
84.78294005922922
 20
-148.8983982961084
 30
0.0
  0
VERTEX
  5
4E
330
41
100
AcDbEntity
  8
_U+30EC_U+30A4_U+30E4_U+30FC 1
370
     0
100
AcDbVertex
100
AcDb2dVertex
 10
84.78294005922922
 20
-129.8979988564143
 30
0.0
  0
VERTEX
  5
4F
330
41
100
AcDbEntity
  8
_U+30EC_U+30A4_U+30E4_U+30FC 1
370
     0
100
AcDbVertex
100
AcDb2dVertex
 10
85.7833825337058
 20
-129.8979988564143
 30
0.0
  0
VERTEX
  5
50
330
41
100
AcDbEntity
  8
_U+30EC_U+30A4_U+30E4_U+30FC 1
370
     0
100
AcDbVertex
100
AcDb2dVertex
 10
85.7833825337058
 20
-134.8982357996086
 30
0.0
  0
SEQEND
  5
52
330
41
100
AcDbEntity
  8
_U+30EC_U+30A4_U+30E4_U+30FC 1
370
     0
  0
HATCH
  5
51
330
1F
100
AcDbEntity
  8
_U+30EC_U+30A4_U+30E4_U+30FC 1
 62
   253
420
 11711154
100
AcDbHatch
 10
0.0
 20
0.0
 30
0.0
210
0.0
220
0.0
230
1.0
  2
SOLID
 70
     1
 71
     0
 91
        1
 92
        1
 93
       14
 72
     1
 10
85.7833825337058
 20
-134.8982357996086
 11
95.78329172303131
 21
-134.8982357996086
 72
     1
 10
95.78329172303131
 20
-134.8982357996086
 11
95.78329172303131
 21
-111.3978383054839
 72
     1
 10
95.78329172303131
 20
-111.3978383054839
 11
96.98358280352045
 21
-111.3978383054839
 72
     1
 10
96.98358280352045
 20
-111.3978383054839
 11
96.98358280352045
 21
-135.8980080215811
 72
     1
 10
96.98358280352045
 20
-135.8980080215811
 11
85.7833825337058
 21
-135.8980080215811
 72
     1
 10
85.7833825337058
 20
-135.8980080215811
 11
85.7833825337058
 21
-147.8979557963592
 72
     1
 10
85.7833825337058
 20
-147.8979557963592
 11
98.78327859093972
 21
-147.8979557963592
 72
     1
 10
98.78327859093972
 20
-147.8979557963592
 11
98.78327859093972
 21
-145.8984113524141
 72
     1
 10
98.78327859093972
 20
-145.8984113524141
 11
99.78375634319318
 21
-145.8984113524141
 72
     1
 10
99.78375634319318
 20
-145.8984113524141
 11
99.78375634319318
 21
-148.8983982961084
 72
     1
 10
99.78375634319318
 20
-148.8983982961084
 11
84.78294005922922
 21
-148.8983982961084
 72
     1
 10
84.78294005922922
 20
-148.8983982961084
 11
84.78294005922922
 21
-129.8979988564143
 72
     1
 10
84.78294005922922
 20
-129.8979988564143
 11
85.7833825337058
 21
-129.8979988564143
 72
     1
 10
85.7833825337058
 20
-129.8979988564143
 11
85.7833825337058
 21
-134.8982357996086
 97
        0
 75
     2
 76
     1
 98
        0
  0
POLYLINE
  5
53
330
1F
100
AcDbEntity
  8
_U+30EC_U+30A4_U+30E4_U+30FC 1
 62
   179
420
  2234388
370
    25
100
AcDb2dPolyline
 66
     1
 10
0.0
 20
0.0
 30
0.0
  0
VERTEX
  5
54
330
53
100
AcDbEntity
  8
_U+30EC_U+30A4_U+30E4_U+30FC 1
 62
   179
420
  2234388
370
    25
100
AcDbVertex
100
AcDb2dVertex
 10
99.78375634319318
 20
-145.8984113524141
 30
0.0
  0
VERTEX
  5
55
330
53
100
AcDbEntity
  8
_U+30EC_U+30A4_U+30E4_U+30FC 1
 62
   179
420
  2234388
370
    25
100
AcDbVertex
100
AcDb2dVertex
 10
99.78375634319318
 20
-148.8983982961084
 30
0.0
  0
SEQEND
  5
56
330
53
100
AcDbEntity
  8
_U+30EC_U+30A4_U+30E4_U+30FC 1
 62
   179
420
  2234388
370
    25
  0
POLYLINE
  5
57
330
1F
100
AcDbEntity
  8
_U+30EC_U+30A4_U+30E4_U+30FC 1
 62
   179
420
  2234388
370
    25
100
AcDb2dPolyline
 66
     1
 10
0.0
 20
0.0
 30
0.0
  0
VERTEX
  5
58
330
57
100
AcDbEntity
  8
_U+30EC_U+30A4_U+30E4_U+30FC 1
 62
   179
420
  2234388
370
    25
100
AcDbVertex
100
AcDb2dVertex
 10
99.78375634319318
 20
-148.8983982961084
 30
0.0
  0
VERTEX
  5
59
330
57
100
AcDbEntity
  8
_U+30EC_U+30A4_U+30E4_U+30FC 1
 62
   179
420
  2234388
370
    25
100
AcDbVertex
100
AcDb2dVertex
 10
84.78294005922922
 20
-148.8983982961084
 30
0.0
  0
SEQEND
  5
5A
330
57
100
AcDbEntity
  8
_U+30EC_U+30A4_U+30E4_U+30FC 1
 62
   179
420
  2234388
370
    25
  0
POLYLINE
  5
5B
330
1F
100
AcDbEntity
  8
_U+30EC_U+30A4_U+30E4_U+30FC 1
 62
   179
420
  2234388
370
    25
100
AcDb2dPolyline
 66
     1
 10
0.0
 20
0.0
 30
0.0
  0
VERTEX
  5
5C
330
5B
100
AcDbEntity
  8
_U+30EC_U+30A4_U+30E4_U+30FC 1
 62
   179
420
  2234388
370
    25
100
AcDbVertex
100
AcDb2dVertex
 10
96.98358280352045
 20
-135.8980080215811
 30
0.0
  0
VERTEX
  5
5D
330
5B
100
AcDbEntity
  8
_U+30EC_U+30A4_U+30E4_U+30FC 1
 62
   179
420
  2234388
370
    25
100
AcDbVertex
100
AcDb2dVertex
 10
85.7833825337058
 20
-135.8980080215811
 30
0.0
  0
SEQEND
  5
5E
330
5B
100
AcDbEntity
  8
_U+30EC_U+30A4_U+30E4_U+30FC 1
 62
   179
420
  2234388
370
    25
  0
POLYLINE
  5
5F
330
1F
100
AcDbEntity
  8
_U+30EC_U+30A4_U+30E4_U+30FC 1
 62
   179
420
  2234388
370
    25
100
AcDb2dPolyline
 66
     1
 10
0.0
 20
0.0
 30
0.0
  0
VERTEX
  5
60
330
5F
100
AcDbEntity
  8
_U+30EC_U+30A4_U+30E4_U+30FC 1
 62
   179
420
  2234388
370
    25
100
AcDbVertex
100
AcDb2dVertex
 10
96.98358280352045
 20
-111.3978383054839
 30
0.0
  0
VERTEX
  5
61
330
5F
100
AcDbEntity
  8
_U+30EC_U+30A4_U+30E4_U+30FC 1
 62
   179
420
  2234388
370
    25
100
AcDbVertex
100
AcDb2dVertex
 10
95.78329172303131
 20
-111.3978383054839
 30
0.0
  0
SEQEND
  5
62
330
5F
100
AcDbEntity
  8
_U+30EC_U+30A4_U+30E4_U+30FC 1
 62
   179
420
  2234388
370
    25
  0
POLYLINE
  5
63
330
1F
100
AcDbEntity
  8
_U+30EC_U+30A4_U+30E4_U+30FC 1
 62
   179
420
  2234388
370
    25
100
AcDb2dPolyline
 66
     1
 10
0.0
 20
0.0
 30
0.0
  0
VERTEX
  5
64
330
63
100
AcDbEntity
  8
_U+30EC_U+30A4_U+30E4_U+30FC 1
 62
   179
420
  2234388
370
    25
100
AcDbVertex
100
AcDb2dVertex
 10
85.7833825337058
 20
-129.8979988564143
 30
0.0
  0
VERTEX
  5
65
330
63
100
AcDbEntity
  8
_U+30EC_U+30A4_U+30E4_U+30FC 1
 62
   179
420
  2234388
370
    25
100
AcDbVertex
100
AcDb2dVertex
 10
84.78294005922922
 20
-129.8979988564143
 30
0.0
  0
SEQEND
  5
66
330
63
100
AcDbEntity
  8
_U+30EC_U+30A4_U+30E4_U+30FC 1
 62
   179
420
  2234388
370
    25
  0
POLYLINE
  5
67
330
1F
100
AcDbEntity
  8
_U+30EC_U+30A4_U+30E4_U+30FC 1
 62
   179
420
  2234388
370
    25
100
AcDb2dPolyline
 66
     1
 10
0.0
 20
0.0
 30
0.0
  0
VERTEX
  5
68
330
67
100
AcDbEntity
  8
_U+30EC_U+30A4_U+30E4_U+30FC 1
 62
   179
420
  2234388
370
    25
100
AcDbVertex
100
AcDb2dVertex
 10
95.78329172303131
 20
-111.3978383054839
 30
0.0
  0
VERTEX
  5
69
330
67
100
AcDbEntity
  8
_U+30EC_U+30A4_U+30E4_U+30FC 1
 62
   179
420
  2234388
370
    25
100
AcDbVertex
100
AcDb2dVertex
 10
95.78329172303131
 20
-134.8982357996086
 30
0.0
  0
SEQEND
  5
6A
330
67
100
AcDbEntity
  8
_U+30EC_U+30A4_U+30E4_U+30FC 1
 62
   179
420
  2234388
370
    25
  0
POLYLINE
  5
6B
330
1F
100
AcDbEntity
  8
_U+30EC_U+30A4_U+30E4_U+30FC 1
 62
   179
420
  2234388
370
    25
100
AcDb2dPolyline
 66
     1
 10
0.0
 20
0.0
 30
0.0
  0
VERTEX
  5
6C
330
6B
100
AcDbEntity
  8
_U+30EC_U+30A4_U+30E4_U+30FC 1
 62
   179
420
  2234388
370
    25
100
AcDbVertex
100
AcDb2dVertex
 10
84.78294005922922
 20
-129.8979988564143
 30
0.0
  0
VERTEX
  5
6D
330
6B
100
AcDbEntity
  8
_U+30EC_U+30A4_U+30E4_U+30FC 1
 62
   179
420
  2234388
370
    25
100
AcDbVertex
100
AcDb2dVertex
 10
84.78294005922922
 20
-148.8983982961084
 30
0.0
  0
SEQEND
  5
6E
330
6B
100
AcDbEntity
  8
_U+30EC_U+30A4_U+30E4_U+30FC 1
 62
   179
420
  2234388
370
    25
  0
POLYLINE
  5
6F
330
1F
100
AcDbEntity
  8
_U+30EC_U+30A4_U+30E4_U+30FC 1
 62
   179
420
  2234388
370
    25
100
AcDb2dPolyline
 66
     1
 10
0.0
 20
0.0
 30
0.0
  0
VERTEX
  5
70
330
6F
100
AcDbEntity
  8
_U+30EC_U+30A4_U+30E4_U+30FC 1
 62
   179
420
  2234388
370
    25
100
AcDbVertex
100
AcDb2dVertex
 10
96.98358280352045
 20
-111.3978383054839
 30
0.0
  0
VERTEX
  5
71
330
6F
100
AcDbEntity
  8
_U+30EC_U+30A4_U+30E4_U+30FC 1
 62
   179
420
  2234388
370
    25
100
AcDbVertex
100
AcDb2dVertex
 10
96.98358280352045
 20
-135.8980080215811
 30
0.0
  0
SEQEND
  5
72
330
6F
100
AcDbEntity
  8
_U+30EC_U+30A4_U+30E4_U+30FC 1
 62
   179
420
  2234388
370
    25
  0
POLYLINE
  5
73
330
1F
100
AcDbEntity
  8
_U+30EC_U+30A4_U+30E4_U+30FC 1
 62
   179
420
  2234388
370
    25
100
AcDb2dPolyline
 66
     1
 10
0.0
 20
0.0
 30
0.0
  0
VERTEX
  5
74
330
73
100
AcDbEntity
  8
_U+30EC_U+30A4_U+30E4_U+30FC 1
 62
   179
420
  2234388
370
    25
100
AcDbVertex
100
AcDb2dVertex
 10
99.78375634319318
 20
-145.8984113524141
 30
0.0
  0
VERTEX
  5
75
330
73
100
AcDbEntity
  8
_U+30EC_U+30A4_U+30E4_U+30FC 1
 62
   179
420
  2234388
370
    25
100
AcDbVertex
100
AcDb2dVertex
 10
98.78327859093972
 20
-145.8984113524141
 30
0.0
  0
SEQEND
  5
76
330
73
100
AcDbEntity
  8
_U+30EC_U+30A4_U+30E4_U+30FC 1
 62
   179
420
  2234388
370
    25
  0
POLYLINE
  5
77
330
1F
100
AcDbEntity
  8
_U+30EC_U+30A4_U+30E4_U+30FC 1
 62
   179
420
  2234388
370
    25
100
AcDb2dPolyline
 66
     1
 10
0.0
 20
0.0
 30
0.0
  0
VERTEX
  5
78
330
77
100
AcDbEntity
  8
_U+30EC_U+30A4_U+30E4_U+30FC 1
 62
   179
420
  2234388
370
    25
100
AcDbVertex
100
AcDb2dVertex
 10
98.78327859093972
 20
-145.8984113524141
 30
0.0
  0
VERTEX
  5
79
330
77
100
AcDbEntity
  8
_U+30EC_U+30A4_U+30E4_U+30FC 1
 62
   179
420
  2234388
370
    25
100
AcDbVertex
100
AcDb2dVertex
 10
98.78327859093972
 20
-147.8979557963592
 30
0.0
  0
SEQEND
  5
7A
330
77
100
AcDbEntity
  8
_U+30EC_U+30A4_U+30E4_U+30FC 1
 62
   179
420
  2234388
370
    25
  0
POLYLINE
  5
7B
330
1F
100
AcDbEntity
  8
_U+30EC_U+30A4_U+30E4_U+30FC 1
 62
   179
420
  2234388
370
    25
100
AcDb2dPolyline
 66
     1
 10
0.0
 20
0.0
 30
0.0
  0
VERTEX
  5
7C
330
7B
100
AcDbEntity
  8
_U+30EC_U+30A4_U+30E4_U+30FC 1
 62
   179
420
  2234388
370
    25
100
AcDbVertex
100
AcDb2dVertex
 10
98.78327859093972
 20
-147.8979557963592
 30
0.0
  0
VERTEX
  5
7D
330
7B
100
AcDbEntity
  8
_U+30EC_U+30A4_U+30E4_U+30FC 1
 62
   179
420
  2234388
370
    25
100
AcDbVertex
100
AcDb2dVertex
 10
85.7833825337058
 20
-147.8979557963592
 30
0.0
  0
SEQEND
  5
7E
330
7B
100
AcDbEntity
  8
_U+30EC_U+30A4_U+30E4_U+30FC 1
 62
   179
420
  2234388
370
    25
  0
POLYLINE
  5
7F
330
1F
100
AcDbEntity
  8
_U+30EC_U+30A4_U+30E4_U+30FC 1
 62
   179
420
  2234388
370
    25
100
AcDb2dPolyline
 66
     1
 10
0.0
 20
0.0
 30
0.0
  0
VERTEX
  5
80
330
7F
100
AcDbEntity
  8
_U+30EC_U+30A4_U+30E4_U+30FC 1
 62
   179
420
  2234388
370
    25
100
AcDbVertex
100
AcDb2dVertex
 10
85.7833825337058
 20
-129.8979988564143
 30
0.0
  0
VERTEX
  5
81
330
7F
100
AcDbEntity
  8
_U+30EC_U+30A4_U+30E4_U+30FC 1
 62
   179
420
  2234388
370
    25
100
AcDbVertex
100
AcDb2dVertex
 10
85.7833825337058
 20
-134.8982357996086
 30
0.0
  0
SEQEND
  5
82
330
7F
100
AcDbEntity
  8
_U+30EC_U+30A4_U+30E4_U+30FC 1
 62
   179
420
  2234388
370
    25
  0
POLYLINE
  5
83
330
1F
100
AcDbEntity
  8
_U+30EC_U+30A4_U+30E4_U+30FC 1
 62
   179
420
  2234388
370
    25
100
AcDb2dPolyline
 66
     1
 10
0.0
 20
0.0
 30
0.0
  0
VERTEX
  5
84
330
83
100
AcDbEntity
  8
_U+30EC_U+30A4_U+30E4_U+30FC 1
 62
   179
420
  2234388
370
    25
100
AcDbVertex
100
AcDb2dVertex
 10
95.78329172303131
 20
-134.8982357996086
 30
0.0
  0
VERTEX
  5
85
330
83
100
AcDbEntity
  8
_U+30EC_U+30A4_U+30E4_U+30FC 1
 62
   179
420
  2234388
370
    25
100
AcDbVertex
100
AcDb2dVertex
 10
85.7833825337058
 20
-134.8982357996086
 30
0.0
  0
SEQEND
  5
86
330
83
100
AcDbEntity
  8
_U+30EC_U+30A4_U+30E4_U+30FC 1
 62
   179
420
  2234388
370
    25
  0
POLYLINE
  5
87
330
1F
100
AcDbEntity
  8
_U+30EC_U+30A4_U+30E4_U+30FC 1
 62
   179
420
  2234388
370
    25
100
AcDb2dPolyline
 66
     1
 10
0.0
 20
0.0
 30
0.0
  0
VERTEX
  5
88
330
87
100
AcDbEntity
  8
_U+30EC_U+30A4_U+30E4_U+30FC 1
 62
   179
420
  2234388
370
    25
100
AcDbVertex
100
AcDb2dVertex
 10
85.7833825337058
 20
-135.8980080215811
 30
0.0
  0
VERTEX
  5
89
330
87
100
AcDbEntity
  8
_U+30EC_U+30A4_U+30E4_U+30FC 1
 62
   179
420
  2234388
370
    25
100
AcDbVertex
100
AcDb2dVertex
 10
85.7833825337058
 20
-147.8979557963592
 30
0.0
  0
SEQEND
  5
8A
330
87
100
AcDbEntity
  8
_U+30EC_U+30A4_U+30E4_U+30FC 1
 62
   179
420
  2234388
370
    25
  0
SPLINE
  5
8B
330
1F
100
AcDbEntity
  8
_U+30EC_U+30A4_U+30E4_U+30FC 1
 62
   179
420
  2234388
370
     9
100
AcDbSpline
210
0.0
220
0.0
230
1.0
 70
    11
 71
     3
 72
    17
 73
    13
 74
     0
 42
0.0000000001
 43
0.0000000001
 12
1.0
 22
0.0
 32
0.0
 13
1.0
 23
0.0
 33
0.0
 40
0.0
 40
0.0
 40
0.0
 40
0.0
 40
1.0
 40
1.0
 40
1.0
 40
2.0
 40
2.0
 40
2.0
 40
3.0
 40
3.0
 40
3.0
 40
4.0
 40
4.0
 40
4.0
 40
4.0
 10
103.6836087436997
 20
-145.8984113524141
 30
0.0
 10
103.6836087436997
 20
-145.8426019079836
 30
0.0
 10
103.7283762425575
 20
-145.7978344079951
 30
0.0
 10
103.7835154078175
 20
-145.7978344079951
 30
0.0
 10
103.8386192953006
 20
-145.7978344079951
 30
0.0
 10
103.8834220719353
 20
-145.8426019079836
 30
0.0
 10
103.8834220719353
 20
-145.8984113524141
 30
0.0
 10
103.8834220719353
 20
-145.9535505190672
 30
0.0
 10
103.8386192953006
 20
-145.9983180190557
 30
0.0
 10
103.7835154078175
 20
-145.9983180190557
 30
0.0
 10
103.7283762425575
 20
-145.9983180190557
 30
0.0
 10
103.6836087436997
 20
-145.9535505190672
 30
0.0
 10
103.6836087436997
 20
-145.8984113524141
 30
0.0
  0
SPLINE
  5
8C
330
1F
100
AcDbEntity
  8
_U+30EC_U+30A4_U+30E4_U+30FC 1
 62
   179
420
  2234388
370
     9
100
AcDbSpline
210
0.0
220
0.0
230
1.0
 70
    11
 71
     3
 72
    17
 73
    13
 74
     0
 42
0.0000000001
 43
0.0000000001
 12
1.0
 22
0.0
 32
0.0
 13
1.0
 23
0.0
 33
0.0
 40
0.0
 40
0.0
 40
0.0
 40
0.0
 40
1.0
 40
1.0
 40
1.0
 40
2.0
 40
2.0
 40
2.0
 40
3.0
 40
3.0
 40
3.0
 40
4.0
 40
4.0
 40
4.0
 40
4.0
 10
99.68384967907535
 20
-152.8981574617753
 30
0.0
 10
99.68384967907535
 20
-152.8430535729004
 30
0.0
 10
99.72794690017255
 20
-152.7982507951337
 30
0.0
 10
99.78375634319318
 20
-152.7982507951337
 30
0.0
 10
99.83886023067625
 20
-152.7982507951337
 30
0.0
 10
99.88366300731101
 20
-152.8430535729004
 30
0.0
 10
99.88366300731101
 20
-152.8981574617753
 30
0.0
 10
99.88366300731101
 20
-152.9532966284284
 30
0.0
 10
99.83886023067625
 20
-152.998064128417
 30
0.0
 10
99.78375634319318
 20
-152.998064128417
 30
0.0
 10
99.72794690017255
 20
-152.998064128417
 30
0.0
 10
99.68384967907535
 20
-152.9532966284284
 30
0.0
 10
99.68384967907535
 20
-152.8981574617753
 30
0.0
  0
SPLINE
  5
8D
330
1F
100
AcDbEntity
  8
_U+30EC_U+30A4_U+30E4_U+30FC 1
 62
   179
420
  2234388
370
     9
100
AcDbSpline
210
0.0
220
0.0
230
1.0
 70
    11
 71
     3
 72
    17
 73
    13
 74
     0
 42
0.0000000001
 43
0.0000000001
 12
1.0
 22
0.0
 32
0.0
 13
1.0
 23
0.0
 33
0.0
 40
0.0
 40
0.0
 40
0.0
 40
0.0
 40
1.0
 40
1.0
 40
1.0
 40
2.0
 40
2.0
 40
2.0
 40
3.0
 40
3.0
 40
3.0
 40
4.0
 40
4.0
 40
4.0
 40
4.0
 10
84.68303339511138
 20
-152.8981574617753
 30
0.0
 10
84.68303339511138
 20
-152.8430535729004
 30
0.0
 10
84.72780089396927
 20
-152.7982507951337
 30
0.0
 10
84.78294005922922
 20
-152.7982507951337
 30
0.0
 10
84.83874950224985
 20
-152.7982507951337
 30
0.0
 10
84.88351700110773
 20
-152.8430535729004
 30
0.0
 10
84.88351700110773
 20
-152.8981574617753
 30
0.0
 10
84.88351700110773
 20
-152.9532966284284
 30
0.0
 10
84.83874950224985
 20
-152.998064128417
 30
0.0
 10
84.78294005922922
 20
-152.998064128417
 30
0.0
 10
84.72780089396927
 20
-152.998064128417
 30
0.0
 10
84.68303339511138
 20
-152.9532966284284
 30
0.0
 10
84.68303339511138
 20
-152.8981574617753
 30
0.0
  0
SPLINE
  5
8E
330
1F
100
AcDbEntity
  8
_U+30EC_U+30A4_U+30E4_U+30FC 1
 62
   179
420
  2234388
370
     9
100
AcDbSpline
210
0.0
220
0.0
230
1.0
 70
    11
 71
     3
 72
    17
 73
    13
 74
     0
 42
0.0000000001
 43
0.0000000001
 12
1.0
 22
0.0
 32
0.0
 13
1.0
 23
0.0
 33
0.0
 40
0.0
 40
0.0
 40
0.0
 40
0.0
 40
1.0
 40
1.0
 40
1.0
 40
2.0
 40
2.0
 40
2.0
 40
3.0
 40
3.0
 40
3.0
 40
4.0
 40
4.0
 40
4.0
 40
4.0
 10
95.68338505891347
 20
-107.398079139817
 30
0.0
 10
95.68338505891347
 20
-107.3429752509421
 30
0.0
 10
95.72818783554824
 20
-107.2981724731754
 30
0.0
 10
95.78329172303131
 20
-107.2981724731754
 30
0.0
 10
95.83843330937361
 20
-107.2981724731754
 30
0.0
 10
95.88319838714915
 20
-107.3429752509421
 30
0.0
 10
95.88319838714915
 20
-107.398079139817
 30
0.0
 10
95.88319838714915
 20
-107.4532183064701
 30
0.0
 10
95.83843330937361
 20
-107.4980210842365
 30
0.0
 10
95.78329172303131
 20
-107.4980210842365
 30
0.0
 10
95.72818783554824
 20
-107.4980210842365
 30
0.0
 10
95.68338505891347
 20
-107.4532183064701
 30
0.0
 10
95.68338505891347
 20
-107.398079139817
 30
0.0
  0
SPLINE
  5
8F
330
1F
100
AcDbEntity
  8
_U+30EC_U+30A4_U+30E4_U+30FC 1
 62
   179
420
  2234388
370
     9
100
AcDbSpline
210
0.0
220
0.0
230
1.0
 70
    11
 71
     3
 72
    17
 73
    13
 74
     0
 42
0.0000000001
 43
0.0000000001
 12
1.0
 22
0.0
 32
0.0
 13
1.0
 23
0.0
 33
0.0
 40
0.0
 40
0.0
 40
0.0
 40
0.0
 40
1.0
 40
1.0
 40
1.0
 40
2.0
 40
2.0
 40
2.0
 40
3.0
 40
3.0
 40
3.0
 40
4.0
 40
4.0
 40
4.0
 40
4.0
 10
103.6836087436997
 20
-111.3978383054839
 30
0.0
 10
103.6836087436997
 20
-111.3427344166086
 30
0.0
 10
103.7283762425575
 20
-111.2979316388423
 30
0.0
 10
103.7835154078175
 20
-111.2979316388423
 30
0.0
 10
103.8386192953006
 20
-111.2979316388423
 30
0.0
 10
103.8834220719353
 20
-111.3427344166086
 30
0.0
 10
103.8834220719353
 20
-111.3978383054839
 30
0.0
 10
103.8834220719353
 20
-111.4529774721367
 30
0.0
 10
103.8386192953006
 20
-111.4977449721255
 30
0.0
 10
103.7835154078175
 20
-111.4977449721255
 30
0.0
 10
103.7283762425575
 20
-111.4977449721255
 30
0.0
 10
103.6836087436997
 20
-111.4529774721367
 30
0.0
 10
103.6836087436997
 20
-111.3978383054839
 30
0.0
  0
SPLINE
  5
90
330
1F
100
AcDbEntity
  8
_U+30EC_U+30A4_U+30E4_U+30FC 1
 62
   179
420
  2234388
370
     9
100
AcDbSpline
210
0.0
220
0.0
230
1.0
 70
    11
 71
     3
 72
    17
 73
    13
 74
     0
 42
0.0000000001
 43
0.0000000001
 12
1.0
 22
0.0
 32
0.0
 13
1.0
 23
0.0
 33
0.0
 40
0.0
 40
0.0
 40
0.0
 40
0.0
 40
1.0
 40
1.0
 40
1.0
 40
2.0
 40
2.0
 40
2.0
 40
3.0
 40
3.0
 40
3.0
 40
4.0
 40
4.0
 40
4.0
 40
4.0
 10
103.6836087436997
 20
-135.8980080215811
 30
0.0
 10
103.6836087436997
 20
-135.8428688549281
 30
0.0
 10
103.7283762425575
 20
-135.7981013549395
 30
0.0
 10
103.7835154078175
 20
-135.7981013549395
 30
0.0
 10
103.8386192953006
 20
-135.7981013549395
 30
0.0
 10
103.8834220719353
 20
-135.8428688549281
 30
0.0
 10
103.8834220719353
 20
-135.8980080215811
 30
0.0
 10
103.8834220719353
 20
-135.9531119104561
 30
0.0
 10
103.8386192953006
 20
-135.9979146882228
 30
0.0
 10
103.7835154078175
 20
-135.9979146882228
 30
0.0
 10
103.7283762425575
 20
-135.9979146882228
 30
0.0
 10
103.6836087436997
 20
-135.9531119104561
 30
0.0
 10
103.6836087436997
 20
-135.8980080215811
 30
0.0
  0
SPLINE
  5
91
330
1F
100
AcDbEntity
  8
_U+30EC_U+30A4_U+30E4_U+30FC 1
 62
   179
420
  2234388
370
     9
100
AcDbSpline
210
0.0
220
0.0
230
1.0
 70
    11
 71
     3
 72
    17
 73
    13
 74
     0
 42
0.0000000001
 43
0.0000000001
 12
1.0
 22
0.0
 32
0.0
 13
1.0
 23
0.0
 33
0.0
 40
0.0
 40
0.0
 40
0.0
 40
0.0
 40
1.0
 40
1.0
 40
1.0
 40
2.0
 40
2.0
 40
2.0
 40
3.0
 40
3.0
 40
3.0
 40
4.0
 40
4.0
 40
4.0
 40
4.0
 10
95.68338505891347
 20
-125.8982749685256
 30
0.0
 10
95.68338505891347
 20
-125.8424655240948
 30
0.0
 10
95.72818783554824
 20
-125.7976627463284
 30
0.0
 10
95.78329172303131
 20
-125.7976627463284
 30
0.0
 10
95.83843330937361
 20
-125.7976627463284
 30
0.0
 10
95.88319838714915
 20
-125.8424655240948
 30
0.0
 10
95.88319838714915
 20
-125.8982749685256
 30
0.0
 10
95.88319838714915
 20
-125.9533788574005
 30
0.0
 10
95.83843330937361
 20
-125.9981816351672
 30
0.0
 10
95.78329172303131
 20
-125.9981816351672
 30
0.0
 10
95.72818783554824
 20
-125.9981816351672
 30
0.0
 10
95.68338505891347
 20
-125.9533788574005
 30
0.0
 10
95.68338505891347
 20
-125.8982749685256
 30
0.0
  0
SPLINE
  5
92
330
1F
100
AcDbEntity
  8
_U+30EC_U+30A4_U+30E4_U+30FC 1
 62
   179
420
  2234388
370
     9
100
AcDbSpline
210
0.0
220
0.0
230
1.0
 70
    11
 71
     3
 72
    17
 73
    13
 74
     0
 42
0.0000000001
 43
0.0000000001
 12
1.0
 22
0.0
 32
0.0
 13
1.0
 23
0.0
 33
0.0
 40
0.0
 40
0.0
 40
0.0
 40
0.0
 40
1.0
 40
1.0
 40
1.0
 40
2.0
 40
2.0
 40
2.0
 40
3.0
 40
3.0
 40
3.0
 40
4.0
 40
4.0
 40
4.0
 40
4.0
 10
85.68347586958797
 20
-125.8982749685256
 30
0.0
 10
85.68347586958797
 20
-125.8424655240948
 30
0.0
 10
85.72827864622273
 20
-125.7976627463284
 30
0.0
 10
85.7833825337058
 20
-125.7976627463284
 30
0.0
 10
85.83852169896575
 20
-125.7976627463284
 30
0.0
 10
85.88328919782364
 20
-125.8424655240948
 30
0.0
 10
85.88328919782364
 20
-125.8982749685256
 30
0.0
 10
85.88328919782364
 20
-125.9533788574005
 30
0.0
 10
85.83852169896575
 20
-125.9981816351672
 30
0.0
 10
85.7833825337058
 20
-125.9981816351672
 30
0.0
 10
85.72827864622273
 20
-125.9981816351672
 30
0.0
 10
85.68347586958797
 20
-125.9533788574005
 30
0.0
 10
85.68347586958797
 20
-125.8982749685256
 30
0.0
  0
SPLINE
  5
93
330
1F
100
AcDbEntity
  8
_U+30EC_U+30A4_U+30E4_U+30FC 1
 62
   179
420
  2234388
370
     9
100
AcDbSpline
210
0.0
220
0.0
230
1.0
 70
    11
 71
     3
 72
    17
 73
    13
 74
     0
 42
0.0000000001
 43
0.0000000001
 12
1.0
 22
0.0
 32
0.0
 13
1.0
 23
0.0
 33
0.0
 40
0.0
 40
0.0
 40
0.0
 40
0.0
 40
1.0
 40
1.0
 40
1.0
 40
2.0
 40
2.0
 40
2.0
 40
3.0
 40
3.0
 40
3.0
 40
4.0
 40
4.0
 40
4.0
 40
4.0
 10
80.68327433048708
 20
-129.8979988564143
 30
0.0
 10
80.68327433048708
 20
-129.8428949675394
 30
0.0
 10
80.72804182934496
 20
-129.7980921897727
 30
0.0
 10
80.7831809946049
 20
-129.7980921897727
 30
0.0
 10
80.83828488208798
 20
-129.7980921897727
 30
0.0
 10
80.88308765872274
 20
-129.8428949675394
 30
0.0
 10
80.88308765872274
 20
-129.8979988564143
 30
0.0
 10
80.88308765872274
 20
-129.9531380230674
 30
0.0
 10
80.83828488208798
 20
-129.9979055230559
 30
0.0
 10
80.7831809946049
 20
-129.9979055230559
 30
0.0
 10
80.72804182934496
 20
-129.9979055230559
 30
0.0
 10
80.68327433048708
 20
-129.9531380230674
 30
0.0
 10
80.68327433048708
 20
-129.8979988564143
 30
0.0
  0
SPLINE
  5
94
330
1F
100
AcDbEntity
  8
_U+30EC_U+30A4_U+30E4_U+30FC 1
 62
   179
420
  2234388
370
     9
100
AcDbSpline
210
0.0
220
0.0
230
1.0
 70
    11
 71
     3
 72
    17
 73
    13
 74
     0
 42
0.0000000001
 43
0.0000000001
 12
1.0
 22
0.0
 32
0.0
 13
1.0
 23
0.0
 33
0.0
 40
0.0
 40
0.0
 40
0.0
 40
0.0
 40
1.0
 40
1.0
 40
1.0
 40
2.0
 40
2.0
 40
2.0
 40
3.0
 40
3.0
 40
3.0
 40
4.0
 40
4.0
 40
4.0
 40
4.0
 10
80.68327433048708
 20
-148.8983982961084
 30
0.0
 10
80.68327433048708
 20
-148.842588851678
 30
0.0
 10
80.72804182934496
 20
-148.7978213516894
 30
0.0
 10
80.7831809946049
 20
-148.7978213516894
 30
0.0
 10
80.83828488208798
 20
-148.7978213516894
 30
0.0
 10
80.88308765872274
 20
-148.842588851678
 30
0.0
 10
80.88308765872274
 20
-148.8983982961084
 30
0.0
 10
80.88308765872274
 20
-148.9535374627615
 30
0.0
 10
80.83828488208798
 20
-148.9983049627507
 30
0.0
 10
80.7831809946049
 20
-148.9983049627507
 30
0.0
 10
80.72804182934496
 20
-148.9983049627507
 30
0.0
 10
80.68327433048708
 20
-148.9535374627615
 30
0.0
 10
80.68327433048708
 20
-148.8983982961084
 30
0.0
  0
SPLINE
  5
95
330
1F
100
AcDbEntity
  8
_U+30EC_U+30A4_U+30E4_U+30FC 1
 62
   179
420
  2234388
370
     9
100
AcDbSpline
210
0.0
220
0.0
230
1.0
 70
    11
 71
     3
 72
    17
 73
    13
 74
     0
 42
0.0000000001
 43
0.0000000001
 12
1.0
 22
0.0
 32
0.0
 13
1.0
 23
0.0
 33
0.0
 40
0.0
 40
0.0
 40
0.0
 40
0.0
 40
1.0
 40
1.0
 40
1.0
 40
2.0
 40
2.0
 40
2.0
 40
3.0
 40
3.0
 40
3.0
 40
4.0
 40
4.0
 40
4.0
 40
4.0
 10
96.88367613940261
 20
-107.398079139817
 30
0.0
 10
96.88367613940261
 20
-107.3429752509421
 30
0.0
 10
96.9284436382605
 20
-107.2981724731754
 30
0.0
 10
96.98358280352045
 20
-107.2981724731754
 30
0.0
 10
97.03868669100352
 20
-107.2981724731754
 30
0.0
 10
97.08348946763829
 20
-107.3429752509421
 30
0.0
 10
97.08348946763829
 20
-107.398079139817
 30
0.0
 10
97.08348946763829
 20
-107.4532183064701
 30
0.0
 10
97.03868669100352
 20
-107.4980210842365
 30
0.0
 10
96.98358280352045
 20
-107.4980210842365
 30
0.0
 10
96.9284436382605
 20
-107.4980210842365
 30
0.0
 10
96.88367613940261
 20
-107.4532183064701
 30
0.0
 10
96.88367613940261
 20
-107.398079139817
 30
0.0
  0
SPLINE
  5
96
330
1F
100
AcDbEntity
  8
_U+30EC_U+30A4_U+30E4_U+30FC 1
 62
   179
420
  2234388
370
     9
100
AcDbSpline
210
0.0
220
0.0
230
1.0
 70
    11
 71
     3
 72
    17
 73
    13
 74
     0
 42
0.0000000001
 43
0.0000000001
 12
1.0
 22
0.0
 32
0.0
 13
1.0
 23
0.0
 33
0.0
 40
0.0
 40
0.0
 40
0.0
 40
0.0
 40
1.0
 40
1.0
 40
1.0
 40
2.0
 40
2.0
 40
2.0
 40
3.0
 40
3.0
 40
3.0
 40
4.0
 40
4.0
 40
4.0
 40
4.0
 10
103.6836087436997
 20
-148.8983982961084
 30
0.0
 10
103.6836087436997
 20
-148.842588851678
 30
0.0
 10
103.7283762425575
 20
-148.7978213516894
 30
0.0
 10
103.7835154078175
 20
-148.7978213516894
 30
0.0
 10
103.8386192953006
 20
-148.7978213516894
 30
0.0
 10
103.8834220719353
 20
-148.842588851678
 30
0.0
 10
103.8834220719353
 20
-148.8983982961084
 30
0.0
 10
103.8834220719353
 20
-148.9535374627615
 30
0.0
 10
103.8386192953006
 20
-148.9983049627507
 30
0.0
 10
103.7835154078175
 20
-148.9983049627507
 30
0.0
 10
103.7283762425575
 20
-148.9983049627507
 30
0.0
 10
103.6836087436997
 20
-148.9535374627615
 30
0.0
 10
103.6836087436997
 20
-148.8983982961084
 30
0.0
  0
POLYLINE
  5
97
330
1F
100
AcDbEntity
  8
_U+30EC_U+30A4_U+30E4_U+30FC 1
 62
   179
420
  2234388
370
     9
100
AcDb2dPolyline
 66
     1
 10
0.0
 20
0.0
 30
0.0
  0
VERTEX
  5
98
330
97
100
AcDbEntity
  8
_U+30EC_U+30A4_U+30E4_U+30FC 1
 62
   179
420
  2234388
370
     9
100
AcDbVertex
100
AcDb2dVertex
 10
103.7835154078175
 20
-145.8984113524141
 30
0.0
  0
VERTEX
  5
99
330
97
100
AcDbEntity
  8
_U+30EC_U+30A4_U+30E4_U+30FC 1
 62
   179
420
  2234388
370
     9
100
AcDbVertex
100
AcDb2dVertex
 10
103.7835154078175
 20
-135.8980080215811
 30
0.0
  0
SEQEND
  5
9A
330
97
100
AcDbEntity
  8
_U+30EC_U+30A4_U+30E4_U+30FC 1
 62
   179
420
  2234388
370
     9
  0
POLYLINE
  5
9B
330
1F
100
AcDbEntity
  8
_U+30EC_U+30A4_U+30E4_U+30FC 1
 62
   179
420
  2234388
370
     9
100
AcDb2dPolyline
 66
     1
 10
0.0
 20
0.0
 30
0.0
  0
VERTEX
  5
9C
330
9B
100
AcDbEntity
  8
_U+30EC_U+30A4_U+30E4_U+30FC 1
 62
   179
420
  2234388
370
     9
100
AcDbVertex
100
AcDb2dVertex
 10
102.3234740561774
 20
-145.8984113524141
 30
0.0
  0
VERTEX
  5
9D
330
9B
100
AcDbEntity
  8
_U+30EC_U+30A4_U+30E4_U+30FC 1
 62
   179
420
  2234388
370
     9
100
AcDbVertex
100
AcDb2dVertex
 10
104.7832523267565
 20
-145.8984113524141
 30
0.0
  0
SEQEND
  5
9E
330
9B
100
AcDbEntity
  8
_U+30EC_U+30A4_U+30E4_U+30FC 1
 62
   179
420
  2234388
370
     9
  0
POLYLINE
  5
9F
330
1F
100
AcDbEntity
  8
_U+30EC_U+30A4_U+30E4_U+30FC 1
 62
   179
420
  2234388
370
     9
100
AcDb2dPolyline
 66
     1
 10
0.0
 20
0.0
 30
0.0
  0
VERTEX
  5
A0
330
9F
100
AcDbEntity
  8
_U+30EC_U+30A4_U+30E4_U+30FC 1
 62
   179
420
  2234388
370
     9
100
AcDbVertex
100
AcDb2dVertex
 10
99.52330051650463
 20
-135.8980080215811
 30
0.0
  0
VERTEX
  5
A1
330
9F
100
AcDbEntity
  8
_U+30EC_U+30A4_U+30E4_U+30FC 1
 62
   179
420
  2234388
370
     9
100
AcDbVertex
100
AcDb2dVertex
 10
104.7832523267565
 20
-135.8980080215811
 30
0.0
  0
SEQEND
  5
A2
330
9F
100
AcDbEntity
  8
_U+30EC_U+30A4_U+30E4_U+30FC 1
 62
   179
420
  2234388
370
     9
  0
POLYLINE
  5
A3
330
1F
100
AcDbEntity
  8
_U+30EC_U+30A4_U+30E4_U+30FC 1
 62
   179
420
  2234388
370
     9
100
AcDb2dPolyline
 66
     1
 10
0.0
 20
0.0
 30
0.0
  0
VERTEX
  5
A4
330
A3
100
AcDbEntity
  8
_U+30EC_U+30A4_U+30E4_U+30FC 1
 62
   179
420
  2234388
370
     9
100
AcDbVertex
100
AcDb2dVertex
 10
103.7835154078175
 20
-135.8980080215811
 30
0.0
  0
VERTEX
  5
A5
330
A3
100
AcDbEntity
  8
_U+30EC_U+30A4_U+30E4_U+30FC 1
 62
   179
420
  2234388
370
     9
100
AcDbVertex
100
AcDb2dVertex
 10
103.7835154078175
 20
-111.3978383054839
 30
0.0
  0
SEQEND
  5
A6
330
A3
100
AcDbEntity
  8
_U+30EC_U+30A4_U+30E4_U+30FC 1
 62
   179
420
  2234388
370
     9
  0
POLYLINE
  5
A7
330
1F
100
AcDbEntity
  8
_U+30EC_U+30A4_U+30E4_U+30FC 1
 62
   179
420
  2234388
370
     9
100
AcDb2dPolyline
 66
     1
 10
0.0
 20
0.0
 30
0.0
  0
VERTEX
  5
A8
330
A7
100
AcDbEntity
  8
_U+30EC_U+30A4_U+30E4_U+30FC 1
 62
   179
420
  2234388
370
     9
100
AcDbVertex
100
AcDb2dVertex
 10
99.52330051650463
 20
-111.3978383054839
 30
0.0
  0
VERTEX
  5
A9
330
A7
100
AcDbEntity
  8
_U+30EC_U+30A4_U+30E4_U+30FC 1
 62
   179
420
  2234388
370
     9
100
AcDbVertex
100
AcDb2dVertex
 10
104.7832523267565
 20
-111.3978383054839
 30
0.0
  0
SEQEND
  5
AA
330
A7
100
AcDbEntity
  8
_U+30EC_U+30A4_U+30E4_U+30FC 1
 62
   179
420
  2234388
370
     9
  0
POLYLINE
  5
AB
330
1F
100
AcDbEntity
  8
_U+30EC_U+30A4_U+30E4_U+30FC 1
 62
   179
420
  2234388
370
     9
100
AcDb2dPolyline
 66
     1
 10
0.0
 20
0.0
 30
0.0
  0
VERTEX
  5
AC
330
AB
100
AcDbEntity
  8
_U+30EC_U+30A4_U+30E4_U+30FC 1
 62
   179
420
  2234388
370
     9
100
AcDbVertex
100
AcDb2dVertex
 10
95.78329172303131
 20
-125.8982749685256
 30
0.0
  0
VERTEX
  5
AD
330
AB
100
AcDbEntity
  8
_U+30EC_U+30A4_U+30E4_U+30FC 1
 62
   179
420
  2234388
370
     9
100
AcDbVertex
100
AcDb2dVertex
 10
85.7833825337058
 20
-125.8982749685256
 30
0.0
  0
SEQEND
  5
AE
330
AB
100
AcDbEntity
  8
_U+30EC_U+30A4_U+30E4_U+30FC 1
 62
   179
420
  2234388
370
     9
  0
POLYLINE
  5
AF
330
1F
100
AcDbEntity
  8
_U+30EC_U+30A4_U+30E4_U+30FC 1
 62
   179
420
  2234388
370
     9
100
AcDb2dPolyline
 66
     1
 10
0.0
 20
0.0
 30
0.0
  0
VERTEX
  5
B0
330
AF
100
AcDbEntity
  8
_U+30EC_U+30A4_U+30E4_U+30FC 1
 62
   179
420
  2234388
370
     9
100
AcDbVertex
100
AcDb2dVertex
 10
85.7833825337058
 20
-127.3582810792714
 30
0.0
  0
VERTEX
  5
B1
330
AF
100
AcDbEntity
  8
_U+30EC_U+30A4_U+30E4_U+30FC 1
 62
   179
420
  2234388
370
     9
100
AcDbVertex
100
AcDb2dVertex
 10
85.7833825337058
 20
-124.8977971909978
 30
0.0
  0
SEQEND
  5
B2
330
AF
100
AcDbEntity
  8
_U+30EC_U+30A4_U+30E4_U+30FC 1
 62
   179
420
  2234388
370
     9
  0
POLYLINE
  5
B3
330
1F
100
AcDbEntity
  8
_U+30EC_U+30A4_U+30E4_U+30FC 1
 62
   179
420
  2234388
370
     9
100
AcDb2dPolyline
 66
     1
 10
0.0
 20
0.0
 30
0.0
  0
VERTEX
  5
B4
330
B3
100
AcDbEntity
  8
_U+30EC_U+30A4_U+30E4_U+30FC 1
 62
   179
420
  2234388
370
     9
100
AcDbVertex
100
AcDb2dVertex
 10
96.98358280352045
 20
-107.398079139817
 30
0.0
  0
VERTEX
  5
B5
330
B3
100
AcDbEntity
  8
_U+30EC_U+30A4_U+30E4_U+30FC 1
 62
   179
420
  2234388
370
     9
100
AcDbVertex
100
AcDb2dVertex
 10
102.2414885027134
 20
-107.398079139817
 30
0.0
  0
SEQEND
  5
B6
330
B3
100
AcDbEntity
  8
_U+30EC_U+30A4_U+30E4_U+30FC 1
 62
   179
420
  2234388
370
     9
  0
POLYLINE
  5
B7
330
1F
100
AcDbEntity
  8
_U+30EC_U+30A4_U+30E4_U+30FC 1
 62
   179
420
  2234388
370
     9
100
AcDb2dPolyline
 66
     1
 10
0.0
 20
0.0
 30
0.0
  0
VERTEX
  5
B8
330
B7
100
AcDbEntity
  8
_U+30EC_U+30A4_U+30E4_U+30FC 1
 62
   179
420
  2234388
370
     9
100
AcDbVertex
100
AcDb2dVertex
 10
96.98358280352045
 20
-107.398079139817
 30
0.0
  0
VERTEX
  5
B9
330
B7
100
AcDbEntity
  8
_U+30EC_U+30A4_U+30E4_U+30FC 1
 62
   179
420
  2234388
370
     9
100
AcDbVertex
100
AcDb2dVertex
 10
94.7835195263154
 20
-107.398079139817
 30
0.0
  0
SEQEND
  5
BA
330
B7
100
AcDbEntity
  8
_U+30EC_U+30A4_U+30E4_U+30FC 1
 62
   179
420
  2234388
370
     9
  0
POLYLINE
  5
BB
330
1F
100
AcDbEntity
  8
_U+30EC_U+30A4_U+30E4_U+30FC 1
 62
   179
420
  2234388
370
     9
100
AcDb2dPolyline
 66
     1
 10
0.0
 20
0.0
 30
0.0
  0
VERTEX
  5
BC
330
BB
100
AcDbEntity
  8
_U+30EC_U+30A4_U+30E4_U+30FC 1
 62
   179
420
  2234388
370
     9
100
AcDbVertex
100
AcDb2dVertex
 10
96.98358280352045
 20
-108.858120528341
 30
0.0
  0
VERTEX
  5
BD
330
BB
100
AcDbEntity
  8
_U+30EC_U+30A4_U+30E4_U+30FC 1
 62
   179
420
  2234388
370
     9
100
AcDbVertex
100
AcDb2dVertex
 10
96.98358280352045
 20
-106.3983421956226
 30
0.0
  0
SEQEND
  5
BE
330
BB
100
AcDbEntity
  8
_U+30EC_U+30A4_U+30E4_U+30FC 1
 62
   179
420
  2234388
370
     9
  0
POLYLINE
  5
BF
330
1F
100
AcDbEntity
  8
_U+30EC_U+30A4_U+30E4_U+30FC 1
 62
   179
420
  2234388
370
     9
100
AcDb2dPolyline
 66
     1
 10
0.0
 20
0.0
 30
0.0
  0
VERTEX
  5
C0
330
BF
100
AcDbEntity
  8
_U+30EC_U+30A4_U+30E4_U+30FC 1
 62
   179
420
  2234388
370
     9
100
AcDbVertex
100
AcDb2dVertex
 10
95.78329172303131
 20
-108.858120528341
 30
0.0
  0
VERTEX
  5
C1
330
BF
100
AcDbEntity
  8
_U+30EC_U+30A4_U+30E4_U+30FC 1
 62
   179
420
  2234388
370
     9
100
AcDbVertex
100
AcDb2dVertex
 10
95.78329172303131
 20
-106.3983421956226
 30
0.0
  0
SEQEND
  5
C2
330
BF
100
AcDbEntity
  8
_U+30EC_U+30A4_U+30E4_U+30FC 1
 62
   179
420
  2234388
370
     9
  0
POLYLINE
  5
C3
330
1F
100
AcDbEntity
  8
_U+30EC_U+30A4_U+30E4_U+30FC 1
 62
   179
420
  2234388
370
     9
100
AcDb2dPolyline
 66
     1
 10
0.0
 20
0.0
 30
0.0
  0
VERTEX
  5
C4
330
C3
100
AcDbEntity
  8
_U+30EC_U+30A4_U+30E4_U+30FC 1
 62
   179
420
  2234388
370
     9
100
AcDbVertex
100
AcDb2dVertex
 10
103.7835154078175
 20
-148.8983982961084
 30
0.0
  0
VERTEX
  5
C5
330
C3
100
AcDbEntity
  8
_U+30EC_U+30A4_U+30E4_U+30FC 1
 62
   179
420
  2234388
370
     9
100
AcDbVertex
100
AcDb2dVertex
 10
103.7835154078175
 20
-145.8984113524141
 30
0.0
  0
SEQEND
  5
C6
330
C3
100
AcDbEntity
  8
_U+30EC_U+30A4_U+30E4_U+30FC 1
 62
   179
420
  2234388
370
     9
  0
POLYLINE
  5
C7
330
1F
100
AcDbEntity
  8
_U+30EC_U+30A4_U+30E4_U+30FC 1
 62
   179
420
  2234388
370
     9
100
AcDb2dPolyline
 66
     1
 10
0.0
 20
0.0
 30
0.0
  0
VERTEX
  5
C8
330
C7
100
AcDbEntity
  8
_U+30EC_U+30A4_U+30E4_U+30FC 1
 62
   179
420
  2234388
370
     9
100
AcDbVertex
100
AcDb2dVertex
 10
102.3234740561774
 20
-148.8983982961084
 30
0.0
  0
VERTEX
  5
C9
330
C7
100
AcDbEntity
  8
_U+30EC_U+30A4_U+30E4_U+30FC 1
 62
   179
420
  2234388
370
     9
100
AcDbVertex
100
AcDb2dVertex
 10
104.7832523267565
 20
-148.8983982961084
 30
0.0
  0
SEQEND
  5
CA
330
C7
100
AcDbEntity
  8
_U+30EC_U+30A4_U+30E4_U+30FC 1
 62
   179
420
  2234388
370
     9
  0
POLYLINE
  5
CB
330
1F
100
AcDbEntity
  8
_U+30EC_U+30A4_U+30E4_U+30FC 1
 62
   179
420
  2234388
370
     9
100
AcDb2dPolyline
 66
     1
 10
0.0
 20
0.0
 30
0.0
  0
VERTEX
  5
CC
330
CB
100
AcDbEntity
  8
_U+30EC_U+30A4_U+30E4_U+30FC 1
 62
   179
420
  2234388
370
     9
100
AcDbVertex
100
AcDb2dVertex
 10
80.7831809946049
 20
-129.8979988564143
 30
0.0
  0
VERTEX
  5
CD
330
CB
100
AcDbEntity
  8
_U+30EC_U+30A4_U+30E4_U+30FC 1
 62
   179
420
  2234388
370
     9
100
AcDbVertex
100
AcDb2dVertex
 10
80.7831809946049
 20
-148.8983982961084
 30
0.0
  0
SEQEND
  5
CE
330
CB
100
AcDbEntity
  8
_U+30EC_U+30A4_U+30E4_U+30FC 1
 62
   179
420
  2234388
370
     9
  0
POLYLINE
  5
CF
330
1F
100
AcDbEntity
  8
_U+30EC_U+30A4_U+30E4_U+30FC 1
 62
   179
420
  2234388
370
     9
100
AcDb2dPolyline
 66
     1
 10
0.0
 20
0.0
 30
0.0
  0
VERTEX
  5
D0
330
CF
100
AcDbEntity
  8
_U+30EC_U+30A4_U+30E4_U+30FC 1
 62
   179
420
  2234388
370
     9
100
AcDbVertex
100
AcDb2dVertex
 10
82.24322234624503
 20
-129.8979988564143
 30
0.0
  0
VERTEX
  5
D1
330
CF
100
AcDbEntity
  8
_U+30EC_U+30A4_U+30E4_U+30FC 1
 62
   179
420
  2234388
370
     9
100
AcDbVertex
100
AcDb2dVertex
 10
79.783408797889
 20
-129.8979988564143
 30
0.0
  0
SEQEND
  5
D2
330
CF
100
AcDbEntity
  8
_U+30EC_U+30A4_U+30E4_U+30FC 1
 62
   179
420
  2234388
370
     9
  0
POLYLINE
  5
D3
330
1F
100
AcDbEntity
  8
_U+30EC_U+30A4_U+30E4_U+30FC 1
 62
   179
420
  2234388
370
     9
100
AcDb2dPolyline
 66
     1
 10
0.0
 20
0.0
 30
0.0
  0
VERTEX
  5
D4
330
D3
100
AcDbEntity
  8
_U+30EC_U+30A4_U+30E4_U+30FC 1
 62
   179
420
  2234388
370
     9
100
AcDbVertex
100
AcDb2dVertex
 10
82.24322234624503
 20
-148.8983982961084
 30
0.0
  0
VERTEX
  5
D5
330
D3
100
AcDbEntity
  8
_U+30EC_U+30A4_U+30E4_U+30FC 1
 62
   179
420
  2234388
370
     9
100
AcDbVertex
100
AcDb2dVertex
 10
79.783408797889
 20
-148.8983982961084
 30
0.0
  0
SEQEND
  5
D6
330
D3
100
AcDbEntity
  8
_U+30EC_U+30A4_U+30E4_U+30FC 1
 62
   179
420
  2234388
370
     9
  0
POLYLINE
  5
D7
330
1F
100
AcDbEntity
  8
_U+30EC_U+30A4_U+30E4_U+30FC 1
 62
   179
420
  2234388
370
     9
100
AcDb2dPolyline
 66
     1
 10
0.0
 20
0.0
 30
0.0
  0
VERTEX
  5
D8
330
D7
100
AcDbEntity
  8
_U+30EC_U+30A4_U+30E4_U+30FC 1
 62
   179
420
  2234388
370
     9
100
AcDbVertex
100
AcDb2dVertex
 10
99.78375634319318
 20
-152.8981574617753
 30
0.0
  0
VERTEX
  5
D9
330
D7
100
AcDbEntity
  8
_U+30EC_U+30A4_U+30E4_U+30FC 1
 62
   179
420
  2234388
370
     9
100
AcDbVertex
100
AcDb2dVertex
 10
84.78294005922922
 20
-152.8981574617753
 30
0.0
  0
SEQEND
  5
DA
330
D7
100
AcDbEntity
  8
_U+30EC_U+30A4_U+30E4_U+30FC 1
 62
   179
420
  2234388
370
     9
  0
POLYLINE
  5
DB
330
1F
100
AcDbEntity
  8
_U+30EC_U+30A4_U+30E4_U+30FC 1
 62
   179
420
  2234388
370
     9
100
AcDb2dPolyline
 66
     1
 10
0.0
 20
0.0
 30
0.0
  0
VERTEX
  5
DC
330
DB
100
AcDbEntity
  8
_U+30EC_U+30A4_U+30E4_U+30FC 1
 62
   179
420
  2234388
370
     9
100
AcDbVertex
100
AcDb2dVertex
 10
99.78375634319318
 20
-151.4381160732516
 30
0.0
  0
VERTEX
  5
DD
330
DB
100
AcDbEntity
  8
_U+30EC_U+30A4_U+30E4_U+30FC 1
 62
   179
420
  2234388
370
     9
100
AcDbVertex
100
AcDb2dVertex
 10
99.78375634319318
 20
-153.8979296837479
 30
0.0
  0
SEQEND
  5
DE
330
DB
100
AcDbEntity
  8
_U+30EC_U+30A4_U+30E4_U+30FC 1
 62
   179
420
  2234388
370
     9
  0
POLYLINE
  5
DF
330
1F
100
AcDbEntity
  8
_U+30EC_U+30A4_U+30E4_U+30FC 1
 62
   179
420
  2234388
370
     9
100
AcDb2dPolyline
 66
     1
 10
0.0
 20
0.0
 30
0.0
  0
VERTEX
  5
E0
330
DF
100
AcDbEntity
  8
_U+30EC_U+30A4_U+30E4_U+30FC 1
 62
   179
420
  2234388
370
     9
100
AcDbVertex
100
AcDb2dVertex
 10
84.78294005922922
 20
-151.4381160732516
 30
0.0
  0
VERTEX
  5
E1
330
DF
100
AcDbEntity
  8
_U+30EC_U+30A4_U+30E4_U+30FC 1
 62
   179
420
  2234388
370
     9
100
AcDbVertex
100
AcDb2dVertex
 10
84.78294005922922
 20
-153.8979296837479
 30
0.0
  0
SEQEND
  5
E2
330
DF
100
AcDbEntity
  8
_U+30EC_U+30A4_U+30E4_U+30FC 1
 62
   179
420
  2234388
370
     9
  0
INSERT
  5
E4
330
1F
100
AcDbEntity
  8
_U+30EC_U+30A4_U+30E4_U+30FC 1
100
AcDbBlockReference
  2
block 2
 10
0.0
 20
0.0
 30
0.0
  0
INSERT
  5
ED
330
1F
100
AcDbEntity
  8
_U+30EC_U+30A4_U+30E4_U+30FC 1
100
AcDbBlockReference
  2
block 3
 10
0.0
 20
0.0
 30
0.0
  0
INSERT
  5
112
330
1F
100
AcDbEntity
  8
_U+30EC_U+30A4_U+30E4_U+30FC 1
100
AcDbBlockReference
  2
block 4
 10
0.0
 20
0.0
 30
0.0
  0
INSERT
  5
11B
330
1F
100
AcDbEntity
  8
_U+30EC_U+30A4_U+30E4_U+30FC 1
100
AcDbBlockReference
  2
block 5
 10
0.0
 20
0.0
 30
0.0
  0
INSERT
  5
12B
330
1F
100
AcDbEntity
  8
_U+30EC_U+30A4_U+30E4_U+30FC 1
100
AcDbBlockReference
  2
block 6
 10
0.0
 20
0.0
 30
0.0
  0
INSERT
  5
131
330
1F
100
AcDbEntity
  8
_U+30EC_U+30A4_U+30E4_U+30FC 1
100
AcDbBlockReference
  2
block 7
 10
0.0
 20
0.0
 30
0.0
  0
INSERT
  5
13A
330
1F
100
AcDbEntity
  8
_U+30EC_U+30A4_U+30E4_U+30FC 1
100
AcDbBlockReference
  2
block 8
 10
0.0
 20
0.0
 30
0.0
  0
ENDSEC
  0
SECTION
  2
OBJECTS
  0
DICTIONARY
  5
C
330
0
100
AcDbDictionary
281
     1
  3
ACAD_GROUP
350
D
  3
ACAD_LAYOUT
350
1A
  3
ACAD_MATERIAL
350
3B
  3
ACAD_MLEADERSTYLE
350
142
  3
ACAD_MLINESTYLE
350
17
  3
ACAD_PLOTSETTINGS
350
19
  3
ACAD_PLOTSTYLENAME
350
E
  3
ACAD_TABLESTYLE
350
141
  3
ACAD_VISUALSTYLE
350
2A
  0
SUN
  5
3F
330
29
100
AcDbSun
 90
        1
290
     0
 63
     7
421
 16777215
 40
1.0
291
     1
 91
  2455826
 92
 54000000
292
     0
 70
     2
 71
   256
280
     1
  0
DICTIONARY
  5
D
102
{ACAD_REACTORS
330
C
102
}
330
C
100
AcDbDictionary
281
     1
  0
DICTIONARY
  5
1A
102
{ACAD_REACTORS
330
C
102
}
330
C
100
AcDbDictionary
281
     1
  3
Layout1
350
1E
  3
Layout2
350
26
  3
Model
350
22
  0
DICTIONARY
  5
3B
102
{ACAD_REACTORS
330
C
102
}
330
C
100
AcDbDictionary
281
     1
  3
ByBlock
350
3D
  3
ByLayer
350
3C
  3
Global
350
3E
  0
DICTIONARY
  5
142
102
{ACAD_REACTORS
330
C
102
}
330
C
100
AcDbDictionary
281
     1
  0
DICTIONARY
  5
17
102
{ACAD_REACTORS
330
C
102
}
330
C
100
AcDbDictionary
281
     1
  3
Standard
350
18
  0
DICTIONARY
  5
19
102
{ACAD_REACTORS
330
C
102
}
330
C
100
AcDbDictionary
281
     1
  0
ACDBDICTIONARYWDFLT
  5
E
102
{ACAD_REACTORS
330
C
102
}
330
C
100
AcDbDictionary
281
     1
  3
Normal
350
F
100
AcDbDictionaryWithDefault
340
F
  0
DICTIONARY
  5
141
102
{ACAD_REACTORS
330
C
102
}
330
C
100
AcDbDictionary
281
     1
  0
DICTIONARY
  5
2A
102
{ACAD_REACTORS
330
C
102
}
330
C
100
AcDbDictionary
281
     1
  3
2dWireframe
350
2F
  3
3D Hidden
350
31
  3
3dWireframe
350
30
  3
Basic
350
32
  3
Brighten
350
36
  3
ColorChange
350
3A
  3
Conceptual
350
34
  3
Dim
350
35
  3
Facepattern
350
39
  3
Flat
350
2B
  3
FlatWithEdges
350
2C
  3
Gouraud
350
2D
  3
GouraudWithEdges
350
2E
  3
Linepattern
350
38
  3
Realistic
350
33
  3
Thicken
350
37
  0
LAYOUT
  5
1E
102
{ACAD_REACTORS
330
1A
102
}
330
1A
100
AcDbPlotSettings
  1

  2
none_device
  4

  6

 40
0.0
 41
0.0
 42
0.0
 43
0.0
 44
0.0
 45
0.0
 46
0.0
 47
0.0
 48
0.0
 49
0.0
140
0.0
141
0.0
142
1.0
143
1.0
 70
   688
 72
     0
 73
     0
 74
     5
  7

 75
    16
 76
     0
 77
     2
 78
   300
147
1.0
148
0.0
149
0.0
100
AcDbLayout
  1
Layout1
 70
     1
 71
     1
 10
0.0
 20
0.0
 11
12.0
 21
9.0
 12
0.0
 22
0.0
 32
0.0
 14
1.000000000000000E+20
 24
1.000000000000000E+20
 34
1.000000000000000E+20
 15
-1.000000000000000E+20
 25
-1.000000000000000E+20
 35
-1.000000000000000E+20
146
0.0
 13
0.0
 23
0.0
 33
0.0
 16
1.0
 26
0.0
 36
0.0
 17
0.0
 27
1.0
 37
0.0
 76
     0
330
1B
  0
LAYOUT
  5
26
102
{ACAD_REACTORS
330
1A
102
}
330
1A
100
AcDbPlotSettings
  1

  2
none_device
  4

  6

 40
0.0
 41
0.0
 42
0.0
 43
0.0
 44
0.0
 45
0.0
 46
0.0
 47
0.0
 48
0.0
 49
0.0
140
0.0
141
0.0
142
1.0
143
1.0
 70
   688
 72
     0
 73
     0
 74
     5
  7

 75
    16
 76
     0
 77
     2
 78
   300
147
1.0
148
0.0
149
0.0
100
AcDbLayout
  1
Layout2
 70
     1
 71
     2
 10
0.0
 20
0.0
 11
0.0
 21
0.0
 12
0.0
 22
0.0
 32
0.0
 14
0.0
 24
0.0
 34
0.0
 15
0.0
 25
0.0
 35
0.0
146
0.0
 13
0.0
 23
0.0
 33
0.0
 16
1.0
 26
0.0
 36
0.0
 17
0.0
 27
1.0
 37
0.0
 76
     0
330
23
  0
LAYOUT
  5
22
102
{ACAD_REACTORS
330
1A
102
}
330
1A
100
AcDbPlotSettings
  1

  2
none_device
  4

  6

 40
0.0
 41
0.0
 42
0.0
 43
0.0
 44
0.0
 45
0.0
 46
0.0
 47
0.0
 48
0.0
 49
0.0
140
0.0
141
0.0
142
1.0
143
1.0
 70
  1712
 72
     0
 73
     0
 74
     0
  7

 75
     0
 76
     0
 77
     2
 78
   300
147
1.0
148
0.0
149
0.0
100
AcDbLayout
  1
Model
 70
     1
 71
     0
 10
0.0
 20
0.0
 11
12.0
 21
9.0
 12
0.0
 22
0.0
 32
0.0
 14
1.000000000000000E+20
 24
1.000000000000000E+20
 34
1.000000000000000E+20
 15
-1.000000000000000E+20
 25
-1.000000000000000E+20
 35
-1.000000000000000E+20
146
0.0
 13
0.0
 23
0.0
 33
0.0
 16
1.0
 26
0.0
 36
0.0
 17
0.0
 27
1.0
 37
0.0
 76
     0
330
1F
331
29
  0
MATERIAL
  5
3D
102
{ACAD_REACTORS
330
3B
102
}
330
3B
100
AcDbMaterial
  1
ByBlock
 72
     1
 94
      127
  0
MATERIAL
  5
3C
102
{ACAD_REACTORS
330
3B
102
}
330
3B
100
AcDbMaterial
  1
ByLayer
 72
     1
 94
      127
  0
MATERIAL
  5
3E
102
{ACAD_REACTORS
330
3B
102
}
330
3B
100
AcDbMaterial
  1
Global
 72
     1
 94
      127
  0
MLINESTYLE
  5
18
102
{ACAD_REACTORS
330
17
102
}
330
17
100
AcDbMlineStyle
  2
Standard
 70
     0
  3

 62
   256
 51
90.0
 52
90.0
 71
     2
 49
0.5
 62
   256
  6
BYLAYER
 49
-0.5
 62
   256
  6
BYLAYER
  0
ACDBPLACEHOLDER
  5
F
102
{ACAD_REACTORS
330
E
102
}
330
E
  0
VISUALSTYLE
  5
2F
102
{ACAD_REACTORS
330
2A
102
}
330
2A
100
AcDbVisualStyle
  2
2dWireframe
 70
     4
177
     2
291
     0
 71
     0
176
     1
 72
     2
176
     1
 73
     0
176
     1
 90
        0
176
     1
 40
-0.6
176
     1
 41
-30.0
176
     1
 62
     5
 63
     7
421
 16777215
176
     1
 74
     1
176
     1
 91
        4
176
     1
 64
     7
176
     1
 65
   257
176
     1
 75
     1
176
     1
175
     1
176
     1
 42
1.0
176
     1
 92
        0
176
     1
 66
   257
176
     1
 43
1.0
176
     1
 76
     1
176
     1
 77
     6
176
     1
 78
     2
176
     1
 67
     7
176
     1
 79
     5
176
     1
170
     0
176
     1
171
     0
176
     1
290
     0
176
     1
 93
        1
176
     1
 44
0.0
176
     1
173
     0
176
     1
  0
VISUALSTYLE
  5
31
102
{ACAD_REACTORS
330
2A
102
}
330
2A
100
AcDbVisualStyle
  2
3D Hidden
 70
     6
177
     2
291
     0
 71
     1
176
     1
 72
     2
176
     1
 73
     2
176
     1
 90
        0
176
     1
 40
-0.6
176
     1
 41
-30.0
176
     1
 62
     5
 63
     7
421
 16777215
176
     1
 74
     2
176
     1
 91
        2
176
     1
 64
     7
176
     1
 65
   257
176
     1
 75
     2
176
     1
175
     1
176
     1
 42
40.0
176
     1
 92
        0
176
     1
 66
   257
176
     1
 43
1.0
176
     1
 76
     1
176
     1
 77
     6
176
     1
 78
     2
176
     1
 67
     7
176
     1
 79
     3
176
     1
170
     0
176
     1
171
     0
176
     1
290
     0
176
     1
 93
        1
176
     1
 44
0.0
176
     1
173
     0
176
     1
  0
VISUALSTYLE
  5
30
102
{ACAD_REACTORS
330
2A
102
}
330
2A
100
AcDbVisualStyle
  2
3dWireframe
 70
     5
177
     2
291
     0
 71
     0
176
     1
 72
     2
176
     1
 73
     0
176
     1
 90
        0
176
     1
 40
-0.6
176
     1
 41
-30.0
176
     1
 62
     5
 63
     7
421
 16777215
176
     1
 74
     1
176
     1
 91
        4
176
     1
 64
     7
176
     1
 65
   257
176
     1
 75
     1
176
     1
175
     1
176
     1
 42
1.0
176
     1
 92
        0
176
     1
 66
   257
176
     1
 43
1.0
176
     1
 76
     1
176
     1
 77
     6
176
     1
 78
     2
176
     1
 67
     7
176
     1
 79
     5
176
     1
170
     0
176
     1
171
     0
176
     1
290
     0
176
     1
 93
        1
176
     1
 44
0.0
176
     1
173
     0
176
     1
  0
VISUALSTYLE
  5
32
102
{ACAD_REACTORS
330
2A
102
}
330
2A
100
AcDbVisualStyle
  2
Basic
 70
     7
177
     2
291
     1
 71
     1
176
     1
 72
     0
176
     1
 73
     1
176
     1
 90
        0
176
     1
 40
-0.6
176
     1
 41
-30.0
176
     1
 62
     5
 63
     7
421
 16777215
176
     1
 74
     0
176
     1
 91
        4
176
     1
 64
     7
176
     1
 65
   257
176
     1
 75
     1
176
     1
175
     1
176
     1
 42
1.0
176
     1
 92
        8
176
     1
 66
     7
176
     1
 43
1.0
176
     1
 76
     1
176
     1
 77
     6
176
     1
 78
     2
176
     1
 67
     7
176
     1
 79
     5
176
     1
170
     0
176
     1
171
     0
176
     1
290
     0
176
     1
 93
        1
176
     1
 44
0.0
176
     1
173
     0
176
     1
  0
VISUALSTYLE
  5
36
102
{ACAD_REACTORS
330
2A
102
}
330
2A
100
AcDbVisualStyle
  2
Brighten
 70
    12
177
     2
291
     1
 71
     2
176
     1
 72
     2
176
     1
 73
     0
176
     1
 90
        0
176
     1
 40
-0.6
176
     1
 41
-30.0
176
     1
 62
     5
 63
     7
421
 16777215
176
     1
 74
     1
176
     1
 91
        4
176
     1
 64
     7
176
     1
 65
   257
176
     1
 75
     1
176
     1
175
     1
176
     1
 42
1.0
176
     1
 92
        8
176
     1
 66
     7
176
     1
 43
1.0
176
     1
 76
     1
176
     1
 77
     6
176
     1
 78
     2
176
     1
 67
     7
176
     1
 79
     5
176
     1
170
     0
176
     1
171
     0
176
     1
290
     0
176
     1
 93
        1
176
     1
 44
50.0
176
     1
173
     0
176
     1
  0
VISUALSTYLE
  5
3A
102
{ACAD_REACTORS
330
2A
102
}
330
2A
100
AcDbVisualStyle
  2
ColorChange
 70
    16
177
     2
291
     1
 71
     2
176
     1
 72
     2
176
     1
 73
     3
176
     1
 90
        0
176
     1
 40
-0.6
176
     1
 41
-30.0
176
     1
 62
     5
 63
     8
421
  8421504
176
     1
 74
     1
176
     1
 91
        4
176
     1
 64
     7
176
     1
 65
   257
176
     1
 75
     1
176
     1
175
     1
176
     1
 42
1.0
176
     1
 92
        8
176
     1
 66
     8
424
  8421504
176
     1
 43
1.0
176
     1
 76
     1
176
     1
 77
     6
176
     1
 78
     2
176
     1
 67
     7
176
     1
 79
     5
176
     1
170
     0
176
     1
171
     0
176
     1
290
     0
176
     1
 93
        1
176
     1
 44
0.0
176
     1
173
     0
176
     1
  0
VISUALSTYLE
  5
34
102
{ACAD_REACTORS
330
2A
102
}
330
2A
100
AcDbVisualStyle
  2
Conceptual
 70
     9
177
     2
291
     0
 71
     3
176
     1
 72
     2
176
     1
 73
     0
176
     1
 90
        0
176
     1
 40
-0.6
176
     1
 41
-30.0
176
     1
 62
     5
 63
     7
421
 16777215
176
     1
 74
     2
176
     1
 91
        2
176
     1
 64
     7
176
     1
 65
   257
176
     1
 75
     1
176
     1
175
     1
176
     1
 42
40.0
176
     1
 92
        8
176
     1
 66
     7
176
     1
 43
1.0
176
     1
 76
     1
176
     1
 77
     6
176
     1
 78
     2
176
     1
 67
     7
176
     1
 79
     3
176
     1
170
     0
176
     1
171
     0
176
     1
290
     0
176
     1
 93
        1
176
     1
 44
0.0
176
     1
173
     0
176
     1
  0
VISUALSTYLE
  5
35
102
{ACAD_REACTORS
330
2A
102
}
330
2A
100
AcDbVisualStyle
  2
Dim
 70
    11
177
     2
291
     1
 71
     2
176
     1
 72
     2
176
     1
 73
     0
176
     1
 90
        0
176
     1
 40
-0.6
176
     1
 41
-30.0
176
     1
 62
     5
 63
     7
421
 16777215
176
     1
 74
     1
176
     1
 91
        4
176
     1
 64
     7
176
     1
 65
   257
176
     1
 75
     1
176
     1
175
     1
176
     1
 42
1.0
176
     1
 92
        8
176
     1
 66
     7
176
     1
 43
1.0
176
     1
 76
     1
176
     1
 77
     6
176
     1
 78
     2
176
     1
 67
     7
176
     1
 79
     5
176
     1
170
     0
176
     1
171
     0
176
     1
290
     0
176
     1
 93
        1
176
     1
 44
-50.0
176
     1
173
     0
176
     1
  0
VISUALSTYLE
  5
39
102
{ACAD_REACTORS
330
2A
102
}
330
2A
100
AcDbVisualStyle
  2
Facepattern
 70
    15
177
     2
291
     1
 71
     2
176
     1
 72
     2
176
     1
 73
     0
176
     1
 90
        0
176
     1
 40
-0.6
176
     1
 41
-30.0
176
     1
 62
     5
 63
     7
421
 16777215
176
     1
 74
     1
176
     1
 91
        4
176
     1
 64
     7
176
     1
 65
   257
176
     1
 75
     1
176
     1
175
     1
176
     1
 42
1.0
176
     1
 92
        8
176
     1
 66
     7
176
     1
 43
1.0
176
     1
 76
     1
176
     1
 77
     6
176
     1
 78
     2
176
     1
 67
     7
176
     1
 79
     5
176
     1
170
     0
176
     1
171
     0
176
     1
290
     0
176
     1
 93
        1
176
     1
 44
0.0
176
     1
173
     0
176
     1
  0
VISUALSTYLE
  5
2B
102
{ACAD_REACTORS
330
2A
102
}
330
2A
100
AcDbVisualStyle
  2
Flat
 70
     0
177
     2
291
     1
 71
     2
176
     1
 72
     1
176
     1
 73
     1
176
     1
 90
        2
176
     1
 40
-0.6
176
     1
 41
30.0
176
     1
 62
     5
 63
     7
421
 16777215
176
     1
 74
     0
176
     1
 91
        4
176
     1
 64
     7
176
     1
 65
   257
176
     1
 75
     1
176
     1
175
     1
176
     1
 42
1.0
176
     1
 92
        8
176
     1
 66
     7
176
     1
 43
1.0
176
     1
 76
     1
176
     1
 77
     6
176
     1
 78
     2
176
     1
 67
     7
176
     1
 79
     5
176
     1
170
     0
176
     1
171
     0
176
     1
290
     0
176
     1
 93
       13
176
     1
 44
0.0
176
     1
173
     0
176
     1
  0
VISUALSTYLE
  5
2C
102
{ACAD_REACTORS
330
2A
102
}
330
2A
100
AcDbVisualStyle
  2
FlatWithEdges
 70
     1
177
     2
291
     1
 71
     2
176
     1
 72
     1
176
     1
 73
     1
176
     1
 90
        2
176
     1
 40
-0.6
176
     1
 41
30.0
176
     1
 62
     5
 63
     7
421
 16777215
176
     1
 74
     1
176
     1
 91
        4
176
     1
 64
     7
176
     1
 65
   257
176
     1
 75
     1
176
     1
175
     1
176
     1
 42
1.0
176
     1
 92
        0
176
     1
 66
   257
176
     1
 43
1.0
176
     1
 76
     1
176
     1
 77
     6
176
     1
 78
     2
176
     1
 67
     7
176
     1
 79
     5
176
     1
170
     0
176
     1
171
     0
176
     1
290
     0
176
     1
 93
       13
176
     1
 44
0.0
176
     1
173
     0
176
     1
  0
VISUALSTYLE
  5
2D
102
{ACAD_REACTORS
330
2A
102
}
330
2A
100
AcDbVisualStyle
  2
Gouraud
 70
     2
177
     2
291
     1
 71
     2
176
     1
 72
     2
176
     1
 73
     1
176
     1
 90
        2
176
     1
 40
-0.6
176
     1
 41
30.0
176
     1
 62
     5
 63
     7
421
 16777215
176
     1
 74
     0
176
     1
 91
        4
176
     1
 64
     7
176
     1
 65
   257
176
     1
 75
     1
176
     1
175
     1
176
     1
 42
1.0
176
     1
 92
        0
176
     1
 66
     7
176
     1
 43
1.0
176
     1
 76
     1
176
     1
 77
     6
176
     1
 78
     2
176
     1
 67
     7
176
     1
 79
     5
176
     1
170
     0
176
     1
171
     0
176
     1
290
     0
176
     1
 93
       13
176
     1
 44
0.0
176
     1
173
     0
176
     1
  0
VISUALSTYLE
  5
2E
102
{ACAD_REACTORS
330
2A
102
}
330
2A
100
AcDbVisualStyle
  2
GouraudWithEdges
 70
     3
177
     2
291
     1
 71
     2
176
     1
 72
     2
176
     1
 73
     1
176
     1
 90
        2
176
     1
 40
-0.6
176
     1
 41
30.0
176
     1
 62
     5
 63
     7
421
 16777215
176
     1
 74
     1
176
     1
 91
        4
176
     1
 64
     7
176
     1
 65
   257
176
     1
 75
     1
176
     1
175
     1
176
     1
 42
1.0
176
     1
 92
        0
176
     1
 66
   257
176
     1
 43
1.0
176
     1
 76
     1
176
     1
 77
     6
176
     1
 78
     2
176
     1
 67
     7
176
     1
 79
     5
176
     1
170
     0
176
     1
171
     0
176
     1
290
     0
176
     1
 93
       13
176
     1
 44
0.0
176
     1
173
     0
176
     1
  0
VISUALSTYLE
  5
38
102
{ACAD_REACTORS
330
2A
102
}
330
2A
100
AcDbVisualStyle
  2
Linepattern
 70
    14
177
     2
291
     1
 71
     2
176
     1
 72
     2
176
     1
 73
     0
176
     1
 90
        0
176
     1
 40
-0.6
176
     1
 41
-30.0
176
     1
 62
     5
 63
     7
421
 16777215
176
     1
 74
     1
176
     1
 91
        4
176
     1
 64
     7
176
     1
 65
   257
176
     1
 75
     7
176
     1
175
     7
176
     1
 42
1.0
176
     1
 92
        8
176
     1
 66
     7
176
     1
 43
1.0
176
     1
 76
     1
176
     1
 77
     6
176
     1
 78
     2
176
     1
 67
     7
176
     1
 79
     5
176
     1
170
     0
176
     1
171
     0
176
     1
290
     0
176
     1
 93
        1
176
     1
 44
0.0
176
     1
173
     0
176
     1
  0
VISUALSTYLE
  5
33
102
{ACAD_REACTORS
330
2A
102
}
330
2A
100
AcDbVisualStyle
  2
Realistic
 70
     8
177
     2
291
     0
 71
     2
176
     1
 72
     2
176
     1
 73
     0
176
     1
 90
        0
176
     1
 40
-0.6
176
     1
 41
-30.0
176
     1
 62
     5
 63
     7
421
 16777215
176
     1
 74
     1
176
     1
 91
        0
176
     1
 64
     7
176
     1
 65
   257
176
     1
 75
     1
176
     1
175
     1
176
     1
 42
1.0
176
     1
 92
        8
176
     1
 66
     8
424
  7895160
176
     1
 43
1.0
176
     1
 76
     1
176
     1
 77
     6
176
     1
 78
     2
176
     1
 67
     7
176
     1
 79
     5
176
     1
170
     0
176
     1
171
     0
176
     1
290
     0
176
     1
 93
       13
176
     1
 44
0.0
176
     1
173
     0
176
     1
  0
VISUALSTYLE
  5
37
102
{ACAD_REACTORS
330
2A
102
}
330
2A
100
AcDbVisualStyle
  2
Thicken
 70
    13
177
     2
291
     1
 71
     2
176
     1
 72
     2
176
     1
 73
     0
176
     1
 90
        0
176
     1
 40
-0.6
176
     1
 41
-30.0
176
     1
 62
     5
 63
     7
421
 16777215
176
     1
 74
     1
176
     1
 91
        4
176
     1
 64
     7
176
     1
 65
   257
176
     1
 75
     1
176
     1
175
     1
176
     1
 42
1.0
176
     1
 92
       12
176
     1
 66
     7
176
     1
 43
1.0
176
     1
 76
     1
176
     1
 77
     6
176
     1
 78
     2
176
     1
 67
     7
176
     1
 79
     5
176
     1
170
     0
176
     1
171
     0
176
     1
290
     0
176
     1
 93
        1
176
     1
 44
0.0
176
     1
173
     0
176
     1
  0
ENDSEC
  0
EOF
