  0
SECTION
  2
HEADER
  9
$ACADVER
  1
AC1024
  9
$ACADMAINTVER
 70
     6
  9
$DWGCODEPAGE
  3
UNDEFINED
  9
$INSBASE
 10
0.0
 20
0.0
 30
0.0
  9
$EXTMIN
 10
1.000000000000000E+20
 20
1.000000000000000E+20
 30
1.000000000000000E+20
  9
$EXTMAX
 10
-1.000000000000000E+20
 20
-1.000000000000000E+20
 30
-1.000000000000000E+20
  9
$LIMMIN
 10
0.0
 20
0.0
  9
$LIMMAX
 10
12.0
 20
9.0
  9
$ORTHOMODE
 70
     0
  9
$REGENMODE
 70
     1
  9
$FILLMODE
 70
     1
  9
$QTEXTMODE
 70
     0
  9
$MIRRTEXT
 70
     1
  9
$LTSCALE
 40
1.0
  9
$ATTMODE
 70
     1
  9
$TEXTSIZE
 40
0.2
  9
$TRACEWID
 40
0.05
  9
$TEXTSTYLE
  7
Standard
  9
$CLAYER
  8
0
  9
$CELTYPE
  6
ByLayer
  9
$CECOLOR
 62
   256
  9
$CELTSCALE
 40
1.0
  9
$DISPSILH
 70
     0
  9
$DIMSCALE
 40
1.0
  9
$DIMASZ
 40
0.18
  9
$DIMEXO
 40
0.0625
  9
$DIMDLI
 40
0.38
  9
$DIMRND
 40
0.0
  9
$DIMDLE
 40
0.0
  9
$DIMEXE
 40
0.18
  9
$DIMTP
 40
0.0
  9
$DIMTM
 40
0.0
  9
$DIMTXT
 40
0.18
  9
$DIMCEN
 40
0.09
  9
$DIMTSZ
 40
0.0
  9
$DIMTOL
 70
     0
  9
$DIMLIM
 70
     0
  9
$DIMTIH
 70
     1
  9
$DIMTOH
 70
     1
  9
$DIMSE1
 70
     0
  9
$DIMSE2
 70
     0
  9
$DIMTAD
 70
     0
  9
$DIMZIN
 70
     0
  9
$DIMBLK
  1

  9
$DIMASO
 70
     1
  9
$DIMSHO
 70
     1
  9
$DIMPOST
  1

  9
$DIMAPOST
  1

  9
$DIMALT
 70
     0
  9
$DIMALTD
 70
     2
  9
$DIMALTF
 40
25.4
  9
$DIMLFAC
 40
1.0
  9
$DIMTOFL
 70
     0
  9
$DIMTVP
 40
0.0
  9
$DIMTIX
 70
     0
  9
$DIMSOXD
 70
     0
  9
$DIMSAH
 70
     0
  9
$DIMBLK1
  1

  9
$DIMBLK2
  1

  9
$DIMSTYLE
  2
Standard
  9
$DIMCLRD
 70
     0
  9
$DIMCLRE
 70
     0
  9
$DIMCLRT
 70
     0
  9
$DIMTFAC
 40
1.0
  9
$DIMGAP
 40
0.09
  9
$DIMJUST
 70
     0
  9
$DIMSD1
 70
     0
  9
$DIMSD2
 70
     0
  9
$DIMTOLJ
 70
     1
  9
$DIMTZIN
 70
     0
  9
$DIMALTZ
 70
     0
  9
$DIMALTTZ
 70
     0
  9
$DIMUPT
 70
     0
  9
$DIMDEC
 70
     4
  9
$DIMTDEC
 70
     4
  9
$DIMALTU
 70
     2
  9
$DIMALTTD
 70
     2
  9
$DIMTXSTY
  7
Standard
  9
$DIMAUNIT
 70
     0
  9
$DIMADEC
 70
     0
  9
$DIMALTRND
 40
0.0
  9
$DIMAZIN
 70
     0
  9
$DIMDSEP
 70
    46
  9
$DIMATFIT
 70
     3
  9
$DIMFRAC
 70
     0
  9
$DIMLDRBLK
  1

  9
$DIMLUNIT
 70
     2
  9
$DIMLWD
 70
    -2
  9
$DIMLWE
 70
    -2
  9
$DIMTMOVE
 70
     0
  9
$DIMFXL
 40
1.0
  9
$DIMFXLON
 70
     0
  9
$DIMJOGANG
 40
0.7853981633974483
  9
$DIMTFILL
 70
     0
  9
$DIMTFILLCLR
 70
     0
  9
$DIMARCSYM
 70
     0
  9
$DIMLTYPE
  6

  9
$DIMLTEX1
  6

  9
$DIMLTEX2
  6

  9
$DIMTXTDIRECTION
 70
     0
  9
$LUNITS
 70
     2
  9
$LUPREC
 70
     4
  9
$SKETCHINC
 40
0.1
  9
$FILLETRAD
 40
0.5
  9
$AUNITS
 70
     0
  9
$AUPREC
 70
     0
  9
$MENU
  1
.
  9
$ELEVATION
 40
0.0
  9
$PELEVATION
 40
0.0
  9
$THICKNESS
 40
0.0
  9
$LIMCHECK
 70
     0
  9
$CHAMFERA
 40
0.5
  9
$CHAMFERB
 40
0.5
  9
$CHAMFERC
 40
1.0
  9
$CHAMFERD
 40
0.0
  9
$SKPOLY
 70
     0
  9
$TDCREATE
 40
2457917.613472222
  9
$TDUCREATE
 40
2457917.238472222
  9
$TDUPDATE
 40
2457917.613472222
  9
$TDUUPDATE
 40
2457917.238472222
  9
$TDINDWG
 40
0.0000000116
  9
$TDUSRTIMER
 40
0.0000000116
  9
$USRTIMER
 70
     1
  9
$ANGBASE
 50
0.0
  9
$ANGDIR
 70
     0
  9
$PDMODE
 70
     0
  9
$PDSIZE
 40
0.0
  9
$PLINEWID
 40
0.0
  9
$SPLFRAME
 70
     0
  9
$SPLINETYPE
 70
     6
  9
$SPLINESEGS
 70
     8
  9
$HANDSEED
  5
13C
  9
$SURFTAB1
 70
     6
  9
$SURFTAB2
 70
     6
  9
$SURFTYPE
 70
     6
  9
$SURFU
 70
     6
  9
$SURFV
 70
     6
  9
$UCSBASE
  2

  9
$UCSNAME
  2

  9
$UCSORG
 10
0.0
 20
0.0
 30
0.0
  9
$UCSXDIR
 10
1.0
 20
0.0
 30
0.0
  9
$UCSYDIR
 10
0.0
 20
1.0
 30
0.0
  9
$UCSORTHOREF
  2

  9
$UCSORTHOVIEW
 70
     0
  9
$UCSORGTOP
 10
0.0
 20
0.0
 30
0.0
  9
$UCSORGBOTTOM
 10
0.0
 20
0.0
 30
0.0
  9
$UCSORGLEFT
 10
0.0
 20
0.0
 30
0.0
  9
$UCSORGRIGHT
 10
0.0
 20
0.0
 30
0.0
  9
$UCSORGFRONT
 10
0.0
 20
0.0
 30
0.0
  9
$UCSORGBACK
 10
0.0
 20
0.0
 30
0.0
  9
$PUCSBASE
  2

  9
$PUCSNAME
  2

  9
$PUCSORG
 10
0.0
 20
0.0
 30
0.0
  9
$PUCSXDIR
 10
1.0
 20
0.0
 30
0.0
  9
$PUCSYDIR
 10
0.0
 20
1.0
 30
0.0
  9
$PUCSORTHOREF
  2

  9
$PUCSORTHOVIEW
 70
     0
  9
$PUCSORGTOP
 10
0.0
 20
0.0
 30
0.0
  9
$PUCSORGBOTTOM
 10
0.0
 20
0.0
 30
0.0
  9
$PUCSORGLEFT
 10
0.0
 20
0.0
 30
0.0
  9
$PUCSORGRIGHT
 10
0.0
 20
0.0
 30
0.0
  9
$PUCSORGFRONT
 10
0.0
 20
0.0
 30
0.0
  9
$PUCSORGBACK
 10
0.0
 20
0.0
 30
0.0
  9
$USERI1
 70
     0
  9
$USERI2
 70
     0
  9
$USERI3
 70
     0
  9
$USERI4
 70
     0
  9
$USERI5
 70
     0
  9
$USERR1
 40
0.0
  9
$USERR2
 40
0.0
  9
$USERR3
 40
0.0
  9
$USERR4
 40
0.0
  9
$USERR5
 40
0.0
  9
$WORLDVIEW
 70
     1
  9
$SHADEDGE
 70
     3
  9
$SHADEDIF
 70
    70
  9
$TILEMODE
 70
     1
  9
$MAXACTVP
 70
    64
  9
$PINSBASE
 10
0.0
 20
0.0
 30
0.0
  9
$PLIMCHECK
 70
     0
  9
$PEXTMIN
 10
1.000000000000000E+20
 20
1.000000000000000E+20
 30
1.000000000000000E+20
  9
$PEXTMAX
 10
-1.000000000000000E+20
 20
-1.000000000000000E+20
 30
-1.000000000000000E+20
  9
$PLIMMIN
 10
0.0
 20
0.0
  9
$PLIMMAX
 10
12.0
 20
9.0
  9
$UNITMODE
 70
     0
  9
$VISRETAIN
 70
     1
  9
$PLINEGEN
 70
     0
  9
$PSLTSCALE
 70
     1
  9
$TREEDEPTH
 70
  3020
  9
$CMLSTYLE
  2
Standard
  9
$CMLJUST
 70
     0
  9
$CMLSCALE
 40
1.0
  9
$PROXYGRAPHICS
 70
     1
  9
$MEASUREMENT
 70
     0
  9
$CELWEIGHT
370
    -1
  9
$ENDCAPS
280
     0
  9
$JOINSTYLE
280
     0
  9
$LWDISPLAY
290
     1
  9
$INSUNITS
 70
     1
  9
$HYPERLINKBASE
  1

  9
$STYLESHEET
  1

  9
$XEDIT
290
     1
  9
$CEPSNTYPE
380
     0
  9
$PSTYLEMODE
290
     1
  9
$FINGERPRINTGUID
  2
{FC558A41-E8A7-6F82-3258-385045EA58C5}
  9
$VERSIONGUID
  2
{FAEB1C32-E019-11D5-929B-00C0DF256EC4}
  9
$EXTNAMES
290
     1
  9
$PSVPSCALE
 40
0.0
  9
$OLESTARTUP
290
     0
  9
$SORTENTS
280
   127
  9
$INDEXCTL
280
     0
  9
$HIDETEXT
280
     1
  9
$XCLIPFRAME
280
     2
  9
$HALOGAP
280
     0
  9
$OBSCOLOR
 70
   257
  9
$OBSLTYPE
280
     0
  9
$INTERSECTIONDISPLAY
280
     0
  9
$INTERSECTIONCOLOR
 70
   257
  9
$DIMASSOC
280
     2
  9
$PROJECTNAME
  1

  9
$CAMERADISPLAY
290
     0
  9
$LENSLENGTH
 40
50.0
  9
$CAMERAHEIGHT
 40
0.0
  9
$STEPSPERSEC
 40
2.0
  9
$STEPSIZE
 40
6.0
  9
$3DDWFPREC
 40
2.0
  9
$PSOLWIDTH
 40
0.25
  9
$PSOLHEIGHT
 40
4.0
  9
$LOFTANG1
 40
1.570796326794897
  9
$LOFTANG2
 40
1.570796326794897
  9
$LOFTMAG1
 40
0.0
  9
$LOFTMAG2
 40
0.0
  9
$LOFTPARAM
 70
     7
  9
$LOFTNORMALS
280
     1
  9
$LATITUDE
 40
37.795
  9
$LONGITUDE
 40
-122.394
  9
$NORTHDIRECTION
 40
0.0
  9
$TIMEZONE
 70
 -8000
  9
$LIGHTGLYPHDISPLAY
280
     1
  9
$TILEMODELIGHTSYNCH
280
     1
  9
$CMATERIAL
347
3C
  9
$SOLIDHIST
280
     1
  9
$SHOWHIST
280
     1
  9
$DWFFRAME
280
     2
  9
$DGNFRAME
280
     2
  9
$REALWORLDSCALE
290
     1
  9
$INTERFERECOLOR
 62
   256
  9
$CSHADOW
280
     0
  9
$SHADOWPLANELOCATION
 40
0.0
  0
ENDSEC
  0
SECTION
  2
CLASSES
  0
CLASS
  1
ACDBDICTIONARYWDFLT
  2
AcDbDictionaryWithDefault
  3
ObjectDBX Classes
 90
        0
 91
        4
280
     0
281
     0
  0
CLASS
  1
VISUALSTYLE
  2
AcDbVisualStyle
  3
ObjectDBX Classes
 90
     4095
 91
        4
280
     0
281
     0
  0
CLASS
  1
MATERIAL
  2
AcDbMaterial
  3
ObjectDBX Classes
 90
     1153
 91
        4
280
     0
281
     0
  0
CLASS
  1
SUN
  2
AcDbSun
  3
SCENEOE
 90
     1024
 91
        4
280
     0
281
     0
  0
ENDSEC
  0
SECTION
  2
TABLES
  0
TABLE
  2
VPORT
  5
8
330
0
100
AcDbSymbolTable
 70
     1
  0
VPORT
  5
29
330
8
100
AcDbSymbolTableRecord
100
AcDbViewportTableRecord
  2
*Active
 70
     0
 10
0.0
 20
0.0
 11
1.0
 21
1.0
 12
0.0
 22
0.0
 13
0.0
 23
0.0
 14
0.5
 24
0.5
 15
0.5
 25
0.5
 16
0.0
 26
0.0
 36
1.0
 17
91.00082462281999
 27
-128.4993055234307
 37
0.0
 40
256.9986110468615
 41
0.7081814508812795
 42
50.0
 43
0.0
 44
0.0
 50
0.0
 51
0.0
 71
     0
 72
   100
 73
     1
 74
     3
 75
     0
 76
     0
 77
     0
 78
     0
281
     0
 65
     1
110
0.0
120
0.0
130
0.0
111
1.0
121
0.0
131
0.0
112
0.0
122
1.0
132
0.0
 79
     0
146
0.0
 60
     3
 61
     5
292
     1
282
     1
141
0.0
142
0.0
 63
   250
361
3F
  0
ENDTAB
  0
TABLE
  2
LTYPE
  5
5
330
0
100
AcDbSymbolTable
 70
     1
  0
LTYPE
  5
14
330
5
100
AcDbSymbolTableRecord
100
AcDbLinetypeTableRecord
  2
ByBlock
 70
     0
  3

 72
    65
 73
     0
 40
0.0
  0
LTYPE
  5
15
330
5
100
AcDbSymbolTableRecord
100
AcDbLinetypeTableRecord
  2
ByLayer
 70
     0
  3

 72
    65
 73
     0
 40
0.0
  0
LTYPE
  5
16
330
5
100
AcDbSymbolTableRecord
100
AcDbLinetypeTableRecord
  2
Continuous
 70
     0
  3
Solid line
 72
    65
 73
     0
 40
0.0
  0
ENDTAB
  0
TABLE
  2
LAYER
  5
2
330
0
100
AcDbSymbolTable
 70
     2
  0
LAYER
  5
10
330
2
100
AcDbSymbolTableRecord
100
AcDbLayerTableRecord
  2
0
 70
     0
 62
     7
  6
Continuous
370
    -3
390
F
347
3E
  0
LAYER
  5
40
330
2
100
AcDbSymbolTableRecord
100
AcDbLayerTableRecord
  2
_U+30EC_U+30A4_U+30E4_U+30FC 1
 70
     0
 62
     7
  6
Continuous
370
    -3
390
F
347
3E
  0
ENDTAB
  0
TABLE
  2
STYLE
  5
3
330
0
100
AcDbSymbolTable
 70
     1
  0
STYLE
  5
11
330
3
100
AcDbSymbolTableRecord
100
AcDbTextStyleTableRecord
  2
Standard
 70
     0
 40
0.0
 41
1.0
 50
0.0
 71
     0
 42
0.2
  3
txt
  4

  0
ENDTAB
  0
TABLE
  2
VIEW
  5
6
330
0
100
AcDbSymbolTable
 70
     0
  0
ENDTAB
  0
TABLE
  2
UCS
  5
7
330
0
100
AcDbSymbolTable
 70
     0
  0
ENDTAB
  0
TABLE
  2
APPID
  5
9
330
0
100
AcDbSymbolTable
 70
     1
  0
APPID
  5
12
330
9
100
AcDbSymbolTableRecord
100
AcDbRegAppTableRecord
  2
ACAD
 70
     0
  0
ENDTAB
  0
TABLE
  2
DIMSTYLE
  5
A
330
0
100
AcDbSymbolTable
 70
     1
100
AcDbDimStyleTable
  0
DIMSTYLE
105
27
330
A
100
AcDbSymbolTableRecord
100
AcDbDimStyleTableRecord
  2
Standard
 70
     0
178
     0
340
11
  0
ENDTAB
  0
TABLE
  2
BLOCK_RECORD
  5
1
330
0
100
AcDbSymbolTable
 70
     7
  0
BLOCK_RECORD
  5
1F
330
1
100
AcDbSymbolTableRecord
100
AcDbBlockTableRecord
  2
*Model_Space
340
22
 70
     0
280
     1
281
     0
  0
BLOCK_RECORD
  5
1B
330
1
100
AcDbSymbolTableRecord
100
AcDbBlockTableRecord
  2
*Paper_Space
340
1E
 70
     0
280
     1
281
     0
  0
BLOCK_RECORD
  5
23
330
1
100
AcDbSymbolTableRecord
100
AcDbBlockTableRecord
  2
*Paper_Space0
340
26
 70
     0
280
     1
281
     0
  0
BLOCK_RECORD
  5
D0
330
1
100
AcDbSymbolTableRecord
100
AcDbBlockTableRecord
  2
block 2
340
0
102
{BLKREFS
331
D1
102
}
 70
     0
280
     1
281
     0
  0
BLOCK_RECORD
  5
D9
330
1
100
AcDbSymbolTableRecord
100
AcDbBlockTableRecord
  2
block 3
340
0
102
{BLKREFS
331
DA
102
}
 70
     0
280
     1
281
     0
  0
BLOCK_RECORD
  5
FE
330
1
100
AcDbSymbolTableRecord
100
AcDbBlockTableRecord
  2
block 4
340
0
102
{BLKREFS
331
FF
102
}
 70
     0
280
     1
281
     0
  0
BLOCK_RECORD
  5
119
330
1
100
AcDbSymbolTableRecord
100
AcDbBlockTableRecord
  2
block 5
340
0
102
{BLKREFS
331
11A
102
}
 70
     0
280
     1
281
     0
  0
BLOCK_RECORD
  5
122
330
1
100
AcDbSymbolTableRecord
100
AcDbBlockTableRecord
  2
block 6
340
0
102
{BLKREFS
331
123
102
}
 70
     0
280
     1
281
     0
  0
BLOCK_RECORD
  5
12A
330
1
100
AcDbSymbolTableRecord
100
AcDbBlockTableRecord
  2
block 7
340
0
102
{BLKREFS
331
12B
102
}
 70
     0
280
     1
281
     0
  0
ENDTAB
  0
ENDSEC
  0
SECTION
  2
BLOCKS
  0
BLOCK
  5
20
330
1F
100
AcDbEntity
  8
0
100
AcDbBlockBegin
  2
*Model_Space
 70
     0
 10
0.0
 20
0.0
 30
0.0
  3
*Model_Space
  1

  0
ENDBLK
  5
21
330
1F
100
AcDbEntity
  8
0
100
AcDbBlockEnd
  0
BLOCK
  5
1C
330
1B
100
AcDbEntity
 67
     1
  8
0
100
AcDbBlockBegin
  2
*Paper_Space
 70
     0
 10
0.0
 20
0.0
 30
0.0
  3
*Paper_Space
  1

  0
ENDBLK
  5
1D
330
1B
100
AcDbEntity
 67
     1
  8
0
100
AcDbBlockEnd
  0
BLOCK
  5
24
330
23
100
AcDbEntity
  8
0
100
AcDbBlockBegin
  2
*Paper_Space0
 70
     0
 10
0.0
 20
0.0
 30
0.0
  3
*Paper_Space0
  1

  0
ENDBLK
  5
25
330
23
100
AcDbEntity
  8
0
100
AcDbBlockEnd
  0
BLOCK
  5
D2
330
D0
100
AcDbEntity
  8
0
100
AcDbBlockBegin
  2
block 2
 70
     0
 10
0.0
 20
0.0
 30
0.0
  3
block 2
  1

  0
SPLINE
  5
D4
330
D0
100
AcDbEntity
  8
_U+30EC_U+30A4_U+30E4_U+30FC 1
370
     0
100
AcDbSpline
210
0.0
220
0.0
230
1.0
 70
    11
 71
     3
 72
    26
 73
    22
 74
     0
 42
0.0000000001
 43
0.0000000001
 12
1.0
 22
0.0
 32
0.0
 13
1.0
 23
0.0
 33
0.0
 40
0.0
 40
0.0
 40
0.0
 40
0.0
 40
1.0
 40
1.0
 40
1.0
 40
2.0
 40
2.0
 40
2.0
 40
3.0
 40
3.0
 40
3.0
 40
4.0
 40
4.0
 40
4.0
 40
5.0
 40
5.0
 40
5.0
 40
6.0
 40
6.0
 40
6.0
 40
7.0
 40
7.0
 40
7.0
 40
7.0
 10
102.5942545316431
 20
-142.5618407846721
 30
0.0
 10
102.5942545316431
 20
-142.5618407846721
 30
0.0
 10
101.4901014286205
 20
-142.5618407846721
 30
0.0
 10
101.4901014286205
 20
-142.5618407846721
 30
0.0
 10
101.4901014286205
 20
-142.5618407846721
 30
0.0
 10
101.4901014286205
 20
-142.8532958627242
 30
0.0
 10
101.4901014286205
 20
-142.8532958627242
 30
0.0
 10
101.4901014286205
 20
-142.8532958627242
 30
0.0
 10
101.3419623227548
 20
-142.8532958627242
 30
0.0
 10
101.3419623227548
 20
-142.8532958627242
 30
0.0
 10
101.3271484121682
 20
-142.5601182369294
 30
0.0
 10
101.1641953957159
 20
-142.519121600655
 30
0.0
 10
101.0498182256056
 20
-142.4929388749671
 30
0.0
 10
101.0498182256056
 20
-142.4929388749671
 30
0.0
 10
101.0498182256056
 20
-142.3640923038187
 30
0.0
 10
101.0498182256056
 20
-142.3640923038187
 30
0.0
 10
101.0498182256056
 20
-142.3640923038187
 30
0.0
 10
102.5942545316431
 20
-142.3640923038187
 30
0.0
 10
102.5942545316431
 20
-142.3640923038187
 30
0.0
 10
102.5942545316431
 20
-142.3640923038187
 30
0.0
 10
102.5942545316431
 20
-142.5618407846721
 30
0.0
 10
102.5942545316431
 20
-142.5618407846721
 30
0.0
  0
HATCH
  5
D5
330
D0
100
AcDbEntity
  8
_U+30EC_U+30A4_U+30E4_U+30FC 1
 62
   179
420
  2234388
100
AcDbHatch
 10
0.0
 20
0.0
 30
0.0
210
0.0
220
0.0
230
1.0
  2
SOLID
 70
     1
 71
     0
 91
        1
 92
        1
 93
        1
 72
     4
 94
        3
 73
     0
 74
     1
 95
       26
 96
       22
 40
0.0
 40
0.0
 40
0.0
 40
0.0
 40
1.0
 40
1.0
 40
1.0
 40
2.0
 40
2.0
 40
2.0
 40
3.0
 40
3.0
 40
3.0
 40
4.0
 40
4.0
 40
4.0
 40
5.0
 40
5.0
 40
5.0
 40
6.0
 40
6.0
 40
6.0
 40
7.0
 40
7.0
 40
7.0
 40
7.0
 10
102.5942545316431
 20
-142.5618407846721
 10
102.5942545316431
 20
-142.5618407846721
 10
101.4901014286205
 20
-142.5618407846721
 10
101.4901014286205
 20
-142.5618407846721
 10
101.4901014286205
 20
-142.5618407846721
 10
101.4901014286205
 20
-142.8532958627242
 10
101.4901014286205
 20
-142.8532958627242
 10
101.4901014286205
 20
-142.8532958627242
 10
101.3419623227548
 20
-142.8532958627242
 10
101.3419623227548
 20
-142.8532958627242
 10
101.3271484121682
 20
-142.5601182369294
 10
101.1641953957159
 20
-142.519121600655
 10
101.0498182256056
 20
-142.4929388749671
 10
101.0498182256056
 20
-142.4929388749671
 10
101.0498182256056
 20
-142.3640923038187
 10
101.0498182256056
 20
-142.3640923038187
 10
101.0498182256056
 20
-142.3640923038187
 10
102.5942545316431
 20
-142.3640923038187
 10
102.5942545316431
 20
-142.3640923038187
 10
102.5942545316431
 20
-142.3640923038187
 10
102.5942545316431
 20
-142.5618407846721
 10
102.5942545316431
 20
-142.5618407846721
 97
        0
 97
        0
 75
     2
 76
     1
 98
        0
  0
SPLINE
  5
D6
330
D0
100
AcDbEntity
  8
_U+30EC_U+30A4_U+30E4_U+30FC 1
370
     0
100
AcDbSpline
210
0.0
220
0.0
230
1.0
 70
    11
 71
     3
 72
    29
 73
    25
 74
     0
 42
0.0000000001
 43
0.0000000001
 12
1.0
 22
0.0
 32
0.0
 13
1.0
 23
0.0
 33
0.0
 40
0.0
 40
0.0
 40
0.0
 40
0.0
 40
1.0
 40
1.0
 40
1.0
 40
2.0
 40
2.0
 40
2.0
 40
3.0
 40
3.0
 40
3.0
 40
4.0
 40
4.0
 40
4.0
 40
5.0
 40
5.0
 40
5.0
 40
6.0
 40
6.0
 40
6.0
 40
7.0
 40
7.0
 40
7.0
 40
8.0
 40
8.0
 40
8.0
 40
8.0
 10
102.4164876046042
 20
-141.1279920437111
 30
0.0
 10
102.6259494101074
 20
-141.2234211886525
 30
0.0
 10
102.6448974352763
 20
-141.3767279377461
 30
0.0
 10
102.6448974352763
 20
-141.4793917832066
 30
0.0
 10
102.6448974352763
 20
-141.6213297171988
 30
0.0
 10
102.5983886462254
 20
-141.7463866833134
 30
0.0
 10
102.4164876046042
 20
-141.8304470131535
 30
0.0
 10
102.2218397096876
 20
-141.9220865530611
 30
0.0
 10
101.9851616498509
 20
-141.9386230113903
 30
0.0
 10
101.8222086333986
 20
-141.9386230113903
 30
0.0
 10
101.6782036421152
 20
-141.9386230113903
 30
0.0
 10
101.4263671621434
 20
-141.9238091008038
 30
0.0
 10
101.2275851526445
 20
-141.8304470131535
 30
0.0
 10
101.0246690285633
 20
-141.7353623777606
 30
0.0
 10
101.0012423792636
 20
-141.5930799342198
 30
0.0
 10
101.0012423792636
 20
-141.4793917832066
 30
0.0
 10
101.0012423792636
 20
-141.3391763969569
 30
0.0
 10
101.0456841110233
 20
-141.2120523735512
 30
0.0
 10
101.2275851526445
 20
-141.1279920437111
 30
0.0
 10
101.42016599027
 20
-141.0404866183857
 30
0.0
 10
101.648575820942
 20
-141.0198160454742
 30
0.0
 10
101.8222086333986
 20
-141.0198160454742
 30
0.0
 10
101.9934298790155
 20
-141.0198160454742
 30
0.0
 10
102.2239067669787
 20
-141.0384195610946
 30
0.0
 10
102.4164876046042
 20
-141.1279920437111
 30
0.0
  0
SPLINE
  5
D7
330
D0
100
AcDbEntity
  8
_U+30EC_U+30A4_U+30E4_U+30FC 1
370
     0
100
AcDbSpline
210
0.0
220
0.0
230
1.0
 70
    11
 71
     3
 72
    17
 73
    13
 74
     0
 42
0.0000000001
 43
0.0000000001
 12
1.0
 22
0.0
 32
0.0
 13
1.0
 23
0.0
 33
0.0
 40
0.0
 40
0.0
 40
0.0
 40
0.0
 40
1.0
 40
1.0
 40
1.0
 40
2.0
 40
2.0
 40
2.0
 40
3.0
 40
3.0
 40
3.0
 40
4.0
 40
4.0
 40
4.0
 40
4.0
 10
101.193823216889
 20
-141.4793917832066
 30
0.0
 10
101.193823216889
 20
-141.699533384714
 30
0.0
 10
101.4773545753251
 20
-141.740874530537
 30
0.0
 10
101.8222086333986
 20
-141.740874530537
 30
0.0
 10
102.1415689848813
 20
-141.740874530537
 30
0.0
 10
102.4502495403597
 20
-141.7091796520727
 30
0.0
 10
102.4502495403597
 20
-141.4793917832066
 30
0.0
 10
102.4502495403597
 20
-141.2606282198932
 30
0.0
 10
102.1691297487633
 20
-141.2179090358761
 30
0.0
 10
101.8222086333986
 20
-141.2179090358761
 30
0.0
 10
101.5025037723674
 20
-141.2179090358761
 30
0.0
 10
101.193823216889
 20
-141.251326462083
 30
0.0
 10
101.193823216889
 20
-141.4793917832066
 30
0.0
  0
HATCH
  5
D8
330
D0
100
AcDbEntity
  8
_U+30EC_U+30A4_U+30E4_U+30FC 1
 62
   179
420
  2234388
100
AcDbHatch
 10
0.0
 20
0.0
 30
0.0
210
0.0
220
0.0
230
1.0
  2
SOLID
 70
     1
 71
     0
 91
        2
 92
        1
 93
        1
 72
     4
 94
        3
 73
     0
 74
     1
 95
       29
 96
       25
 40
0.0
 40
0.0
 40
0.0
 40
0.0
 40
1.0
 40
1.0
 40
1.0
 40
2.0
 40
2.0
 40
2.0
 40
3.0
 40
3.0
 40
3.0
 40
4.0
 40
4.0
 40
4.0
 40
5.0
 40
5.0
 40
5.0
 40
6.0
 40
6.0
 40
6.0
 40
7.0
 40
7.0
 40
7.0
 40
8.0
 40
8.0
 40
8.0
 40
8.0
 10
102.4164876046042
 20
-141.1279920437111
 10
102.6259494101074
 20
-141.2234211886525
 10
102.6448974352763
 20
-141.3767279377461
 10
102.6448974352763
 20
-141.4793917832066
 10
102.6448974352763
 20
-141.6213297171988
 10
102.5983886462254
 20
-141.7463866833134
 10
102.4164876046042
 20
-141.8304470131535
 10
102.2218397096876
 20
-141.9220865530611
 10
101.9851616498509
 20
-141.9386230113903
 10
101.8222086333986
 20
-141.9386230113903
 10
101.6782036421152
 20
-141.9386230113903
 10
101.4263671621434
 20
-141.9238091008038
 10
101.2275851526445
 20
-141.8304470131535
 10
101.0246690285633
 20
-141.7353623777606
 10
101.0012423792636
 20
-141.5930799342198
 10
101.0012423792636
 20
-141.4793917832066
 10
101.0012423792636
 20
-141.3391763969569
 10
101.0456841110233
 20
-141.2120523735512
 10
101.2275851526445
 20
-141.1279920437111
 10
101.42016599027
 20
-141.0404866183857
 10
101.648575820942
 20
-141.0198160454742
 10
101.8222086333986
 20
-141.0198160454742
 10
101.9934298790155
 20
-141.0198160454742
 10
102.2239067669787
 20
-141.0384195610946
 10
102.4164876046042
 20
-141.1279920437111
 97
        0
 97
        0
 92
        1
 93
        1
 72
     4
 94
        3
 73
     0
 74
     1
 95
       17
 96
       13
 40
0.0
 40
0.0
 40
0.0
 40
0.0
 40
1.0
 40
1.0
 40
1.0
 40
2.0
 40
2.0
 40
2.0
 40
3.0
 40
3.0
 40
3.0
 40
4.0
 40
4.0
 40
4.0
 40
4.0
 10
101.193823216889
 20
-141.4793917832066
 10
101.193823216889
 20
-141.699533384714
 10
101.4773545753251
 20
-141.740874530537
 10
101.8222086333986
 20
-141.740874530537
 10
102.1415689848813
 20
-141.740874530537
 10
102.4502495403597
 20
-141.7091796520727
 10
102.4502495403597
 20
-141.4793917832066
 10
102.4502495403597
 20
-141.2606282198932
 10
102.1691297487633
 20
-141.2179090358761
 10
101.8222086333986
 20
-141.2179090358761
 10
101.5025037723674
 20
-141.2179090358761
 10
101.193823216889
 20
-141.251326462083
 10
101.193823216889
 20
-141.4793917832066
 97
        0
 97
        0
 75
     2
 76
     1
 98
        0
  0
ENDBLK
  5
D3
330
D0
100
AcDbEntity
  8
0
100
AcDbBlockEnd
  0
BLOCK
  5
DB
330
D9
100
AcDbEntity
  8
0
100
AcDbBlockBegin
  2
block 3
 70
     0
 10
0.0
 20
0.0
 30
0.0
  3
block 3
  1

  0
SPLINE
  5
DD
330
D9
100
AcDbEntity
  8
_U+30EC_U+30A4_U+30E4_U+30FC 1
370
     0
100
AcDbSpline
210
0.0
220
0.0
230
1.0
 70
    11
 71
     3
 72
    44
 73
    40
 74
     0
 42
0.0000000001
 43
0.0000000001
 12
1.0
 22
0.0
 32
0.0
 13
1.0
 23
0.0
 33
0.0
 40
0.0
 40
0.0
 40
0.0
 40
0.0
 40
1.0
 40
1.0
 40
1.0
 40
2.0
 40
2.0
 40
2.0
 40
3.0
 40
3.0
 40
3.0
 40
4.0
 40
4.0
 40
4.0
 40
5.0
 40
5.0
 40
5.0
 40
6.0
 40
6.0
 40
6.0
 40
7.0
 40
7.0
 40
7.0
 40
8.0
 40
8.0
 40
8.0
 40
9.0
 40
9.0
 40
9.0
 40
10.0
 40
10.0
 40
10.0
 40
11.0
 40
11.0
 40
11.0
 40
12.0
 40
12.0
 40
12.0
 40
13.0
 40
13.0
 40
13.0
 40
13.0
 10
102.0123779041844
 20
-125.9489013357003
 30
0.0
 10
102.1711968060544
 20
-126.1414821733257
 30
0.0
 10
102.2452663589873
 20
-126.2234754458747
 30
0.0
 10
102.3889268407222
 20
-126.2665391394403
 30
0.0
 10
102.3889268407222
 20
-126.2665391394403
 30
0.0
 10
102.3889268407222
 20
-125.579242590133
 30
0.0
 10
102.3889268407222
 20
-125.579242590133
 30
0.0
 10
102.3889268407222
 20
-125.579242590133
 30
0.0
 10
102.5942545316431
 20
-125.579242590133
 30
0.0
 10
102.5942545316431
 20
-125.579242590133
 30
0.0
 10
102.5942545316431
 20
-125.579242590133
 30
0.0
 10
102.5942545316431
 20
-126.4870252504963
 30
0.0
 10
102.5942545316431
 20
-126.4870252504963
 30
0.0
 10
102.2366536202742
 20
-126.4587754675173
 30
0.0
 10
102.158449952759
 20
-126.4008978633651
 30
0.0
 10
101.8601046837364
 20
-126.0608669389709
 30
0.0
 10
101.6613226742375
 20
-125.8348686751385
 30
0.0
 10
101.593454293178
 20
-125.7769910709863
 30
0.0
 10
101.4559949833166
 20
-125.7769910709863
 30
0.0
 10
101.337483698624
 20
-125.7769910709863
 30
0.0
 10
101.2065700701845
 20
-125.8407253374634
 30
0.0
 10
101.2065700701845
 20
-126.01435814992
 30
0.0
 10
101.2065700701845
 20
-126.2441460187862
 30
0.0
 10
101.4370469581477
 20
-126.2517252288537
 30
0.0
 10
101.5534911855491
 20
-126.255170324339
 30
0.0
 10
101.5534911855491
 20
-126.255170324339
 30
0.0
 10
101.5534911855491
 20
-126.4532633147409
 30
0.0
 10
101.5534911855491
 20
-126.4532633147409
 30
0.0
 10
101.4263671621434
 20
-126.4456841046733
 30
0.0
 10
101.3144015588728
 20
-126.4363823468631
 30
0.0
 10
101.1958902741802
 20
-126.365413379867
 30
0.0
 10
101.035004315019
 20
-126.2682616871829
 30
0.0
 10
101.0012423792636
 20
-126.1039306325365
 30
0.0
 10
101.0012423792636
 20
-126.0012667870761
 30
0.0
 10
101.0012423792636
 20
-125.7566650076233
 30
0.0
 10
101.1852104781759
 20
-125.573385927808
 30
0.0
 10
101.4580620406077
 20
-125.573385927808
 30
0.0
 10
101.6868163808283
 20
-125.573385927808
 30
0.0
 10
101.7860351308035
 20
-125.676394282817
 30
0.0
 10
102.0123779041844
 20
-125.9489013357003
 30
0.0
  0
HATCH
  5
DE
330
D9
100
AcDbEntity
  8
_U+30EC_U+30A4_U+30E4_U+30FC 1
 62
   179
420
  2234388
100
AcDbHatch
 10
0.0
 20
0.0
 30
0.0
210
0.0
220
0.0
230
1.0
  2
SOLID
 70
     1
 71
     0
 91
        1
 92
        1
 93
        1
 72
     4
 94
        3
 73
     0
 74
     1
 95
       44
 96
       40
 40
0.0
 40
0.0
 40
0.0
 40
0.0
 40
1.0
 40
1.0
 40
1.0
 40
2.0
 40
2.0
 40
2.0
 40
3.0
 40
3.0
 40
3.0
 40
4.0
 40
4.0
 40
4.0
 40
5.0
 40
5.0
 40
5.0
 40
6.0
 40
6.0
 40
6.0
 40
7.0
 40
7.0
 40
7.0
 40
8.0
 40
8.0
 40
8.0
 40
9.0
 40
9.0
 40
9.0
 40
10.0
 40
10.0
 40
10.0
 40
11.0
 40
11.0
 40
11.0
 40
12.0
 40
12.0
 40
12.0
 40
13.0
 40
13.0
 40
13.0
 40
13.0
 10
102.0123779041844
 20
-125.9489013357003
 10
102.1711968060544
 20
-126.1414821733257
 10
102.2452663589873
 20
-126.2234754458747
 10
102.3889268407222
 20
-126.2665391394403
 10
102.3889268407222
 20
-126.2665391394403
 10
102.3889268407222
 20
-125.579242590133
 10
102.3889268407222
 20
-125.579242590133
 10
102.3889268407222
 20
-125.579242590133
 10
102.5942545316431
 20
-125.579242590133
 10
102.5942545316431
 20
-125.579242590133
 10
102.5942545316431
 20
-125.579242590133
 10
102.5942545316431
 20
-126.4870252504963
 10
102.5942545316431
 20
-126.4870252504963
 10
102.2366536202742
 20
-126.4587754675173
 10
102.158449952759
 20
-126.4008978633651
 10
101.8601046837364
 20
-126.0608669389709
 10
101.6613226742375
 20
-125.8348686751385
 10
101.593454293178
 20
-125.7769910709863
 10
101.4559949833166
 20
-125.7769910709863
 10
101.337483698624
 20
-125.7769910709863
 10
101.2065700701845
 20
-125.8407253374634
 10
101.2065700701845
 20
-126.01435814992
 10
101.2065700701845
 20
-126.2441460187862
 10
101.4370469581477
 20
-126.2517252288537
 10
101.5534911855491
 20
-126.255170324339
 10
101.5534911855491
 20
-126.255170324339
 10
101.5534911855491
 20
-126.4532633147409
 10
101.5534911855491
 20
-126.4532633147409
 10
101.4263671621434
 20
-126.4456841046733
 10
101.3144015588728
 20
-126.4363823468631
 10
101.1958902741802
 20
-126.365413379867
 10
101.035004315019
 20
-126.2682616871829
 10
101.0012423792636
 20
-126.1039306325365
 10
101.0012423792636
 20
-126.0012667870761
 10
101.0012423792636
 20
-125.7566650076233
 10
101.1852104781759
 20
-125.573385927808
 10
101.4580620406077
 20
-125.573385927808
 10
101.6868163808283
 20
-125.573385927808
 10
101.7860351308035
 20
-125.676394282817
 10
102.0123779041844
 20
-125.9489013357003
 97
        0
 97
        0
 75
     2
 76
     1
 98
        0
  0
POLYLINE
  5
DF
330
D9
100
AcDbEntity
  8
_U+30EC_U+30A4_U+30E4_U+30FC 1
370
     0
100
AcDb2dPolyline
 66
     1
 10
0.0
 20
0.0
 30
0.0
  0
VERTEX
  5
E0
330
DF
100
AcDbEntity
  8
_U+30EC_U+30A4_U+30E4_U+30FC 1
370
     0
100
AcDbVertex
100
AcDb2dVertex
 10
102.2473334162785
 20
-124.6979871650061
 30
0.0
  0
VERTEX
  5
E1
330
DF
100
AcDbEntity
  8
_U+30EC_U+30A4_U+30E4_U+30FC 1
370
     0
100
AcDbVertex
100
AcDb2dVertex
 10
102.5942545316431
 20
-124.6979871650061
 30
0.0
  0
VERTEX
  5
E2
330
DF
100
AcDbEntity
  8
_U+30EC_U+30A4_U+30E4_U+30FC 1
370
     0
100
AcDbVertex
100
AcDb2dVertex
 10
102.5942545316431
 20
-124.8905680026315
 30
0.0
  0
VERTEX
  5
E3
330
DF
100
AcDbEntity
  8
_U+30EC_U+30A4_U+30E4_U+30FC 1
370
     0
100
AcDbVertex
100
AcDb2dVertex
 10
102.2473334162785
 20
-124.8905680026315
 30
0.0
  0
VERTEX
  5
E4
330
DF
100
AcDbEntity
  8
_U+30EC_U+30A4_U+30E4_U+30FC 1
370
     0
100
AcDbVertex
100
AcDb2dVertex
 10
102.2473334162785
 20
-125.469688553702
 30
0.0
  0
VERTEX
  5
E5
330
DF
100
AcDbEntity
  8
_U+30EC_U+30A4_U+30E4_U+30FC 1
370
     0
100
AcDbVertex
100
AcDb2dVertex
 10
102.0230577001887
 20
-125.469688553702
 30
0.0
  0
VERTEX
  5
E6
330
DF
100
AcDbEntity
  8
_U+30EC_U+30A4_U+30E4_U+30FC 1
370
     0
100
AcDbVertex
100
AcDb2dVertex
 10
101.0498182256056
 20
-124.86989742972
 30
0.0
  0
VERTEX
  5
E7
330
DF
100
AcDbEntity
  8
_U+30EC_U+30A4_U+30E4_U+30FC 1
370
     0
100
AcDbVertex
100
AcDb2dVertex
 10
101.0498182256056
 20
-124.6979871650061
 30
0.0
  0
VERTEX
  5
E8
330
DF
100
AcDbEntity
  8
_U+30EC_U+30A4_U+30E4_U+30FC 1
370
     0
100
AcDbVertex
100
AcDb2dVertex
 10
102.0485514067795
 20
-124.6979871650061
 30
0.0
  0
VERTEX
  5
E9
330
DF
100
AcDbEntity
  8
_U+30EC_U+30A4_U+30E4_U+30FC 1
370
     0
100
AcDbVertex
100
AcDb2dVertex
 10
102.0485514067795
 20
-124.5150525947393
 30
0.0
  0
VERTEX
  5
EA
330
DF
100
AcDbEntity
  8
_U+30EC_U+30A4_U+30E4_U+30FC 1
370
     0
100
AcDbVertex
100
AcDb2dVertex
 10
102.2473334162785
 20
-124.5150525947393
 30
0.0
  0
VERTEX
  5
EB
330
DF
100
AcDbEntity
  8
_U+30EC_U+30A4_U+30E4_U+30FC 1
370
     0
100
AcDbVertex
100
AcDb2dVertex
 10
102.2473334162785
 20
-124.6979871650061
 30
0.0
  0
SEQEND
  5
EC
330
DF
100
AcDbEntity
  8
_U+30EC_U+30A4_U+30E4_U+30FC 1
370
     0
  0
POLYLINE
  5
ED
330
D9
100
AcDbEntity
  8
_U+30EC_U+30A4_U+30E4_U+30FC 1
370
     0
100
AcDb2dPolyline
 66
     1
 10
0.0
 20
0.0
 30
0.0
  0
VERTEX
  5
EE
330
ED
100
AcDbEntity
  8
_U+30EC_U+30A4_U+30E4_U+30FC 1
370
     0
100
AcDbVertex
100
AcDb2dVertex
 10
101.392605226388
 20
-124.8905680026315
 30
0.0
  0
VERTEX
  5
EF
330
ED
100
AcDbEntity
  8
_U+30EC_U+30A4_U+30E4_U+30FC 1
370
     0
100
AcDbVertex
100
AcDb2dVertex
 10
102.0485514067795
 20
-125.2939886839543
 30
0.0
  0
VERTEX
  5
F0
330
ED
100
AcDbEntity
  8
_U+30EC_U+30A4_U+30E4_U+30FC 1
370
     0
100
AcDbVertex
100
AcDb2dVertex
 10
102.0485514067795
 20
-124.8905680026315
 30
0.0
  0
VERTEX
  5
F1
330
ED
100
AcDbEntity
  8
_U+30EC_U+30A4_U+30E4_U+30FC 1
370
     0
100
AcDbVertex
100
AcDb2dVertex
 10
101.392605226388
 20
-124.8905680026315
 30
0.0
  0
SEQEND
  5
F2
330
ED
100
AcDbEntity
  8
_U+30EC_U+30A4_U+30E4_U+30FC 1
370
     0
  0
HATCH
  5
F3
330
D9
100
AcDbEntity
  8
_U+30EC_U+30A4_U+30E4_U+30FC 1
 62
   179
420
  2234388
100
AcDbHatch
 10
0.0
 20
0.0
 30
0.0
210
0.0
220
0.0
230
1.0
  2
SOLID
 70
     1
 71
     0
 91
        2
 92
        1
 93
       11
 72
     1
 10
102.2473334162785
 20
-124.6979871650061
 11
102.5942545316431
 21
-124.6979871650061
 72
     1
 10
102.5942545316431
 20
-124.6979871650061
 11
102.5942545316431
 21
-124.8905680026315
 72
     1
 10
102.5942545316431
 20
-124.8905680026315
 11
102.2473334162785
 21
-124.8905680026315
 72
     1
 10
102.2473334162785
 20
-124.8905680026315
 11
102.2473334162785
 21
-125.469688553702
 72
     1
 10
102.2473334162785
 20
-125.469688553702
 11
102.0230577001887
 21
-125.469688553702
 72
     1
 10
102.0230577001887
 20
-125.469688553702
 11
101.0498182256056
 21
-124.86989742972
 72
     1
 10
101.0498182256056
 20
-124.86989742972
 11
101.0498182256056
 21
-124.6979871650061
 72
     1
 10
101.0498182256056
 20
-124.6979871650061
 11
102.0485514067795
 21
-124.6979871650061
 72
     1
 10
102.0485514067795
 20
-124.6979871650061
 11
102.0485514067795
 21
-124.5150525947393
 72
     1
 10
102.0485514067795
 20
-124.5150525947393
 11
102.2473334162785
 21
-124.5150525947393
 72
     1
 10
102.2473334162785
 20
-124.5150525947393
 11
102.2473334162785
 21
-124.6979871650061
 97
        0
 92
        1
 93
        3
 72
     1
 10
101.392605226388
 20
-124.8905680026315
 11
102.0485514067795
 21
-125.2939886839543
 72
     1
 10
102.0485514067795
 20
-125.2939886839543
 11
102.0485514067795
 21
-124.8905680026315
 72
     1
 10
102.0485514067795
 20
-124.8905680026315
 11
101.392605226388
 21
-124.8905680026315
 97
        0
 75
     2
 76
     1
 98
        0
  0
POLYLINE
  5
F4
330
D9
100
AcDbEntity
  8
_U+30EC_U+30A4_U+30E4_U+30FC 1
370
     0
100
AcDb2dPolyline
 66
     1
 10
0.0
 20
0.0
 30
0.0
  0
VERTEX
  5
F5
330
F4
100
AcDbEntity
  8
_U+30EC_U+30A4_U+30E4_U+30FC 1
370
     0
100
AcDbVertex
100
AcDb2dVertex
 10
102.5942545316431
 20
-124.3400417440886
 30
0.0
  0
VERTEX
  5
F6
330
F4
100
AcDbEntity
  8
_U+30EC_U+30A4_U+30E4_U+30FC 1
370
     0
100
AcDbVertex
100
AcDb2dVertex
 10
102.3424180516713
 20
-124.3400417440886
 30
0.0
  0
VERTEX
  5
F7
330
F4
100
AcDbEntity
  8
_U+30EC_U+30A4_U+30E4_U+30FC 1
370
     0
100
AcDbVertex
100
AcDb2dVertex
 10
102.3424180516713
 20
-124.11783308529
 30
0.0
  0
VERTEX
  5
F8
330
F4
100
AcDbEntity
  8
_U+30EC_U+30A4_U+30E4_U+30FC 1
370
     0
100
AcDbVertex
100
AcDb2dVertex
 10
102.5942545316431
 20
-124.11783308529
 30
0.0
  0
VERTEX
  5
F9
330
F4
100
AcDbEntity
  8
_U+30EC_U+30A4_U+30E4_U+30FC 1
370
     0
100
AcDbVertex
100
AcDb2dVertex
 10
102.5942545316431
 20
-124.3400417440886
 30
0.0
  0
SEQEND
  5
FA
330
F4
100
AcDbEntity
  8
_U+30EC_U+30A4_U+30E4_U+30FC 1
370
     0
  0
HATCH
  5
FB
330
D9
100
AcDbEntity
  8
_U+30EC_U+30A4_U+30E4_U+30FC 1
 62
   179
420
  2234388
100
AcDbHatch
 10
0.0
 20
0.0
 30
0.0
210
0.0
220
0.0
230
1.0
  2
SOLID
 70
     1
 71
     0
 91
        1
 92
        1
 93
        4
 72
     1
 10
102.5942545316431
 20
-124.3400417440886
 11
102.3424180516713
 21
-124.3400417440886
 72
     1
 10
102.3424180516713
 20
-124.3400417440886
 11
102.3424180516713
 21
-124.11783308529
 72
     1
 10
102.3424180516713
 20
-124.11783308529
 11
102.5942545316431
 21
-124.11783308529
 72
     1
 10
102.5942545316431
 20
-124.11783308529
 11
102.5942545316431
 21
-124.3400417440886
 97
        0
 75
     2
 76
     1
 98
        0
  0
SPLINE
  5
FC
330
D9
100
AcDbEntity
  8
_U+30EC_U+30A4_U+30E4_U+30FC 1
370
     0
100
AcDbSpline
210
0.0
220
0.0
230
1.0
 70
    11
 71
     3
 72
    53
 73
    49
 74
     0
 42
0.0000000001
 43
0.0000000001
 12
1.0
 22
0.0
 32
0.0
 13
1.0
 23
0.0
 33
0.0
 40
0.0
 40
0.0
 40
0.0
 40
0.0
 40
1.0
 40
1.0
 40
1.0
 40
2.0
 40
2.0
 40
2.0
 40
3.0
 40
3.0
 40
3.0
 40
4.0
 40
4.0
 40
4.0
 40
5.0
 40
5.0
 40
5.0
 40
6.0
 40
6.0
 40
6.0
 40
7.0
 40
7.0
 40
7.0
 40
8.0
 40
8.0
 40
8.0
 40
9.0
 40
9.0
 40
9.0
 40
10.0
 40
10.0
 40
10.0
 40
11.0
 40
11.0
 40
11.0
 40
12.0
 40
12.0
 40
12.0
 40
13.0
 40
13.0
 40
13.0
 40
14.0
 40
14.0
 40
14.0
 40
15.0
 40
15.0
 40
15.0
 40
16.0
 40
16.0
 40
16.0
 40
16.0
 10
102.6448974352763
 20
-123.4842800255526
 30
0.0
 10
102.6448974352763
 20
-123.5531819352575
 30
0.0
 10
102.6280164673986
 20
-123.642754417874
 30
0.0
 10
102.56462671047
 20
-123.7326714100391
 30
0.0
 10
102.4547281644905
 20
-123.8856336495842
 30
0.0
 10
102.3234700265025
 20
-123.9042371652045
 30
0.0
 10
102.2156385378141
 20
-123.9211181330822
 30
0.0
 10
102.2156385378141
 20
-123.9211181330822
 30
0.0
 10
102.2156385378141
 20
-123.7250921999715
 30
0.0
 10
102.2156385378141
 20
-123.7250921999715
 30
0.0
 10
102.4144205473131
 20
-123.6765163536295
 30
0.0
 10
102.4440483684862
 20
-123.5645507503589
 30
0.0
 10
102.4440483684862
 20
-123.4822129682614
 30
0.0
 10
102.4440483684862
 20
-123.3588785498895
 30
0.0
 10
102.3444851089625
 20
-123.2245198259647
 30
0.0
 10
102.1119411637081
 20
-123.2245198259647
 30
0.0
 10
101.8559705691541
 20
-123.2245198259647
 30
0.0
 10
101.7860351308035
 20
-123.3833387278347
 30
0.0
 10
101.7860351308035
 20
-123.4897921783289
 30
0.0
 10
101.7860351308035
 20
-123.5176974517595
 30
0.0
 10
101.7860351308035
 20
-123.642754417874
 30
0.0
 10
101.9152262115004
 20
-123.7213025949377
 30
0.0
 10
101.9152262115004
 20
-123.7213025949377
 30
0.0
 10
101.8962781863315
 20
-123.876331891774
 30
0.0
 10
101.8962781863315
 20
-123.876331891774
 30
0.0
 10
101.8962781863315
 20
-123.876331891774
 30
0.0
 10
101.0498182256056
 20
-123.7698784412798
 30
0.0
 10
101.0498182256056
 20
-123.7698784412798
 30
0.0
 10
101.0498182256056
 20
-123.7698784412798
 30
0.0
 10
101.0498182256056
 20
-123.0825818919724
 30
0.0
 10
101.0498182256056
 20
-123.0825818919724
 30
0.0
 10
101.0498182256056
 20
-123.0825818919724
 30
0.0
 10
101.2444661205222
 20
-123.0825818919724
 30
0.0
 10
101.2444661205222
 20
-123.0825818919724
 30
0.0
 10
101.2444661205222
 20
-123.0825818919724
 30
0.0
 10
101.2444661205222
 20
-123.6262179595448
 30
0.0
 10
101.2444661205222
 20
-123.6262179595448
 30
0.0
 10
101.2444661205222
 20
-123.6262179595448
 30
0.0
 10
101.6675238461109
 20
-123.684095563697
 30
0.0
 10
101.6675238461109
 20
-123.684095563697
 30
0.0
 10
101.6337619103555
 20
-123.6296630550301
 30
0.0
 10
101.593454293178
 20
-123.5569715402913
 30
0.0
 10
101.593454293178
 20
-123.4522406375397
 30
0.0
 10
101.593454293178
 20
-123.2283094309985
 30
0.0
 10
101.77983395893
 20
-123.0188476254953
 30
0.0
 10
102.0929931385393
 20
-123.0188476254953
 30
0.0
 10
102.4102864327308
 20
-123.0188476254953
 30
0.0
 10
102.6448974352763
 20
-123.2169406158972
 30
0.0
 10
102.6448974352763
 20
-123.4842800255526
 30
0.0
  0
HATCH
  5
FD
330
D9
100
AcDbEntity
  8
_U+30EC_U+30A4_U+30E4_U+30FC 1
 62
   179
420
  2234388
100
AcDbHatch
 10
0.0
 20
0.0
 30
0.0
210
0.0
220
0.0
230
1.0
  2
SOLID
 70
     1
 71
     0
 91
        1
 92
        1
 93
        1
 72
     4
 94
        3
 73
     0
 74
     1
 95
       53
 96
       49
 40
0.0
 40
0.0
 40
0.0
 40
0.0
 40
1.0
 40
1.0
 40
1.0
 40
2.0
 40
2.0
 40
2.0
 40
3.0
 40
3.0
 40
3.0
 40
4.0
 40
4.0
 40
4.0
 40
5.0
 40
5.0
 40
5.0
 40
6.0
 40
6.0
 40
6.0
 40
7.0
 40
7.0
 40
7.0
 40
8.0
 40
8.0
 40
8.0
 40
9.0
 40
9.0
 40
9.0
 40
10.0
 40
10.0
 40
10.0
 40
11.0
 40
11.0
 40
11.0
 40
12.0
 40
12.0
 40
12.0
 40
13.0
 40
13.0
 40
13.0
 40
14.0
 40
14.0
 40
14.0
 40
15.0
 40
15.0
 40
15.0
 40
16.0
 40
16.0
 40
16.0
 40
16.0
 10
102.6448974352763
 20
-123.4842800255526
 10
102.6448974352763
 20
-123.5531819352575
 10
102.6280164673986
 20
-123.642754417874
 10
102.56462671047
 20
-123.7326714100391
 10
102.4547281644905
 20
-123.8856336495842
 10
102.3234700265025
 20
-123.9042371652045
 10
102.2156385378141
 20
-123.9211181330822
 10
102.2156385378141
 20
-123.9211181330822
 10
102.2156385378141
 20
-123.7250921999715
 10
102.2156385378141
 20
-123.7250921999715
 10
102.4144205473131
 20
-123.6765163536295
 10
102.4440483684862
 20
-123.5645507503589
 10
102.4440483684862
 20
-123.4822129682614
 10
102.4440483684862
 20
-123.3588785498895
 10
102.3444851089625
 20
-123.2245198259647
 10
102.1119411637081
 20
-123.2245198259647
 10
101.8559705691541
 20
-123.2245198259647
 10
101.7860351308035
 20
-123.3833387278347
 10
101.7860351308035
 20
-123.4897921783289
 10
101.7860351308035
 20
-123.5176974517595
 10
101.7860351308035
 20
-123.642754417874
 10
101.9152262115004
 20
-123.7213025949377
 10
101.9152262115004
 20
-123.7213025949377
 10
101.8962781863315
 20
-123.876331891774
 10
101.8962781863315
 20
-123.876331891774
 10
101.8962781863315
 20
-123.876331891774
 10
101.0498182256056
 20
-123.7698784412798
 10
101.0498182256056
 20
-123.7698784412798
 10
101.0498182256056
 20
-123.7698784412798
 10
101.0498182256056
 20
-123.0825818919724
 10
101.0498182256056
 20
-123.0825818919724
 10
101.0498182256056
 20
-123.0825818919724
 10
101.2444661205222
 20
-123.0825818919724
 10
101.2444661205222
 20
-123.0825818919724
 10
101.2444661205222
 20
-123.0825818919724
 10
101.2444661205222
 20
-123.6262179595448
 10
101.2444661205222
 20
-123.6262179595448
 10
101.2444661205222
 20
-123.6262179595448
 10
101.6675238461109
 20
-123.684095563697
 10
101.6675238461109
 20
-123.684095563697
 10
101.6337619103555
 20
-123.6296630550301
 10
101.593454293178
 20
-123.5569715402913
 10
101.593454293178
 20
-123.4522406375397
 10
101.593454293178
 20
-123.2283094309985
 10
101.77983395893
 20
-123.0188476254953
 10
102.0929931385393
 20
-123.0188476254953
 10
102.4102864327308
 20
-123.0188476254953
 10
102.6448974352763
 20
-123.2169406158972
 10
102.6448974352763
 20
-123.4842800255526
 97
        0
 97
        0
 75
     2
 76
     1
 98
        0
  0
ENDBLK
  5
DC
330
D9
100
AcDbEntity
  8
0
100
AcDbBlockEnd
  0
BLOCK
  5
100
330
FE
100
AcDbEntity
  8
0
100
AcDbBlockBegin
  2
block 4
 70
     0
 10
0.0
 20
0.0
 30
0.0
  3
block 4
  1

  0
SPLINE
  5
102
330
FE
100
AcDbEntity
  8
_U+30EC_U+30A4_U+30E4_U+30FC 1
370
     0
100
AcDbSpline
210
0.0
220
0.0
230
1.0
 70
    11
 71
     3
 72
    26
 73
    22
 74
     0
 42
0.0000000001
 43
0.0000000001
 12
1.0
 22
0.0
 32
0.0
 13
1.0
 23
0.0
 33
0.0
 40
0.0
 40
0.0
 40
0.0
 40
0.0
 40
1.0
 40
1.0
 40
1.0
 40
2.0
 40
2.0
 40
2.0
 40
3.0
 40
3.0
 40
3.0
 40
4.0
 40
4.0
 40
4.0
 40
5.0
 40
5.0
 40
5.0
 40
6.0
 40
6.0
 40
6.0
 40
7.0
 40
7.0
 40
7.0
 40
7.0
 10
91.58889700401251
 20
-151.35131289619
 30
0.0
 10
91.58889700401251
 20
-151.35131289619
 30
0.0
 10
91.58889700401251
 20
-150.2471597931674
 30
0.0
 10
91.58889700401251
 20
-150.2471597931674
 30
0.0
 10
91.58889700401251
 20
-150.2471597931674
 30
0.0
 10
91.2977864355089
 20
-150.2471597931674
 30
0.0
 10
91.2977864355089
 20
-150.2471597931674
 30
0.0
 10
91.2977864355089
 20
-150.2471597931674
 30
0.0
 10
91.2977864355089
 20
-150.0990206873016
 30
0.0
 10
91.2977864355089
 20
-150.0990206873016
 30
0.0
 10
91.59096406130365
 20
-150.0842067767151
 30
0.0
 10
91.63196069757812
 20
-149.9212537602627
 30
0.0
 10
91.65814342326603
 20
-149.8068765901525
 30
0.0
 10
91.65814342326603
 20
-149.8068765901525
 30
0.0
 10
91.78698999441437
 20
-149.8068765901525
 30
0.0
 10
91.78698999441437
 20
-149.8068765901525
 30
0.0
 10
91.78698999441437
 20
-149.8068765901525
 30
0.0
 10
91.78698999441437
 20
-151.35131289619
 30
0.0
 10
91.78698999441437
 20
-151.35131289619
 30
0.0
 10
91.78698999441437
 20
-151.35131289619
 30
0.0
 10
91.58889700401251
 20
-151.35131289619
 30
0.0
 10
91.58889700401251
 20
-151.35131289619
 30
0.0
  0
HATCH
  5
103
330
FE
100
AcDbEntity
  8
_U+30EC_U+30A4_U+30E4_U+30FC 1
 62
   179
420
  2234388
100
AcDbHatch
 10
0.0
 20
0.0
 30
0.0
210
0.0
220
0.0
230
1.0
  2
SOLID
 70
     1
 71
     0
 91
        1
 92
        1
 93
        1
 72
     4
 94
        3
 73
     0
 74
     1
 95
       26
 96
       22
 40
0.0
 40
0.0
 40
0.0
 40
0.0
 40
1.0
 40
1.0
 40
1.0
 40
2.0
 40
2.0
 40
2.0
 40
3.0
 40
3.0
 40
3.0
 40
4.0
 40
4.0
 40
4.0
 40
5.0
 40
5.0
 40
5.0
 40
6.0
 40
6.0
 40
6.0
 40
7.0
 40
7.0
 40
7.0
 40
7.0
 10
91.58889700401251
 20
-151.35131289619
 10
91.58889700401251
 20
-151.35131289619
 10
91.58889700401251
 20
-150.2471597931674
 10
91.58889700401251
 20
-150.2471597931674
 10
91.58889700401251
 20
-150.2471597931674
 10
91.2977864355089
 20
-150.2471597931674
 10
91.2977864355089
 20
-150.2471597931674
 10
91.2977864355089
 20
-150.2471597931674
 10
91.2977864355089
 20
-150.0990206873016
 10
91.2977864355089
 20
-150.0990206873016
 10
91.59096406130365
 20
-150.0842067767151
 10
91.63196069757812
 20
-149.9212537602627
 10
91.65814342326603
 20
-149.8068765901525
 10
91.65814342326603
 20
-149.8068765901525
 10
91.78698999441437
 20
-149.8068765901525
 10
91.78698999441437
 20
-149.8068765901525
 10
91.78698999441437
 20
-149.8068765901525
 10
91.78698999441437
 20
-151.35131289619
 10
91.78698999441437
 20
-151.35131289619
 10
91.78698999441437
 20
-151.35131289619
 10
91.58889700401251
 20
-151.35131289619
 10
91.58889700401251
 20
-151.35131289619
 97
        0
 97
        0
 75
     2
 76
     1
 98
        0
  0
POLYLINE
  5
104
330
FE
100
AcDbEntity
  8
_U+30EC_U+30A4_U+30E4_U+30FC 1
370
     0
100
AcDb2dPolyline
 66
     1
 10
0.0
 20
0.0
 30
0.0
  0
VERTEX
  5
105
330
104
100
AcDbEntity
  8
_U+30EC_U+30A4_U+30E4_U+30FC 1
370
     0
100
AcDbVertex
100
AcDb2dVertex
 10
92.96486814082128
 20
-151.0043917808253
 30
0.0
  0
VERTEX
  5
106
330
104
100
AcDbEntity
  8
_U+30EC_U+30A4_U+30E4_U+30FC 1
370
     0
100
AcDbVertex
100
AcDb2dVertex
 10
92.96486814082128
 20
-151.35131289619
 30
0.0
  0
VERTEX
  5
107
330
104
100
AcDbEntity
  8
_U+30EC_U+30A4_U+30E4_U+30FC 1
370
     0
100
AcDbVertex
100
AcDb2dVertex
 10
92.77263181274435
 20
-151.35131289619
 30
0.0
  0
VERTEX
  5
108
330
104
100
AcDbEntity
  8
_U+30EC_U+30A4_U+30E4_U+30FC 1
370
     0
100
AcDbVertex
100
AcDb2dVertex
 10
92.77263181274435
 20
-151.0043917808253
 30
0.0
  0
VERTEX
  5
109
330
104
100
AcDbEntity
  8
_U+30EC_U+30A4_U+30E4_U+30FC 1
370
     0
100
AcDbVertex
100
AcDb2dVertex
 10
92.19351126167385
 20
-151.0043917808253
 30
0.0
  0
VERTEX
  5
10A
330
104
100
AcDbEntity
  8
_U+30EC_U+30A4_U+30E4_U+30FC 1
370
     0
100
AcDbVertex
100
AcDb2dVertex
 10
92.19351126167385
 20
-150.7801160647355
 30
0.0
  0
VERTEX
  5
10B
330
104
100
AcDbEntity
  8
_U+30EC_U+30A4_U+30E4_U+30FC 1
370
     0
100
AcDbVertex
100
AcDb2dVertex
 10
92.79295787610732
 20
-149.8068765901525
 30
0.0
  0
VERTEX
  5
10C
330
104
100
AcDbEntity
  8
_U+30EC_U+30A4_U+30E4_U+30FC 1
370
     0
100
AcDbVertex
100
AcDb2dVertex
 10
92.96486814082128
 20
-149.8068765901525
 30
0.0
  0
VERTEX
  5
10D
330
104
100
AcDbEntity
  8
_U+30EC_U+30A4_U+30E4_U+30FC 1
370
     0
100
AcDbVertex
100
AcDb2dVertex
 10
92.96486814082128
 20
-150.8056097713264
 30
0.0
  0
VERTEX
  5
10E
330
104
100
AcDbEntity
  8
_U+30EC_U+30A4_U+30E4_U+30FC 1
370
     0
100
AcDbVertex
100
AcDb2dVertex
 10
93.14814722063657
 20
-150.8056097713264
 30
0.0
  0
VERTEX
  5
10F
330
104
100
AcDbEntity
  8
_U+30EC_U+30A4_U+30E4_U+30FC 1
370
     0
100
AcDbVertex
100
AcDb2dVertex
 10
93.14814722063657
 20
-151.0043917808253
 30
0.0
  0
VERTEX
  5
110
330
104
100
AcDbEntity
  8
_U+30EC_U+30A4_U+30E4_U+30FC 1
370
     0
100
AcDbVertex
100
AcDb2dVertex
 10
92.96486814082128
 20
-151.0043917808253
 30
0.0
  0
SEQEND
  5
111
330
104
100
AcDbEntity
  8
_U+30EC_U+30A4_U+30E4_U+30FC 1
370
     0
  0
POLYLINE
  5
112
330
FE
100
AcDbEntity
  8
_U+30EC_U+30A4_U+30E4_U+30FC 1
370
     0
100
AcDb2dPolyline
 66
     1
 10
0.0
 20
0.0
 30
0.0
  0
VERTEX
  5
113
330
112
100
AcDbEntity
  8
_U+30EC_U+30A4_U+30E4_U+30FC 1
370
     0
100
AcDbVertex
100
AcDb2dVertex
 10
92.77263181274435
 20
-150.1496635909348
 30
0.0
  0
VERTEX
  5
114
330
112
100
AcDbEntity
  8
_U+30EC_U+30A4_U+30E4_U+30FC 1
370
     0
100
AcDbVertex
100
AcDb2dVertex
 10
92.3692111314216
 20
-150.8056097713264
 30
0.0
  0
VERTEX
  5
115
330
112
100
AcDbEntity
  8
_U+30EC_U+30A4_U+30E4_U+30FC 1
370
     0
100
AcDbVertex
100
AcDb2dVertex
 10
92.77263181274435
 20
-150.8056097713264
 30
0.0
  0
VERTEX
  5
116
330
112
100
AcDbEntity
  8
_U+30EC_U+30A4_U+30E4_U+30FC 1
370
     0
100
AcDbVertex
100
AcDb2dVertex
 10
92.77263181274435
 20
-150.1496635909348
 30
0.0
  0
SEQEND
  5
117
330
112
100
AcDbEntity
  8
_U+30EC_U+30A4_U+30E4_U+30FC 1
370
     0
  0
HATCH
  5
118
330
FE
100
AcDbEntity
  8
_U+30EC_U+30A4_U+30E4_U+30FC 1
 62
   179
420
  2234388
100
AcDbHatch
 10
0.0
 20
0.0
 30
0.0
210
0.0
220
0.0
230
1.0
  2
SOLID
 70
     1
 71
     0
 91
        2
 92
        1
 93
       11
 72
     1
 10
92.96486814082128
 20
-151.0043917808253
 11
92.96486814082128
 21
-151.35131289619
 72
     1
 10
92.96486814082128
 20
-151.35131289619
 11
92.77263181274435
 21
-151.35131289619
 72
     1
 10
92.77263181274435
 20
-151.35131289619
 11
92.77263181274435
 21
-151.0043917808253
 72
     1
 10
92.77263181274435
 20
-151.0043917808253
 11
92.19351126167385
 21
-151.0043917808253
 72
     1
 10
92.19351126167385
 20
-151.0043917808253
 11
92.19351126167385
 21
-150.7801160647355
 72
     1
 10
92.19351126167385
 20
-150.7801160647355
 11
92.79295787610732
 21
-149.8068765901525
 72
     1
 10
92.79295787610732
 20
-149.8068765901525
 11
92.96486814082128
 21
-149.8068765901525
 72
     1
 10
92.96486814082128
 20
-149.8068765901525
 11
92.96486814082128
 21
-150.8056097713264
 72
     1
 10
92.96486814082128
 20
-150.8056097713264
 11
93.14814722063657
 21
-150.8056097713264
 72
     1
 10
93.14814722063657
 20
-150.8056097713264
 11
93.14814722063657
 21
-151.0043917808253
 72
     1
 10
93.14814722063657
 20
-151.0043917808253
 11
92.96486814082128
 21
-151.0043917808253
 97
        0
 92
        1
 93
        3
 72
     1
 10
92.77263181274435
 20
-150.1496635909348
 11
92.3692111314216
 21
-150.8056097713264
 72
     1
 10
92.3692111314216
 20
-150.8056097713264
 11
92.77263181274435
 21
-150.8056097713264
 72
     1
 10
92.77263181274435
 20
-150.8056097713264
 11
92.77263181274435
 21
-150.1496635909348
 97
        0
 75
     2
 76
     1
 98
        0
  0
ENDBLK
  5
101
330
FE
100
AcDbEntity
  8
0
100
AcDbBlockEnd
  0
BLOCK
  5
11B
330
119
100
AcDbEntity
  8
0
100
AcDbBlockBegin
  2
block 5
 70
     0
 10
0.0
 20
0.0
 30
0.0
  3
block 5
  1

  0
SPLINE
  5
11D
330
119
100
AcDbEntity
  8
_U+30EC_U+30A4_U+30E4_U+30FC 1
370
     0
100
AcDbSpline
210
0.0
220
0.0
230
1.0
 70
    11
 71
     3
 72
    26
 73
    22
 74
     0
 42
0.0000000001
 43
0.0000000001
 12
1.0
 22
0.0
 32
0.0
 13
1.0
 23
0.0
 33
0.0
 40
0.0
 40
0.0
 40
0.0
 40
0.0
 40
1.0
 40
1.0
 40
1.0
 40
2.0
 40
2.0
 40
2.0
 40
3.0
 40
3.0
 40
3.0
 40
4.0
 40
4.0
 40
4.0
 40
5.0
 40
5.0
 40
5.0
 40
6.0
 40
6.0
 40
6.0
 40
7.0
 40
7.0
 40
7.0
 40
7.0
 10
90.58895803941874
 20
-128.351166417565
 30
0.0
 10
90.58895803941874
 20
-128.351166417565
 30
0.0
 10
90.58895803941874
 20
-127.2468410597682
 30
0.0
 10
90.58895803941874
 20
-127.2468410597682
 30
0.0
 10
90.58895803941874
 20
-127.2468410597682
 30
0.0
 10
90.29767521614086
 20
-127.2468410597682
 30
0.0
 10
90.29767521614086
 20
-127.2468410597682
 30
0.0
 10
90.29767521614086
 20
-127.2468410597682
 30
0.0
 10
90.29767521614086
 20
-127.0988742086767
 30
0.0
 10
90.29767521614086
 20
-127.0988742086767
 30
0.0
 10
90.59085284193563
 20
-127.0840602980901
 30
0.0
 10
90.63202173298436
 20
-126.9211072816378
 30
0.0
 10
90.658032203898
 20
-126.8069023663018
 30
0.0
 10
90.658032203898
 20
-126.8069023663018
 30
0.0
 10
90.7870510298206
 20
-126.8069023663018
 30
0.0
 10
90.7870510298206
 20
-126.8069023663018
 30
0.0
 10
90.7870510298206
 20
-126.8069023663018
 30
0.0
 10
90.7870510298206
 20
-128.351166417565
 30
0.0
 10
90.7870510298206
 20
-128.351166417565
 30
0.0
 10
90.7870510298206
 20
-128.351166417565
 30
0.0
 10
90.58895803941874
 20
-128.351166417565
 30
0.0
 10
90.58895803941874
 20
-128.351166417565
 30
0.0
  0
HATCH
  5
11E
330
119
100
AcDbEntity
  8
_U+30EC_U+30A4_U+30E4_U+30FC 1
 62
   179
420
  2234388
100
AcDbHatch
 10
0.0
 20
0.0
 30
0.0
210
0.0
220
0.0
230
1.0
  2
SOLID
 70
     1
 71
     0
 91
        1
 92
        1
 93
        1
 72
     4
 94
        3
 73
     0
 74
     1
 95
       26
 96
       22
 40
0.0
 40
0.0
 40
0.0
 40
0.0
 40
1.0
 40
1.0
 40
1.0
 40
2.0
 40
2.0
 40
2.0
 40
3.0
 40
3.0
 40
3.0
 40
4.0
 40
4.0
 40
4.0
 40
5.0
 40
5.0
 40
5.0
 40
6.0
 40
6.0
 40
6.0
 40
7.0
 40
7.0
 40
7.0
 40
7.0
 10
90.58895803941874
 20
-128.351166417565
 10
90.58895803941874
 20
-128.351166417565
 10
90.58895803941874
 20
-127.2468410597682
 10
90.58895803941874
 20
-127.2468410597682
 10
90.58895803941874
 20
-127.2468410597682
 10
90.29767521614086
 20
-127.2468410597682
 10
90.29767521614086
 20
-127.2468410597682
 10
90.29767521614086
 20
-127.2468410597682
 10
90.29767521614086
 20
-127.0988742086767
 10
90.29767521614086
 20
-127.0988742086767
 10
90.59085284193563
 20
-127.0840602980901
 10
90.63202173298436
 20
-126.9211072816378
 10
90.658032203898
 20
-126.8069023663018
 10
90.658032203898
 20
-126.8069023663018
 10
90.7870510298206
 20
-126.8069023663018
 10
90.7870510298206
 20
-126.8069023663018
 10
90.7870510298206
 20
-126.8069023663018
 10
90.7870510298206
 20
-128.351166417565
 10
90.7870510298206
 20
-128.351166417565
 10
90.7870510298206
 20
-128.351166417565
 10
90.58895803941874
 20
-128.351166417565
 10
90.58895803941874
 20
-128.351166417565
 97
        0
 97
        0
 75
     2
 76
     1
 98
        0
  0
SPLINE
  5
11F
330
119
100
AcDbEntity
  8
_U+30EC_U+30A4_U+30E4_U+30FC 1
370
     0
100
AcDbSpline
210
0.0
220
0.0
230
1.0
 70
    11
 71
     3
 72
    29
 73
    25
 74
     0
 42
0.0000000001
 43
0.0000000001
 12
1.0
 22
0.0
 32
0.0
 13
1.0
 23
0.0
 33
0.0
 40
0.0
 40
0.0
 40
0.0
 40
0.0
 40
1.0
 40
1.0
 40
1.0
 40
2.0
 40
2.0
 40
2.0
 40
3.0
 40
3.0
 40
3.0
 40
4.0
 40
4.0
 40
4.0
 40
5.0
 40
5.0
 40
5.0
 40
6.0
 40
6.0
 40
6.0
 40
7.0
 40
7.0
 40
7.0
 40
8.0
 40
8.0
 40
8.0
 40
8.0
 10
92.02297903515398
 20
-128.1733994905261
 30
0.0
 10
91.92754989021256
 20
-128.3828612960293
 30
0.0
 10
91.77458765066747
 20
-128.4019815759724
 30
0.0
 10
91.67192380520703
 20
-128.4019815759724
 30
0.0
 10
91.52964136166621
 20
-128.4019815759724
 30
0.0
 10
91.40458439555164
 20
-128.3554727869216
 30
0.0
 10
91.32052406571154
 20
-128.1733994905261
 30
0.0
 10
91.22905678057816
 20
-127.9787515956095
 30
0.0
 10
91.21217581270044
 20
-127.7419012809986
 30
0.0
 10
91.21217581270044
 20
-127.5789482645462
 30
0.0
 10
91.21217581270044
 20
-127.4351155280371
 30
0.0
 10
91.22716197806128
 20
-127.1834513028396
 30
0.0
 10
91.32052406571154
 20
-126.9844970385664
 30
0.0
 10
91.41595321065296
 20
-126.7814086597109
 30
0.0
 10
91.55789114464525
 20
-126.7581542651855
 30
0.0
 10
91.67192380520703
 20
-126.7581542651855
 30
0.0
 10
91.81179468190817
 20
-126.7581542651855
 30
0.0
 10
91.93891870531388
 20
-126.8025959969452
 30
0.0
 10
92.02297903515398
 20
-126.9844970385664
 30
0.0
 10
92.11082897002785
 20
-127.1770778761918
 30
0.0
 10
92.13115503339083
 20
-127.4054877068639
 30
0.0
 10
92.13115503339083
 20
-127.5789482645462
 30
0.0
 10
92.13115503339083
 20
-127.7503417649374
 30
0.0
 10
92.11255151777048
 20
-127.9809909076749
 30
0.0
 10
92.02297903515398
 20
-128.1733994905261
 30
0.0
  0
SPLINE
  5
120
330
119
100
AcDbEntity
  8
_U+30EC_U+30A4_U+30E4_U+30FC 1
370
     0
100
AcDbSpline
210
0.0
220
0.0
230
1.0
 70
    11
 71
     3
 72
    17
 73
    13
 74
     0
 42
0.0000000001
 43
0.0000000001
 12
1.0
 22
0.0
 32
0.0
 13
1.0
 23
0.0
 33
0.0
 40
0.0
 40
0.0
 40
0.0
 40
0.0
 40
1.0
 40
1.0
 40
1.0
 40
2.0
 40
2.0
 40
2.0
 40
3.0
 40
3.0
 40
3.0
 40
4.0
 40
4.0
 40
4.0
 40
4.0
 10
91.67192380520703
 20
-126.9507351028109
 30
0.0
 10
91.45143769415104
 20
-126.9507351028109
 30
0.0
 10
91.41009654832804
 20
-127.234266461247
 30
0.0
 10
91.41009654832804
 20
-127.5789482645462
 30
0.0
 10
91.41009654832804
 20
-127.8984808708032
 30
0.0
 10
91.44213593634086
 20
-128.2073336810558
 30
0.0
 10
91.67192380520703
 20
-128.2073336810558
 30
0.0
 10
91.89034285897186
 20
-128.2073336810558
 30
0.0
 10
91.93340655253749
 20
-127.9258693799109
 30
0.0
 10
91.93340655253749
 20
-127.5789482645462
 30
0.0
 10
91.93340655253749
 20
-127.2595879130636
 30
0.0
 10
91.89964461678204
 20
-126.9507351028109
 30
0.0
 10
91.67192380520703
 20
-126.9507351028109
 30
0.0
  0
HATCH
  5
121
330
119
100
AcDbEntity
  8
_U+30EC_U+30A4_U+30E4_U+30FC 1
 62
   179
420
  2234388
100
AcDbHatch
 10
0.0
 20
0.0
 30
0.0
210
0.0
220
0.0
230
1.0
  2
SOLID
 70
     1
 71
     0
 91
        2
 92
        1
 93
        1
 72
     4
 94
        3
 73
     0
 74
     1
 95
       29
 96
       25
 40
0.0
 40
0.0
 40
0.0
 40
0.0
 40
1.0
 40
1.0
 40
1.0
 40
2.0
 40
2.0
 40
2.0
 40
3.0
 40
3.0
 40
3.0
 40
4.0
 40
4.0
 40
4.0
 40
5.0
 40
5.0
 40
5.0
 40
6.0
 40
6.0
 40
6.0
 40
7.0
 40
7.0
 40
7.0
 40
8.0
 40
8.0
 40
8.0
 40
8.0
 10
92.02297903515398
 20
-128.1733994905261
 10
91.92754989021256
 20
-128.3828612960293
 10
91.77458765066747
 20
-128.4019815759724
 10
91.67192380520703
 20
-128.4019815759724
 10
91.52964136166621
 20
-128.4019815759724
 10
91.40458439555164
 20
-128.3554727869216
 10
91.32052406571154
 20
-128.1733994905261
 10
91.22905678057816
 20
-127.9787515956095
 10
91.21217581270044
 20
-127.7419012809986
 10
91.21217581270044
 20
-127.5789482645462
 10
91.21217581270044
 20
-127.4351155280371
 10
91.22716197806128
 20
-127.1834513028396
 10
91.32052406571154
 20
-126.9844970385664
 10
91.41595321065296
 20
-126.7814086597109
 10
91.55789114464525
 20
-126.7581542651855
 10
91.67192380520703
 20
-126.7581542651855
 10
91.81179468190817
 20
-126.7581542651855
 10
91.93891870531388
 20
-126.8025959969452
 10
92.02297903515398
 20
-126.9844970385664
 10
92.11082897002785
 20
-127.1770778761918
 10
92.13115503339083
 20
-127.4054877068639
 10
92.13115503339083
 20
-127.5789482645462
 10
92.13115503339083
 20
-127.7503417649374
 10
92.11255151777048
 20
-127.9809909076749
 10
92.02297903515398
 20
-128.1733994905261
 97
        0
 97
        0
 92
        1
 93
        1
 72
     4
 94
        3
 73
     0
 74
     1
 95
       17
 96
       13
 40
0.0
 40
0.0
 40
0.0
 40
0.0
 40
1.0
 40
1.0
 40
1.0
 40
2.0
 40
2.0
 40
2.0
 40
3.0
 40
3.0
 40
3.0
 40
4.0
 40
4.0
 40
4.0
 40
4.0
 10
91.67192380520703
 20
-126.9507351028109
 10
91.45143769415104
 20
-126.9507351028109
 10
91.41009654832804
 20
-127.234266461247
 10
91.41009654832804
 20
-127.5789482645462
 10
91.41009654832804
 20
-127.8984808708032
 10
91.44213593634086
 20
-128.2073336810558
 10
91.67192380520703
 20
-128.2073336810558
 10
91.89034285897186
 20
-128.2073336810558
 10
91.93340655253749
 20
-127.9258693799109
 10
91.93340655253749
 20
-127.5789482645462
 10
91.93340655253749
 20
-127.2595879130636
 10
91.89964461678204
 20
-126.9507351028109
 10
91.67192380520703
 20
-126.9507351028109
 97
        0
 97
        0
 75
     2
 76
     1
 98
        0
  0
ENDBLK
  5
11C
330
119
100
AcDbEntity
  8
0
100
AcDbBlockEnd
  0
BLOCK
  5
124
330
122
100
AcDbEntity
  8
0
100
AcDbBlockBegin
  2
block 6
 70
     0
 10
0.0
 20
0.0
 30
0.0
  3
block 6
  1

  0
SPLINE
  5
126
330
122
100
AcDbEntity
  8
_U+30EC_U+30A4_U+30E4_U+30FC 1
370
     0
100
AcDbSpline
210
0.0
220
0.0
230
1.0
 70
    11
 71
     3
 72
    26
 73
    22
 74
     0
 42
0.0000000001
 43
0.0000000001
 12
1.0
 22
0.0
 32
0.0
 13
1.0
 23
0.0
 33
0.0
 40
0.0
 40
0.0
 40
0.0
 40
0.0
 40
1.0
 40
1.0
 40
1.0
 40
2.0
 40
2.0
 40
2.0
 40
3.0
 40
3.0
 40
3.0
 40
4.0
 40
4.0
 40
4.0
 40
5.0
 40
5.0
 40
5.0
 40
6.0
 40
6.0
 40
6.0
 40
7.0
 40
7.0
 40
7.0
 40
7.0
 10
80.37924531410658
 20
-141.0621907199428
 30
0.0
 10
80.37924531410658
 20
-141.0621907199428
 30
0.0
 10
79.27509221108402
 20
-141.0621907199428
 30
0.0
 10
79.27509221108402
 20
-141.0621907199428
 30
0.0
 10
79.27509221108402
 20
-141.0621907199428
 30
0.0
 10
79.27509221108402
 20
-141.3536457979949
 30
0.0
 10
79.27509221108402
 20
-141.3536457979949
 30
0.0
 10
79.27509221108402
 20
-141.3536457979949
 30
0.0
 10
79.12695310521826
 20
-141.3536457979949
 30
0.0
 10
79.12695310521826
 20
-141.3536457979949
 30
0.0
 10
79.1121391946317
 20
-141.0604681722002
 30
0.0
 10
78.94918617817937
 20
-141.0194715359257
 30
0.0
 10
78.83480900806907
 20
-140.9932888102378
 30
0.0
 10
78.83480900806907
 20
-140.9932888102378
 30
0.0
 10
78.83480900806907
 20
-140.8644422390894
 30
0.0
 10
78.83480900806907
 20
-140.8644422390894
 30
0.0
 10
78.83480900806907
 20
-140.8644422390894
 30
0.0
 10
80.37924531410658
 20
-140.8644422390894
 30
0.0
 10
80.37924531410658
 20
-140.8644422390894
 30
0.0
 10
80.37924531410658
 20
-140.8644422390894
 30
0.0
 10
80.37924531410658
 20
-141.0621907199428
 30
0.0
 10
80.37924531410658
 20
-141.0621907199428
 30
0.0
  0
HATCH
  5
127
330
122
100
AcDbEntity
  8
_U+30EC_U+30A4_U+30E4_U+30FC 1
 62
   179
420
  2234388
100
AcDbHatch
 10
0.0
 20
0.0
 30
0.0
210
0.0
220
0.0
230
1.0
  2
SOLID
 70
     1
 71
     0
 91
        1
 92
        1
 93
        1
 72
     4
 94
        3
 73
     0
 74
     1
 95
       26
 96
       22
 40
0.0
 40
0.0
 40
0.0
 40
0.0
 40
1.0
 40
1.0
 40
1.0
 40
2.0
 40
2.0
 40
2.0
 40
3.0
 40
3.0
 40
3.0
 40
4.0
 40
4.0
 40
4.0
 40
5.0
 40
5.0
 40
5.0
 40
6.0
 40
6.0
 40
6.0
 40
7.0
 40
7.0
 40
7.0
 40
7.0
 10
80.37924531410658
 20
-141.0621907199428
 10
80.37924531410658
 20
-141.0621907199428
 10
79.27509221108402
 20
-141.0621907199428
 10
79.27509221108402
 20
-141.0621907199428
 10
79.27509221108402
 20
-141.0621907199428
 10
79.27509221108402
 20
-141.3536457979949
 10
79.27509221108402
 20
-141.3536457979949
 10
79.27509221108402
 20
-141.3536457979949
 10
79.12695310521826
 20
-141.3536457979949
 10
79.12695310521826
 20
-141.3536457979949
 10
79.1121391946317
 20
-141.0604681722002
 10
78.94918617817937
 20
-141.0194715359257
 10
78.83480900806907
 20
-140.9932888102378
 10
78.83480900806907
 20
-140.9932888102378
 10
78.83480900806907
 20
-140.8644422390894
 10
78.83480900806907
 20
-140.8644422390894
 10
78.83480900806907
 20
-140.8644422390894
 10
80.37924531410658
 20
-140.8644422390894
 10
80.37924531410658
 20
-140.8644422390894
 10
80.37924531410658
 20
-140.8644422390894
 10
80.37924531410658
 20
-141.0621907199428
 10
80.37924531410658
 20
-141.0621907199428
 97
        0
 97
        0
 75
     2
 76
     1
 98
        0
  0
SPLINE
  5
128
330
122
100
AcDbEntity
  8
_U+30EC_U+30A4_U+30E4_U+30FC 1
370
     0
100
AcDbSpline
210
0.0
220
0.0
230
1.0
 70
    11
 71
     3
 72
    53
 73
    49
 74
     0
 42
0.0000000001
 43
0.0000000001
 12
1.0
 22
0.0
 32
0.0
 13
1.0
 23
0.0
 33
0.0
 40
0.0
 40
0.0
 40
0.0
 40
0.0
 40
1.0
 40
1.0
 40
1.0
 40
2.0
 40
2.0
 40
2.0
 40
3.0
 40
3.0
 40
3.0
 40
4.0
 40
4.0
 40
4.0
 40
5.0
 40
5.0
 40
5.0
 40
6.0
 40
6.0
 40
6.0
 40
7.0
 40
7.0
 40
7.0
 40
8.0
 40
8.0
 40
8.0
 40
9.0
 40
9.0
 40
9.0
 40
10.0
 40
10.0
 40
10.0
 40
11.0
 40
11.0
 40
11.0
 40
12.0
 40
12.0
 40
12.0
 40
13.0
 40
13.0
 40
13.0
 40
14.0
 40
14.0
 40
14.0
 40
15.0
 40
15.0
 40
15.0
 40
16.0
 40
16.0
 40
16.0
 40
16.0
 10
80.42988821773976
 20
-139.996622686355
 30
0.0
 10
80.42988821773976
 20
-140.06552459606
 30
0.0
 10
80.41300724986203
 20
-140.1550970786765
 30
0.0
 10
80.34961749293343
 20
-140.2450140708415
 30
0.0
 10
80.23971894695396
 20
-140.3979763103866
 30
0.0
 10
80.10846080896594
 20
-140.416579826007
 30
0.0
 10
80.00062932027762
 20
-140.4334607938847
 30
0.0
 10
80.00062932027762
 20
-140.4334607938847
 30
0.0
 10
80.00062932027762
 20
-140.237434860774
 30
0.0
 10
80.00062932027762
 20
-140.237434860774
 30
0.0
 10
80.19941132977654
 20
-140.188859014432
 30
0.0
 10
80.22903915094969
 20
-140.0768934111613
 30
0.0
 10
80.22903915094969
 20
-139.9945556290639
 30
0.0
 10
80.22903915094969
 20
-139.8712212106919
 30
0.0
 10
80.12947589142597
 20
-139.7368624867672
 30
0.0
 10
79.8969319461716
 20
-139.7368624867672
 30
0.0
 10
79.64096135161753
 20
-139.7368624867672
 30
0.0
 10
79.57102591326696
 20
-139.8956813886372
 30
0.0
 10
79.57102591326696
 20
-140.0021348391314
 30
0.0
 10
79.57102591326696
 20
-140.0300401125619
 30
0.0
 10
79.57102591326696
 20
-140.1550970786765
 30
0.0
 10
79.70021699396383
 20
-140.2336452557402
 30
0.0
 10
79.70021699396383
 20
-140.2336452557402
 30
0.0
 10
79.68126896879497
 20
-140.3886745525764
 30
0.0
 10
79.68126896879497
 20
-140.3886745525764
 30
0.0
 10
79.68126896879497
 20
-140.3886745525764
 30
0.0
 10
78.83480900806907
 20
-140.2822211020822
 30
0.0
 10
78.83480900806907
 20
-140.2822211020822
 30
0.0
 10
78.83480900806907
 20
-140.2822211020822
 30
0.0
 10
78.83480900806907
 20
-139.5949245527749
 30
0.0
 10
78.83480900806907
 20
-139.5949245527749
 30
0.0
 10
78.83480900806907
 20
-139.5949245527749
 30
0.0
 10
79.0294569029857
 20
-139.5949245527749
 30
0.0
 10
79.0294569029857
 20
-139.5949245527749
 30
0.0
 10
79.0294569029857
 20
-139.5949245527749
 30
0.0
 10
79.0294569029857
 20
-140.1385606203473
 30
0.0
 10
79.0294569029857
 20
-140.1385606203473
 30
0.0
 10
79.0294569029857
 20
-140.1385606203473
 30
0.0
 10
79.45251462857438
 20
-140.1964382244995
 30
0.0
 10
79.45251462857438
 20
-140.1964382244995
 30
0.0
 10
79.41875269281893
 20
-140.1420057158326
 30
0.0
 10
79.37844507564151
 20
-140.0693142010938
 30
0.0
 10
79.37844507564151
 20
-139.9645832983422
 30
0.0
 10
79.37844507564151
 20
-139.740652091801
 30
0.0
 10
79.56482474139352
 20
-139.5311902862978
 30
0.0
 10
79.87798392100272
 20
-139.5311902862978
 30
0.0
 10
80.19527721519424
 20
-139.5311902862978
 30
0.0
 10
80.42988821773976
 20
-139.7292832766996
 30
0.0
 10
80.42988821773976
 20
-139.996622686355
 30
0.0
  0
HATCH
  5
129
330
122
100
AcDbEntity
  8
_U+30EC_U+30A4_U+30E4_U+30FC 1
 62
   179
420
  2234388
100
AcDbHatch
 10
0.0
 20
0.0
 30
0.0
210
0.0
220
0.0
230
1.0
  2
SOLID
 70
     1
 71
     0
 91
        1
 92
        1
 93
        1
 72
     4
 94
        3
 73
     0
 74
     1
 95
       53
 96
       49
 40
0.0
 40
0.0
 40
0.0
 40
0.0
 40
1.0
 40
1.0
 40
1.0
 40
2.0
 40
2.0
 40
2.0
 40
3.0
 40
3.0
 40
3.0
 40
4.0
 40
4.0
 40
4.0
 40
5.0
 40
5.0
 40
5.0
 40
6.0
 40
6.0
 40
6.0
 40
7.0
 40
7.0
 40
7.0
 40
8.0
 40
8.0
 40
8.0
 40
9.0
 40
9.0
 40
9.0
 40
10.0
 40
10.0
 40
10.0
 40
11.0
 40
11.0
 40
11.0
 40
12.0
 40
12.0
 40
12.0
 40
13.0
 40
13.0
 40
13.0
 40
14.0
 40
14.0
 40
14.0
 40
15.0
 40
15.0
 40
15.0
 40
16.0
 40
16.0
 40
16.0
 40
16.0
 10
80.42988821773976
 20
-139.996622686355
 10
80.42988821773976
 20
-140.06552459606
 10
80.41300724986203
 20
-140.1550970786765
 10
80.34961749293343
 20
-140.2450140708415
 10
80.23971894695396
 20
-140.3979763103866
 10
80.10846080896594
 20
-140.416579826007
 10
80.00062932027762
 20
-140.4334607938847
 10
80.00062932027762
 20
-140.4334607938847
 10
80.00062932027762
 20
-140.237434860774
 10
80.00062932027762
 20
-140.237434860774
 10
80.19941132977654
 20
-140.188859014432
 10
80.22903915094969
 20
-140.0768934111613
 10
80.22903915094969
 20
-139.9945556290639
 10
80.22903915094969
 20
-139.8712212106919
 10
80.12947589142597
 20
-139.7368624867672
 10
79.8969319461716
 20
-139.7368624867672
 10
79.64096135161753
 20
-139.7368624867672
 10
79.57102591326696
 20
-139.8956813886372
 10
79.57102591326696
 20
-140.0021348391314
 10
79.57102591326696
 20
-140.0300401125619
 10
79.57102591326696
 20
-140.1550970786765
 10
79.70021699396383
 20
-140.2336452557402
 10
79.70021699396383
 20
-140.2336452557402
 10
79.68126896879497
 20
-140.3886745525764
 10
79.68126896879497
 20
-140.3886745525764
 10
79.68126896879497
 20
-140.3886745525764
 10
78.83480900806907
 20
-140.2822211020822
 10
78.83480900806907
 20
-140.2822211020822
 10
78.83480900806907
 20
-140.2822211020822
 10
78.83480900806907
 20
-139.5949245527749
 10
78.83480900806907
 20
-139.5949245527749
 10
78.83480900806907
 20
-139.5949245527749
 10
79.0294569029857
 20
-139.5949245527749
 10
79.0294569029857
 20
-139.5949245527749
 10
79.0294569029857
 20
-139.5949245527749
 10
79.0294569029857
 20
-140.1385606203473
 10
79.0294569029857
 20
-140.1385606203473
 10
79.0294569029857
 20
-140.1385606203473
 10
79.45251462857438
 20
-140.1964382244995
 10
79.45251462857438
 20
-140.1964382244995
 10
79.41875269281893
 20
-140.1420057158326
 10
79.37844507564151
 20
-140.0693142010938
 10
79.37844507564151
 20
-139.9645832983422
 10
79.37844507564151
 20
-139.740652091801
 10
79.56482474139352
 20
-139.5311902862978
 10
79.87798392100272
 20
-139.5311902862978
 10
80.19527721519424
 20
-139.5311902862978
 10
80.42988821773976
 20
-139.7292832766996
 10
80.42988821773976
 20
-139.996622686355
 97
        0
 97
        0
 75
     2
 76
     1
 98
        0
  0
ENDBLK
  5
125
330
122
100
AcDbEntity
  8
0
100
AcDbBlockEnd
  0
BLOCK
  5
12C
330
12A
100
AcDbEntity
  8
0
100
AcDbBlockBegin
  2
block 7
 70
     0
 10
0.0
 20
0.0
 30
0.0
  3
block 7
  1

  0
SPLINE
  5
12E
330
12A
100
AcDbEntity
  8
_U+30EC_U+30A4_U+30E4_U+30FC 1
370
     0
100
AcDbSpline
210
0.0
220
0.0
230
1.0
 70
    11
 71
     3
 72
    26
 73
    22
 74
     0
 42
0.0000000001
 43
0.0000000001
 12
1.0
 22
0.0
 32
0.0
 13
1.0
 23
0.0
 33
0.0
 40
0.0
 40
0.0
 40
0.0
 40
0.0
 40
1.0
 40
1.0
 40
1.0
 40
2.0
 40
2.0
 40
2.0
 40
3.0
 40
3.0
 40
3.0
 40
4.0
 40
4.0
 40
4.0
 40
5.0
 40
5.0
 40
5.0
 40
6.0
 40
6.0
 40
6.0
 40
7.0
 40
7.0
 40
7.0
 40
7.0
 10
95.78398977640123
 20
-106.7631645783439
 30
0.0
 10
95.78398977640123
 20
-106.7631645783439
 30
0.0
 10
95.78398977640123
 20
-105.6588392205471
 30
0.0
 10
95.78398977640123
 20
-105.6588392205471
 30
0.0
 10
95.78398977640123
 20
-105.6588392205471
 30
0.0
 10
95.49287920789762
 20
-105.6588392205471
 30
0.0
 10
95.49287920789762
 20
-105.6588392205471
 30
0.0
 10
95.49287920789762
 20
-105.6588392205471
 30
0.0
 10
95.49287920789762
 20
-105.5108723694556
 30
0.0
 10
95.49287920789762
 20
-105.5108723694556
 30
0.0
 10
95.78605683369238
 20
-105.496058458869
 30
0.0
 10
95.82739797951538
 20
-105.3331054424167
 30
0.0
 10
95.85323619565474
 20
-105.2189005270807
 30
0.0
 10
95.85323619565474
 20
-105.2189005270807
 30
0.0
 10
95.98242727635161
 20
-105.2189005270807
 30
0.0
 10
95.98242727635161
 20
-105.2189005270807
 30
0.0
 10
95.98242727635161
 20
-105.2189005270807
 30
0.0
 10
95.98242727635161
 20
-106.7631645783439
 30
0.0
 10
95.98242727635161
 20
-106.7631645783439
 30
0.0
 10
95.98242727635161
 20
-106.7631645783439
 30
0.0
 10
95.78398977640123
 20
-106.7631645783439
 30
0.0
 10
95.78398977640123
 20
-106.7631645783439
 30
0.0
  0
HATCH
  5
12F
330
12A
100
AcDbEntity
  8
_U+30EC_U+30A4_U+30E4_U+30FC 1
 62
   179
420
  2234388
100
AcDbHatch
 10
0.0
 20
0.0
 30
0.0
210
0.0
220
0.0
230
1.0
  2
SOLID
 70
     1
 71
     0
 91
        1
 92
        1
 93
        1
 72
     4
 94
        3
 73
     0
 74
     1
 95
       26
 96
       22
 40
0.0
 40
0.0
 40
0.0
 40
0.0
 40
1.0
 40
1.0
 40
1.0
 40
2.0
 40
2.0
 40
2.0
 40
3.0
 40
3.0
 40
3.0
 40
4.0
 40
4.0
 40
4.0
 40
5.0
 40
5.0
 40
5.0
 40
6.0
 40
6.0
 40
6.0
 40
7.0
 40
7.0
 40
7.0
 40
7.0
 10
95.78398977640123
 20
-106.7631645783439
 10
95.78398977640123
 20
-106.7631645783439
 10
95.78398977640123
 20
-105.6588392205471
 10
95.78398977640123
 20
-105.6588392205471
 10
95.78398977640123
 20
-105.6588392205471
 10
95.49287920789762
 20
-105.6588392205471
 10
95.49287920789762
 20
-105.6588392205471
 10
95.49287920789762
 20
-105.6588392205471
 10
95.49287920789762
 20
-105.5108723694556
 10
95.49287920789762
 20
-105.5108723694556
 10
95.78605683369238
 20
-105.496058458869
 10
95.82739797951538
 20
-105.3331054424167
 10
95.85323619565474
 20
-105.2189005270807
 10
95.85323619565474
 20
-105.2189005270807
 10
95.98242727635161
 20
-105.2189005270807
 10
95.98242727635161
 20
-105.2189005270807
 10
95.98242727635161
 20
-105.2189005270807
 10
95.98242727635161
 20
-106.7631645783439
 10
95.98242727635161
 20
-106.7631645783439
 10
95.98242727635161
 20
-106.7631645783439
 10
95.78398977640123
 20
-106.7631645783439
 10
95.78398977640123
 20
-106.7631645783439
 97
        0
 97
        0
 75
     2
 76
     1
 98
        0
  0
POLYLINE
  5
130
330
12A
100
AcDbEntity
  8
_U+30EC_U+30A4_U+30E4_U+30FC 1
370
     0
100
AcDb2dPolyline
 66
     1
 10
0.0
 20
0.0
 30
0.0
  0
VERTEX
  5
131
330
130
100
AcDbEntity
  8
_U+30EC_U+30A4_U+30E4_U+30FC 1
370
     0
100
AcDbVertex
100
AcDb2dVertex
 10
96.4785210262276
 20
-106.7631645783439
 30
0.0
  0
VERTEX
  5
132
330
130
100
AcDbEntity
  8
_U+30EC_U+30A4_U+30E4_U+30FC 1
370
     0
100
AcDbVertex
100
AcDb2dVertex
 10
96.4785210262276
 20
-106.5115003531464
 30
0.0
  0
VERTEX
  5
133
330
130
100
AcDbEntity
  8
_U+30EC_U+30A4_U+30E4_U+30FC 1
370
     0
100
AcDbVertex
100
AcDb2dVertex
 10
96.70038517547769
 20
-106.5115003531464
 30
0.0
  0
VERTEX
  5
134
330
130
100
AcDbEntity
  8
_U+30EC_U+30A4_U+30E4_U+30FC 1
370
     0
100
AcDbVertex
100
AcDb2dVertex
 10
96.70038517547769
 20
-106.7631645783439
 30
0.0
  0
VERTEX
  5
135
330
130
100
AcDbEntity
  8
_U+30EC_U+30A4_U+30E4_U+30FC 1
370
     0
100
AcDbVertex
100
AcDb2dVertex
 10
96.4785210262276
 20
-106.7631645783439
 30
0.0
  0
SEQEND
  5
136
330
130
100
AcDbEntity
  8
_U+30EC_U+30A4_U+30E4_U+30FC 1
370
     0
  0
HATCH
  5
137
330
12A
100
AcDbEntity
  8
_U+30EC_U+30A4_U+30E4_U+30FC 1
 62
   179
420
  2234388
100
AcDbHatch
 10
0.0
 20
0.0
 30
0.0
210
0.0
220
0.0
230
1.0
  2
SOLID
 70
     1
 71
     0
 91
        1
 92
        1
 93
        4
 72
     1
 10
96.4785210262276
 20
-106.7631645783439
 11
96.4785210262276
 21
-106.5115003531464
 72
     1
 10
96.4785210262276
 20
-106.5115003531464
 11
96.70038517547769
 21
-106.5115003531464
 72
     1
 10
96.70038517547769
 20
-106.5115003531464
 11
96.70038517547769
 21
-106.7631645783439
 72
     1
 10
96.70038517547769
 20
-106.7631645783439
 11
96.4785210262276
 21
-106.7631645783439
 97
        0
 75
     2
 76
     1
 98
        0
  0
SPLINE
  5
138
330
12A
100
AcDbEntity
  8
_U+30EC_U+30A4_U+30E4_U+30FC 1
370
     0
100
AcDbSpline
210
0.0
220
0.0
230
1.0
 70
    11
 71
     3
 72
    44
 73
    40
 74
     0
 42
0.0000000001
 43
0.0000000001
 12
1.0
 22
0.0
 32
0.0
 13
1.0
 23
0.0
 33
0.0
 40
0.0
 40
0.0
 40
0.0
 40
0.0
 40
1.0
 40
1.0
 40
1.0
 40
2.0
 40
2.0
 40
2.0
 40
3.0
 40
3.0
 40
3.0
 40
4.0
 40
4.0
 40
4.0
 40
5.0
 40
5.0
 40
5.0
 40
6.0
 40
6.0
 40
6.0
 40
7.0
 40
7.0
 40
7.0
 40
8.0
 40
8.0
 40
8.0
 40
9.0
 40
9.0
 40
9.0
 40
10.0
 40
10.0
 40
10.0
 40
11.0
 40
11.0
 40
11.0
 40
12.0
 40
12.0
 40
12.0
 40
13.0
 40
13.0
 40
13.0
 40
13.0
 10
97.43350149473885
 20
-106.1814602056595
 30
0.0
 10
97.2412651666619
 20
-106.3401068527553
 30
0.0
 10
97.15892738456444
 20
-106.4141764056881
 30
0.0
 10
97.11586369099882
 20
-106.5580091421973
 30
0.0
 10
97.11586369099882
 20
-106.5580091421973
 30
0.0
 10
97.80350474985468
 20
-106.5580091421973
 30
0.0
 10
97.80350474985468
 20
-106.5580091421973
 30
0.0
 10
97.80350474985468
 20
-106.5580091421973
 30
0.0
 10
97.80350474985468
 20
-106.7631645783439
 30
0.0
 10
97.80350474985468
 20
-106.7631645783439
 30
0.0
 10
97.80350474985468
 20
-106.7631645783439
 30
0.0
 10
96.89537757994283
 20
-106.7631645783439
 30
0.0
 10
96.89537757994283
 20
-106.7631645783439
 30
0.0
 10
96.92362736292188
 20
-106.405563666975
 30
0.0
 10
96.98150496707407
 20
-106.3273599994598
 30
0.0
 10
97.3211913819197
 20
-106.0290147304372
 30
0.0
 10
97.5471896457521
 20
-105.8302327209383
 30
0.0
 10
97.6050672499043
 20
-105.7625365946531
 30
0.0
 10
97.6050672499043
 20
-105.6250772847917
 30
0.0
 10
97.6050672499043
 20
-105.5065660000991
 30
0.0
 10
97.5416774929757
 20
-105.3754801168853
 30
0.0
 10
97.3680446805191
 20
-105.3754801168853
 30
0.0
 10
97.13825681165294
 20
-105.3754801168853
 30
0.0
 10
97.13102211113392
 20
-105.6059570048485
 30
0.0
 10
97.12688799655162
 20
-105.72240123225
 30
0.0
 10
97.12688799655162
 20
-105.72240123225
 30
0.0
 10
96.92913951569828
 20
-105.72240123225
 30
0.0
 10
96.92913951569828
 20
-105.72240123225
 30
0.0
 10
96.93671872576583
 20
-105.5954494636185
 30
0.0
 10
96.94567597402748
 20
-105.4833116055736
 30
0.0
 10
97.01698945057214
 20
-105.364800320881
 30
0.0
 10
97.11379663370766
 20
-105.2040866164941
 30
0.0
 10
97.2784721979026
 20
-105.1701524259644
 30
0.0
 10
97.38113604336306
 20
-105.1701524259644
 30
0.0
 10
97.6257378228158
 20
-105.1701524259644
 30
0.0
 10
97.80901690263109
 20
-105.354292779651
 30
0.0
 10
97.80901690263109
 20
-105.6271443420828
 30
0.0
 10
97.80901690263109
 20
-105.8555541727549
 30
0.0
 10
97.70635305717065
 20
-105.9551174322786
 30
0.0
 10
97.43350149473885
 20
-106.1814602056595
 30
0.0
  0
HATCH
  5
139
330
12A
100
AcDbEntity
  8
_U+30EC_U+30A4_U+30E4_U+30FC 1
 62
   179
420
  2234388
100
AcDbHatch
 10
0.0
 20
0.0
 30
0.0
210
0.0
220
0.0
230
1.0
  2
SOLID
 70
     1
 71
     0
 91
        1
 92
        1
 93
        1
 72
     4
 94
        3
 73
     0
 74
     1
 95
       44
 96
       40
 40
0.0
 40
0.0
 40
0.0
 40
0.0
 40
1.0
 40
1.0
 40
1.0
 40
2.0
 40
2.0
 40
2.0
 40
3.0
 40
3.0
 40
3.0
 40
4.0
 40
4.0
 40
4.0
 40
5.0
 40
5.0
 40
5.0
 40
6.0
 40
6.0
 40
6.0
 40
7.0
 40
7.0
 40
7.0
 40
8.0
 40
8.0
 40
8.0
 40
9.0
 40
9.0
 40
9.0
 40
10.0
 40
10.0
 40
10.0
 40
11.0
 40
11.0
 40
11.0
 40
12.0
 40
12.0
 40
12.0
 40
13.0
 40
13.0
 40
13.0
 40
13.0
 10
97.43350149473885
 20
-106.1814602056595
 10
97.2412651666619
 20
-106.3401068527553
 10
97.15892738456444
 20
-106.4141764056881
 10
97.11586369099882
 20
-106.5580091421973
 10
97.11586369099882
 20
-106.5580091421973
 10
97.80350474985468
 20
-106.5580091421973
 10
97.80350474985468
 20
-106.5580091421973
 10
97.80350474985468
 20
-106.5580091421973
 10
97.80350474985468
 20
-106.7631645783439
 10
97.80350474985468
 20
-106.7631645783439
 10
97.80350474985468
 20
-106.7631645783439
 10
96.89537757994283
 20
-106.7631645783439
 10
96.89537757994283
 20
-106.7631645783439
 10
96.92362736292188
 20
-106.405563666975
 10
96.98150496707407
 20
-106.3273599994598
 10
97.3211913819197
 20
-106.0290147304372
 10
97.5471896457521
 20
-105.8302327209383
 10
97.6050672499043
 20
-105.7625365946531
 10
97.6050672499043
 20
-105.6250772847917
 10
97.6050672499043
 20
-105.5065660000991
 10
97.5416774929757
 20
-105.3754801168853
 10
97.3680446805191
 20
-105.3754801168853
 10
97.13825681165294
 20
-105.3754801168853
 10
97.13102211113392
 20
-105.6059570048485
 10
97.12688799655162
 20
-105.72240123225
 10
97.12688799655162
 20
-105.72240123225
 10
96.92913951569828
 20
-105.72240123225
 10
96.92913951569828
 20
-105.72240123225
 10
96.93671872576583
 20
-105.5954494636185
 10
96.94567597402748
 20
-105.4833116055736
 10
97.01698945057214
 20
-105.364800320881
 10
97.11379663370766
 20
-105.2040866164941
 10
97.2784721979026
 20
-105.1701524259644
 10
97.38113604336306
 20
-105.1701524259644
 10
97.6257378228158
 20
-105.1701524259644
 10
97.80901690263109
 20
-105.354292779651
 10
97.80901690263109
 20
-105.6271443420828
 10
97.80901690263109
 20
-105.8555541727549
 10
97.70635305717065
 20
-105.9551174322786
 10
97.43350149473885
 20
-106.1814602056595
 97
        0
 97
        0
 75
     2
 76
     1
 98
        0
  0
ENDBLK
  5
12D
330
12A
100
AcDbEntity
  8
0
100
AcDbBlockEnd
  0
ENDSEC
  0
SECTION
  2
ENTITIES
  0
POLYLINE
  5
41
330
1F
100
AcDbEntity
  8
_U+30EC_U+30A4_U+30E4_U+30FC 1
370
     0
100
AcDb2dPolyline
 66
     1
 10
0.0
 20
0.0
 30
0.0
  0
VERTEX
  5
42
330
41
100
AcDbEntity
  8
_U+30EC_U+30A4_U+30E4_U+30FC 1
370
     0
100
AcDbVertex
100
AcDb2dVertex
 10
86.15390502425299
 20
-135.9972091326673
 30
0.0
  0
VERTEX
  5
43
330
41
100
AcDbEntity
  8
_U+30EC_U+30A4_U+30E4_U+30FC 1
370
     0
100
AcDbVertex
100
AcDb2dVertex
 10
96.15363782469412
 20
-135.9972091326673
 30
0.0
  0
VERTEX
  5
44
330
41
100
AcDbEntity
  8
_U+30EC_U+30A4_U+30E4_U+30FC 1
370
     0
100
AcDbVertex
100
AcDb2dVertex
 10
96.15363782469412
 20
-112.4966705274315
 30
0.0
  0
VERTEX
  5
45
330
41
100
AcDbEntity
  8
_U+30EC_U+30A4_U+30E4_U+30FC 1
370
     0
100
AcDbVertex
100
AcDb2dVertex
 10
97.35392890518324
 20
-112.4966705274315
 30
0.0
  0
VERTEX
  5
46
330
41
100
AcDbEntity
  8
_U+30EC_U+30A4_U+30E4_U+30FC 1
370
     0
100
AcDbVertex
100
AcDb2dVertex
 10
97.35392890518324
 20
-136.9969813546398
 30
0.0
  0
VERTEX
  5
47
330
41
100
AcDbEntity
  8
_U+30EC_U+30A4_U+30E4_U+30FC 1
370
     0
100
AcDbVertex
100
AcDb2dVertex
 10
86.15390502425299
 20
-136.9969813546398
 30
0.0
  0
VERTEX
  5
48
330
41
100
AcDbEntity
  8
_U+30EC_U+30A4_U+30E4_U+30FC 1
370
     0
100
AcDbVertex
100
AcDb2dVertex
 10
86.15390502425299
 20
-146.9973846854728
 30
0.0
  0
VERTEX
  5
49
330
41
100
AcDbEntity
  8
_U+30EC_U+30A4_U+30E4_U+30FC 1
370
     0
100
AcDbVertex
100
AcDb2dVertex
 10
99.1536246926025
 20
-146.9973846854728
 30
0.0
  0
VERTEX
  5
4A
330
41
100
AcDbEntity
  8
_U+30EC_U+30A4_U+30E4_U+30FC 1
370
     0
100
AcDbVertex
100
AcDb2dVertex
 10
99.1536246926025
 20
-147.9971569074453
 30
0.0
  0
VERTEX
  5
4B
330
41
100
AcDbEntity
  8
_U+30EC_U+30A4_U+30E4_U+30FC 1
370
     0
100
AcDbVertex
100
AcDb2dVertex
 10
85.1534625497764
 20
-147.9971569074453
 30
0.0
  0
VERTEX
  5
4C
330
41
100
AcDbEntity
  8
_U+30EC_U+30A4_U+30E4_U+30FC 1
370
     0
100
AcDbVertex
100
AcDb2dVertex
 10
85.1534625497764
 20
-132.9972221889729
 30
0.0
  0
VERTEX
  5
4D
330
41
100
AcDbEntity
  8
_U+30EC_U+30A4_U+30E4_U+30FC 1
370
     0
100
AcDbVertex
100
AcDb2dVertex
 10
86.15390502425299
 20
-132.9972221889729
 30
0.0
  0
VERTEX
  5
4E
330
41
100
AcDbEntity
  8
_U+30EC_U+30A4_U+30E4_U+30FC 1
370
     0
100
AcDbVertex
100
AcDb2dVertex
 10
86.15390502425299
 20
-135.9972091326673
 30
0.0
  0
SEQEND
  5
50
330
41
100
AcDbEntity
  8
_U+30EC_U+30A4_U+30E4_U+30FC 1
370
     0
  0
HATCH
  5
4F
330
1F
100
AcDbEntity
  8
_U+30EC_U+30A4_U+30E4_U+30FC 1
 62
   253
420
 11711154
100
AcDbHatch
 10
0.0
 20
0.0
 30
0.0
210
0.0
220
0.0
230
1.0
  2
SOLID
 70
     1
 71
     0
 91
        1
 92
        1
 93
       12
 72
     1
 10
86.15390502425299
 20
-135.9972091326673
 11
96.15363782469412
 21
-135.9972091326673
 72
     1
 10
96.15363782469412
 20
-135.9972091326673
 11
96.15363782469412
 21
-112.4966705274315
 72
     1
 10
96.15363782469412
 20
-112.4966705274315
 11
97.35392890518324
 21
-112.4966705274315
 72
     1
 10
97.35392890518324
 20
-112.4966705274315
 11
97.35392890518324
 21
-136.9969813546398
 72
     1
 10
97.35392890518324
 20
-136.9969813546398
 11
86.15390502425299
 21
-136.9969813546398
 72
     1
 10
86.15390502425299
 20
-136.9969813546398
 11
86.15390502425299
 21
-146.9973846854728
 72
     1
 10
86.15390502425299
 20
-146.9973846854728
 11
99.1536246926025
 21
-146.9973846854728
 72
     1
 10
99.1536246926025
 20
-146.9973846854728
 11
99.1536246926025
 21
-147.9971569074453
 72
     1
 10
99.1536246926025
 20
-147.9971569074453
 11
85.1534625497764
 21
-147.9971569074453
 72
     1
 10
85.1534625497764
 20
-147.9971569074453
 11
85.1534625497764
 21
-132.9972221889729
 72
     1
 10
85.1534625497764
 20
-132.9972221889729
 11
86.15390502425299
 21
-132.9972221889729
 72
     1
 10
86.15390502425299
 20
-132.9972221889729
 11
86.15390502425299
 21
-135.9972091326673
 97
        0
 75
     2
 76
     1
 98
        0
  0
POLYLINE
  5
51
330
1F
100
AcDbEntity
  8
_U+30EC_U+30A4_U+30E4_U+30FC 1
 62
   179
420
  2234388
370
    25
100
AcDb2dPolyline
 66
     1
 10
0.0
 20
0.0
 30
0.0
  0
VERTEX
  5
52
330
51
100
AcDbEntity
  8
_U+30EC_U+30A4_U+30E4_U+30FC 1
 62
   179
420
  2234388
370
    25
100
AcDbVertex
100
AcDb2dVertex
 10
99.1536246926025
 20
-146.9973846854728
 30
0.0
  0
VERTEX
  5
53
330
51
100
AcDbEntity
  8
_U+30EC_U+30A4_U+30E4_U+30FC 1
 62
   179
420
  2234388
370
    25
100
AcDbVertex
100
AcDb2dVertex
 10
99.1536246926025
 20
-147.9971569074453
 30
0.0
  0
SEQEND
  5
54
330
51
100
AcDbEntity
  8
_U+30EC_U+30A4_U+30E4_U+30FC 1
 62
   179
420
  2234388
370
    25
  0
POLYLINE
  5
55
330
1F
100
AcDbEntity
  8
_U+30EC_U+30A4_U+30E4_U+30FC 1
 62
   179
420
  2234388
370
    25
100
AcDb2dPolyline
 66
     1
 10
0.0
 20
0.0
 30
0.0
  0
VERTEX
  5
56
330
55
100
AcDbEntity
  8
_U+30EC_U+30A4_U+30E4_U+30FC 1
 62
   179
420
  2234388
370
    25
100
AcDbVertex
100
AcDb2dVertex
 10
99.1536246926025
 20
-147.9971569074453
 30
0.0
  0
VERTEX
  5
57
330
55
100
AcDbEntity
  8
_U+30EC_U+30A4_U+30E4_U+30FC 1
 62
   179
420
  2234388
370
    25
100
AcDbVertex
100
AcDb2dVertex
 10
85.1534625497764
 20
-147.9971569074453
 30
0.0
  0
SEQEND
  5
58
330
55
100
AcDbEntity
  8
_U+30EC_U+30A4_U+30E4_U+30FC 1
 62
   179
420
  2234388
370
    25
  0
POLYLINE
  5
59
330
1F
100
AcDbEntity
  8
_U+30EC_U+30A4_U+30E4_U+30FC 1
 62
   179
420
  2234388
370
    25
100
AcDb2dPolyline
 66
     1
 10
0.0
 20
0.0
 30
0.0
  0
VERTEX
  5
5A
330
59
100
AcDbEntity
  8
_U+30EC_U+30A4_U+30E4_U+30FC 1
 62
   179
420
  2234388
370
    25
100
AcDbVertex
100
AcDb2dVertex
 10
97.35392890518324
 20
-136.9969813546398
 30
0.0
  0
VERTEX
  5
5B
330
59
100
AcDbEntity
  8
_U+30EC_U+30A4_U+30E4_U+30FC 1
 62
   179
420
  2234388
370
    25
100
AcDbVertex
100
AcDb2dVertex
 10
86.15390502425299
 20
-136.9969813546398
 30
0.0
  0
SEQEND
  5
5C
330
59
100
AcDbEntity
  8
_U+30EC_U+30A4_U+30E4_U+30FC 1
 62
   179
420
  2234388
370
    25
  0
POLYLINE
  5
5D
330
1F
100
AcDbEntity
  8
_U+30EC_U+30A4_U+30E4_U+30FC 1
 62
   179
420
  2234388
370
    25
100
AcDb2dPolyline
 66
     1
 10
0.0
 20
0.0
 30
0.0
  0
VERTEX
  5
5E
330
5D
100
AcDbEntity
  8
_U+30EC_U+30A4_U+30E4_U+30FC 1
 62
   179
420
  2234388
370
    25
100
AcDbVertex
100
AcDb2dVertex
 10
97.35392890518324
 20
-112.4966705274315
 30
0.0
  0
VERTEX
  5
5F
330
5D
100
AcDbEntity
  8
_U+30EC_U+30A4_U+30E4_U+30FC 1
 62
   179
420
  2234388
370
    25
100
AcDbVertex
100
AcDb2dVertex
 10
96.15363782469412
 20
-112.4966705274315
 30
0.0
  0
SEQEND
  5
60
330
5D
100
AcDbEntity
  8
_U+30EC_U+30A4_U+30E4_U+30FC 1
 62
   179
420
  2234388
370
    25
  0
POLYLINE
  5
61
330
1F
100
AcDbEntity
  8
_U+30EC_U+30A4_U+30E4_U+30FC 1
 62
   179
420
  2234388
370
    25
100
AcDb2dPolyline
 66
     1
 10
0.0
 20
0.0
 30
0.0
  0
VERTEX
  5
62
330
61
100
AcDbEntity
  8
_U+30EC_U+30A4_U+30E4_U+30FC 1
 62
   179
420
  2234388
370
    25
100
AcDbVertex
100
AcDb2dVertex
 10
86.15390502425299
 20
-132.9972221889729
 30
0.0
  0
VERTEX
  5
63
330
61
100
AcDbEntity
  8
_U+30EC_U+30A4_U+30E4_U+30FC 1
 62
   179
420
  2234388
370
    25
100
AcDbVertex
100
AcDb2dVertex
 10
85.1534625497764
 20
-132.9972221889729
 30
0.0
  0
SEQEND
  5
64
330
61
100
AcDbEntity
  8
_U+30EC_U+30A4_U+30E4_U+30FC 1
 62
   179
420
  2234388
370
    25
  0
POLYLINE
  5
65
330
1F
100
AcDbEntity
  8
_U+30EC_U+30A4_U+30E4_U+30FC 1
 62
   179
420
  2234388
370
    25
100
AcDb2dPolyline
 66
     1
 10
0.0
 20
0.0
 30
0.0
  0
VERTEX
  5
66
330
65
100
AcDbEntity
  8
_U+30EC_U+30A4_U+30E4_U+30FC 1
 62
   179
420
  2234388
370
    25
100
AcDbVertex
100
AcDb2dVertex
 10
96.15363782469412
 20
-112.4966705274315
 30
0.0
  0
VERTEX
  5
67
330
65
100
AcDbEntity
  8
_U+30EC_U+30A4_U+30E4_U+30FC 1
 62
   179
420
  2234388
370
    25
100
AcDbVertex
100
AcDb2dVertex
 10
96.15363782469412
 20
-135.9972091326673
 30
0.0
  0
SEQEND
  5
68
330
65
100
AcDbEntity
  8
_U+30EC_U+30A4_U+30E4_U+30FC 1
 62
   179
420
  2234388
370
    25
  0
POLYLINE
  5
69
330
1F
100
AcDbEntity
  8
_U+30EC_U+30A4_U+30E4_U+30FC 1
 62
   179
420
  2234388
370
    25
100
AcDb2dPolyline
 66
     1
 10
0.0
 20
0.0
 30
0.0
  0
VERTEX
  5
6A
330
69
100
AcDbEntity
  8
_U+30EC_U+30A4_U+30E4_U+30FC 1
 62
   179
420
  2234388
370
    25
100
AcDbVertex
100
AcDb2dVertex
 10
85.1534625497764
 20
-132.9972221889729
 30
0.0
  0
VERTEX
  5
6B
330
69
100
AcDbEntity
  8
_U+30EC_U+30A4_U+30E4_U+30FC 1
 62
   179
420
  2234388
370
    25
100
AcDbVertex
100
AcDb2dVertex
 10
85.1534625497764
 20
-147.9971569074453
 30
0.0
  0
SEQEND
  5
6C
330
69
100
AcDbEntity
  8
_U+30EC_U+30A4_U+30E4_U+30FC 1
 62
   179
420
  2234388
370
    25
  0
POLYLINE
  5
6D
330
1F
100
AcDbEntity
  8
_U+30EC_U+30A4_U+30E4_U+30FC 1
 62
   179
420
  2234388
370
    25
100
AcDb2dPolyline
 66
     1
 10
0.0
 20
0.0
 30
0.0
  0
VERTEX
  5
6E
330
6D
100
AcDbEntity
  8
_U+30EC_U+30A4_U+30E4_U+30FC 1
 62
   179
420
  2234388
370
    25
100
AcDbVertex
100
AcDb2dVertex
 10
97.35392890518324
 20
-112.4966705274315
 30
0.0
  0
VERTEX
  5
6F
330
6D
100
AcDbEntity
  8
_U+30EC_U+30A4_U+30E4_U+30FC 1
 62
   179
420
  2234388
370
    25
100
AcDbVertex
100
AcDb2dVertex
 10
97.35392890518324
 20
-136.9969813546398
 30
0.0
  0
SEQEND
  5
70
330
6D
100
AcDbEntity
  8
_U+30EC_U+30A4_U+30E4_U+30FC 1
 62
   179
420
  2234388
370
    25
  0
POLYLINE
  5
71
330
1F
100
AcDbEntity
  8
_U+30EC_U+30A4_U+30E4_U+30FC 1
 62
   179
420
  2234388
370
    25
100
AcDb2dPolyline
 66
     1
 10
0.0
 20
0.0
 30
0.0
  0
VERTEX
  5
72
330
71
100
AcDbEntity
  8
_U+30EC_U+30A4_U+30E4_U+30FC 1
 62
   179
420
  2234388
370
    25
100
AcDbVertex
100
AcDb2dVertex
 10
96.15363782469412
 20
-135.9972091326673
 30
0.0
  0
VERTEX
  5
73
330
71
100
AcDbEntity
  8
_U+30EC_U+30A4_U+30E4_U+30FC 1
 62
   179
420
  2234388
370
    25
100
AcDbVertex
100
AcDb2dVertex
 10
86.15390502425299
 20
-135.9972091326673
 30
0.0
  0
SEQEND
  5
74
330
71
100
AcDbEntity
  8
_U+30EC_U+30A4_U+30E4_U+30FC 1
 62
   179
420
  2234388
370
    25
  0
POLYLINE
  5
75
330
1F
100
AcDbEntity
  8
_U+30EC_U+30A4_U+30E4_U+30FC 1
 62
   179
420
  2234388
370
    25
100
AcDb2dPolyline
 66
     1
 10
0.0
 20
0.0
 30
0.0
  0
VERTEX
  5
76
330
75
100
AcDbEntity
  8
_U+30EC_U+30A4_U+30E4_U+30FC 1
 62
   179
420
  2234388
370
    25
100
AcDbVertex
100
AcDb2dVertex
 10
86.15390502425299
 20
-132.9972221889729
 30
0.0
  0
VERTEX
  5
77
330
75
100
AcDbEntity
  8
_U+30EC_U+30A4_U+30E4_U+30FC 1
 62
   179
420
  2234388
370
    25
100
AcDbVertex
100
AcDb2dVertex
 10
86.15390502425299
 20
-135.9972091326673
 30
0.0
  0
SEQEND
  5
78
330
75
100
AcDbEntity
  8
_U+30EC_U+30A4_U+30E4_U+30FC 1
 62
   179
420
  2234388
370
    25
  0
POLYLINE
  5
79
330
1F
100
AcDbEntity
  8
_U+30EC_U+30A4_U+30E4_U+30FC 1
 62
   179
420
  2234388
370
    25
100
AcDb2dPolyline
 66
     1
 10
0.0
 20
0.0
 30
0.0
  0
VERTEX
  5
7A
330
79
100
AcDbEntity
  8
_U+30EC_U+30A4_U+30E4_U+30FC 1
 62
   179
420
  2234388
370
    25
100
AcDbVertex
100
AcDb2dVertex
 10
99.1536246926025
 20
-146.9973846854728
 30
0.0
  0
VERTEX
  5
7B
330
79
100
AcDbEntity
  8
_U+30EC_U+30A4_U+30E4_U+30FC 1
 62
   179
420
  2234388
370
    25
100
AcDbVertex
100
AcDb2dVertex
 10
86.15390502425299
 20
-146.9973846854728
 30
0.0
  0
SEQEND
  5
7C
330
79
100
AcDbEntity
  8
_U+30EC_U+30A4_U+30E4_U+30FC 1
 62
   179
420
  2234388
370
    25
  0
POLYLINE
  5
7D
330
1F
100
AcDbEntity
  8
_U+30EC_U+30A4_U+30E4_U+30FC 1
 62
   179
420
  2234388
370
    25
100
AcDb2dPolyline
 66
     1
 10
0.0
 20
0.0
 30
0.0
  0
VERTEX
  5
7E
330
7D
100
AcDbEntity
  8
_U+30EC_U+30A4_U+30E4_U+30FC 1
 62
   179
420
  2234388
370
    25
100
AcDbVertex
100
AcDb2dVertex
 10
86.15390502425299
 20
-136.9969813546398
 30
0.0
  0
VERTEX
  5
7F
330
7D
100
AcDbEntity
  8
_U+30EC_U+30A4_U+30E4_U+30FC 1
 62
   179
420
  2234388
370
    25
100
AcDbVertex
100
AcDb2dVertex
 10
86.15390502425299
 20
-146.9973846854728
 30
0.0
  0
SEQEND
  5
80
330
7D
100
AcDbEntity
  8
_U+30EC_U+30A4_U+30E4_U+30FC 1
 62
   179
420
  2234388
370
    25
  0
SPLINE
  5
81
330
1F
100
AcDbEntity
  8
_U+30EC_U+30A4_U+30E4_U+30FC 1
 62
   179
420
  2234388
370
     9
100
AcDbSpline
210
0.0
220
0.0
230
1.0
 70
    11
 71
     3
 72
    17
 73
    13
 74
     0
 42
0.0000000001
 43
0.0000000001
 12
1.0
 22
0.0
 32
0.0
 13
1.0
 23
0.0
 33
0.0
 40
0.0
 40
0.0
 40
0.0
 40
0.0
 40
1.0
 40
1.0
 40
1.0
 40
2.0
 40
2.0
 40
2.0
 40
3.0
 40
3.0
 40
3.0
 40
4.0
 40
4.0
 40
4.0
 40
4.0
 10
103.0541826486465
 20
-146.9973846854728
 30
0.0
 10
103.0541826486465
 20
-146.9415752410423
 30
0.0
 10
103.098952752003
 20
-146.8968077410537
 30
0.0
 10
103.1540893127644
 20
-146.8968077410537
 30
0.0
 10
103.2091932002475
 20
-146.8968077410537
 30
0.0
 10
103.2539959768822
 20
-146.9415752410423
 30
0.0
 10
103.2539959768822
 20
-146.9973846854728
 30
0.0
 10
103.2539959768822
 20
-147.0525238521258
 30
0.0
 10
103.2091932002475
 20
-147.0973266298925
 30
0.0
 10
103.1540893127644
 20
-147.0973266298925
 30
0.0
 10
103.098952752003
 20
-147.0973266298925
 30
0.0
 10
103.0541826486465
 20
-147.0525238521258
 30
0.0
 10
103.0541826486465
 20
-146.9973846854728
 30
0.0
  0
SPLINE
  5
82
330
1F
100
AcDbEntity
  8
_U+30EC_U+30A4_U+30E4_U+30FC 1
 62
   179
420
  2234388
370
     9
100
AcDbSpline
210
0.0
220
0.0
230
1.0
 70
    11
 71
     3
 72
    17
 73
    13
 74
     0
 42
0.0000000001
 43
0.0000000001
 12
1.0
 22
0.0
 32
0.0
 13
1.0
 23
0.0
 33
0.0
 40
0.0
 40
0.0
 40
0.0
 40
0.0
 40
1.0
 40
1.0
 40
1.0
 40
2.0
 40
2.0
 40
2.0
 40
3.0
 40
3.0
 40
3.0
 40
4.0
 40
4.0
 40
4.0
 40
4.0
 10
98.853904700249
 20
-151.9969160731122
 30
0.0
 10
98.853904700249
 20
-151.9418121842366
 30
0.0
 10
98.89870747688377
 20
-151.8970094064699
 30
0.0
 10
98.95381386415036
 20
-151.8970094064699
 30
0.0
 10
99.00895052962679
 20
-151.8970094064699
 30
0.0
 10
99.05371802848468
 20
-151.9418121842366
 30
0.0
 10
99.05371802848468
 20
-151.9969160731122
 30
0.0
 10
99.05371802848468
 20
-152.0520552397646
 30
0.0
 10
99.00895052962679
 20
-152.0968227397538
 30
0.0
 10
98.95381386415036
 20
-152.0968227397538
 30
0.0
 10
98.89870747688377
 20
-152.0968227397538
 30
0.0
 10
98.853904700249
 20
-152.0520552397646
 30
0.0
 10
98.853904700249
 20
-151.9969160731122
 30
0.0
  0
SPLINE
  5
83
330
1F
100
AcDbEntity
  8
_U+30EC_U+30A4_U+30E4_U+30FC 1
 62
   179
420
  2234388
370
     9
100
AcDbSpline
210
0.0
220
0.0
230
1.0
 70
    11
 71
     3
 72
    17
 73
    13
 74
     0
 42
0.0000000001
 43
0.0000000001
 12
1.0
 22
0.0
 32
0.0
 13
1.0
 23
0.0
 33
0.0
 40
0.0
 40
0.0
 40
0.0
 40
0.0
 40
1.0
 40
1.0
 40
1.0
 40
2.0
 40
2.0
 40
2.0
 40
3.0
 40
3.0
 40
3.0
 40
4.0
 40
4.0
 40
4.0
 40
4.0
 10
85.05355588565857
 20
-151.9969160731122
 30
0.0
 10
85.05355588565857
 20
-151.9418121842366
 30
0.0
 10
85.09832338451646
 20
-151.8970094064699
 30
0.0
 10
85.1534625497764
 20
-151.8970094064699
 30
0.0
 10
85.20927199279703
 20
-151.8970094064699
 30
0.0
 10
85.25404164535314
 20
-151.9418121842366
 30
0.0
 10
85.25404164535314
 20
-151.9969160731122
 30
0.0
 10
85.25404164535314
 20
-152.0520552397646
 30
0.0
 10
85.20927199279703
 20
-152.0968227397538
 30
0.0
 10
85.1534625497764
 20
-152.0968227397538
 30
0.0
 10
85.09832338451646
 20
-152.0968227397538
 30
0.0
 10
85.05355588565857
 20
-152.0520552397646
 30
0.0
 10
85.05355588565857
 20
-151.9969160731122
 30
0.0
  0
SPLINE
  5
84
330
1F
100
AcDbEntity
  8
_U+30EC_U+30A4_U+30E4_U+30FC 1
 62
   179
420
  2234388
370
     9
100
AcDbSpline
210
0.0
220
0.0
230
1.0
 70
    11
 71
     3
 72
    17
 73
    13
 74
     0
 42
0.0000000001
 43
0.0000000001
 12
1.0
 22
0.0
 32
0.0
 13
1.0
 23
0.0
 33
0.0
 40
0.0
 40
0.0
 40
0.0
 40
0.0
 40
1.0
 40
1.0
 40
1.0
 40
2.0
 40
2.0
 40
2.0
 40
3.0
 40
3.0
 40
3.0
 40
4.0
 40
4.0
 40
4.0
 40
4.0
 10
96.05373116057628
 20
-108.4969113617646
 30
0.0
 10
96.05373116057628
 20
-108.4417721951119
 30
0.0
 10
96.09853393721103
 20
-108.397004695123
 30
0.0
 10
96.15363782469412
 20
-108.397004695123
 30
0.0
 10
96.20877698995406
 20
-108.397004695123
 30
0.0
 10
96.25354448881194
 20
-108.4417721951119
 30
0.0
 10
96.25354448881194
 20
-108.4969113617646
 30
0.0
 10
96.25354448881194
 20
-108.5520152506399
 30
0.0
 10
96.20877698995406
 20
-108.5968180284063
 30
0.0
 10
96.15363782469412
 20
-108.5968180284063
 30
0.0
 10
96.09853393721103
 20
-108.5968180284063
 30
0.0
 10
96.05373116057628
 20
-108.5520152506399
 30
0.0
 10
96.05373116057628
 20
-108.4969113617646
 30
0.0
  0
SPLINE
  5
85
330
1F
100
AcDbEntity
  8
_U+30EC_U+30A4_U+30E4_U+30FC 1
 62
   179
420
  2234388
370
     9
100
AcDbSpline
210
0.0
220
0.0
230
1.0
 70
    11
 71
     3
 72
    17
 73
    13
 74
     0
 42
0.0000000001
 43
0.0000000001
 12
1.0
 22
0.0
 32
0.0
 13
1.0
 23
0.0
 33
0.0
 40
0.0
 40
0.0
 40
0.0
 40
0.0
 40
1.0
 40
1.0
 40
1.0
 40
2.0
 40
2.0
 40
2.0
 40
3.0
 40
3.0
 40
3.0
 40
4.0
 40
4.0
 40
4.0
 40
4.0
 10
103.0541826486465
 20
-112.4966705274315
 30
0.0
 10
103.0541826486465
 20
-112.4415313607784
 30
0.0
 10
103.098952752003
 20
-112.3967638607895
 30
0.0
 10
103.1540893127644
 20
-112.3967638607895
 30
0.0
 10
103.2091932002475
 20
-112.3967638607895
 30
0.0
 10
103.2539959768822
 20
-112.4415313607784
 30
0.0
 10
103.2539959768822
 20
-112.4966705274315
 30
0.0
 10
103.2539959768822
 20
-112.5521271940842
 30
0.0
 10
103.2091932002475
 20
-112.5969299718509
 30
0.0
 10
103.1540893127644
 20
-112.5969299718509
 30
0.0
 10
103.098952752003
 20
-112.5969299718509
 30
0.0
 10
103.0541826486465
 20
-112.5521271940842
 30
0.0
 10
103.0541826486465
 20
-112.4966705274315
 30
0.0
  0
SPLINE
  5
86
330
1F
100
AcDbEntity
  8
_U+30EC_U+30A4_U+30E4_U+30FC 1
 62
   179
420
  2234388
370
     9
100
AcDbSpline
210
0.0
220
0.0
230
1.0
 70
    11
 71
     3
 72
    17
 73
    13
 74
     0
 42
0.0000000001
 43
0.0000000001
 12
1.0
 22
0.0
 32
0.0
 13
1.0
 23
0.0
 33
0.0
 40
0.0
 40
0.0
 40
0.0
 40
0.0
 40
1.0
 40
1.0
 40
1.0
 40
2.0
 40
2.0
 40
2.0
 40
3.0
 40
3.0
 40
3.0
 40
4.0
 40
4.0
 40
4.0
 40
4.0
 10
103.0541826486465
 20
-136.9969813546398
 30
0.0
 10
103.0541826486465
 20
-136.9418421879867
 30
0.0
 10
103.098952752003
 20
-136.8970746879982
 30
0.0
 10
103.1540893127644
 20
-136.8970746879982
 30
0.0
 10
103.2091932002475
 20
-136.8970746879982
 30
0.0
 10
103.2539959768822
 20
-136.9418421879867
 30
0.0
 10
103.2539959768822
 20
-136.9969813546398
 30
0.0
 10
103.2539959768822
 20
-137.0520852435147
 30
0.0
 10
103.2091932002475
 20
-137.0968880212814
 30
0.0
 10
103.1540893127644
 20
-137.0968880212814
 30
0.0
 10
103.098952752003
 20
-137.0968880212814
 30
0.0
 10
103.0541826486465
 20
-137.0520852435147
 30
0.0
 10
103.0541826486465
 20
-136.9969813546398
 30
0.0
  0
SPLINE
  5
87
330
1F
100
AcDbEntity
  8
_U+30EC_U+30A4_U+30E4_U+30FC 1
 62
   179
420
  2234388
370
     9
100
AcDbSpline
210
0.0
220
0.0
230
1.0
 70
    11
 71
     3
 72
    17
 73
    13
 74
     0
 42
0.0000000001
 43
0.0000000001
 12
1.0
 22
0.0
 32
0.0
 13
1.0
 23
0.0
 33
0.0
 40
0.0
 40
0.0
 40
0.0
 40
0.0
 40
1.0
 40
1.0
 40
1.0
 40
2.0
 40
2.0
 40
2.0
 40
3.0
 40
3.0
 40
3.0
 40
4.0
 40
4.0
 40
4.0
 40
4.0
 10
96.05373116057628
 20
-128.9967927455287
 30
0.0
 10
96.05373116057628
 20
-128.9416535788756
 30
0.0
 10
96.09853393721103
 20
-128.896886078887
 30
0.0
 10
96.15363782469412
 20
-128.896886078887
 30
0.0
 10
96.20877698995406
 20
-128.896886078887
 30
0.0
 10
96.25354448881194
 20
-128.9416535788756
 30
0.0
 10
96.25354448881194
 20
-128.9967927455287
 30
0.0
 10
96.25354448881194
 20
-129.0518966344036
 30
0.0
 10
96.20877698995406
 20
-129.0966994121703
 30
0.0
 10
96.15363782469412
 20
-129.0966994121703
 30
0.0
 10
96.09853393721103
 20
-129.0966994121703
 30
0.0
 10
96.05373116057628
 20
-129.0518966344036
 30
0.0
 10
96.05373116057628
 20
-128.9967927455287
 30
0.0
  0
SPLINE
  5
88
330
1F
100
AcDbEntity
  8
_U+30EC_U+30A4_U+30E4_U+30FC 1
 62
   179
420
  2234388
370
     9
100
AcDbSpline
210
0.0
220
0.0
230
1.0
 70
    11
 71
     3
 72
    17
 73
    13
 74
     0
 42
0.0000000001
 43
0.0000000001
 12
1.0
 22
0.0
 32
0.0
 13
1.0
 23
0.0
 33
0.0
 40
0.0
 40
0.0
 40
0.0
 40
0.0
 40
1.0
 40
1.0
 40
1.0
 40
2.0
 40
2.0
 40
2.0
 40
3.0
 40
3.0
 40
3.0
 40
4.0
 40
4.0
 40
4.0
 40
4.0
 10
86.05399836013515
 20
-128.9967927455287
 30
0.0
 10
86.05399836013515
 20
-128.9416535788756
 30
0.0
 10
86.09880113676992
 20
-128.896886078887
 30
0.0
 10
86.15390502425299
 20
-128.896886078887
 30
0.0
 10
86.20904418951294
 20
-128.896886078887
 30
0.0
 10
86.25381386732536
 20
-128.9416535788756
 30
0.0
 10
86.25381386732536
 20
-128.9967927455287
 30
0.0
 10
86.25381386732536
 20
-129.0518966344036
 30
0.0
 10
86.20904418951294
 20
-129.0966994121703
 30
0.0
 10
86.15390502425299
 20
-129.0966994121703
 30
0.0
 10
86.09880113676992
 20
-129.0966994121703
 30
0.0
 10
86.05399836013515
 20
-129.0518966344036
 30
0.0
 10
86.05399836013515
 20
-128.9967927455287
 30
0.0
  0
SPLINE
  5
89
330
1F
100
AcDbEntity
  8
_U+30EC_U+30A4_U+30E4_U+30FC 1
 62
   179
420
  2234388
370
     9
100
AcDbSpline
210
0.0
220
0.0
230
1.0
 70
    11
 71
     3
 72
    17
 73
    13
 74
     0
 42
0.0000000001
 43
0.0000000001
 12
1.0
 22
0.0
 32
0.0
 13
1.0
 23
0.0
 33
0.0
 40
0.0
 40
0.0
 40
0.0
 40
0.0
 40
1.0
 40
1.0
 40
1.0
 40
2.0
 40
2.0
 40
2.0
 40
3.0
 40
3.0
 40
3.0
 40
4.0
 40
4.0
 40
4.0
 40
4.0
 10
81.05379682103425
 20
-132.9972221889729
 30
0.0
 10
81.05379682103425
 20
-132.9414127445425
 30
0.0
 10
81.09856431989215
 20
-132.8973155223313
 30
0.0
 10
81.15370553526726
 20
-132.8973155223313
 30
0.0
 10
81.20880737263516
 20
-132.8973155223313
 30
0.0
 10
81.25361014926993
 20
-132.9414127445425
 30
0.0
 10
81.25361014926993
 20
-132.9972221889729
 30
0.0
 10
81.25361014926993
 20
-133.052361355626
 30
0.0
 10
81.20880737263516
 20
-133.0971288556146
 30
0.0
 10
81.15370553526726
 20
-133.0971288556146
 30
0.0
 10
81.09856431989215
 20
-133.0971288556146
 30
0.0
 10
81.05379682103425
 20
-133.052361355626
 30
0.0
 10
81.05379682103425
 20
-132.9972221889729
 30
0.0
  0
SPLINE
  5
8A
330
1F
100
AcDbEntity
  8
_U+30EC_U+30A4_U+30E4_U+30FC 1
 62
   179
420
  2234388
370
     9
100
AcDbSpline
210
0.0
220
0.0
230
1.0
 70
    11
 71
     3
 72
    17
 73
    13
 74
     0
 42
0.0000000001
 43
0.0000000001
 12
1.0
 22
0.0
 32
0.0
 13
1.0
 23
0.0
 33
0.0
 40
0.0
 40
0.0
 40
0.0
 40
0.0
 40
1.0
 40
1.0
 40
1.0
 40
2.0
 40
2.0
 40
2.0
 40
3.0
 40
3.0
 40
3.0
 40
4.0
 40
4.0
 40
4.0
 40
4.0
 10
81.05379682103425
 20
-147.9971569074453
 30
0.0
 10
81.05379682103425
 20
-147.9420530185704
 30
0.0
 10
81.09856431989215
 20
-147.8972502408036
 30
0.0
 10
81.15370553526726
 20
-147.8972502408036
 30
0.0
 10
81.20880737263516
 20
-147.8972502408036
 30
0.0
 10
81.25361014926993
 20
-147.9420530185704
 30
0.0
 10
81.25361014926993
 20
-147.9971569074453
 30
0.0
 10
81.25361014926993
 20
-148.0522960740984
 30
0.0
 10
81.20880737263516
 20
-148.0970635740869
 30
0.0
 10
81.15370553526726
 20
-148.0970635740869
 30
0.0
 10
81.09856431989215
 20
-148.0970635740869
 30
0.0
 10
81.05379682103425
 20
-148.0522960740984
 30
0.0
 10
81.05379682103425
 20
-147.9971569074453
 30
0.0
  0
SPLINE
  5
8B
330
1F
100
AcDbEntity
  8
_U+30EC_U+30A4_U+30E4_U+30FC 1
 62
   179
420
  2234388
370
     9
100
AcDbSpline
210
0.0
220
0.0
230
1.0
 70
    11
 71
     3
 72
    17
 73
    13
 74
     0
 42
0.0000000001
 43
0.0000000001
 12
1.0
 22
0.0
 32
0.0
 13
1.0
 23
0.0
 33
0.0
 40
0.0
 40
0.0
 40
0.0
 40
0.0
 40
1.0
 40
1.0
 40
1.0
 40
2.0
 40
2.0
 40
2.0
 40
3.0
 40
3.0
 40
3.0
 40
4.0
 40
4.0
 40
4.0
 40
4.0
 10
97.25402224106541
 20
-108.4969113617646
 30
0.0
 10
97.25402224106541
 20
-108.4417721951119
 30
0.0
 10
97.2987897399233
 20
-108.397004695123
 30
0.0
 10
97.35392890518324
 20
-108.397004695123
 30
0.0
 10
97.40903279266631
 20
-108.397004695123
 30
0.0
 10
97.45383556930108
 20
-108.4417721951119
 30
0.0
 10
97.45383556930108
 20
-108.4969113617646
 30
0.0
 10
97.45383556930108
 20
-108.5520152506399
 30
0.0
 10
97.40903279266631
 20
-108.5968180284063
 30
0.0
 10
97.35392890518324
 20
-108.5968180284063
 30
0.0
 10
97.2987897399233
 20
-108.5968180284063
 30
0.0
 10
97.25402224106541
 20
-108.5520152506399
 30
0.0
 10
97.25402224106541
 20
-108.4969113617646
 30
0.0
  0
POLYLINE
  5
8C
330
1F
100
AcDbEntity
  8
_U+30EC_U+30A4_U+30E4_U+30FC 1
 62
   179
420
  2234388
370
     9
100
AcDb2dPolyline
 66
     1
 10
0.0
 20
0.0
 30
0.0
  0
VERTEX
  5
8D
330
8C
100
AcDbEntity
  8
_U+30EC_U+30A4_U+30E4_U+30FC 1
 62
   179
420
  2234388
370
     9
100
AcDbVertex
100
AcDb2dVertex
 10
103.1540893127644
 20
-146.9973846854728
 30
0.0
  0
VERTEX
  5
8E
330
8C
100
AcDbEntity
  8
_U+30EC_U+30A4_U+30E4_U+30FC 1
 62
   179
420
  2234388
370
     9
100
AcDbVertex
100
AcDb2dVertex
 10
103.1540893127644
 20
-136.9969813546398
 30
0.0
  0
SEQEND
  5
8F
330
8C
100
AcDbEntity
  8
_U+30EC_U+30A4_U+30E4_U+30FC 1
 62
   179
420
  2234388
370
     9
  0
POLYLINE
  5
90
330
1F
100
AcDbEntity
  8
_U+30EC_U+30A4_U+30E4_U+30FC 1
 62
   179
420
  2234388
370
     9
100
AcDb2dPolyline
 66
     1
 10
0.0
 20
0.0
 30
0.0
  0
VERTEX
  5
91
330
90
100
AcDbEntity
  8
_U+30EC_U+30A4_U+30E4_U+30FC 1
 62
   179
420
  2234388
370
     9
100
AcDbVertex
100
AcDb2dVertex
 10
101.6940479611242
 20
-146.9973846854728
 30
0.0
  0
VERTEX
  5
92
330
90
100
AcDbEntity
  8
_U+30EC_U+30A4_U+30E4_U+30FC 1
 62
   179
420
  2234388
370
     9
100
AcDbVertex
100
AcDb2dVertex
 10
104.1538615094803
 20
-146.9973846854728
 30
0.0
  0
SEQEND
  5
93
330
90
100
AcDbEntity
  8
_U+30EC_U+30A4_U+30E4_U+30FC 1
 62
   179
420
  2234388
370
     9
  0
POLYLINE
  5
94
330
1F
100
AcDbEntity
  8
_U+30EC_U+30A4_U+30E4_U+30FC 1
 62
   179
420
  2234388
370
     9
100
AcDb2dPolyline
 66
     1
 10
0.0
 20
0.0
 30
0.0
  0
VERTEX
  5
95
330
94
100
AcDbEntity
  8
_U+30EC_U+30A4_U+30E4_U+30FC 1
 62
   179
420
  2234388
370
     9
100
AcDbVertex
100
AcDb2dVertex
 10
99.89364661816742
 20
-136.9969813546398
 30
0.0
  0
VERTEX
  5
96
330
94
100
AcDbEntity
  8
_U+30EC_U+30A4_U+30E4_U+30FC 1
 62
   179
420
  2234388
370
     9
100
AcDbVertex
100
AcDb2dVertex
 10
104.1538615094803
 20
-136.9969813546398
 30
0.0
  0
SEQEND
  5
97
330
94
100
AcDbEntity
  8
_U+30EC_U+30A4_U+30E4_U+30FC 1
 62
   179
420
  2234388
370
     9
  0
POLYLINE
  5
98
330
1F
100
AcDbEntity
  8
_U+30EC_U+30A4_U+30E4_U+30FC 1
 62
   179
420
  2234388
370
     9
100
AcDb2dPolyline
 66
     1
 10
0.0
 20
0.0
 30
0.0
  0
VERTEX
  5
99
330
98
100
AcDbEntity
  8
_U+30EC_U+30A4_U+30E4_U+30FC 1
 62
   179
420
  2234388
370
     9
100
AcDbVertex
100
AcDb2dVertex
 10
103.1540893127644
 20
-136.9969813546398
 30
0.0
  0
VERTEX
  5
9A
330
98
100
AcDbEntity
  8
_U+30EC_U+30A4_U+30E4_U+30FC 1
 62
   179
420
  2234388
370
     9
100
AcDbVertex
100
AcDb2dVertex
 10
103.1540893127644
 20
-112.4966705274315
 30
0.0
  0
SEQEND
  5
9B
330
98
100
AcDbEntity
  8
_U+30EC_U+30A4_U+30E4_U+30FC 1
 62
   179
420
  2234388
370
     9
  0
POLYLINE
  5
9C
330
1F
100
AcDbEntity
  8
_U+30EC_U+30A4_U+30E4_U+30FC 1
 62
   179
420
  2234388
370
     9
100
AcDb2dPolyline
 66
     1
 10
0.0
 20
0.0
 30
0.0
  0
VERTEX
  5
9D
330
9C
100
AcDbEntity
  8
_U+30EC_U+30A4_U+30E4_U+30FC 1
 62
   179
420
  2234388
370
     9
100
AcDbVertex
100
AcDb2dVertex
 10
100.0941302241638
 20
-112.4966705274315
 30
0.0
  0
VERTEX
  5
9E
330
9C
100
AcDbEntity
  8
_U+30EC_U+30A4_U+30E4_U+30FC 1
 62
   179
420
  2234388
370
     9
100
AcDbVertex
100
AcDb2dVertex
 10
104.1538615094803
 20
-112.4966705274315
 30
0.0
  0
SEQEND
  5
9F
330
9C
100
AcDbEntity
  8
_U+30EC_U+30A4_U+30E4_U+30FC 1
 62
   179
420
  2234388
370
     9
  0
POLYLINE
  5
A0
330
1F
100
AcDbEntity
  8
_U+30EC_U+30A4_U+30E4_U+30FC 1
 62
   179
420
  2234388
370
     9
100
AcDb2dPolyline
 66
     1
 10
0.0
 20
0.0
 30
0.0
  0
VERTEX
  5
A1
330
A0
100
AcDbEntity
  8
_U+30EC_U+30A4_U+30E4_U+30FC 1
 62
   179
420
  2234388
370
     9
100
AcDbVertex
100
AcDb2dVertex
 10
99.1536246926025
 20
-151.9969160731122
 30
0.0
  0
VERTEX
  5
A2
330
A0
100
AcDbEntity
  8
_U+30EC_U+30A4_U+30E4_U+30FC 1
 62
   179
420
  2234388
370
     9
100
AcDbVertex
100
AcDb2dVertex
 10
85.1534625497764
 20
-151.9969160731122
 30
0.0
  0
SEQEND
  5
A3
330
A0
100
AcDbEntity
  8
_U+30EC_U+30A4_U+30E4_U+30FC 1
 62
   179
420
  2234388
370
     9
  0
POLYLINE
  5
A4
330
1F
100
AcDbEntity
  8
_U+30EC_U+30A4_U+30E4_U+30FC 1
 62
   179
420
  2234388
370
     9
100
AcDb2dPolyline
 66
     1
 10
0.0
 20
0.0
 30
0.0
  0
VERTEX
  5
A5
330
A4
100
AcDbEntity
  8
_U+30EC_U+30A4_U+30E4_U+30FC 1
 62
   179
420
  2234388
370
     9
100
AcDbVertex
100
AcDb2dVertex
 10
99.1536246926025
 20
-150.536909962366
 30
0.0
  0
VERTEX
  5
A6
330
A4
100
AcDbEntity
  8
_U+30EC_U+30A4_U+30E4_U+30FC 1
 62
   179
420
  2234388
370
     9
100
AcDbVertex
100
AcDb2dVertex
 10
99.1536246926025
 20
-152.9973938506396
 30
0.0
  0
SEQEND
  5
A7
330
A4
100
AcDbEntity
  8
_U+30EC_U+30A4_U+30E4_U+30FC 1
 62
   179
420
  2234388
370
     9
  0
POLYLINE
  5
A8
330
1F
100
AcDbEntity
  8
_U+30EC_U+30A4_U+30E4_U+30FC 1
 62
   179
420
  2234388
370
     9
100
AcDb2dPolyline
 66
     1
 10
0.0
 20
0.0
 30
0.0
  0
VERTEX
  5
A9
330
A8
100
AcDbEntity
  8
_U+30EC_U+30A4_U+30E4_U+30FC 1
 62
   179
420
  2234388
370
     9
100
AcDbVertex
100
AcDb2dVertex
 10
85.1534625497764
 20
-150.536909962366
 30
0.0
  0
VERTEX
  5
AA
330
A8
100
AcDbEntity
  8
_U+30EC_U+30A4_U+30E4_U+30FC 1
 62
   179
420
  2234388
370
     9
100
AcDbVertex
100
AcDb2dVertex
 10
85.1534625497764
 20
-152.9973938506396
 30
0.0
  0
SEQEND
  5
AB
330
A8
100
AcDbEntity
  8
_U+30EC_U+30A4_U+30E4_U+30FC 1
 62
   179
420
  2234388
370
     9
  0
POLYLINE
  5
AC
330
1F
100
AcDbEntity
  8
_U+30EC_U+30A4_U+30E4_U+30FC 1
 62
   179
420
  2234388
370
     9
100
AcDb2dPolyline
 66
     1
 10
0.0
 20
0.0
 30
0.0
  0
VERTEX
  5
AD
330
AC
100
AcDbEntity
  8
_U+30EC_U+30A4_U+30E4_U+30FC 1
 62
   179
420
  2234388
370
     9
100
AcDbVertex
100
AcDb2dVertex
 10
96.15363782469412
 20
-128.9967927455287
 30
0.0
  0
VERTEX
  5
AE
330
AC
100
AcDbEntity
  8
_U+30EC_U+30A4_U+30E4_U+30FC 1
 62
   179
420
  2234388
370
     9
100
AcDbVertex
100
AcDb2dVertex
 10
86.15390502425299
 20
-128.9967927455287
 30
0.0
  0
SEQEND
  5
AF
330
AC
100
AcDbEntity
  8
_U+30EC_U+30A4_U+30E4_U+30FC 1
 62
   179
420
  2234388
370
     9
  0
POLYLINE
  5
B0
330
1F
100
AcDbEntity
  8
_U+30EC_U+30A4_U+30E4_U+30FC 1
 62
   179
420
  2234388
370
     9
100
AcDb2dPolyline
 66
     1
 10
0.0
 20
0.0
 30
0.0
  0
VERTEX
  5
B1
330
B0
100
AcDbEntity
  8
_U+30EC_U+30A4_U+30E4_U+30FC 1
 62
   179
420
  2234388
370
     9
100
AcDbVertex
100
AcDb2dVertex
 10
86.15390502425299
 20
-130.4567988562749
 30
0.0
  0
VERTEX
  5
B2
330
B0
100
AcDbEntity
  8
_U+30EC_U+30A4_U+30E4_U+30FC 1
 62
   179
420
  2234388
370
     9
100
AcDbVertex
100
AcDb2dVertex
 10
86.15390502425299
 20
-127.9968441346676
 30
0.0
  0
SEQEND
  5
B3
330
B0
100
AcDbEntity
  8
_U+30EC_U+30A4_U+30E4_U+30FC 1
 62
   179
420
  2234388
370
     9
  0
POLYLINE
  5
B4
330
1F
100
AcDbEntity
  8
_U+30EC_U+30A4_U+30E4_U+30FC 1
 62
   179
420
  2234388
370
     9
100
AcDb2dPolyline
 66
     1
 10
0.0
 20
0.0
 30
0.0
  0
VERTEX
  5
B5
330
B4
100
AcDbEntity
  8
_U+30EC_U+30A4_U+30E4_U+30FC 1
 62
   179
420
  2234388
370
     9
100
AcDbVertex
100
AcDb2dVertex
 10
81.15370553526726
 20
-132.9972221889729
 30
0.0
  0
VERTEX
  5
B6
330
B4
100
AcDbEntity
  8
_U+30EC_U+30A4_U+30E4_U+30FC 1
 62
   179
420
  2234388
370
     9
100
AcDbVertex
100
AcDb2dVertex
 10
81.15370553526726
 20
-147.9971569074453
 30
0.0
  0
SEQEND
  5
B7
330
B4
100
AcDbEntity
  8
_U+30EC_U+30A4_U+30E4_U+30FC 1
 62
   179
420
  2234388
370
     9
  0
POLYLINE
  5
B8
330
1F
100
AcDbEntity
  8
_U+30EC_U+30A4_U+30E4_U+30FC 1
 62
   179
420
  2234388
370
     9
100
AcDb2dPolyline
 66
     1
 10
0.0
 20
0.0
 30
0.0
  0
VERTEX
  5
B9
330
B8
100
AcDbEntity
  8
_U+30EC_U+30A4_U+30E4_U+30FC 1
 62
   179
420
  2234388
370
     9
100
AcDbVertex
100
AcDb2dVertex
 10
82.61374483679222
 20
-132.9972221889729
 30
0.0
  0
VERTEX
  5
BA
330
B8
100
AcDbEntity
  8
_U+30EC_U+30A4_U+30E4_U+30FC 1
 62
   179
420
  2234388
370
     9
100
AcDbVertex
100
AcDb2dVertex
 10
80.15393331329473
 20
-132.9972221889729
 30
0.0
  0
SEQEND
  5
BB
330
B8
100
AcDbEntity
  8
_U+30EC_U+30A4_U+30E4_U+30FC 1
 62
   179
420
  2234388
370
     9
  0
POLYLINE
  5
BC
330
1F
100
AcDbEntity
  8
_U+30EC_U+30A4_U+30E4_U+30FC 1
 62
   179
420
  2234388
370
     9
100
AcDb2dPolyline
 66
     1
 10
0.0
 20
0.0
 30
0.0
  0
VERTEX
  5
BD
330
BC
100
AcDbEntity
  8
_U+30EC_U+30A4_U+30E4_U+30FC 1
 62
   179
420
  2234388
370
     9
100
AcDbVertex
100
AcDb2dVertex
 10
82.61374483679222
 20
-147.9971569074453
 30
0.0
  0
VERTEX
  5
BE
330
BC
100
AcDbEntity
  8
_U+30EC_U+30A4_U+30E4_U+30FC 1
 62
   179
420
  2234388
370
     9
100
AcDbVertex
100
AcDb2dVertex
 10
80.15393331329473
 20
-147.9971569074453
 30
0.0
  0
SEQEND
  5
BF
330
BC
100
AcDbEntity
  8
_U+30EC_U+30A4_U+30E4_U+30FC 1
 62
   179
420
  2234388
370
     9
  0
POLYLINE
  5
C0
330
1F
100
AcDbEntity
  8
_U+30EC_U+30A4_U+30E4_U+30FC 1
 62
   179
420
  2234388
370
     9
100
AcDb2dPolyline
 66
     1
 10
0.0
 20
0.0
 30
0.0
  0
VERTEX
  5
C1
330
C0
100
AcDbEntity
  8
_U+30EC_U+30A4_U+30E4_U+30FC 1
 62
   179
420
  2234388
370
     9
100
AcDbVertex
100
AcDb2dVertex
 10
97.35392890518324
 20
-108.4969113617646
 30
0.0
  0
VERTEX
  5
C2
330
C0
100
AcDbEntity
  8
_U+30EC_U+30A4_U+30E4_U+30FC 1
 62
   179
420
  2234388
370
     9
100
AcDbVertex
100
AcDb2dVertex
 10
102.6118346043762
 20
-108.4969113617646
 30
0.0
  0
SEQEND
  5
C3
330
C0
100
AcDbEntity
  8
_U+30EC_U+30A4_U+30E4_U+30FC 1
 62
   179
420
  2234388
370
     9
  0
POLYLINE
  5
C4
330
1F
100
AcDbEntity
  8
_U+30EC_U+30A4_U+30E4_U+30FC 1
 62
   179
420
  2234388
370
     9
100
AcDb2dPolyline
 66
     1
 10
0.0
 20
0.0
 30
0.0
  0
VERTEX
  5
C5
330
C4
100
AcDbEntity
  8
_U+30EC_U+30A4_U+30E4_U+30FC 1
 62
   179
420
  2234388
370
     9
100
AcDbVertex
100
AcDb2dVertex
 10
97.35392890518324
 20
-108.4969113617646
 30
0.0
  0
VERTEX
  5
C6
330
C4
100
AcDbEntity
  8
_U+30EC_U+30A4_U+30E4_U+30FC 1
 62
   179
420
  2234388
370
     9
100
AcDbVertex
100
AcDb2dVertex
 10
95.1538656279782
 20
-108.4969113617646
 30
0.0
  0
SEQEND
  5
C7
330
C4
100
AcDbEntity
  8
_U+30EC_U+30A4_U+30E4_U+30FC 1
 62
   179
420
  2234388
370
     9
  0
POLYLINE
  5
C8
330
1F
100
AcDbEntity
  8
_U+30EC_U+30A4_U+30E4_U+30FC 1
 62
   179
420
  2234388
370
     9
100
AcDb2dPolyline
 66
     1
 10
0.0
 20
0.0
 30
0.0
  0
VERTEX
  5
C9
330
C8
100
AcDbEntity
  8
_U+30EC_U+30A4_U+30E4_U+30FC 1
 62
   179
420
  2234388
370
     9
100
AcDbVertex
100
AcDb2dVertex
 10
97.35392890518324
 20
-109.9569527502887
 30
0.0
  0
VERTEX
  5
CA
330
C8
100
AcDbEntity
  8
_U+30EC_U+30A4_U+30E4_U+30FC 1
 62
   179
420
  2234388
370
     9
100
AcDbVertex
100
AcDb2dVertex
 10
97.35392890518324
 20
-107.4971391397924
 30
0.0
  0
SEQEND
  5
CB
330
C8
100
AcDbEntity
  8
_U+30EC_U+30A4_U+30E4_U+30FC 1
 62
   179
420
  2234388
370
     9
  0
POLYLINE
  5
CC
330
1F
100
AcDbEntity
  8
_U+30EC_U+30A4_U+30E4_U+30FC 1
 62
   179
420
  2234388
370
     9
100
AcDb2dPolyline
 66
     1
 10
0.0
 20
0.0
 30
0.0
  0
VERTEX
  5
CD
330
CC
100
AcDbEntity
  8
_U+30EC_U+30A4_U+30E4_U+30FC 1
 62
   179
420
  2234388
370
     9
100
AcDbVertex
100
AcDb2dVertex
 10
96.15363782469412
 20
-109.9569527502887
 30
0.0
  0
VERTEX
  5
CE
330
CC
100
AcDbEntity
  8
_U+30EC_U+30A4_U+30E4_U+30FC 1
 62
   179
420
  2234388
370
     9
100
AcDbVertex
100
AcDb2dVertex
 10
96.15363782469412
 20
-107.4971391397924
 30
0.0
  0
SEQEND
  5
CF
330
CC
100
AcDbEntity
  8
_U+30EC_U+30A4_U+30E4_U+30FC 1
 62
   179
420
  2234388
370
     9
  0
INSERT
  5
D1
330
1F
100
AcDbEntity
  8
_U+30EC_U+30A4_U+30E4_U+30FC 1
100
AcDbBlockReference
  2
block 2
 10
0.0
 20
0.0
 30
0.0
  0
INSERT
  5
DA
330
1F
100
AcDbEntity
  8
_U+30EC_U+30A4_U+30E4_U+30FC 1
100
AcDbBlockReference
  2
block 3
 10
0.0
 20
0.0
 30
0.0
  0
INSERT
  5
FF
330
1F
100
AcDbEntity
  8
_U+30EC_U+30A4_U+30E4_U+30FC 1
100
AcDbBlockReference
  2
block 4
 10
0.0
 20
0.0
 30
0.0
  0
INSERT
  5
11A
330
1F
100
AcDbEntity
  8
_U+30EC_U+30A4_U+30E4_U+30FC 1
100
AcDbBlockReference
  2
block 5
 10
0.0
 20
0.0
 30
0.0
  0
INSERT
  5
123
330
1F
100
AcDbEntity
  8
_U+30EC_U+30A4_U+30E4_U+30FC 1
100
AcDbBlockReference
  2
block 6
 10
0.0
 20
0.0
 30
0.0
  0
INSERT
  5
12B
330
1F
100
AcDbEntity
  8
_U+30EC_U+30A4_U+30E4_U+30FC 1
100
AcDbBlockReference
  2
block 7
 10
0.0
 20
0.0
 30
0.0
  0
ENDSEC
  0
SECTION
  2
OBJECTS
  0
DICTIONARY
  5
C
330
0
100
AcDbDictionary
281
     1
  3
ACAD_GROUP
350
D
  3
ACAD_LAYOUT
350
1A
  3
ACAD_MATERIAL
350
3B
  3
ACAD_MLEADERSTYLE
350
13B
  3
ACAD_MLINESTYLE
350
17
  3
ACAD_PLOTSETTINGS
350
19
  3
ACAD_PLOTSTYLENAME
350
E
  3
ACAD_TABLESTYLE
350
13A
  3
ACAD_VISUALSTYLE
350
2A
  0
SUN
  5
3F
330
29
100
AcDbSun
 90
        1
290
     0
 63
     7
421
 16777215
 40
1.0
291
     1
 91
  2455826
 92
 54000000
292
     0
 70
     2
 71
   256
280
     1
  0
DICTIONARY
  5
D
102
{ACAD_REACTORS
330
C
102
}
330
C
100
AcDbDictionary
281
     1
  0
DICTIONARY
  5
1A
102
{ACAD_REACTORS
330
C
102
}
330
C
100
AcDbDictionary
281
     1
  3
Layout1
350
1E
  3
Layout2
350
26
  3
Model
350
22
  0
DICTIONARY
  5
3B
102
{ACAD_REACTORS
330
C
102
}
330
C
100
AcDbDictionary
281
     1
  3
ByBlock
350
3D
  3
ByLayer
350
3C
  3
Global
350
3E
  0
DICTIONARY
  5
13B
102
{ACAD_REACTORS
330
C
102
}
330
C
100
AcDbDictionary
281
     1
  0
DICTIONARY
  5
17
102
{ACAD_REACTORS
330
C
102
}
330
C
100
AcDbDictionary
281
     1
  3
Standard
350
18
  0
DICTIONARY
  5
19
102
{ACAD_REACTORS
330
C
102
}
330
C
100
AcDbDictionary
281
     1
  0
ACDBDICTIONARYWDFLT
  5
E
102
{ACAD_REACTORS
330
C
102
}
330
C
100
AcDbDictionary
281
     1
  3
Normal
350
F
100
AcDbDictionaryWithDefault
340
F
  0
DICTIONARY
  5
13A
102
{ACAD_REACTORS
330
C
102
}
330
C
100
AcDbDictionary
281
     1
  0
DICTIONARY
  5
2A
102
{ACAD_REACTORS
330
C
102
}
330
C
100
AcDbDictionary
281
     1
  3
2dWireframe
350
2F
  3
3D Hidden
350
31
  3
3dWireframe
350
30
  3
Basic
350
32
  3
Brighten
350
36
  3
ColorChange
350
3A
  3
Conceptual
350
34
  3
Dim
350
35
  3
Facepattern
350
39
  3
Flat
350
2B
  3
FlatWithEdges
350
2C
  3
Gouraud
350
2D
  3
GouraudWithEdges
350
2E
  3
Linepattern
350
38
  3
Realistic
350
33
  3
Thicken
350
37
  0
LAYOUT
  5
1E
102
{ACAD_REACTORS
330
1A
102
}
330
1A
100
AcDbPlotSettings
  1

  2
none_device
  4

  6

 40
0.0
 41
0.0
 42
0.0
 43
0.0
 44
0.0
 45
0.0
 46
0.0
 47
0.0
 48
0.0
 49
0.0
140
0.0
141
0.0
142
1.0
143
1.0
 70
   688
 72
     0
 73
     0
 74
     5
  7

 75
    16
 76
     0
 77
     2
 78
   300
147
1.0
148
0.0
149
0.0
100
AcDbLayout
  1
Layout1
 70
     1
 71
     1
 10
0.0
 20
0.0
 11
12.0
 21
9.0
 12
0.0
 22
0.0
 32
0.0
 14
1.000000000000000E+20
 24
1.000000000000000E+20
 34
1.000000000000000E+20
 15
-1.000000000000000E+20
 25
-1.000000000000000E+20
 35
-1.000000000000000E+20
146
0.0
 13
0.0
 23
0.0
 33
0.0
 16
1.0
 26
0.0
 36
0.0
 17
0.0
 27
1.0
 37
0.0
 76
     0
330
1B
  0
LAYOUT
  5
26
102
{ACAD_REACTORS
330
1A
102
}
330
1A
100
AcDbPlotSettings
  1

  2
none_device
  4

  6

 40
0.0
 41
0.0
 42
0.0
 43
0.0
 44
0.0
 45
0.0
 46
0.0
 47
0.0
 48
0.0
 49
0.0
140
0.0
141
0.0
142
1.0
143
1.0
 70
   688
 72
     0
 73
     0
 74
     5
  7

 75
    16
 76
     0
 77
     2
 78
   300
147
1.0
148
0.0
149
0.0
100
AcDbLayout
  1
Layout2
 70
     1
 71
     2
 10
0.0
 20
0.0
 11
0.0
 21
0.0
 12
0.0
 22
0.0
 32
0.0
 14
0.0
 24
0.0
 34
0.0
 15
0.0
 25
0.0
 35
0.0
146
0.0
 13
0.0
 23
0.0
 33
0.0
 16
1.0
 26
0.0
 36
0.0
 17
0.0
 27
1.0
 37
0.0
 76
     0
330
23
  0
LAYOUT
  5
22
102
{ACAD_REACTORS
330
1A
102
}
330
1A
100
AcDbPlotSettings
  1

  2
none_device
  4

  6

 40
0.0
 41
0.0
 42
0.0
 43
0.0
 44
0.0
 45
0.0
 46
0.0
 47
0.0
 48
0.0
 49
0.0
140
0.0
141
0.0
142
1.0
143
1.0
 70
  1712
 72
     0
 73
     0
 74
     0
  7

 75
     0
 76
     0
 77
     2
 78
   300
147
1.0
148
0.0
149
0.0
100
AcDbLayout
  1
Model
 70
     1
 71
     0
 10
0.0
 20
0.0
 11
12.0
 21
9.0
 12
0.0
 22
0.0
 32
0.0
 14
1.000000000000000E+20
 24
1.000000000000000E+20
 34
1.000000000000000E+20
 15
-1.000000000000000E+20
 25
-1.000000000000000E+20
 35
-1.000000000000000E+20
146
0.0
 13
0.0
 23
0.0
 33
0.0
 16
1.0
 26
0.0
 36
0.0
 17
0.0
 27
1.0
 37
0.0
 76
     0
330
1F
331
29
  0
MATERIAL
  5
3D
102
{ACAD_REACTORS
330
3B
102
}
330
3B
100
AcDbMaterial
  1
ByBlock
 72
     1
 94
      127
  0
MATERIAL
  5
3C
102
{ACAD_REACTORS
330
3B
102
}
330
3B
100
AcDbMaterial
  1
ByLayer
 72
     1
 94
      127
  0
MATERIAL
  5
3E
102
{ACAD_REACTORS
330
3B
102
}
330
3B
100
AcDbMaterial
  1
Global
 72
     1
 94
      127
  0
MLINESTYLE
  5
18
102
{ACAD_REACTORS
330
17
102
}
330
17
100
AcDbMlineStyle
  2
Standard
 70
     0
  3

 62
   256
 51
90.0
 52
90.0
 71
     2
 49
0.5
 62
   256
  6
BYLAYER
 49
-0.5
 62
   256
  6
BYLAYER
  0
ACDBPLACEHOLDER
  5
F
102
{ACAD_REACTORS
330
E
102
}
330
E
  0
VISUALSTYLE
  5
2F
102
{ACAD_REACTORS
330
2A
102
}
330
2A
100
AcDbVisualStyle
  2
2dWireframe
 70
     4
177
     2
291
     0
 71
     0
176
     1
 72
     2
176
     1
 73
     0
176
     1
 90
        0
176
     1
 40
-0.6
176
     1
 41
-30.0
176
     1
 62
     5
 63
     7
421
 16777215
176
     1
 74
     1
176
     1
 91
        4
176
     1
 64
     7
176
     1
 65
   257
176
     1
 75
     1
176
     1
175
     1
176
     1
 42
1.0
176
     1
 92
        0
176
     1
 66
   257
176
     1
 43
1.0
176
     1
 76
     1
176
     1
 77
     6
176
     1
 78
     2
176
     1
 67
     7
176
     1
 79
     5
176
     1
170
     0
176
     1
171
     0
176
     1
290
     0
176
     1
 93
        1
176
     1
 44
0.0
176
     1
173
     0
176
     1
  0
VISUALSTYLE
  5
31
102
{ACAD_REACTORS
330
2A
102
}
330
2A
100
AcDbVisualStyle
  2
3D Hidden
 70
     6
177
     2
291
     0
 71
     1
176
     1
 72
     2
176
     1
 73
     2
176
     1
 90
        0
176
     1
 40
-0.6
176
     1
 41
-30.0
176
     1
 62
     5
 63
     7
421
 16777215
176
     1
 74
     2
176
     1
 91
        2
176
     1
 64
     7
176
     1
 65
   257
176
     1
 75
     2
176
     1
175
     1
176
     1
 42
40.0
176
     1
 92
        0
176
     1
 66
   257
176
     1
 43
1.0
176
     1
 76
     1
176
     1
 77
     6
176
     1
 78
     2
176
     1
 67
     7
176
     1
 79
     3
176
     1
170
     0
176
     1
171
     0
176
     1
290
     0
176
     1
 93
        1
176
     1
 44
0.0
176
     1
173
     0
176
     1
  0
VISUALSTYLE
  5
30
102
{ACAD_REACTORS
330
2A
102
}
330
2A
100
AcDbVisualStyle
  2
3dWireframe
 70
     5
177
     2
291
     0
 71
     0
176
     1
 72
     2
176
     1
 73
     0
176
     1
 90
        0
176
     1
 40
-0.6
176
     1
 41
-30.0
176
     1
 62
     5
 63
     7
421
 16777215
176
     1
 74
     1
176
     1
 91
        4
176
     1
 64
     7
176
     1
 65
   257
176
     1
 75
     1
176
     1
175
     1
176
     1
 42
1.0
176
     1
 92
        0
176
     1
 66
   257
176
     1
 43
1.0
176
     1
 76
     1
176
     1
 77
     6
176
     1
 78
     2
176
     1
 67
     7
176
     1
 79
     5
176
     1
170
     0
176
     1
171
     0
176
     1
290
     0
176
     1
 93
        1
176
     1
 44
0.0
176
     1
173
     0
176
     1
  0
VISUALSTYLE
  5
32
102
{ACAD_REACTORS
330
2A
102
}
330
2A
100
AcDbVisualStyle
  2
Basic
 70
     7
177
     2
291
     1
 71
     1
176
     1
 72
     0
176
     1
 73
     1
176
     1
 90
        0
176
     1
 40
-0.6
176
     1
 41
-30.0
176
     1
 62
     5
 63
     7
421
 16777215
176
     1
 74
     0
176
     1
 91
        4
176
     1
 64
     7
176
     1
 65
   257
176
     1
 75
     1
176
     1
175
     1
176
     1
 42
1.0
176
     1
 92
        8
176
     1
 66
     7
176
     1
 43
1.0
176
     1
 76
     1
176
     1
 77
     6
176
     1
 78
     2
176
     1
 67
     7
176
     1
 79
     5
176
     1
170
     0
176
     1
171
     0
176
     1
290
     0
176
     1
 93
        1
176
     1
 44
0.0
176
     1
173
     0
176
     1
  0
VISUALSTYLE
  5
36
102
{ACAD_REACTORS
330
2A
102
}
330
2A
100
AcDbVisualStyle
  2
Brighten
 70
    12
177
     2
291
     1
 71
     2
176
     1
 72
     2
176
     1
 73
     0
176
     1
 90
        0
176
     1
 40
-0.6
176
     1
 41
-30.0
176
     1
 62
     5
 63
     7
421
 16777215
176
     1
 74
     1
176
     1
 91
        4
176
     1
 64
     7
176
     1
 65
   257
176
     1
 75
     1
176
     1
175
     1
176
     1
 42
1.0
176
     1
 92
        8
176
     1
 66
     7
176
     1
 43
1.0
176
     1
 76
     1
176
     1
 77
     6
176
     1
 78
     2
176
     1
 67
     7
176
     1
 79
     5
176
     1
170
     0
176
     1
171
     0
176
     1
290
     0
176
     1
 93
        1
176
     1
 44
50.0
176
     1
173
     0
176
     1
  0
VISUALSTYLE
  5
3A
102
{ACAD_REACTORS
330
2A
102
}
330
2A
100
AcDbVisualStyle
  2
ColorChange
 70
    16
177
     2
291
     1
 71
     2
176
     1
 72
     2
176
     1
 73
     3
176
     1
 90
        0
176
     1
 40
-0.6
176
     1
 41
-30.0
176
     1
 62
     5
 63
     8
421
  8421504
176
     1
 74
     1
176
     1
 91
        4
176
     1
 64
     7
176
     1
 65
   257
176
     1
 75
     1
176
     1
175
     1
176
     1
 42
1.0
176
     1
 92
        8
176
     1
 66
     8
424
  8421504
176
     1
 43
1.0
176
     1
 76
     1
176
     1
 77
     6
176
     1
 78
     2
176
     1
 67
     7
176
     1
 79
     5
176
     1
170
     0
176
     1
171
     0
176
     1
290
     0
176
     1
 93
        1
176
     1
 44
0.0
176
     1
173
     0
176
     1
  0
VISUALSTYLE
  5
34
102
{ACAD_REACTORS
330
2A
102
}
330
2A
100
AcDbVisualStyle
  2
Conceptual
 70
     9
177
     2
291
     0
 71
     3
176
     1
 72
     2
176
     1
 73
     0
176
     1
 90
        0
176
     1
 40
-0.6
176
     1
 41
-30.0
176
     1
 62
     5
 63
     7
421
 16777215
176
     1
 74
     2
176
     1
 91
        2
176
     1
 64
     7
176
     1
 65
   257
176
     1
 75
     1
176
     1
175
     1
176
     1
 42
40.0
176
     1
 92
        8
176
     1
 66
     7
176
     1
 43
1.0
176
     1
 76
     1
176
     1
 77
     6
176
     1
 78
     2
176
     1
 67
     7
176
     1
 79
     3
176
     1
170
     0
176
     1
171
     0
176
     1
290
     0
176
     1
 93
        1
176
     1
 44
0.0
176
     1
173
     0
176
     1
  0
VISUALSTYLE
  5
35
102
{ACAD_REACTORS
330
2A
102
}
330
2A
100
AcDbVisualStyle
  2
Dim
 70
    11
177
     2
291
     1
 71
     2
176
     1
 72
     2
176
     1
 73
     0
176
     1
 90
        0
176
     1
 40
-0.6
176
     1
 41
-30.0
176
     1
 62
     5
 63
     7
421
 16777215
176
     1
 74
     1
176
     1
 91
        4
176
     1
 64
     7
176
     1
 65
   257
176
     1
 75
     1
176
     1
175
     1
176
     1
 42
1.0
176
     1
 92
        8
176
     1
 66
     7
176
     1
 43
1.0
176
     1
 76
     1
176
     1
 77
     6
176
     1
 78
     2
176
     1
 67
     7
176
     1
 79
     5
176
     1
170
     0
176
     1
171
     0
176
     1
290
     0
176
     1
 93
        1
176
     1
 44
-50.0
176
     1
173
     0
176
     1
  0
VISUALSTYLE
  5
39
102
{ACAD_REACTORS
330
2A
102
}
330
2A
100
AcDbVisualStyle
  2
Facepattern
 70
    15
177
     2
291
     1
 71
     2
176
     1
 72
     2
176
     1
 73
     0
176
     1
 90
        0
176
     1
 40
-0.6
176
     1
 41
-30.0
176
     1
 62
     5
 63
     7
421
 16777215
176
     1
 74
     1
176
     1
 91
        4
176
     1
 64
     7
176
     1
 65
   257
176
     1
 75
     1
176
     1
175
     1
176
     1
 42
1.0
176
     1
 92
        8
176
     1
 66
     7
176
     1
 43
1.0
176
     1
 76
     1
176
     1
 77
     6
176
     1
 78
     2
176
     1
 67
     7
176
     1
 79
     5
176
     1
170
     0
176
     1
171
     0
176
     1
290
     0
176
     1
 93
        1
176
     1
 44
0.0
176
     1
173
     0
176
     1
  0
VISUALSTYLE
  5
2B
102
{ACAD_REACTORS
330
2A
102
}
330
2A
100
AcDbVisualStyle
  2
Flat
 70
     0
177
     2
291
     1
 71
     2
176
     1
 72
     1
176
     1
 73
     1
176
     1
 90
        2
176
     1
 40
-0.6
176
     1
 41
30.0
176
     1
 62
     5
 63
     7
421
 16777215
176
     1
 74
     0
176
     1
 91
        4
176
     1
 64
     7
176
     1
 65
   257
176
     1
 75
     1
176
     1
175
     1
176
     1
 42
1.0
176
     1
 92
        8
176
     1
 66
     7
176
     1
 43
1.0
176
     1
 76
     1
176
     1
 77
     6
176
     1
 78
     2
176
     1
 67
     7
176
     1
 79
     5
176
     1
170
     0
176
     1
171
     0
176
     1
290
     0
176
     1
 93
       13
176
     1
 44
0.0
176
     1
173
     0
176
     1
  0
VISUALSTYLE
  5
2C
102
{ACAD_REACTORS
330
2A
102
}
330
2A
100
AcDbVisualStyle
  2
FlatWithEdges
 70
     1
177
     2
291
     1
 71
     2
176
     1
 72
     1
176
     1
 73
     1
176
     1
 90
        2
176
     1
 40
-0.6
176
     1
 41
30.0
176
     1
 62
     5
 63
     7
421
 16777215
176
     1
 74
     1
176
     1
 91
        4
176
     1
 64
     7
176
     1
 65
   257
176
     1
 75
     1
176
     1
175
     1
176
     1
 42
1.0
176
     1
 92
        0
176
     1
 66
   257
176
     1
 43
1.0
176
     1
 76
     1
176
     1
 77
     6
176
     1
 78
     2
176
     1
 67
     7
176
     1
 79
     5
176
     1
170
     0
176
     1
171
     0
176
     1
290
     0
176
     1
 93
       13
176
     1
 44
0.0
176
     1
173
     0
176
     1
  0
VISUALSTYLE
  5
2D
102
{ACAD_REACTORS
330
2A
102
}
330
2A
100
AcDbVisualStyle
  2
Gouraud
 70
     2
177
     2
291
     1
 71
     2
176
     1
 72
     2
176
     1
 73
     1
176
     1
 90
        2
176
     1
 40
-0.6
176
     1
 41
30.0
176
     1
 62
     5
 63
     7
421
 16777215
176
     1
 74
     0
176
     1
 91
        4
176
     1
 64
     7
176
     1
 65
   257
176
     1
 75
     1
176
     1
175
     1
176
     1
 42
1.0
176
     1
 92
        0
176
     1
 66
     7
176
     1
 43
1.0
176
     1
 76
     1
176
     1
 77
     6
176
     1
 78
     2
176
     1
 67
     7
176
     1
 79
     5
176
     1
170
     0
176
     1
171
     0
176
     1
290
     0
176
     1
 93
       13
176
     1
 44
0.0
176
     1
173
     0
176
     1
  0
VISUALSTYLE
  5
2E
102
{ACAD_REACTORS
330
2A
102
}
330
2A
100
AcDbVisualStyle
  2
GouraudWithEdges
 70
     3
177
     2
291
     1
 71
     2
176
     1
 72
     2
176
     1
 73
     1
176
     1
 90
        2
176
     1
 40
-0.6
176
     1
 41
30.0
176
     1
 62
     5
 63
     7
421
 16777215
176
     1
 74
     1
176
     1
 91
        4
176
     1
 64
     7
176
     1
 65
   257
176
     1
 75
     1
176
     1
175
     1
176
     1
 42
1.0
176
     1
 92
        0
176
     1
 66
   257
176
     1
 43
1.0
176
     1
 76
     1
176
     1
 77
     6
176
     1
 78
     2
176
     1
 67
     7
176
     1
 79
     5
176
     1
170
     0
176
     1
171
     0
176
     1
290
     0
176
     1
 93
       13
176
     1
 44
0.0
176
     1
173
     0
176
     1
  0
VISUALSTYLE
  5
38
102
{ACAD_REACTORS
330
2A
102
}
330
2A
100
AcDbVisualStyle
  2
Linepattern
 70
    14
177
     2
291
     1
 71
     2
176
     1
 72
     2
176
     1
 73
     0
176
     1
 90
        0
176
     1
 40
-0.6
176
     1
 41
-30.0
176
     1
 62
     5
 63
     7
421
 16777215
176
     1
 74
     1
176
     1
 91
        4
176
     1
 64
     7
176
     1
 65
   257
176
     1
 75
     7
176
     1
175
     7
176
     1
 42
1.0
176
     1
 92
        8
176
     1
 66
     7
176
     1
 43
1.0
176
     1
 76
     1
176
     1
 77
     6
176
     1
 78
     2
176
     1
 67
     7
176
     1
 79
     5
176
     1
170
     0
176
     1
171
     0
176
     1
290
     0
176
     1
 93
        1
176
     1
 44
0.0
176
     1
173
     0
176
     1
  0
VISUALSTYLE
  5
33
102
{ACAD_REACTORS
330
2A
102
}
330
2A
100
AcDbVisualStyle
  2
Realistic
 70
     8
177
     2
291
     0
 71
     2
176
     1
 72
     2
176
     1
 73
     0
176
     1
 90
        0
176
     1
 40
-0.6
176
     1
 41
-30.0
176
     1
 62
     5
 63
     7
421
 16777215
176
     1
 74
     1
176
     1
 91
        0
176
     1
 64
     7
176
     1
 65
   257
176
     1
 75
     1
176
     1
175
     1
176
     1
 42
1.0
176
     1
 92
        8
176
     1
 66
     8
424
  7895160
176
     1
 43
1.0
176
     1
 76
     1
176
     1
 77
     6
176
     1
 78
     2
176
     1
 67
     7
176
     1
 79
     5
176
     1
170
     0
176
     1
171
     0
176
     1
290
     0
176
     1
 93
       13
176
     1
 44
0.0
176
     1
173
     0
176
     1
  0
VISUALSTYLE
  5
37
102
{ACAD_REACTORS
330
2A
102
}
330
2A
100
AcDbVisualStyle
  2
Thicken
 70
    13
177
     2
291
     1
 71
     2
176
     1
 72
     2
176
     1
 73
     0
176
     1
 90
        0
176
     1
 40
-0.6
176
     1
 41
-30.0
176
     1
 62
     5
 63
     7
421
 16777215
176
     1
 74
     1
176
     1
 91
        4
176
     1
 64
     7
176
     1
 65
   257
176
     1
 75
     1
176
     1
175
     1
176
     1
 42
1.0
176
     1
 92
       12
176
     1
 66
     7
176
     1
 43
1.0
176
     1
 76
     1
176
     1
 77
     6
176
     1
 78
     2
176
     1
 67
     7
176
     1
 79
     5
176
     1
170
     0
176
     1
171
     0
176
     1
290
     0
176
     1
 93
        1
176
     1
 44
0.0
176
     1
173
     0
176
     1
  0
ENDSEC
  0
EOF
