  0
SECTION
  2
HEADER
  9
$ACADVER
  1
AC1024
  9
$ACADMAINTVER
 70
     6
  9
$DWGCODEPAGE
  3
UNDEFINED
  9
$INSBASE
 10
0.0
 20
0.0
 30
0.0
  9
$EXTMIN
 10
1.000000000000000E+20
 20
1.000000000000000E+20
 30
1.000000000000000E+20
  9
$EXTMAX
 10
-1.000000000000000E+20
 20
-1.000000000000000E+20
 30
-1.000000000000000E+20
  9
$LIMMIN
 10
0.0
 20
0.0
  9
$LIMMAX
 10
12.0
 20
9.0
  9
$ORTHOMODE
 70
     0
  9
$REGENMODE
 70
     1
  9
$FILLMODE
 70
     1
  9
$QTEXTMODE
 70
     0
  9
$MIRRTEXT
 70
     1
  9
$LTSCALE
 40
1.0
  9
$ATTMODE
 70
     1
  9
$TEXTSIZE
 40
0.2
  9
$TRACEWID
 40
0.05
  9
$TEXTSTYLE
  7
Standard
  9
$CLAYER
  8
0
  9
$CELTYPE
  6
ByLayer
  9
$CECOLOR
 62
   256
  9
$CELTSCALE
 40
1.0
  9
$DISPSILH
 70
     0
  9
$DIMSCALE
 40
1.0
  9
$DIMASZ
 40
0.18
  9
$DIMEXO
 40
0.0625
  9
$DIMDLI
 40
0.38
  9
$DIMRND
 40
0.0
  9
$DIMDLE
 40
0.0
  9
$DIMEXE
 40
0.18
  9
$DIMTP
 40
0.0
  9
$DIMTM
 40
0.0
  9
$DIMTXT
 40
0.18
  9
$DIMCEN
 40
0.09
  9
$DIMTSZ
 40
0.0
  9
$DIMTOL
 70
     0
  9
$DIMLIM
 70
     0
  9
$DIMTIH
 70
     1
  9
$DIMTOH
 70
     1
  9
$DIMSE1
 70
     0
  9
$DIMSE2
 70
     0
  9
$DIMTAD
 70
     0
  9
$DIMZIN
 70
     0
  9
$DIMBLK
  1

  9
$DIMASO
 70
     1
  9
$DIMSHO
 70
     1
  9
$DIMPOST
  1

  9
$DIMAPOST
  1

  9
$DIMALT
 70
     0
  9
$DIMALTD
 70
     2
  9
$DIMALTF
 40
25.4
  9
$DIMLFAC
 40
1.0
  9
$DIMTOFL
 70
     0
  9
$DIMTVP
 40
0.0
  9
$DIMTIX
 70
     0
  9
$DIMSOXD
 70
     0
  9
$DIMSAH
 70
     0
  9
$DIMBLK1
  1

  9
$DIMBLK2
  1

  9
$DIMSTYLE
  2
Standard
  9
$DIMCLRD
 70
     0
  9
$DIMCLRE
 70
     0
  9
$DIMCLRT
 70
     0
  9
$DIMTFAC
 40
1.0
  9
$DIMGAP
 40
0.09
  9
$DIMJUST
 70
     0
  9
$DIMSD1
 70
     0
  9
$DIMSD2
 70
     0
  9
$DIMTOLJ
 70
     1
  9
$DIMTZIN
 70
     0
  9
$DIMALTZ
 70
     0
  9
$DIMALTTZ
 70
     0
  9
$DIMUPT
 70
     0
  9
$DIMDEC
 70
     4
  9
$DIMTDEC
 70
     4
  9
$DIMALTU
 70
     2
  9
$DIMALTTD
 70
     2
  9
$DIMTXSTY
  7
Standard
  9
$DIMAUNIT
 70
     0
  9
$DIMADEC
 70
     0
  9
$DIMALTRND
 40
0.0
  9
$DIMAZIN
 70
     0
  9
$DIMDSEP
 70
    46
  9
$DIMATFIT
 70
     3
  9
$DIMFRAC
 70
     0
  9
$DIMLDRBLK
  1

  9
$DIMLUNIT
 70
     2
  9
$DIMLWD
 70
    -2
  9
$DIMLWE
 70
    -2
  9
$DIMTMOVE
 70
     0
  9
$DIMFXL
 40
1.0
  9
$DIMFXLON
 70
     0
  9
$DIMJOGANG
 40
0.7853981633974483
  9
$DIMTFILL
 70
     0
  9
$DIMTFILLCLR
 70
     0
  9
$DIMARCSYM
 70
     0
  9
$DIMLTYPE
  6

  9
$DIMLTEX1
  6

  9
$DIMLTEX2
  6

  9
$DIMTXTDIRECTION
 70
     0
  9
$LUNITS
 70
     2
  9
$LUPREC
 70
     4
  9
$SKETCHINC
 40
0.1
  9
$FILLETRAD
 40
0.5
  9
$AUNITS
 70
     0
  9
$AUPREC
 70
     0
  9
$MENU
  1
.
  9
$ELEVATION
 40
0.0
  9
$PELEVATION
 40
0.0
  9
$THICKNESS
 40
0.0
  9
$LIMCHECK
 70
     0
  9
$CHAMFERA
 40
0.5
  9
$CHAMFERB
 40
0.5
  9
$CHAMFERC
 40
1.0
  9
$CHAMFERD
 40
0.0
  9
$SKPOLY
 70
     0
  9
$TDCREATE
 40
2457917.613460648
  9
$TDUCREATE
 40
2457917.238460648
  9
$TDUPDATE
 40
2457917.613460648
  9
$TDUUPDATE
 40
2457917.238460648
  9
$TDINDWG
 40
0.0000000116
  9
$TDUSRTIMER
 40
0.0000000116
  9
$USRTIMER
 70
     1
  9
$ANGBASE
 50
0.0
  9
$ANGDIR
 70
     0
  9
$PDMODE
 70
     0
  9
$PDSIZE
 40
0.0
  9
$PLINEWID
 40
0.0
  9
$SPLFRAME
 70
     0
  9
$SPLINETYPE
 70
     6
  9
$SPLINESEGS
 70
     8
  9
$HANDSEED
  5
ED
  9
$SURFTAB1
 70
     6
  9
$SURFTAB2
 70
     6
  9
$SURFTYPE
 70
     6
  9
$SURFU
 70
     6
  9
$SURFV
 70
     6
  9
$UCSBASE
  2

  9
$UCSNAME
  2

  9
$UCSORG
 10
0.0
 20
0.0
 30
0.0
  9
$UCSXDIR
 10
1.0
 20
0.0
 30
0.0
  9
$UCSYDIR
 10
0.0
 20
1.0
 30
0.0
  9
$UCSORTHOREF
  2

  9
$UCSORTHOVIEW
 70
     0
  9
$UCSORGTOP
 10
0.0
 20
0.0
 30
0.0
  9
$UCSORGBOTTOM
 10
0.0
 20
0.0
 30
0.0
  9
$UCSORGLEFT
 10
0.0
 20
0.0
 30
0.0
  9
$UCSORGRIGHT
 10
0.0
 20
0.0
 30
0.0
  9
$UCSORGFRONT
 10
0.0
 20
0.0
 30
0.0
  9
$UCSORGBACK
 10
0.0
 20
0.0
 30
0.0
  9
$PUCSBASE
  2

  9
$PUCSNAME
  2

  9
$PUCSORG
 10
0.0
 20
0.0
 30
0.0
  9
$PUCSXDIR
 10
1.0
 20
0.0
 30
0.0
  9
$PUCSYDIR
 10
0.0
 20
1.0
 30
0.0
  9
$PUCSORTHOREF
  2

  9
$PUCSORTHOVIEW
 70
     0
  9
$PUCSORGTOP
 10
0.0
 20
0.0
 30
0.0
  9
$PUCSORGBOTTOM
 10
0.0
 20
0.0
 30
0.0
  9
$PUCSORGLEFT
 10
0.0
 20
0.0
 30
0.0
  9
$PUCSORGRIGHT
 10
0.0
 20
0.0
 30
0.0
  9
$PUCSORGFRONT
 10
0.0
 20
0.0
 30
0.0
  9
$PUCSORGBACK
 10
0.0
 20
0.0
 30
0.0
  9
$USERI1
 70
     0
  9
$USERI2
 70
     0
  9
$USERI3
 70
     0
  9
$USERI4
 70
     0
  9
$USERI5
 70
     0
  9
$USERR1
 40
0.0
  9
$USERR2
 40
0.0
  9
$USERR3
 40
0.0
  9
$USERR4
 40
0.0
  9
$USERR5
 40
0.0
  9
$WORLDVIEW
 70
     1
  9
$SHADEDGE
 70
     3
  9
$SHADEDIF
 70
    70
  9
$TILEMODE
 70
     1
  9
$MAXACTVP
 70
    64
  9
$PINSBASE
 10
0.0
 20
0.0
 30
0.0
  9
$PLIMCHECK
 70
     0
  9
$PEXTMIN
 10
1.000000000000000E+20
 20
1.000000000000000E+20
 30
1.000000000000000E+20
  9
$PEXTMAX
 10
-1.000000000000000E+20
 20
-1.000000000000000E+20
 30
-1.000000000000000E+20
  9
$PLIMMIN
 10
0.0
 20
0.0
  9
$PLIMMAX
 10
12.0
 20
9.0
  9
$UNITMODE
 70
     0
  9
$VISRETAIN
 70
     1
  9
$PLINEGEN
 70
     0
  9
$PSLTSCALE
 70
     1
  9
$TREEDEPTH
 70
  3020
  9
$CMLSTYLE
  2
Standard
  9
$CMLJUST
 70
     0
  9
$CMLSCALE
 40
1.0
  9
$PROXYGRAPHICS
 70
     1
  9
$MEASUREMENT
 70
     0
  9
$CELWEIGHT
370
    -1
  9
$ENDCAPS
280
     0
  9
$JOINSTYLE
280
     0
  9
$LWDISPLAY
290
     1
  9
$INSUNITS
 70
     1
  9
$HYPERLINKBASE
  1

  9
$STYLESHEET
  1

  9
$XEDIT
290
     1
  9
$CEPSNTYPE
380
     0
  9
$PSTYLEMODE
290
     1
  9
$FINGERPRINTGUID
  2
{340ACC61-826C-9E47-1E80-8BAC852D2F3D}
  9
$VERSIONGUID
  2
{FAEB1C32-E019-11D5-929B-00C0DF256EC4}
  9
$EXTNAMES
290
     1
  9
$PSVPSCALE
 40
0.0
  9
$OLESTARTUP
290
     0
  9
$SORTENTS
280
   127
  9
$INDEXCTL
280
     0
  9
$HIDETEXT
280
     1
  9
$XCLIPFRAME
280
     2
  9
$HALOGAP
280
     0
  9
$OBSCOLOR
 70
   257
  9
$OBSLTYPE
280
     0
  9
$INTERSECTIONDISPLAY
280
     0
  9
$INTERSECTIONCOLOR
 70
   257
  9
$DIMASSOC
280
     2
  9
$PROJECTNAME
  1

  9
$CAMERADISPLAY
290
     0
  9
$LENSLENGTH
 40
50.0
  9
$CAMERAHEIGHT
 40
0.0
  9
$STEPSPERSEC
 40
2.0
  9
$STEPSIZE
 40
6.0
  9
$3DDWFPREC
 40
2.0
  9
$PSOLWIDTH
 40
0.25
  9
$PSOLHEIGHT
 40
4.0
  9
$LOFTANG1
 40
1.570796326794897
  9
$LOFTANG2
 40
1.570796326794897
  9
$LOFTMAG1
 40
0.0
  9
$LOFTMAG2
 40
0.0
  9
$LOFTPARAM
 70
     7
  9
$LOFTNORMALS
280
     1
  9
$LATITUDE
 40
37.795
  9
$LONGITUDE
 40
-122.394
  9
$NORTHDIRECTION
 40
0.0
  9
$TIMEZONE
 70
 -8000
  9
$LIGHTGLYPHDISPLAY
280
     1
  9
$TILEMODELIGHTSYNCH
280
     1
  9
$CMATERIAL
347
3C
  9
$SOLIDHIST
280
     1
  9
$SHOWHIST
280
     1
  9
$DWFFRAME
280
     2
  9
$DGNFRAME
280
     2
  9
$REALWORLDSCALE
290
     1
  9
$INTERFERECOLOR
 62
   256
  9
$CSHADOW
280
     0
  9
$SHADOWPLANELOCATION
 40
0.0
  0
ENDSEC
  0
SECTION
  2
CLASSES
  0
CLASS
  1
ACDBDICTIONARYWDFLT
  2
AcDbDictionaryWithDefault
  3
ObjectDBX Classes
 90
        0
 91
        4
280
     0
281
     0
  0
CLASS
  1
VISUALSTYLE
  2
AcDbVisualStyle
  3
ObjectDBX Classes
 90
     4095
 91
        4
280
     0
281
     0
  0
CLASS
  1
MATERIAL
  2
AcDbMaterial
  3
ObjectDBX Classes
 90
     1153
 91
        4
280
     0
281
     0
  0
CLASS
  1
SUN
  2
AcDbSun
  3
SCENEOE
 90
     1024
 91
        4
280
     0
281
     0
  0
ENDSEC
  0
SECTION
  2
TABLES
  0
TABLE
  2
VPORT
  5
8
330
0
100
AcDbSymbolTable
 70
     1
  0
VPORT
  5
29
330
8
100
AcDbSymbolTableRecord
100
AcDbViewportTableRecord
  2
*Active
 70
     0
 10
0.0
 20
0.0
 11
1.0
 21
1.0
 12
0.0
 22
0.0
 13
0.0
 23
0.0
 14
0.5
 24
0.5
 15
0.5
 25
0.5
 16
0.0
 26
0.0
 36
1.0
 17
91.00082462281999
 27
-128.4993055234307
 37
0.0
 40
256.9986110468615
 41
0.7081814508812795
 42
50.0
 43
0.0
 44
0.0
 50
0.0
 51
0.0
 71
     0
 72
   100
 73
     1
 74
     3
 75
     0
 76
     0
 77
     0
 78
     0
281
     0
 65
     1
110
0.0
120
0.0
130
0.0
111
1.0
121
0.0
131
0.0
112
0.0
122
1.0
132
0.0
 79
     0
146
0.0
 60
     3
 61
     5
292
     1
282
     1
141
0.0
142
0.0
 63
   250
361
3F
  0
ENDTAB
  0
TABLE
  2
LTYPE
  5
5
330
0
100
AcDbSymbolTable
 70
     1
  0
LTYPE
  5
14
330
5
100
AcDbSymbolTableRecord
100
AcDbLinetypeTableRecord
  2
ByBlock
 70
     0
  3

 72
    65
 73
     0
 40
0.0
  0
LTYPE
  5
15
330
5
100
AcDbSymbolTableRecord
100
AcDbLinetypeTableRecord
  2
ByLayer
 70
     0
  3

 72
    65
 73
     0
 40
0.0
  0
LTYPE
  5
16
330
5
100
AcDbSymbolTableRecord
100
AcDbLinetypeTableRecord
  2
Continuous
 70
     0
  3
Solid line
 72
    65
 73
     0
 40
0.0
  0
ENDTAB
  0
TABLE
  2
LAYER
  5
2
330
0
100
AcDbSymbolTable
 70
     2
  0
LAYER
  5
10
330
2
100
AcDbSymbolTableRecord
100
AcDbLayerTableRecord
  2
0
 70
     0
 62
     7
  6
Continuous
370
    -3
390
F
347
3E
  0
LAYER
  5
40
330
2
100
AcDbSymbolTableRecord
100
AcDbLayerTableRecord
  2
_U+30EC_U+30A4_U+30E4_U+30FC 1
 70
     0
 62
     7
  6
Continuous
370
    -3
390
F
347
3E
  0
ENDTAB
  0
TABLE
  2
STYLE
  5
3
330
0
100
AcDbSymbolTable
 70
     1
  0
STYLE
  5
11
330
3
100
AcDbSymbolTableRecord
100
AcDbTextStyleTableRecord
  2
Standard
 70
     0
 40
0.0
 41
1.0
 50
0.0
 71
     0
 42
0.2
  3
txt
  4

  0
ENDTAB
  0
TABLE
  2
VIEW
  5
6
330
0
100
AcDbSymbolTable
 70
     0
  0
ENDTAB
  0
TABLE
  2
UCS
  5
7
330
0
100
AcDbSymbolTable
 70
     0
  0
ENDTAB
  0
TABLE
  2
APPID
  5
9
330
0
100
AcDbSymbolTable
 70
     1
  0
APPID
  5
12
330
9
100
AcDbSymbolTableRecord
100
AcDbRegAppTableRecord
  2
ACAD
 70
     0
  0
ENDTAB
  0
TABLE
  2
DIMSTYLE
  5
A
330
0
100
AcDbSymbolTable
 70
     1
100
AcDbDimStyleTable
  0
DIMSTYLE
105
27
330
A
100
AcDbSymbolTableRecord
100
AcDbDimStyleTableRecord
  2
Standard
 70
     0
178
     0
340
11
  0
ENDTAB
  0
TABLE
  2
BLOCK_RECORD
  5
1
330
0
100
AcDbSymbolTable
 70
     8
  0
BLOCK_RECORD
  5
1F
330
1
100
AcDbSymbolTableRecord
100
AcDbBlockTableRecord
  2
*Model_Space
340
22
 70
     0
280
     1
281
     0
  0
BLOCK_RECORD
  5
1B
330
1
100
AcDbSymbolTableRecord
100
AcDbBlockTableRecord
  2
*Paper_Space
340
1E
 70
     0
280
     1
281
     0
  0
BLOCK_RECORD
  5
23
330
1
100
AcDbSymbolTableRecord
100
AcDbBlockTableRecord
  2
*Paper_Space0
340
26
 70
     0
280
     1
281
     0
  0
BLOCK_RECORD
  5
53
330
1
100
AcDbSymbolTableRecord
100
AcDbBlockTableRecord
  2
block 2
340
0
102
{BLKREFS
331
54
102
}
 70
     0
280
     1
281
     0
  0
BLOCK_RECORD
  5
A6
330
1
100
AcDbSymbolTableRecord
100
AcDbBlockTableRecord
  2
block 3
340
0
102
{BLKREFS
331
A7
102
}
 70
     0
280
     1
281
     0
  0
BLOCK_RECORD
  5
BA
330
1
100
AcDbSymbolTableRecord
100
AcDbBlockTableRecord
  2
block 4
340
0
102
{BLKREFS
331
BB
102
}
 70
     0
280
     1
281
     0
  0
BLOCK_RECORD
  5
C2
330
1
100
AcDbSymbolTableRecord
100
AcDbBlockTableRecord
  2
block 5
340
0
102
{BLKREFS
331
C3
102
}
 70
     0
280
     1
281
     0
  0
BLOCK_RECORD
  5
CA
330
1
100
AcDbSymbolTableRecord
100
AcDbBlockTableRecord
  2
block 6
340
0
102
{BLKREFS
331
CB
102
}
 70
     0
280
     1
281
     0
  0
BLOCK_RECORD
  5
D2
330
1
100
AcDbSymbolTableRecord
100
AcDbBlockTableRecord
  2
block 7
340
0
102
{BLKREFS
331
D3
102
}
 70
     0
280
     1
281
     0
  0
BLOCK_RECORD
  5
E3
330
1
100
AcDbSymbolTableRecord
100
AcDbBlockTableRecord
  2
block 8
340
0
102
{BLKREFS
331
E4
102
}
 70
     0
280
     1
281
     0
  0
ENDTAB
  0
ENDSEC
  0
SECTION
  2
BLOCKS
  0
BLOCK
  5
20
330
1F
100
AcDbEntity
  8
0
100
AcDbBlockBegin
  2
*Model_Space
 70
     0
 10
0.0
 20
0.0
 30
0.0
  3
*Model_Space
  1

  0
ENDBLK
  5
21
330
1F
100
AcDbEntity
  8
0
100
AcDbBlockEnd
  0
BLOCK
  5
1C
330
1B
100
AcDbEntity
 67
     1
  8
0
100
AcDbBlockBegin
  2
*Paper_Space
 70
     0
 10
0.0
 20
0.0
 30
0.0
  3
*Paper_Space
  1

  0
ENDBLK
  5
1D
330
1B
100
AcDbEntity
 67
     1
  8
0
100
AcDbBlockEnd
  0
BLOCK
  5
24
330
23
100
AcDbEntity
  8
0
100
AcDbBlockBegin
  2
*Paper_Space0
 70
     0
 10
0.0
 20
0.0
 30
0.0
  3
*Paper_Space0
  1

  0
ENDBLK
  5
25
330
23
100
AcDbEntity
  8
0
100
AcDbBlockEnd
  0
BLOCK
  5
55
330
53
100
AcDbEntity
  8
0
100
AcDbBlockBegin
  2
block 2
 70
     0
 10
0.0
 20
0.0
 30
0.0
  3
block 2
  1

  0
SPLINE
  5
57
330
53
100
AcDbEntity
  8
_U+30EC_U+30A4_U+30E4_U+30FC 1
370
     0
100
AcDbSpline
210
0.0
220
0.0
230
1.0
 70
    11
 71
     3
 72
    26
 73
    22
 74
     0
 42
0.0000000001
 43
0.0000000001
 12
1.0
 22
0.0
 32
0.0
 13
1.0
 23
0.0
 33
0.0
 40
0.0
 40
0.0
 40
0.0
 40
0.0
 40
1.0
 40
1.0
 40
1.0
 40
2.0
 40
2.0
 40
2.0
 40
3.0
 40
3.0
 40
3.0
 40
4.0
 40
4.0
 40
4.0
 40
5.0
 40
5.0
 40
5.0
 40
6.0
 40
6.0
 40
6.0
 40
7.0
 40
7.0
 40
7.0
 40
7.0
 10
94.22163897384043
 20
-108.7055094129278
 30
0.0
 10
94.22163897384043
 20
-108.7055094129278
 30
0.0
 10
94.22163897384043
 20
-107.601184055131
 30
0.0
 10
94.22163897384043
 20
-107.601184055131
 30
0.0
 10
94.22163897384043
 20
-107.601184055131
 30
0.0
 10
93.93052840533682
 20
-107.601184055131
 30
0.0
 10
93.93052840533682
 20
-107.601184055131
 30
0.0
 10
93.93052840533682
 20
-107.601184055131
 30
0.0
 10
93.93052840533682
 20
-107.4532172040395
 30
0.0
 10
93.93052840533682
 20
-107.4532172040395
 30
0.0
 10
94.22336152158306
 20
-107.4384032934529
 30
0.0
 10
94.26470266740606
 20
-107.2754502770006
 30
0.0
 10
94.29088539309394
 20
-107.1612453616646
 30
0.0
 10
94.29088539309394
 20
-107.1612453616646
 30
0.0
 10
94.41973196424229
 20
-107.1612453616646
 30
0.0
 10
94.41973196424229
 20
-107.1612453616646
 30
0.0
 10
94.41973196424229
 20
-107.1612453616646
 30
0.0
 10
94.41973196424229
 20
-108.7055094129278
 30
0.0
 10
94.41973196424229
 20
-108.7055094129278
 30
0.0
 10
94.41973196424229
 20
-108.7055094129278
 30
0.0
 10
94.22163897384043
 20
-108.7055094129278
 30
0.0
 10
94.22163897384043
 20
-108.7055094129278
 30
0.0
  0
HATCH
  5
58
330
53
100
AcDbEntity
  8
_U+30EC_U+30A4_U+30E4_U+30FC 1
 62
   179
420
  2234388
100
AcDbHatch
 10
0.0
 20
0.0
 30
0.0
210
0.0
220
0.0
230
1.0
  2
SOLID
 70
     1
 71
     0
 91
        1
 92
        1
 93
        1
 72
     4
 94
        3
 73
     0
 74
     1
 95
       26
 96
       22
 40
0.0
 40
0.0
 40
0.0
 40
0.0
 40
1.0
 40
1.0
 40
1.0
 40
2.0
 40
2.0
 40
2.0
 40
3.0
 40
3.0
 40
3.0
 40
4.0
 40
4.0
 40
4.0
 40
5.0
 40
5.0
 40
5.0
 40
6.0
 40
6.0
 40
6.0
 40
7.0
 40
7.0
 40
7.0
 40
7.0
 10
94.22163897384043
 20
-108.7055094129278
 10
94.22163897384043
 20
-108.7055094129278
 10
94.22163897384043
 20
-107.601184055131
 10
94.22163897384043
 20
-107.601184055131
 10
94.22163897384043
 20
-107.601184055131
 10
93.93052840533682
 20
-107.601184055131
 10
93.93052840533682
 20
-107.601184055131
 10
93.93052840533682
 20
-107.601184055131
 10
93.93052840533682
 20
-107.4532172040395
 10
93.93052840533682
 20
-107.4532172040395
 10
94.22336152158306
 20
-107.4384032934529
 10
94.26470266740606
 20
-107.2754502770006
 10
94.29088539309394
 20
-107.1612453616646
 10
94.29088539309394
 20
-107.1612453616646
 10
94.41973196424229
 20
-107.1612453616646
 10
94.41973196424229
 20
-107.1612453616646
 10
94.41973196424229
 20
-107.1612453616646
 10
94.41973196424229
 20
-108.7055094129278
 10
94.41973196424229
 20
-108.7055094129278
 10
94.41973196424229
 20
-108.7055094129278
 10
94.22163897384043
 20
-108.7055094129278
 10
94.22163897384043
 20
-108.7055094129278
 97
        0
 97
        0
 75
     2
 76
     1
 98
        0
  0
ENDBLK
  5
56
330
53
100
AcDbEntity
  8
0
100
AcDbBlockEnd
  0
BLOCK
  5
A8
330
A6
100
AcDbEntity
  8
0
100
AcDbBlockBegin
  2
block 3
 70
     0
 10
0.0
 20
0.0
 30
0.0
  3
block 3
  1

  0
SPLINE
  5
AA
330
A6
100
AcDbEntity
  8
_U+30EC_U+30A4_U+30E4_U+30FC 1
370
     0
100
AcDbSpline
210
0.0
220
0.0
230
1.0
 70
    11
 71
     3
 72
    20
 73
    16
 74
     0
 42
0.0000000001
 43
0.0000000001
 12
1.0
 22
0.0
 32
0.0
 13
1.0
 23
0.0
 33
0.0
 40
0.0
 40
0.0
 40
0.0
 40
0.0
 40
1.0
 40
1.0
 40
1.0
 40
2.0
 40
2.0
 40
2.0
 40
3.0
 40
3.0
 40
3.0
 40
4.0
 40
4.0
 40
4.0
 40
5.0
 40
5.0
 40
5.0
 40
5.0
 10
83.48861624431882
 20
-119.8826049504981
 30
0.0
 10
83.36734888323802
 20
-119.7746012070355
 30
0.0
 10
83.25331622267626
 20
-119.6857177435161
 30
0.0
 10
83.04781627698111
 20
-119.5758191975366
 30
0.0
 10
82.87969561730091
 20
-119.484868676726
 30
0.0
 10
82.70606280484432
 20
-119.4044256971454
 30
0.0
 10
82.5229559798033
 20
-119.3684244493246
 30
0.0
 10
82.5229559798033
 20
-119.3684244493246
 30
0.0
 10
82.601504156867
 20
-119.173776554408
 30
0.0
 10
82.601504156867
 20
-119.173776554408
 30
0.0
 10
82.97133515720856
 20
-119.2817802978705
 30
0.0
 10
83.34116615755013
 20
-119.4741888807217
 30
0.0
 10
83.57267657415892
 20
-119.6647026610561
 30
0.0
 10
83.57267657415892
 20
-119.6647026610561
 30
0.0
 10
83.48861624431882
 20
-119.8826049504981
 30
0.0
 10
83.48861624431882
 20
-119.8826049504981
 30
0.0
  0
SPLINE
  5
AB
330
A6
100
AcDbEntity
  8
_U+30EC_U+30A4_U+30E4_U+30FC 1
370
     0
100
AcDbSpline
210
0.0
220
0.0
230
1.0
 70
    11
 71
     3
 72
    17
 73
    13
 74
     0
 42
0.0000000001
 43
0.0000000001
 12
1.0
 22
0.0
 32
0.0
 13
1.0
 23
0.0
 33
0.0
 40
0.0
 40
0.0
 40
0.0
 40
0.0
 40
1.0
 40
1.0
 40
1.0
 40
2.0
 40
2.0
 40
2.0
 40
3.0
 40
3.0
 40
3.0
 40
4.0
 40
4.0
 40
4.0
 40
4.0
 10
83.39714895918544
 20
-119.1145209120616
 30
0.0
 10
83.19733342104095
 20
-118.947433781027
 30
0.0
 10
82.90587834298881
 20
-118.8204820123956
 30
0.0
 10
82.70416800232744
 20
-118.784653019349
 30
0.0
 10
82.70416800232744
 20
-118.784653019349
 30
0.0
 10
82.7658352115134
 20
-118.5856987550758
 30
0.0
 10
82.7658352115134
 20
-118.5856987550758
 30
0.0
 10
82.93016626615983
 20
-118.6173936335401
 30
0.0
 10
83.25521102519315
 20
-118.7655327394058
 30
0.0
 10
83.4662231236647
 20
-118.9178059598539
 30
0.0
 10
83.4662231236647
 20
-118.9178059598539
 30
0.0
 10
83.39714895918544
 20
-119.1145209120616
 30
0.0
 10
83.39714895918544
 20
-119.1145209120616
 30
0.0
  0
SPLINE
  5
AC
330
A6
100
AcDbEntity
  8
_U+30EC_U+30A4_U+30E4_U+30FC 1
370
     0
100
AcDbSpline
210
0.0
220
0.0
230
1.0
 70
    11
 71
     3
 72
    20
 73
    16
 74
     0
 42
0.0000000001
 43
0.0000000001
 12
1.0
 22
0.0
 32
0.0
 13
1.0
 23
0.0
 33
0.0
 40
0.0
 40
0.0
 40
0.0
 40
0.0
 40
1.0
 40
1.0
 40
1.0
 40
2.0
 40
2.0
 40
2.0
 40
3.0
 40
3.0
 40
3.0
 40
4.0
 40
4.0
 40
4.0
 40
5.0
 40
5.0
 40
5.0
 40
5.0
 10
83.42522648739022
 20
-118.5476304499638
 30
0.0
 10
83.36907143098065
 20
-118.4926811769741
 30
0.0
 10
83.30568167405205
 20
-118.4291191652712
 30
0.0
 10
83.08898516802984
 20
-118.3192206192917
 30
0.0
 10
82.8815904198178
 20
-118.2155232451857
 30
0.0
 10
82.79563528746081
 20
-118.198642277308
 30
0.0
 10
82.70795760736121
 20
-118.181589054656
 30
0.0
 10
82.70795760736121
 20
-118.181589054656
 30
0.0
 10
82.76773001403029
 20
-117.9764336185094
 30
0.0
 10
82.76773001403029
 20
-117.9764336185094
 30
0.0
 10
83.049711079498
 20
-118.0399956302122
 30
0.0
 10
83.3766506410482
 20
-118.2344712703546
 30
0.0
 10
83.4905110468357
 20
-118.3317952178129
 30
0.0
 10
83.4905110468357
 20
-118.3317952178129
 30
0.0
 10
83.42522648739022
 20
-118.5476304499638
 30
0.0
 10
83.42522648739022
 20
-118.5476304499638
 30
0.0
  0
HATCH
  5
AD
330
A6
100
AcDbEntity
  8
_U+30EC_U+30A4_U+30E4_U+30FC 1
 62
   179
420
  2234388
100
AcDbHatch
 10
0.0
 20
0.0
 30
0.0
210
0.0
220
0.0
230
1.0
  2
SOLID
 70
     1
 71
     0
 91
        3
 92
        1
 93
        1
 72
     4
 94
        3
 73
     0
 74
     1
 95
       20
 96
       16
 40
0.0
 40
0.0
 40
0.0
 40
0.0
 40
1.0
 40
1.0
 40
1.0
 40
2.0
 40
2.0
 40
2.0
 40
3.0
 40
3.0
 40
3.0
 40
4.0
 40
4.0
 40
4.0
 40
5.0
 40
5.0
 40
5.0
 40
5.0
 10
83.48861624431882
 20
-119.8826049504981
 10
83.36734888323802
 20
-119.7746012070355
 10
83.25331622267626
 20
-119.6857177435161
 10
83.04781627698111
 20
-119.5758191975366
 10
82.87969561730091
 20
-119.484868676726
 10
82.70606280484432
 20
-119.4044256971454
 10
82.5229559798033
 20
-119.3684244493246
 10
82.5229559798033
 20
-119.3684244493246
 10
82.601504156867
 20
-119.173776554408
 10
82.601504156867
 20
-119.173776554408
 10
82.97133515720856
 20
-119.2817802978705
 10
83.34116615755013
 20
-119.4741888807217
 10
83.57267657415892
 20
-119.6647026610561
 10
83.57267657415892
 20
-119.6647026610561
 10
83.48861624431882
 20
-119.8826049504981
 10
83.48861624431882
 20
-119.8826049504981
 97
        0
 97
        0
 92
        1
 93
        1
 72
     4
 94
        3
 73
     0
 74
     1
 95
       17
 96
       13
 40
0.0
 40
0.0
 40
0.0
 40
0.0
 40
1.0
 40
1.0
 40
1.0
 40
2.0
 40
2.0
 40
2.0
 40
3.0
 40
3.0
 40
3.0
 40
4.0
 40
4.0
 40
4.0
 40
4.0
 10
83.39714895918544
 20
-119.1145209120616
 10
83.19733342104095
 20
-118.947433781027
 10
82.90587834298881
 20
-118.8204820123956
 10
82.70416800232744
 20
-118.784653019349
 10
82.70416800232744
 20
-118.784653019349
 10
82.7658352115134
 20
-118.5856987550758
 10
82.7658352115134
 20
-118.5856987550758
 10
82.93016626615983
 20
-118.6173936335401
 10
83.25521102519315
 20
-118.7655327394058
 10
83.4662231236647
 20
-118.9178059598539
 10
83.4662231236647
 20
-118.9178059598539
 10
83.39714895918544
 20
-119.1145209120616
 10
83.39714895918544
 20
-119.1145209120616
 97
        0
 97
        0
 92
        1
 93
        1
 72
     4
 94
        3
 73
     0
 74
     1
 95
       20
 96
       16
 40
0.0
 40
0.0
 40
0.0
 40
0.0
 40
1.0
 40
1.0
 40
1.0
 40
2.0
 40
2.0
 40
2.0
 40
3.0
 40
3.0
 40
3.0
 40
4.0
 40
4.0
 40
4.0
 40
5.0
 40
5.0
 40
5.0
 40
5.0
 10
83.42522648739022
 20
-118.5476304499638
 10
83.36907143098065
 20
-118.4926811769741
 10
83.30568167405205
 20
-118.4291191652712
 10
83.08898516802984
 20
-118.3192206192917
 10
82.8815904198178
 20
-118.2155232451857
 10
82.79563528746081
 20
-118.198642277308
 10
82.70795760736121
 20
-118.181589054656
 10
82.70795760736121
 20
-118.181589054656
 10
82.76773001403029
 20
-117.9764336185094
 10
82.76773001403029
 20
-117.9764336185094
 10
83.049711079498
 20
-118.0399956302122
 10
83.3766506410482
 20
-118.2344712703546
 10
83.4905110468357
 20
-118.3317952178129
 10
83.4905110468357
 20
-118.3317952178129
 10
83.42522648739022
 20
-118.5476304499638
 10
83.42522648739022
 20
-118.5476304499638
 97
        0
 97
        0
 75
     2
 76
     1
 98
        0
  0
SPLINE
  5
AE
330
A6
100
AcDbEntity
  8
_U+30EC_U+30A4_U+30E4_U+30FC 1
370
     0
100
AcDbSpline
210
0.0
220
0.0
230
1.0
 70
    11
 71
     3
 72
    17
 73
    13
 74
     0
 42
0.0000000001
 43
0.0000000001
 12
1.0
 22
0.0
 32
0.0
 13
1.0
 23
0.0
 33
0.0
 40
0.0
 40
0.0
 40
0.0
 40
0.0
 40
1.0
 40
1.0
 40
1.0
 40
2.0
 40
2.0
 40
2.0
 40
3.0
 40
3.0
 40
3.0
 40
4.0
 40
4.0
 40
4.0
 40
4.0
 10
84.0095146816886
 20
-118.9009249919762
 30
0.0
 10
83.9759250007074
 20
-118.8163478978133
 30
0.0
 10
83.93492836443293
 20
-118.7210910076461
 30
0.0
 10
83.74251978158173
 20
-118.4758002090963
 30
0.0
 10
83.74251978158173
 20
-118.4758002090963
 30
0.0
 10
83.89186467086732
 20
-118.3361015871695
 30
0.0
 10
83.89186467086732
 20
-118.3361015871695
 30
0.0
 10
83.9965955736189
 20
-118.4418660185666
 30
0.0
 10
84.12354734225036
 20
-118.6702758492387
 30
0.0
 10
84.17401799110928
 20
-118.7698391087624
 30
0.0
 10
84.17401799110928
 20
-118.7698391087624
 30
0.0
 10
84.0095146816886
 20
-118.9009249919762
 30
0.0
 10
84.0095146816886
 20
-118.9009249919762
 30
0.0
  0
SPLINE
  5
AF
330
A6
100
AcDbEntity
  8
_U+30EC_U+30A4_U+30E4_U+30FC 1
370
     0
100
AcDbSpline
210
0.0
220
0.0
230
1.0
 70
    11
 71
     3
 72
    32
 73
    28
 74
     0
 42
0.0000000001
 43
0.0000000001
 12
1.0
 22
0.0
 32
0.0
 13
1.0
 23
0.0
 33
0.0
 40
0.0
 40
0.0
 40
0.0
 40
0.0
 40
1.0
 40
1.0
 40
1.0
 40
2.0
 40
2.0
 40
2.0
 40
3.0
 40
3.0
 40
3.0
 40
4.0
 40
4.0
 40
4.0
 40
5.0
 40
5.0
 40
5.0
 40
6.0
 40
6.0
 40
6.0
 40
7.0
 40
7.0
 40
7.0
 40
8.0
 40
8.0
 40
8.0
 40
9.0
 40
9.0
 40
9.0
 40
9.0
 10
85.15070256117761
 20
-118.5074950875606
 30
0.0
 10
85.1190076827133
 20
-118.5180026287906
 30
0.0
 10
85.11521807767953
 20
-118.5200696860818
 30
0.0
 10
85.08559025650638
 20
-118.5328165393772
 30
0.0
 10
85.05182832075094
 20
-118.6850897598253
 30
0.0
 10
84.95846623310067
 20
-119.1060804281228
 30
0.0
 10
84.58122827746581
 20
-119.5017496446037
 30
0.0
 10
84.43739554095663
 20
-119.6519558077606
 30
0.0
 10
84.27478703405284
 20
-119.7789075763921
 30
0.0
 10
84.0880628587523
 20
-119.8445366453861
 30
0.0
 10
84.0880628587523
 20
-119.8445366453861
 30
0.0
 10
83.91615259403832
 20
-119.6603962916995
 30
0.0
 10
83.91615259403832
 20
-119.6603962916995
 30
0.0
 10
84.18710935395323
 20
-119.5778862548278
 30
0.0
 10
84.43739554095663
 20
-119.4213066650232
 30
0.0
 10
84.61102835341322
 20
-119.173776554408
 30
0.0
 10
84.7865559683867
 20
-118.9221123292104
 30
0.0
 10
84.90610078172487
 20
-118.5223089981472
 30
0.0
 10
84.90437823398224
 20
-118.3044067087052
 30
0.0
 10
84.90437823398224
 20
-118.3044067087052
 30
0.0
 10
85.12658689278086
 20
-118.4249850506889
 30
0.0
 10
85.12658689278086
 20
-118.4249850506889
 30
0.0
 10
85.13795570788218
 20
-118.4313584773366
 30
0.0
 10
85.17516273912288
 20
-118.4546128718621
 30
0.0
 10
85.17516273912288
 20
-118.4820013809698
 30
0.0
 10
85.17516273912288
 20
-118.4947482342652
 30
0.0
 10
85.1603488285363
 20
-118.5031887182041
 30
0.0
 10
85.15070256117761
 20
-118.5074950875606
 30
0.0
  0
SPLINE
  5
B0
330
A6
100
AcDbEntity
  8
_U+30EC_U+30A4_U+30E4_U+30FC 1
370
     0
100
AcDbSpline
210
0.0
220
0.0
230
1.0
 70
    11
 71
     3
 72
    17
 73
    13
 74
     0
 42
0.0000000001
 43
0.0000000001
 12
1.0
 22
0.0
 32
0.0
 13
1.0
 23
0.0
 33
0.0
 40
0.0
 40
0.0
 40
0.0
 40
0.0
 40
1.0
 40
1.0
 40
1.0
 40
2.0
 40
2.0
 40
2.0
 40
3.0
 40
3.0
 40
3.0
 40
4.0
 40
4.0
 40
4.0
 40
4.0
 10
84.86131454041661
 20
-118.2239637291246
 30
0.0
 10
84.8127386940746
 20
-118.1181992977274
 30
0.0
 10
84.77174205780013
 20
-118.0610107126723
 30
0.0
 10
84.71386445364793
 20
-118.0039943823914
 30
0.0
 10
84.71386445364793
 20
-118.0039943823914
 30
0.0
 10
84.82031790414214
 20
-117.9151109188719
 30
0.0
 10
84.82031790414214
 20
-117.9151109188719
 30
0.0
 10
84.89128687113829
 20
-117.9933145863871
 30
0.0
 10
84.93228350741276
 20
-118.0505031714422
 30
0.0
 10
84.98464895878857
 20
-118.1393866349617
 30
0.0
 10
84.98464895878857
 20
-118.1393866349617
 30
0.0
 10
84.86131454041661
 20
-118.2239637291246
 30
0.0
 10
84.86131454041661
 20
-118.2239637291246
 30
0.0
  0
SPLINE
  5
B1
330
A6
100
AcDbEntity
  8
_U+30EC_U+30A4_U+30E4_U+30FC 1
370
     0
100
AcDbSpline
210
0.0
220
0.0
230
1.0
 70
    11
 71
     3
 72
    17
 73
    13
 74
     0
 42
0.0000000001
 43
0.0000000001
 12
1.0
 22
0.0
 32
0.0
 13
1.0
 23
0.0
 33
0.0
 40
0.0
 40
0.0
 40
0.0
 40
0.0
 40
1.0
 40
1.0
 40
1.0
 40
2.0
 40
2.0
 40
2.0
 40
3.0
 40
3.0
 40
3.0
 40
4.0
 40
4.0
 40
4.0
 40
4.0
 10
85.18274194919043
 20
-118.2451510663589
 30
0.0
 10
85.14346786065857
 20
-118.1498941761917
 30
0.0
 10
85.12486434503823
 20
-118.1266397816663
 30
0.0
 10
85.02943520009681
 20
-118.0124348663302
 30
0.0
 10
85.02943520009681
 20
-118.0124348663302
 30
0.0
 10
85.12486434503823
 20
-117.9235514028108
 30
0.0
 10
85.12486434503823
 20
-117.9235514028108
 30
0.0
 10
85.19927840751963
 20
-117.9871134145136
 30
0.0
 10
85.27403697954955
 20
-118.1033853871408
 30
0.0
 10
85.29091794742727
 20
-118.1690144561348
 30
0.0
 10
85.29091794742727
 20
-118.1690144561348
 30
0.0
 10
85.18274194919043
 20
-118.2451510663589
 30
0.0
 10
85.18274194919043
 20
-118.2451510663589
 30
0.0
  0
HATCH
  5
B2
330
A6
100
AcDbEntity
  8
_U+30EC_U+30A4_U+30E4_U+30FC 1
 62
   179
420
  2234388
100
AcDbHatch
 10
0.0
 20
0.0
 30
0.0
210
0.0
220
0.0
230
1.0
  2
SOLID
 70
     1
 71
     0
 91
        4
 92
        1
 93
        1
 72
     4
 94
        3
 73
     0
 74
     1
 95
       17
 96
       13
 40
0.0
 40
0.0
 40
0.0
 40
0.0
 40
1.0
 40
1.0
 40
1.0
 40
2.0
 40
2.0
 40
2.0
 40
3.0
 40
3.0
 40
3.0
 40
4.0
 40
4.0
 40
4.0
 40
4.0
 10
84.0095146816886
 20
-118.9009249919762
 10
83.9759250007074
 20
-118.8163478978133
 10
83.93492836443293
 20
-118.7210910076461
 10
83.74251978158173
 20
-118.4758002090963
 10
83.74251978158173
 20
-118.4758002090963
 10
83.89186467086732
 20
-118.3361015871695
 10
83.89186467086732
 20
-118.3361015871695
 10
83.9965955736189
 20
-118.4418660185666
 10
84.12354734225036
 20
-118.6702758492387
 10
84.17401799110928
 20
-118.7698391087624
 10
84.17401799110928
 20
-118.7698391087624
 10
84.0095146816886
 20
-118.9009249919762
 10
84.0095146816886
 20
-118.9009249919762
 97
        0
 97
        0
 92
        1
 93
        1
 72
     4
 94
        3
 73
     0
 74
     1
 95
       32
 96
       28
 40
0.0
 40
0.0
 40
0.0
 40
0.0
 40
1.0
 40
1.0
 40
1.0
 40
2.0
 40
2.0
 40
2.0
 40
3.0
 40
3.0
 40
3.0
 40
4.0
 40
4.0
 40
4.0
 40
5.0
 40
5.0
 40
5.0
 40
6.0
 40
6.0
 40
6.0
 40
7.0
 40
7.0
 40
7.0
 40
8.0
 40
8.0
 40
8.0
 40
9.0
 40
9.0
 40
9.0
 40
9.0
 10
85.15070256117761
 20
-118.5074950875606
 10
85.1190076827133
 20
-118.5180026287906
 10
85.11521807767953
 20
-118.5200696860818
 10
85.08559025650638
 20
-118.5328165393772
 10
85.05182832075094
 20
-118.6850897598253
 10
84.95846623310067
 20
-119.1060804281228
 10
84.58122827746581
 20
-119.5017496446037
 10
84.43739554095663
 20
-119.6519558077606
 10
84.27478703405284
 20
-119.7789075763921
 10
84.0880628587523
 20
-119.8445366453861
 10
84.0880628587523
 20
-119.8445366453861
 10
83.91615259403832
 20
-119.6603962916995
 10
83.91615259403832
 20
-119.6603962916995
 10
84.18710935395323
 20
-119.5778862548278
 10
84.43739554095663
 20
-119.4213066650232
 10
84.61102835341322
 20
-119.173776554408
 10
84.7865559683867
 20
-118.9221123292104
 10
84.90610078172487
 20
-118.5223089981472
 10
84.90437823398224
 20
-118.3044067087052
 10
84.90437823398224
 20
-118.3044067087052
 10
85.12658689278086
 20
-118.4249850506889
 10
85.12658689278086
 20
-118.4249850506889
 10
85.13795570788218
 20
-118.4313584773366
 10
85.17516273912288
 20
-118.4546128718621
 10
85.17516273912288
 20
-118.4820013809698
 10
85.17516273912288
 20
-118.4947482342652
 10
85.1603488285363
 20
-118.5031887182041
 10
85.15070256117761
 20
-118.5074950875606
 97
        0
 97
        0
 92
        1
 93
        1
 72
     4
 94
        3
 73
     0
 74
     1
 95
       17
 96
       13
 40
0.0
 40
0.0
 40
0.0
 40
0.0
 40
1.0
 40
1.0
 40
1.0
 40
2.0
 40
2.0
 40
2.0
 40
3.0
 40
3.0
 40
3.0
 40
4.0
 40
4.0
 40
4.0
 40
4.0
 10
84.86131454041661
 20
-118.2239637291246
 10
84.8127386940746
 20
-118.1181992977274
 10
84.77174205780013
 20
-118.0610107126723
 10
84.71386445364793
 20
-118.0039943823914
 10
84.71386445364793
 20
-118.0039943823914
 10
84.82031790414214
 20
-117.9151109188719
 10
84.82031790414214
 20
-117.9151109188719
 10
84.89128687113829
 20
-117.9933145863871
 10
84.93228350741276
 20
-118.0505031714422
 10
84.98464895878857
 20
-118.1393866349617
 10
84.98464895878857
 20
-118.1393866349617
 10
84.86131454041661
 20
-118.2239637291246
 10
84.86131454041661
 20
-118.2239637291246
 97
        0
 97
        0
 92
        1
 93
        1
 72
     4
 94
        3
 73
     0
 74
     1
 95
       17
 96
       13
 40
0.0
 40
0.0
 40
0.0
 40
0.0
 40
1.0
 40
1.0
 40
1.0
 40
2.0
 40
2.0
 40
2.0
 40
3.0
 40
3.0
 40
3.0
 40
4.0
 40
4.0
 40
4.0
 40
4.0
 10
85.18274194919043
 20
-118.2451510663589
 10
85.14346786065857
 20
-118.1498941761917
 10
85.12486434503823
 20
-118.1266397816663
 10
85.02943520009681
 20
-118.0124348663302
 10
85.02943520009681
 20
-118.0124348663302
 10
85.12486434503823
 20
-117.9235514028108
 10
85.12486434503823
 20
-117.9235514028108
 10
85.19927840751963
 20
-117.9871134145136
 10
85.27403697954955
 20
-118.1033853871408
 10
85.29091794742727
 20
-118.1690144561348
 10
85.29091794742727
 20
-118.1690144561348
 10
85.18274194919043
 20
-118.2451510663589
 10
85.18274194919043
 20
-118.2451510663589
 97
        0
 97
        0
 75
     2
 76
     1
 98
        0
  0
SPLINE
  5
B3
330
A6
100
AcDbEntity
  8
_U+30EC_U+30A4_U+30E4_U+30FC 1
370
     0
100
AcDbSpline
210
0.0
220
0.0
230
1.0
 70
    11
 71
     3
 72
    98
 73
    94
 74
     0
 42
0.0000000001
 43
0.0000000001
 12
1.0
 22
0.0
 32
0.0
 13
1.0
 23
0.0
 33
0.0
 40
0.0
 40
0.0
 40
0.0
 40
0.0
 40
1.0
 40
1.0
 40
1.0
 40
2.0
 40
2.0
 40
2.0
 40
3.0
 40
3.0
 40
3.0
 40
4.0
 40
4.0
 40
4.0
 40
5.0
 40
5.0
 40
5.0
 40
6.0
 40
6.0
 40
6.0
 40
7.0
 40
7.0
 40
7.0
 40
8.0
 40
8.0
 40
8.0
 40
9.0
 40
9.0
 40
9.0
 40
10.0
 40
10.0
 40
10.0
 40
11.0
 40
11.0
 40
11.0
 40
12.0
 40
12.0
 40
12.0
 40
13.0
 40
13.0
 40
13.0
 40
14.0
 40
14.0
 40
14.0
 40
15.0
 40
15.0
 40
15.0
 40
16.0
 40
16.0
 40
16.0
 40
17.0
 40
17.0
 40
17.0
 40
18.0
 40
18.0
 40
18.0
 40
19.0
 40
19.0
 40
19.0
 40
20.0
 40
20.0
 40
20.0
 40
21.0
 40
21.0
 40
21.0
 40
22.0
 40
22.0
 40
22.0
 40
23.0
 40
23.0
 40
23.0
 40
24.0
 40
24.0
 40
24.0
 40
25.0
 40
25.0
 40
25.0
 40
26.0
 40
26.0
 40
26.0
 40
27.0
 40
27.0
 40
27.0
 40
28.0
 40
28.0
 40
28.0
 40
29.0
 40
29.0
 40
29.0
 40
30.0
 40
30.0
 40
30.0
 40
31.0
 40
31.0
 40
31.0
 40
31.0
 10
86.2676025174956
 20
-119.8507378172595
 30
0.0
 10
86.2676025174956
 20
-119.8507378172595
 30
0.0
 10
86.15391436648235
 20
-119.6836506862249
 30
0.0
 10
86.15391436648235
 20
-119.6836506862249
 30
0.0
 10
86.42090926658922
 20
-119.6412760117563
 30
0.0
 10
86.60763344188976
 20
-119.467815454074
 30
0.0
 10
86.60763344188976
 20
-119.2350992540454
 30
0.0
 10
86.60763344188976
 20
-119.1780829237645
 30
0.0
 10
86.58902992626942
 20
-118.9517401503836
 30
0.0
 10
86.3723334202472
 20
-118.909365475915
 30
0.0
 10
86.31066621106123
 20
-119.1103867974794
 30
0.0
 10
86.20972491334341
 20
-119.2922878391005
 30
0.0
 10
86.08673500451998
 20
-119.4530015434874
 30
0.0
 10
86.09603676233016
 20
-119.4933091606649
 30
0.0
 10
86.0994818578154
 20
-119.5017496446037
 30
0.0
 10
86.13152124582824
 20
-119.5842596814755
 30
0.0
 10
86.13152124582824
 20
-119.5842596814755
 30
0.0
 10
85.97821449673462
 20
-119.7005316541026
 30
0.0
 10
85.97821449673462
 20
-119.7005316541026
 30
0.0
 10
85.95409882833786
 20
-119.637141897174
 30
0.0
 10
85.95030922330409
 20
-119.6287014132352
 30
0.0
 10
85.94100746549393
 20
-119.5947672227055
 30
0.0
 10
85.87348359398302
 20
-119.6583292344083
 30
0.0
 10
85.7670301434888
 20
-119.7534138698012
 30
0.0
 10
85.63094887182143
 20
-119.7534138698012
 30
0.0
 10
85.50175779112456
 20
-119.7534138698012
 30
0.0
 10
85.39909394566412
 20
-119.6667697183472
 30
0.0
 10
85.39909394566412
 20
-119.4636813394917
 30
0.0
 10
85.39909394566412
 20
-119.1696424398257
 30
0.0
 10
85.59339733103221
 20
-118.9072984186239
 30
0.0
 10
85.85315753062005
 20
-118.805668101809
 30
0.0
 10
85.84764537784365
 20
-118.729531491585
 30
0.0
 10
85.85866968339644
 20
-118.6237670601878
 30
0.0
 10
85.866248893464
 20
-118.5708848444892
 30
0.0
 10
85.68124726590608
 20
-118.5900051244324
 30
0.0
 10
85.62888181453029
 20
-118.5900051244324
 30
0.0
 10
85.55619029979151
 20
-118.5900051244324
 30
0.0
 10
85.55619029979151
 20
-118.5900051244324
 30
0.0
 10
85.48901093782914
 20
-118.3869167455769
 30
0.0
 10
85.48901093782914
 20
-118.3869167455769
 30
0.0
 10
85.53724227462264
 20
-118.4017306561635
 30
0.0
 10
85.59167478328959
 20
-118.41654456675
 30
0.0
 10
85.73912487005828
 20
-118.41654456675
 30
0.0
 10
85.79700247421047
 20
-118.41654456675
 30
0.0
 10
85.8345540149997
 20
-118.4143052546846
 30
0.0
 10
85.87934025630794
 20
-118.4101711401023
 30
0.0
 10
85.89966631967091
 20
-118.2050157039557
 30
0.0
 10
85.90173337696207
 20
-118.181589054656
 30
0.0
 10
85.92963865039259
 20
-118.0165689809125
 30
0.0
 10
85.92963865039259
 20
-118.0165689809125
 30
0.0
 10
86.12394203576069
 20
-118.0758246232588
 30
0.0
 10
86.12394203576069
 20
-118.0758246232588
 30
0.0
 10
86.15770397151613
 20
-118.0865044192631
 30
0.0
 10
86.16114906700139
 20
-118.0885714765543
 30
0.0
 10
86.16114906700139
 20
-118.1033853871408
 30
0.0
 10
86.16114906700139
 20
-118.1266397816663
 30
0.0
 10
86.15563691422498
 20
-118.1309461510228
 30
0.0
 10
86.10533852014034
 20
-118.1667751440694
 30
0.0
 10
86.09018010000524
 20
-118.2282700984811
 30
0.0
 10
86.08087834219506
 20
-118.2704725181754
 30
0.0
 10
86.06055227883209
 20
-118.3826103762203
 30
0.0
 10
86.29206269544088
 20
-118.3445420711083
 30
0.0
 10
86.40781790374527
 20
-118.3044067087052
 30
0.0
 10
86.58145071620186
 20
-118.2218966718334
 30
0.0
 10
86.58145071620186
 20
-118.2218966718334
 30
0.0
 10
86.56835935335792
 20
-118.4227457386235
 30
0.0
 10
86.56835935335792
 20
-118.4227457386235
 30
0.0
 10
86.37061087250457
 20
-118.4820013809698
 30
0.0
 10
86.26036781697658
 20
-118.5074950875606
 30
0.0
 10
86.03230249585305
 20
-118.5519368193204
 30
0.0
 10
86.01542152797532
 20
-118.6470214547133
 30
0.0
 10
86.01369898023269
 20
-118.6850897598253
 30
0.0
 10
86.01197643249006
 20
-118.7527858861104
 30
0.0
 10
86.06985403664227
 20
-118.729531491585
 30
0.0
 10
86.10912812517411
 20
-118.719023950355
 30
0.0
 10
86.24727645413263
 20
-118.7210910076461
 30
0.0
 10
86.2620903647192
 20
-118.6470214547133
 30
0.0
 10
86.26415742201036
 20
-118.6322075441267
 30
0.0
 10
86.26415742201036
 20
-118.5941392390147
 30
0.0
 10
86.26415742201036
 20
-118.5941392390147
 30
0.0
 10
86.45260414505351
 20
-118.6237670601878
 30
0.0
 10
86.45260414505351
 20
-118.6237670601878
 30
0.0
 10
86.44536944453449
 20
-118.6554619386521
 30
0.0
 10
86.44157983950072
 20
-118.6640746773652
 30
0.0
 10
86.41918671884659
 20
-118.7486517715281
 30
0.0
 10
86.47878687074142
 20
-118.7655327394058
 30
0.0
 10
86.58524032123564
 20
-118.8015339872267
 30
0.0
 10
86.67481280385213
 20
-118.9157389025627
 30
0.0
 10
86.75887313369223
 20
-119.0258097033165
 30
0.0
 10
86.78126625434635
 20
-119.1548285292391
 30
0.0
 10
86.78126625434635
 20
-119.2414726806931
 30
0.0
 10
86.78126625434635
 20
-119.4700547661394
 30
0.0
 10
86.61693519969994
 20
-119.7577202391578
 30
0.0
 10
86.2676025174956
 20
-119.8507378172595
 30
0.0
  0
SPLINE
  5
B4
330
A6
100
AcDbEntity
  8
_U+30EC_U+30A4_U+30E4_U+30FC 1
370
     0
100
AcDbSpline
210
0.0
220
0.0
230
1.0
 70
    11
 71
     3
 72
    23
 73
    19
 74
     0
 42
0.0000000001
 43
0.0000000001
 12
1.0
 22
0.0
 32
0.0
 13
1.0
 23
0.0
 33
0.0
 40
0.0
 40
0.0
 40
0.0
 40
0.0
 40
1.0
 40
1.0
 40
1.0
 40
2.0
 40
2.0
 40
2.0
 40
3.0
 40
3.0
 40
3.0
 40
4.0
 40
4.0
 40
4.0
 40
5.0
 40
5.0
 40
5.0
 40
6.0
 40
6.0
 40
6.0
 40
6.0
 10
85.84764537784365
 20
-118.9834350288479
 30
0.0
 10
85.7932128691767
 20
-119.0151299073122
 30
0.0
 10
85.75393878064486
 20
-119.0383843018376
 30
0.0
 10
85.68675941868248
 20
-119.1231336507748
 30
0.0
 10
85.62715926678766
 20
-119.2013373182899
 30
0.0
 10
85.5672146053443
 20
-119.3007283230394
 30
0.0
 10
85.5672146053443
 20
-119.4404269449663
 30
0.0
 10
85.5672146053443
 20
-119.5503254909458
 30
0.0
 10
85.64576278240801
 20
-119.56100528695
 30
0.0
 10
85.66987845080476
 20
-119.56100528695
 30
0.0
 10
85.70364038656021
 20
-119.56100528695
 30
0.0
 10
85.74463702283468
 20
-119.5441243190723
 30
0.0
 10
85.77460935355636
 20
-119.5250040391292
 30
0.0
 10
85.83248695770855
 20
-119.4890027913083
 30
0.0
 10
85.86418183617285
 20
-119.4488674289051
 30
0.0
 10
85.89415416689452
 20
-119.4128661810843
 30
0.0
 10
85.866248893464
 20
-119.266966387284
 30
0.0
 10
85.8510904733289
 20
-119.0595716390719
 30
0.0
 10
85.84764537784365
 20
-118.9834350288479
 30
0.0
  0
SPLINE
  5
B5
330
A6
100
AcDbEntity
  8
_U+30EC_U+30A4_U+30E4_U+30FC 1
370
     0
100
AcDbSpline
210
0.0
220
0.0
230
1.0
 70
    11
 71
     3
 72
    14
 73
    10
 74
     0
 42
0.0000000001
 43
0.0000000001
 12
1.0
 22
0.0
 32
0.0
 13
1.0
 23
0.0
 33
0.0
 40
0.0
 40
0.0
 40
0.0
 40
0.0
 40
1.0
 40
1.0
 40
1.0
 40
2.0
 40
2.0
 40
2.0
 40
3.0
 40
3.0
 40
3.0
 40
3.0
 10
86.00611977016514
 20
-118.9136718452716
 30
0.0
 10
86.01748858526646
 20
-119.0976399441839
 30
0.0
 10
86.02300073804287
 20
-119.1420816759437
 30
0.0
 10
86.03609210088682
 20
-119.2437119927585
 30
0.0
 10
86.12394203576069
 20
-119.1124538547705
 30
0.0
 10
86.17630748713648
 20
-118.9898084554956
 30
0.0
 10
86.20627981785816
 20
-118.8797376547419
 30
0.0
 10
86.11842988298429
 20
-118.8776705974507
 30
0.0
 10
86.07708873716129
 20
-118.8861110813896
 30
0.0
 10
86.00611977016514
 20
-118.9136718452716
 30
0.0
  0
HATCH
  5
B6
330
A6
100
AcDbEntity
  8
_U+30EC_U+30A4_U+30E4_U+30FC 1
 62
   179
420
  2234388
100
AcDbHatch
 10
0.0
 20
0.0
 30
0.0
210
0.0
220
0.0
230
1.0
  2
SOLID
 70
     1
 71
     0
 91
        3
 92
        1
 93
        1
 72
     4
 94
        3
 73
     0
 74
     1
 95
       98
 96
       94
 40
0.0
 40
0.0
 40
0.0
 40
0.0
 40
1.0
 40
1.0
 40
1.0
 40
2.0
 40
2.0
 40
2.0
 40
3.0
 40
3.0
 40
3.0
 40
4.0
 40
4.0
 40
4.0
 40
5.0
 40
5.0
 40
5.0
 40
6.0
 40
6.0
 40
6.0
 40
7.0
 40
7.0
 40
7.0
 40
8.0
 40
8.0
 40
8.0
 40
9.0
 40
9.0
 40
9.0
 40
10.0
 40
10.0
 40
10.0
 40
11.0
 40
11.0
 40
11.0
 40
12.0
 40
12.0
 40
12.0
 40
13.0
 40
13.0
 40
13.0
 40
14.0
 40
14.0
 40
14.0
 40
15.0
 40
15.0
 40
15.0
 40
16.0
 40
16.0
 40
16.0
 40
17.0
 40
17.0
 40
17.0
 40
18.0
 40
18.0
 40
18.0
 40
19.0
 40
19.0
 40
19.0
 40
20.0
 40
20.0
 40
20.0
 40
21.0
 40
21.0
 40
21.0
 40
22.0
 40
22.0
 40
22.0
 40
23.0
 40
23.0
 40
23.0
 40
24.0
 40
24.0
 40
24.0
 40
25.0
 40
25.0
 40
25.0
 40
26.0
 40
26.0
 40
26.0
 40
27.0
 40
27.0
 40
27.0
 40
28.0
 40
28.0
 40
28.0
 40
29.0
 40
29.0
 40
29.0
 40
30.0
 40
30.0
 40
30.0
 40
31.0
 40
31.0
 40
31.0
 40
31.0
 10
86.2676025174956
 20
-119.8507378172595
 10
86.2676025174956
 20
-119.8507378172595
 10
86.15391436648235
 20
-119.6836506862249
 10
86.15391436648235
 20
-119.6836506862249
 10
86.42090926658922
 20
-119.6412760117563
 10
86.60763344188976
 20
-119.467815454074
 10
86.60763344188976
 20
-119.2350992540454
 10
86.60763344188976
 20
-119.1780829237645
 10
86.58902992626942
 20
-118.9517401503836
 10
86.3723334202472
 20
-118.909365475915
 10
86.31066621106123
 20
-119.1103867974794
 10
86.20972491334341
 20
-119.2922878391005
 10
86.08673500451998
 20
-119.4530015434874
 10
86.09603676233016
 20
-119.4933091606649
 10
86.0994818578154
 20
-119.5017496446037
 10
86.13152124582824
 20
-119.5842596814755
 10
86.13152124582824
 20
-119.5842596814755
 10
85.97821449673462
 20
-119.7005316541026
 10
85.97821449673462
 20
-119.7005316541026
 10
85.95409882833786
 20
-119.637141897174
 10
85.95030922330409
 20
-119.6287014132352
 10
85.94100746549393
 20
-119.5947672227055
 10
85.87348359398302
 20
-119.6583292344083
 10
85.7670301434888
 20
-119.7534138698012
 10
85.63094887182143
 20
-119.7534138698012
 10
85.50175779112456
 20
-119.7534138698012
 10
85.39909394566412
 20
-119.6667697183472
 10
85.39909394566412
 20
-119.4636813394917
 10
85.39909394566412
 20
-119.1696424398257
 10
85.59339733103221
 20
-118.9072984186239
 10
85.85315753062005
 20
-118.805668101809
 10
85.84764537784365
 20
-118.729531491585
 10
85.85866968339644
 20
-118.6237670601878
 10
85.866248893464
 20
-118.5708848444892
 10
85.68124726590608
 20
-118.5900051244324
 10
85.62888181453029
 20
-118.5900051244324
 10
85.55619029979151
 20
-118.5900051244324
 10
85.55619029979151
 20
-118.5900051244324
 10
85.48901093782914
 20
-118.3869167455769
 10
85.48901093782914
 20
-118.3869167455769
 10
85.53724227462264
 20
-118.4017306561635
 10
85.59167478328959
 20
-118.41654456675
 10
85.73912487005828
 20
-118.41654456675
 10
85.79700247421047
 20
-118.41654456675
 10
85.8345540149997
 20
-118.4143052546846
 10
85.87934025630794
 20
-118.4101711401023
 10
85.89966631967091
 20
-118.2050157039557
 10
85.90173337696207
 20
-118.181589054656
 10
85.92963865039259
 20
-118.0165689809125
 10
85.92963865039259
 20
-118.0165689809125
 10
86.12394203576069
 20
-118.0758246232588
 10
86.12394203576069
 20
-118.0758246232588
 10
86.15770397151613
 20
-118.0865044192631
 10
86.16114906700139
 20
-118.0885714765543
 10
86.16114906700139
 20
-118.1033853871408
 10
86.16114906700139
 20
-118.1266397816663
 10
86.15563691422498
 20
-118.1309461510228
 10
86.10533852014034
 20
-118.1667751440694
 10
86.09018010000524
 20
-118.2282700984811
 10
86.08087834219506
 20
-118.2704725181754
 10
86.06055227883209
 20
-118.3826103762203
 10
86.29206269544088
 20
-118.3445420711083
 10
86.40781790374527
 20
-118.3044067087052
 10
86.58145071620186
 20
-118.2218966718334
 10
86.58145071620186
 20
-118.2218966718334
 10
86.56835935335792
 20
-118.4227457386235
 10
86.56835935335792
 20
-118.4227457386235
 10
86.37061087250457
 20
-118.4820013809698
 10
86.26036781697658
 20
-118.5074950875606
 10
86.03230249585305
 20
-118.5519368193204
 10
86.01542152797532
 20
-118.6470214547133
 10
86.01369898023269
 20
-118.6850897598253
 10
86.01197643249006
 20
-118.7527858861104
 10
86.06985403664227
 20
-118.729531491585
 10
86.10912812517411
 20
-118.719023950355
 10
86.24727645413263
 20
-118.7210910076461
 10
86.2620903647192
 20
-118.6470214547133
 10
86.26415742201036
 20
-118.6322075441267
 10
86.26415742201036
 20
-118.5941392390147
 10
86.26415742201036
 20
-118.5941392390147
 10
86.45260414505351
 20
-118.6237670601878
 10
86.45260414505351
 20
-118.6237670601878
 10
86.44536944453449
 20
-118.6554619386521
 10
86.44157983950072
 20
-118.6640746773652
 10
86.41918671884659
 20
-118.7486517715281
 10
86.47878687074142
 20
-118.7655327394058
 10
86.58524032123564
 20
-118.8015339872267
 10
86.67481280385213
 20
-118.9157389025627
 10
86.75887313369223
 20
-119.0258097033165
 10
86.78126625434635
 20
-119.1548285292391
 10
86.78126625434635
 20
-119.2414726806931
 10
86.78126625434635
 20
-119.4700547661394
 10
86.61693519969994
 20
-119.7577202391578
 10
86.2676025174956
 20
-119.8507378172595
 97
        0
 97
        0
 92
        1
 93
        1
 72
     4
 94
        3
 73
     0
 74
     1
 95
       23
 96
       19
 40
0.0
 40
0.0
 40
0.0
 40
0.0
 40
1.0
 40
1.0
 40
1.0
 40
2.0
 40
2.0
 40
2.0
 40
3.0
 40
3.0
 40
3.0
 40
4.0
 40
4.0
 40
4.0
 40
5.0
 40
5.0
 40
5.0
 40
6.0
 40
6.0
 40
6.0
 40
6.0
 10
85.84764537784365
 20
-118.9834350288479
 10
85.7932128691767
 20
-119.0151299073122
 10
85.75393878064486
 20
-119.0383843018376
 10
85.68675941868248
 20
-119.1231336507748
 10
85.62715926678766
 20
-119.2013373182899
 10
85.5672146053443
 20
-119.3007283230394
 10
85.5672146053443
 20
-119.4404269449663
 10
85.5672146053443
 20
-119.5503254909458
 10
85.64576278240801
 20
-119.56100528695
 10
85.66987845080476
 20
-119.56100528695
 10
85.70364038656021
 20
-119.56100528695
 10
85.74463702283468
 20
-119.5441243190723
 10
85.77460935355636
 20
-119.5250040391292
 10
85.83248695770855
 20
-119.4890027913083
 10
85.86418183617285
 20
-119.4488674289051
 10
85.89415416689452
 20
-119.4128661810843
 10
85.866248893464
 20
-119.266966387284
 10
85.8510904733289
 20
-119.0595716390719
 10
85.84764537784365
 20
-118.9834350288479
 97
        0
 97
        0
 92
        1
 93
        1
 72
     4
 94
        3
 73
     0
 74
     1
 95
       14
 96
       10
 40
0.0
 40
0.0
 40
0.0
 40
0.0
 40
1.0
 40
1.0
 40
1.0
 40
2.0
 40
2.0
 40
2.0
 40
3.0
 40
3.0
 40
3.0
 40
3.0
 10
86.00611977016514
 20
-118.9136718452716
 10
86.01748858526646
 20
-119.0976399441839
 10
86.02300073804287
 20
-119.1420816759437
 10
86.03609210088682
 20
-119.2437119927585
 10
86.12394203576069
 20
-119.1124538547705
 10
86.17630748713648
 20
-118.9898084554956
 10
86.20627981785816
 20
-118.8797376547419
 10
86.11842988298429
 20
-118.8776705974507
 10
86.07708873716129
 20
-118.8861110813896
 10
86.00611977016514
 20
-118.9136718452716
 97
        0
 97
        0
 75
     2
 76
     1
 98
        0
  0
SPLINE
  5
B7
330
A6
100
AcDbEntity
  8
_U+30EC_U+30A4_U+30E4_U+30FC 1
370
     0
100
AcDbSpline
210
0.0
220
0.0
230
1.0
 70
    11
 71
     3
 72
    41
 73
    37
 74
     0
 42
0.0000000001
 43
0.0000000001
 12
1.0
 22
0.0
 32
0.0
 13
1.0
 23
0.0
 33
0.0
 40
0.0
 40
0.0
 40
0.0
 40
0.0
 40
1.0
 40
1.0
 40
1.0
 40
2.0
 40
2.0
 40
2.0
 40
3.0
 40
3.0
 40
3.0
 40
4.0
 40
4.0
 40
4.0
 40
5.0
 40
5.0
 40
5.0
 40
6.0
 40
6.0
 40
6.0
 40
7.0
 40
7.0
 40
7.0
 40
8.0
 40
8.0
 40
8.0
 40
9.0
 40
9.0
 40
9.0
 40
10.0
 40
10.0
 40
10.0
 40
11.0
 40
11.0
 40
11.0
 40
12.0
 40
12.0
 40
12.0
 40
12.0
 10
87.2632351127328
 20
-119.2965942084571
 30
0.0
 10
87.2632351127328
 20
-119.2965942084571
 30
0.0
 10
87.12715384106544
 20
-119.3346625135691
 30
0.0
 10
87.12715384106544
 20
-119.3346625135691
 30
0.0
 10
87.05618487406929
 20
-119.1463880453002
 30
0.0
 10
87.0300021483814
 20
-118.9241793865016
 30
0.0
 10
87.0300021483814
 20
-118.719023950355
 30
0.0
 10
87.0300021483814
 20
-118.5286824247949
 30
0.0
 10
87.05997447910306
 20
-118.2895927981186
 30
0.0
 10
87.10097111537753
 20
-118.0653170820288
 30
0.0
 10
87.10097111537753
 20
-118.0653170820288
 30
0.0
 10
87.3045762585558
 20
-118.1118258710797
 30
0.0
 10
87.3045762585558
 20
-118.1118258710797
 30
0.0
 10
87.31939016914238
 20
-118.1161322404362
 30
0.0
 10
87.3417832897965
 20
-118.122505667084
 30
0.0
 10
87.3417832897965
 20
-118.1457600616094
 30
0.0
 10
87.3417832897965
 20
-118.1647080867783
 30
0.0
 10
87.31939016914238
 20
-118.181589054656
 30
0.0
 10
87.27632647557675
 20
-118.209149818538
 30
0.0
 10
87.2053575085806
 20
-118.3805433189292
 30
0.0
 10
87.18675399296026
 20
-118.5729519017804
 30
0.0
 10
87.18675399296026
 20
-118.7613986248235
 30
0.0
 10
87.18675399296026
 20
-118.8311618083999
 30
0.0
 10
87.19433320302781
 20
-118.9496730930924
 30
0.0
 10
87.20914711361438
 20
-118.9496730930924
 30
0.0
 10
87.21672632368194
 20
-118.9496730930924
 30
0.0
 10
87.21844887142456
 20
-118.9453667237359
 30
0.0
 10
87.23360729155966
 20
-118.909365475915
 30
0.0
 10
87.25221080718
 20
-118.8649237441553
 30
0.0
 10
87.36245386270801
 20
-118.5920721817235
 30
0.0
 10
87.3734781682608
 20
-118.5708848444892
 30
0.0
 10
87.3734781682608
 20
-118.5708848444892
 30
0.0
 10
87.46339516042582
 20
-118.7062770970595
 30
0.0
 10
87.46339516042582
 20
-118.7062770970595
 30
0.0
 10
87.38105737832835
 20
-118.8967908773939
 30
0.0
 10
87.2894178384207
 20
-119.1040133708316
 30
0.0
 10
87.2632351127328
 20
-119.2965942084571
 30
0.0
  0
SPLINE
  5
B8
330
A6
100
AcDbEntity
  8
_U+30EC_U+30A4_U+30E4_U+30FC 1
370
     0
100
AcDbSpline
210
0.0
220
0.0
230
1.0
 70
    11
 71
     3
 72
    32
 73
    28
 74
     0
 42
0.0000000001
 43
0.0000000001
 12
1.0
 22
0.0
 32
0.0
 13
1.0
 23
0.0
 33
0.0
 40
0.0
 40
0.0
 40
0.0
 40
0.0
 40
1.0
 40
1.0
 40
1.0
 40
2.0
 40
2.0
 40
2.0
 40
3.0
 40
3.0
 40
3.0
 40
4.0
 40
4.0
 40
4.0
 40
5.0
 40
5.0
 40
5.0
 40
6.0
 40
6.0
 40
6.0
 40
7.0
 40
7.0
 40
7.0
 40
8.0
 40
8.0
 40
8.0
 40
9.0
 40
9.0
 40
9.0
 40
9.0
 10
88.07421058996061
 20
-118.1731485707171
 30
0.0
 10
88.07593313770325
 20
-118.2303371557723
 30
0.0
 10
88.08144529047965
 20
-118.3657294083426
 30
0.0
 10
88.08144529047965
 20
-118.5348835966684
 30
0.0
 10
88.08144529047965
 20
-119.013062850021
 30
0.0
 10
88.03493650142877
 20
-119.4933091606649
 30
0.0
 10
87.70420733484478
 20
-119.8042290282087
 30
0.0
 10
87.70420733484478
 20
-119.8042290282087
 30
0.0
 10
87.50232473940915
 20
-119.6752102022861
 30
0.0
 10
87.50232473940915
 20
-119.6752102022861
 30
0.0
 10
87.55296764304232
 20
-119.6455823811129
 30
0.0
 10
87.67802460915689
 20
-119.5737521402455
 30
0.0
 10
87.76759709177338
 20
-119.3704915066157
 30
0.0
 10
87.87784014730138
 20
-119.1167602241271
 30
0.0
 10
87.89851072021288
 20
-118.8289224963344
 30
0.0
 10
87.89851072021288
 20
-118.6449543974221
 30
0.0
 10
87.89851072021288
 20
-118.4523735597966
 30
0.0
 10
87.88162975233516
 20
-118.2578979196543
 30
0.0
 10
87.8630262367148
 20
-118.06738413932
 30
0.0
 10
87.8630262367148
 20
-118.06738413932
 30
0.0
 10
88.07593313770325
 20
-118.0821980499065
 30
0.0
 10
88.07593313770325
 20
-118.0821980499065
 30
0.0
 10
88.09281410558097
 20
-118.084437361972
 30
0.0
 10
88.12278643630265
 20
-118.0865044192631
 30
0.0
 10
88.12278643630265
 20
-118.1161322404362
 30
0.0
 10
88.12278643630265
 20
-118.1414536922528
 30
0.0
 10
88.09281410558097
 20
-118.160573972196
 30
0.0
 10
88.07421058996061
 20
-118.1731485707171
 30
0.0
  0
HATCH
  5
B9
330
A6
100
AcDbEntity
  8
_U+30EC_U+30A4_U+30E4_U+30FC 1
 62
   179
420
  2234388
100
AcDbHatch
 10
0.0
 20
0.0
 30
0.0
210
0.0
220
0.0
230
1.0
  2
SOLID
 70
     1
 71
     0
 91
        2
 92
        1
 93
        1
 72
     4
 94
        3
 73
     0
 74
     1
 95
       41
 96
       37
 40
0.0
 40
0.0
 40
0.0
 40
0.0
 40
1.0
 40
1.0
 40
1.0
 40
2.0
 40
2.0
 40
2.0
 40
3.0
 40
3.0
 40
3.0
 40
4.0
 40
4.0
 40
4.0
 40
5.0
 40
5.0
 40
5.0
 40
6.0
 40
6.0
 40
6.0
 40
7.0
 40
7.0
 40
7.0
 40
8.0
 40
8.0
 40
8.0
 40
9.0
 40
9.0
 40
9.0
 40
10.0
 40
10.0
 40
10.0
 40
11.0
 40
11.0
 40
11.0
 40
12.0
 40
12.0
 40
12.0
 40
12.0
 10
87.2632351127328
 20
-119.2965942084571
 10
87.2632351127328
 20
-119.2965942084571
 10
87.12715384106544
 20
-119.3346625135691
 10
87.12715384106544
 20
-119.3346625135691
 10
87.05618487406929
 20
-119.1463880453002
 10
87.0300021483814
 20
-118.9241793865016
 10
87.0300021483814
 20
-118.719023950355
 10
87.0300021483814
 20
-118.5286824247949
 10
87.05997447910306
 20
-118.2895927981186
 10
87.10097111537753
 20
-118.0653170820288
 10
87.10097111537753
 20
-118.0653170820288
 10
87.3045762585558
 20
-118.1118258710797
 10
87.3045762585558
 20
-118.1118258710797
 10
87.31939016914238
 20
-118.1161322404362
 10
87.3417832897965
 20
-118.122505667084
 10
87.3417832897965
 20
-118.1457600616094
 10
87.3417832897965
 20
-118.1647080867783
 10
87.31939016914238
 20
-118.181589054656
 10
87.27632647557675
 20
-118.209149818538
 10
87.2053575085806
 20
-118.3805433189292
 10
87.18675399296026
 20
-118.5729519017804
 10
87.18675399296026
 20
-118.7613986248235
 10
87.18675399296026
 20
-118.8311618083999
 10
87.19433320302781
 20
-118.9496730930924
 10
87.20914711361438
 20
-118.9496730930924
 10
87.21672632368194
 20
-118.9496730930924
 10
87.21844887142456
 20
-118.9453667237359
 10
87.23360729155966
 20
-118.909365475915
 10
87.25221080718
 20
-118.8649237441553
 10
87.36245386270801
 20
-118.5920721817235
 10
87.3734781682608
 20
-118.5708848444892
 10
87.3734781682608
 20
-118.5708848444892
 10
87.46339516042582
 20
-118.7062770970595
 10
87.46339516042582
 20
-118.7062770970595
 10
87.38105737832835
 20
-118.8967908773939
 10
87.2894178384207
 20
-119.1040133708316
 10
87.2632351127328
 20
-119.2965942084571
 97
        0
 97
        0
 92
        1
 93
        1
 72
     4
 94
        3
 73
     0
 74
     1
 95
       32
 96
       28
 40
0.0
 40
0.0
 40
0.0
 40
0.0
 40
1.0
 40
1.0
 40
1.0
 40
2.0
 40
2.0
 40
2.0
 40
3.0
 40
3.0
 40
3.0
 40
4.0
 40
4.0
 40
4.0
 40
5.0
 40
5.0
 40
5.0
 40
6.0
 40
6.0
 40
6.0
 40
7.0
 40
7.0
 40
7.0
 40
8.0
 40
8.0
 40
8.0
 40
9.0
 40
9.0
 40
9.0
 40
9.0
 10
88.07421058996061
 20
-118.1731485707171
 10
88.07593313770325
 20
-118.2303371557723
 10
88.08144529047965
 20
-118.3657294083426
 10
88.08144529047965
 20
-118.5348835966684
 10
88.08144529047965
 20
-119.013062850021
 10
88.03493650142877
 20
-119.4933091606649
 10
87.70420733484478
 20
-119.8042290282087
 10
87.70420733484478
 20
-119.8042290282087
 10
87.50232473940915
 20
-119.6752102022861
 10
87.50232473940915
 20
-119.6752102022861
 10
87.55296764304232
 20
-119.6455823811129
 10
87.67802460915689
 20
-119.5737521402455
 10
87.76759709177338
 20
-119.3704915066157
 10
87.87784014730138
 20
-119.1167602241271
 10
87.89851072021288
 20
-118.8289224963344
 10
87.89851072021288
 20
-118.6449543974221
 10
87.89851072021288
 20
-118.4523735597966
 10
87.88162975233516
 20
-118.2578979196543
 10
87.8630262367148
 20
-118.06738413932
 10
87.8630262367148
 20
-118.06738413932
 10
88.07593313770325
 20
-118.0821980499065
 10
88.07593313770325
 20
-118.0821980499065
 10
88.09281410558097
 20
-118.084437361972
 10
88.12278643630265
 20
-118.0865044192631
 10
88.12278643630265
 20
-118.1161322404362
 10
88.12278643630265
 20
-118.1414536922528
 10
88.09281410558097
 20
-118.160573972196
 10
88.07421058996061
 20
-118.1731485707171
 97
        0
 97
        0
 75
     2
 76
     1
 98
        0
  0
ENDBLK
  5
A9
330
A6
100
AcDbEntity
  8
0
100
AcDbBlockEnd
  0
BLOCK
  5
BC
330
BA
100
AcDbEntity
  8
0
100
AcDbBlockBegin
  2
block 4
 70
     0
 10
0.0
 20
0.0
 30
0.0
  3
block 4
  1

  0
SPLINE
  5
BE
330
BA
100
AcDbEntity
  8
_U+30EC_U+30A4_U+30E4_U+30FC 1
370
     0
100
AcDbSpline
210
0.0
220
0.0
230
1.0
 70
    11
 71
     3
 72
    26
 73
    22
 74
     0
 42
0.0000000001
 43
0.0000000001
 12
1.0
 22
0.0
 32
0.0
 13
1.0
 23
0.0
 33
0.0
 40
0.0
 40
0.0
 40
0.0
 40
0.0
 40
1.0
 40
1.0
 40
1.0
 40
2.0
 40
2.0
 40
2.0
 40
3.0
 40
3.0
 40
3.0
 40
4.0
 40
4.0
 40
4.0
 40
5.0
 40
5.0
 40
5.0
 40
6.0
 40
6.0
 40
6.0
 40
7.0
 40
7.0
 40
7.0
 40
7.0
 10
81.14922415505993
 20
-140.6487792617128
 30
0.0
 10
81.14922415505993
 20
-140.6487792617128
 30
0.0
 10
80.04507105203734
 20
-140.6487792617128
 30
0.0
 10
80.04507105203734
 20
-140.6487792617128
 30
0.0
 10
80.04507105203734
 20
-140.6487792617128
 30
0.0
 10
80.04507105203734
 20
-140.9402343397649
 30
0.0
 10
80.04507105203734
 20
-140.9402343397649
 30
0.0
 10
80.04507105203734
 20
-140.9402343397649
 30
0.0
 10
79.8969319461716
 20
-140.9402343397649
 30
0.0
 10
79.8969319461716
 20
-140.9402343397649
 30
0.0
 10
79.88211803558502
 20
-140.6470567139702
 30
0.0
 10
79.71916501913272
 20
-140.6060600776957
 30
0.0
 10
79.60478784902242
 20
-140.5798773520078
 30
0.0
 10
79.60478784902242
 20
-140.5798773520078
 30
0.0
 10
79.60478784902242
 20
-140.4510307808595
 30
0.0
 10
79.60478784902242
 20
-140.4510307808595
 30
0.0
 10
79.60478784902242
 20
-140.4510307808595
 30
0.0
 10
81.14922415505993
 20
-140.4510307808595
 30
0.0
 10
81.14922415505993
 20
-140.4510307808595
 30
0.0
 10
81.14922415505993
 20
-140.4510307808595
 30
0.0
 10
81.14922415505993
 20
-140.6487792617128
 30
0.0
 10
81.14922415505993
 20
-140.6487792617128
 30
0.0
  0
HATCH
  5
BF
330
BA
100
AcDbEntity
  8
_U+30EC_U+30A4_U+30E4_U+30FC 1
 62
   179
420
  2234388
100
AcDbHatch
 10
0.0
 20
0.0
 30
0.0
210
0.0
220
0.0
230
1.0
  2
SOLID
 70
     1
 71
     0
 91
        1
 92
        1
 93
        1
 72
     4
 94
        3
 73
     0
 74
     1
 95
       26
 96
       22
 40
0.0
 40
0.0
 40
0.0
 40
0.0
 40
1.0
 40
1.0
 40
1.0
 40
2.0
 40
2.0
 40
2.0
 40
3.0
 40
3.0
 40
3.0
 40
4.0
 40
4.0
 40
4.0
 40
5.0
 40
5.0
 40
5.0
 40
6.0
 40
6.0
 40
6.0
 40
7.0
 40
7.0
 40
7.0
 40
7.0
 10
81.14922415505993
 20
-140.6487792617128
 10
81.14922415505993
 20
-140.6487792617128
 10
80.04507105203734
 20
-140.6487792617128
 10
80.04507105203734
 20
-140.6487792617128
 10
80.04507105203734
 20
-140.6487792617128
 10
80.04507105203734
 20
-140.9402343397649
 10
80.04507105203734
 20
-140.9402343397649
 10
80.04507105203734
 20
-140.9402343397649
 10
79.8969319461716
 20
-140.9402343397649
 10
79.8969319461716
 20
-140.9402343397649
 10
79.88211803558502
 20
-140.6470567139702
 10
79.71916501913272
 20
-140.6060600776957
 10
79.60478784902242
 20
-140.5798773520078
 10
79.60478784902242
 20
-140.5798773520078
 10
79.60478784902242
 20
-140.4510307808595
 10
79.60478784902242
 20
-140.4510307808595
 10
79.60478784902242
 20
-140.4510307808595
 10
81.14922415505993
 20
-140.4510307808595
 10
81.14922415505993
 20
-140.4510307808595
 10
81.14922415505993
 20
-140.4510307808595
 10
81.14922415505993
 20
-140.6487792617128
 10
81.14922415505993
 20
-140.6487792617128
 97
        0
 97
        0
 75
     2
 76
     1
 98
        0
  0
SPLINE
  5
C0
330
BA
100
AcDbEntity
  8
_U+30EC_U+30A4_U+30E4_U+30FC 1
370
     0
100
AcDbSpline
210
0.0
220
0.0
230
1.0
 70
    11
 71
     3
 72
    62
 73
    58
 74
     0
 42
0.0000000001
 43
0.0000000001
 12
1.0
 22
0.0
 32
0.0
 13
1.0
 23
0.0
 33
0.0
 40
0.0
 40
0.0
 40
0.0
 40
0.0
 40
1.0
 40
1.0
 40
1.0
 40
2.0
 40
2.0
 40
2.0
 40
3.0
 40
3.0
 40
3.0
 40
4.0
 40
4.0
 40
4.0
 40
5.0
 40
5.0
 40
5.0
 40
6.0
 40
6.0
 40
6.0
 40
7.0
 40
7.0
 40
7.0
 40
8.0
 40
8.0
 40
8.0
 40
9.0
 40
9.0
 40
9.0
 40
10.0
 40
10.0
 40
10.0
 40
11.0
 40
11.0
 40
11.0
 40
12.0
 40
12.0
 40
12.0
 40
13.0
 40
13.0
 40
13.0
 40
14.0
 40
14.0
 40
14.0
 40
15.0
 40
15.0
 40
15.0
 40
16.0
 40
16.0
 40
16.0
 40
17.0
 40
17.0
 40
17.0
 40
18.0
 40
18.0
 40
18.0
 40
19.0
 40
19.0
 40
19.0
 40
19.0
 10
81.19986705869309
 20
-139.5735649607663
 30
0.0
 10
81.19986705869309
 20
-139.6576252906064
 30
0.0
 10
81.17885197623306
 20
-139.8502061282319
 30
0.0
 10
80.99281682002957
 20
-139.9604491837599
 30
0.0
 10
80.88050670721043
 20
-140.0259059979796
 30
0.0
 10
80.78128795723524
 20
-140.0293510934649
 30
0.0
 10
80.69653860829808
 20
-140.0331406984987
 30
0.0
 10
80.69653860829808
 20
-140.0331406984987
 30
0.0
 10
80.69653860829808
 20
-139.8388373131306
 30
0.0
 10
80.69653860829808
 20
-139.8388373131306
 30
0.0
 10
80.77060816123097
 20
-139.837114765388
 30
0.0
 10
81.00521916377647
 20
-139.8278130075778
 30
0.0
 10
81.00521916377647
 20
-139.5773545658001
 30
0.0
 10
81.00521916377647
 20
-139.4560872047193
 30
0.0
 10
80.93562823497443
 20
-139.321383971246
 30
0.0
 10
80.70721840430237
 20
-139.321383971246
 30
0.0
 10
80.59077417690092
 20
-139.321383971246
 30
0.0
 10
80.5421983305589
 20
-139.3551459070015
 30
0.0
 10
80.5105034520946
 20
-139.383051180432
 30
0.0
 10
80.43643389916173
 20
-139.4485079946518
 30
0.0
 10
80.4236870458663
 20
-139.5511718401122
 30
0.0
 10
80.4236870458663
 20
-139.5997476864542
 30
0.0
 10
80.4236870458663
 20
-139.6166286543319
 30
0.0
 10
80.42575410315746
 20
-139.6483235327963
 30
0.0
 10
80.42988821773976
 20
-139.6727837107415
 30
0.0
 10
80.42988821773976
 20
-139.6727837107415
 30
0.0
 10
80.23524032282313
 20
-139.6727837107415
 30
0.0
 10
80.23524032282313
 20
-139.6727837107415
 30
0.0
 10
80.24178600424511
 20
-139.6390217749861
 30
0.0
 10
80.24385306153626
 20
-139.6018147437454
 30
0.0
 10
80.24385306153626
 20
-139.5959580814205
 30
0.0
 10
80.24385306153626
 20
-139.5380804772683
 30
0.0
 10
80.22249346952772
 20
-139.3627251170691
 30
0.0
 10
79.98581540969106
 20
-139.3627251170691
 30
0.0
 10
79.80804848265215
 20
-139.3627251170691
 30
0.0
 10
79.75292695488817
 20
-139.4784803253735
 30
0.0
 10
79.75292695488817
 20
-139.5756320180575
 30
0.0
 10
79.75292695488817
 20
-139.8092094919574
 30
0.0
 10
79.98581540969106
 20
-139.8164441924764
 30
0.0
 10
80.05747339578424
 20
-139.8202337975102
 30
0.0
 10
80.05747339578424
 20
-139.8202337975102
 30
0.0
 10
80.05747339578424
 20
-139.9997232722917
 30
0.0
 10
80.05747339578424
 20
-139.9997232722917
 30
0.0
 10
79.9327609392182
 20
-139.9921440622242
 30
0.0
 10
79.5562120026804
 20
-139.9676838842789
 30
0.0
 10
79.5562120026804
 20
-139.5642632029562
 30
0.0
 10
79.5562120026804
 20
-139.3665147221028
 30
0.0
 10
79.68333602608611
 20
-139.1532633115659
 30
0.0
 10
79.97926972826907
 20
-139.1532633115659
 30
0.0
 10
80.16564939402109
 20
-139.1532633115659
 30
0.0
 10
80.24798717611856
 20
-139.237323641406
 30
0.0
 10
80.30930987575601
 20
-139.3251735762798
 30
0.0
 10
80.33687063963801
 20
-139.2710855771614
 30
0.0
 10
80.41714136444433
 20
-139.1105441275488
 30
0.0
 10
80.69447155100694
 20
-139.1105441275488
 30
0.0
 10
81.03277992765848
 20
-139.1105441275488
 30
0.0
 10
81.19986705869309
 20
-139.3289631813136
 30
0.0
 10
81.19986705869309
 20
-139.5735649607663
 30
0.0
  0
HATCH
  5
C1
330
BA
100
AcDbEntity
  8
_U+30EC_U+30A4_U+30E4_U+30FC 1
 62
   179
420
  2234388
100
AcDbHatch
 10
0.0
 20
0.0
 30
0.0
210
0.0
220
0.0
230
1.0
  2
SOLID
 70
     1
 71
     0
 91
        1
 92
        1
 93
        1
 72
     4
 94
        3
 73
     0
 74
     1
 95
       62
 96
       58
 40
0.0
 40
0.0
 40
0.0
 40
0.0
 40
1.0
 40
1.0
 40
1.0
 40
2.0
 40
2.0
 40
2.0
 40
3.0
 40
3.0
 40
3.0
 40
4.0
 40
4.0
 40
4.0
 40
5.0
 40
5.0
 40
5.0
 40
6.0
 40
6.0
 40
6.0
 40
7.0
 40
7.0
 40
7.0
 40
8.0
 40
8.0
 40
8.0
 40
9.0
 40
9.0
 40
9.0
 40
10.0
 40
10.0
 40
10.0
 40
11.0
 40
11.0
 40
11.0
 40
12.0
 40
12.0
 40
12.0
 40
13.0
 40
13.0
 40
13.0
 40
14.0
 40
14.0
 40
14.0
 40
15.0
 40
15.0
 40
15.0
 40
16.0
 40
16.0
 40
16.0
 40
17.0
 40
17.0
 40
17.0
 40
18.0
 40
18.0
 40
18.0
 40
19.0
 40
19.0
 40
19.0
 40
19.0
 10
81.19986705869309
 20
-139.5735649607663
 10
81.19986705869309
 20
-139.6576252906064
 10
81.17885197623306
 20
-139.8502061282319
 10
80.99281682002957
 20
-139.9604491837599
 10
80.88050670721043
 20
-140.0259059979796
 10
80.78128795723524
 20
-140.0293510934649
 10
80.69653860829808
 20
-140.0331406984987
 10
80.69653860829808
 20
-140.0331406984987
 10
80.69653860829808
 20
-139.8388373131306
 10
80.69653860829808
 20
-139.8388373131306
 10
80.77060816123097
 20
-139.837114765388
 10
81.00521916377647
 20
-139.8278130075778
 10
81.00521916377647
 20
-139.5773545658001
 10
81.00521916377647
 20
-139.4560872047193
 10
80.93562823497443
 20
-139.321383971246
 10
80.70721840430237
 20
-139.321383971246
 10
80.59077417690092
 20
-139.321383971246
 10
80.5421983305589
 20
-139.3551459070015
 10
80.5105034520946
 20
-139.383051180432
 10
80.43643389916173
 20
-139.4485079946518
 10
80.4236870458663
 20
-139.5511718401122
 10
80.4236870458663
 20
-139.5997476864542
 10
80.4236870458663
 20
-139.6166286543319
 10
80.42575410315746
 20
-139.6483235327963
 10
80.42988821773976
 20
-139.6727837107415
 10
80.42988821773976
 20
-139.6727837107415
 10
80.23524032282313
 20
-139.6727837107415
 10
80.23524032282313
 20
-139.6727837107415
 10
80.24178600424511
 20
-139.6390217749861
 10
80.24385306153626
 20
-139.6018147437454
 10
80.24385306153626
 20
-139.5959580814205
 10
80.24385306153626
 20
-139.5380804772683
 10
80.22249346952772
 20
-139.3627251170691
 10
79.98581540969106
 20
-139.3627251170691
 10
79.80804848265215
 20
-139.3627251170691
 10
79.75292695488817
 20
-139.4784803253735
 10
79.75292695488817
 20
-139.5756320180575
 10
79.75292695488817
 20
-139.8092094919574
 10
79.98581540969106
 20
-139.8164441924764
 10
80.05747339578424
 20
-139.8202337975102
 10
80.05747339578424
 20
-139.8202337975102
 10
80.05747339578424
 20
-139.9997232722917
 10
80.05747339578424
 20
-139.9997232722917
 10
79.9327609392182
 20
-139.9921440622242
 10
79.5562120026804
 20
-139.9676838842789
 10
79.5562120026804
 20
-139.5642632029562
 10
79.5562120026804
 20
-139.3665147221028
 10
79.68333602608611
 20
-139.1532633115659
 10
79.97926972826907
 20
-139.1532633115659
 10
80.16564939402109
 20
-139.1532633115659
 10
80.24798717611856
 20
-139.237323641406
 10
80.30930987575601
 20
-139.3251735762798
 10
80.33687063963801
 20
-139.2710855771614
 10
80.41714136444433
 20
-139.1105441275488
 10
80.69447155100694
 20
-139.1105441275488
 10
81.03277992765848
 20
-139.1105441275488
 10
81.19986705869309
 20
-139.3289631813136
 10
81.19986705869309
 20
-139.5735649607663
 97
        0
 97
        0
 75
     2
 76
     1
 98
        0
  0
ENDBLK
  5
BD
330
BA
100
AcDbEntity
  8
0
100
AcDbBlockEnd
  0
BLOCK
  5
C4
330
C2
100
AcDbEntity
  8
0
100
AcDbBlockBegin
  2
block 5
 70
     0
 10
0.0
 20
0.0
 30
0.0
  3
block 5
  1

  0
SPLINE
  5
C6
330
C2
100
AcDbEntity
  8
_U+30EC_U+30A4_U+30E4_U+30FC 1
370
     0
100
AcDbSpline
210
0.0
220
0.0
230
1.0
 70
    11
 71
     3
 72
    26
 73
    22
 74
     0
 42
0.0000000001
 43
0.0000000001
 12
1.0
 22
0.0
 32
0.0
 13
1.0
 23
0.0
 33
0.0
 40
0.0
 40
0.0
 40
0.0
 40
0.0
 40
1.0
 40
1.0
 40
1.0
 40
2.0
 40
2.0
 40
2.0
 40
3.0
 40
3.0
 40
3.0
 40
4.0
 40
4.0
 40
4.0
 40
5.0
 40
5.0
 40
5.0
 40
6.0
 40
6.0
 40
6.0
 40
7.0
 40
7.0
 40
7.0
 40
7.0
 10
91.72980140935923
 20
-149.9408908045287
 30
0.0
 10
91.72980140935923
 20
-149.9408908045287
 30
0.0
 10
91.72980140935923
 20
-148.8367377015061
 30
0.0
 10
91.72980140935923
 20
-148.8367377015061
 30
0.0
 10
91.72980140935923
 20
-148.8367377015061
 30
0.0
 10
91.43834633130709
 20
-148.8367377015061
 30
0.0
 10
91.43834633130709
 20
-148.8367377015061
 30
0.0
 10
91.43834633130709
 20
-148.8367377015061
 30
0.0
 10
91.43834633130709
 20
-148.6885985956403
 30
0.0
 10
91.43834633130709
 20
-148.6885985956403
 30
0.0
 10
91.73152395710184
 20
-148.6737846850538
 30
0.0
 10
91.77286510292484
 20
-148.5108316686015
 30
0.0
 10
91.79870331906422
 20
-148.3964544984912
 30
0.0
 10
91.79870331906422
 20
-148.3964544984912
 30
0.0
 10
91.92789439976109
 20
-148.3964544984912
 30
0.0
 10
91.92789439976109
 20
-148.3964544984912
 30
0.0
 10
91.92789439976109
 20
-148.3964544984912
 30
0.0
 10
91.92789439976109
 20
-149.9408908045287
 30
0.0
 10
91.92789439976109
 20
-149.9408908045287
 30
0.0
 10
91.92789439976109
 20
-149.9408908045287
 30
0.0
 10
91.72980140935923
 20
-149.9408908045287
 30
0.0
 10
91.72980140935923
 20
-149.9408908045287
 30
0.0
  0
HATCH
  5
C7
330
C2
100
AcDbEntity
  8
_U+30EC_U+30A4_U+30E4_U+30FC 1
 62
   179
420
  2234388
100
AcDbHatch
 10
0.0
 20
0.0
 30
0.0
210
0.0
220
0.0
230
1.0
  2
SOLID
 70
     1
 71
     0
 91
        1
 92
        1
 93
        1
 72
     4
 94
        3
 73
     0
 74
     1
 95
       26
 96
       22
 40
0.0
 40
0.0
 40
0.0
 40
0.0
 40
1.0
 40
1.0
 40
1.0
 40
2.0
 40
2.0
 40
2.0
 40
3.0
 40
3.0
 40
3.0
 40
4.0
 40
4.0
 40
4.0
 40
5.0
 40
5.0
 40
5.0
 40
6.0
 40
6.0
 40
6.0
 40
7.0
 40
7.0
 40
7.0
 40
7.0
 10
91.72980140935923
 20
-149.9408908045287
 10
91.72980140935923
 20
-149.9408908045287
 10
91.72980140935923
 20
-148.8367377015061
 10
91.72980140935923
 20
-148.8367377015061
 10
91.72980140935923
 20
-148.8367377015061
 10
91.43834633130709
 20
-148.8367377015061
 10
91.43834633130709
 20
-148.8367377015061
 10
91.43834633130709
 20
-148.8367377015061
 10
91.43834633130709
 20
-148.6885985956403
 10
91.43834633130709
 20
-148.6885985956403
 10
91.73152395710184
 20
-148.6737846850538
 10
91.77286510292484
 20
-148.5108316686015
 10
91.79870331906422
 20
-148.3964544984912
 10
91.79870331906422
 20
-148.3964544984912
 10
91.92789439976109
 20
-148.3964544984912
 10
91.92789439976109
 20
-148.3964544984912
 10
91.92789439976109
 20
-148.3964544984912
 10
91.92789439976109
 20
-149.9408908045287
 10
91.92789439976109
 20
-149.9408908045287
 10
91.92789439976109
 20
-149.9408908045287
 10
91.72980140935923
 20
-149.9408908045287
 10
91.72980140935923
 20
-149.9408908045287
 97
        0
 97
        0
 75
     2
 76
     1
 98
        0
  0
SPLINE
  5
C8
330
C2
100
AcDbEntity
  8
_U+30EC_U+30A4_U+30E4_U+30FC 1
370
     0
100
AcDbSpline
210
0.0
220
0.0
230
1.0
 70
    11
 71
     3
 72
    62
 73
    58
 74
     0
 42
0.0000000001
 43
0.0000000001
 12
1.0
 22
0.0
 32
0.0
 13
1.0
 23
0.0
 33
0.0
 40
0.0
 40
0.0
 40
0.0
 40
0.0
 40
1.0
 40
1.0
 40
1.0
 40
2.0
 40
2.0
 40
2.0
 40
3.0
 40
3.0
 40
3.0
 40
4.0
 40
4.0
 40
4.0
 40
5.0
 40
5.0
 40
5.0
 40
6.0
 40
6.0
 40
6.0
 40
7.0
 40
7.0
 40
7.0
 40
8.0
 40
8.0
 40
8.0
 40
9.0
 40
9.0
 40
9.0
 40
10.0
 40
10.0
 40
10.0
 40
11.0
 40
11.0
 40
11.0
 40
12.0
 40
12.0
 40
12.0
 40
13.0
 40
13.0
 40
13.0
 40
14.0
 40
14.0
 40
14.0
 40
15.0
 40
15.0
 40
15.0
 40
16.0
 40
16.0
 40
16.0
 40
17.0
 40
17.0
 40
17.0
 40
18.0
 40
18.0
 40
18.0
 40
19.0
 40
19.0
 40
19.0
 40
19.0
 10
92.8050157103057
 20
-149.9915337081619
 30
0.0
 10
92.7209553804656
 20
-149.9915337081619
 30
0.0
 10
92.52837454284013
 20
-149.9705186257018
 30
0.0
 10
92.41847599686066
 20
-149.7844834694983
 30
0.0
 10
92.35301918264092
 20
-149.6721733566792
 30
0.0
 10
92.34922957760715
 20
-149.572954606704
 30
0.0
 10
92.34543997257336
 20
-149.4882052577669
 30
0.0
 10
92.34543997257336
 20
-149.4882052577669
 30
0.0
 10
92.53974335794146
 20
-149.4882052577669
 30
0.0
 10
92.53974335794146
 20
-149.4882052577669
 30
0.0
 10
92.54146590568408
 20
-149.5622748106997
 30
0.0
 10
92.55076766349426
 20
-149.7968858132452
 30
0.0
 10
92.80122610527192
 20
-149.7968858132452
 30
0.0
 10
92.92249346635272
 20
-149.7968858132452
 30
0.0
 10
93.05719669982598
 20
-149.7272948844432
 30
0.0
 10
93.05719669982598
 20
-149.4988850537711
 30
0.0
 10
93.05719669982598
 20
-149.3824408263697
 30
0.0
 10
93.02343476407053
 20
-149.3338649800276
 30
0.0
 10
92.99552949064001
 20
-149.3021701015633
 30
0.0
 10
92.93007267642027
 20
-149.2281005486305
 30
0.0
 10
92.82740883095983
 20
-149.2153536953351
 30
0.0
 10
92.7788329846178
 20
-149.2153536953351
 30
0.0
 10
92.76195201674007
 20
-149.2153536953351
 30
0.0
 10
92.73025713827577
 20
-149.2174207526262
 30
0.0
 10
92.7057969603305
 20
-149.2215548672085
 30
0.0
 10
92.7057969603305
 20
-149.2215548672085
 30
0.0
 10
92.7057969603305
 20
-149.0269069722919
 30
0.0
 10
92.7057969603305
 20
-149.0269069722919
 30
0.0
 10
92.73955889608595
 20
-149.0334526537139
 30
0.0
 10
92.77711043687518
 20
-149.035519711005
 30
0.0
 10
92.78262258965157
 20
-149.035519711005
 30
0.0
 10
92.84050019380376
 20
-149.035519711005
 30
0.0
 10
93.01620006355151
 20
-149.0141601189965
 30
0.0
 10
93.01620006355151
 20
-148.7774820591598
 30
0.0
 10
93.01620006355151
 20
-148.5997151321209
 30
0.0
 10
92.90010034569859
 20
-148.5445936043569
 30
0.0
 10
92.80294865301454
 20
-148.5445936043569
 30
0.0
 10
92.56971568866314
 20
-148.5445936043569
 30
0.0
 10
92.56213647859558
 20
-148.7774820591598
 30
0.0
 10
92.5583468735618
 20
-148.849140045253
 30
0.0
 10
92.5583468735618
 20
-148.849140045253
 30
0.0
 10
92.37920190832881
 20
-148.849140045253
 30
0.0
 10
92.37920190832881
 20
-148.849140045253
 30
0.0
 10
92.38643660884784
 20
-148.724427588687
 30
0.0
 10
92.41089678679312
 20
-148.3478786521491
 30
0.0
 10
92.81431746811587
 20
-148.3478786521491
 30
0.0
 10
93.01241045851773
 20
-148.3478786521491
 30
0.0
 10
93.22531735950618
 20
-148.4750026755549
 30
0.0
 10
93.22531735950618
 20
-148.7709363777378
 30
0.0
 10
93.22531735950618
 20
-148.9573160434898
 30
0.0
 10
93.14125702966608
 20
-149.0396538255873
 30
0.0
 10
93.0534070947922
 20
-149.1009765252248
 30
0.0
 10
93.10749509391063
 20
-149.1285372891068
 30
0.0
 10
93.26803654352327
 20
-149.2088080139131
 30
0.0
 10
93.26803654352327
 20
-149.4861382004757
 30
0.0
 10
93.26803654352327
 20
-149.8244465771272
 30
0.0
 10
93.04961748975843
 20
-149.9915337081619
 30
0.0
 10
92.8050157103057
 20
-149.9915337081619
 30
0.0
  0
HATCH
  5
C9
330
C2
100
AcDbEntity
  8
_U+30EC_U+30A4_U+30E4_U+30FC 1
 62
   179
420
  2234388
100
AcDbHatch
 10
0.0
 20
0.0
 30
0.0
210
0.0
220
0.0
230
1.0
  2
SOLID
 70
     1
 71
     0
 91
        1
 92
        1
 93
        1
 72
     4
 94
        3
 73
     0
 74
     1
 95
       62
 96
       58
 40
0.0
 40
0.0
 40
0.0
 40
0.0
 40
1.0
 40
1.0
 40
1.0
 40
2.0
 40
2.0
 40
2.0
 40
3.0
 40
3.0
 40
3.0
 40
4.0
 40
4.0
 40
4.0
 40
5.0
 40
5.0
 40
5.0
 40
6.0
 40
6.0
 40
6.0
 40
7.0
 40
7.0
 40
7.0
 40
8.0
 40
8.0
 40
8.0
 40
9.0
 40
9.0
 40
9.0
 40
10.0
 40
10.0
 40
10.0
 40
11.0
 40
11.0
 40
11.0
 40
12.0
 40
12.0
 40
12.0
 40
13.0
 40
13.0
 40
13.0
 40
14.0
 40
14.0
 40
14.0
 40
15.0
 40
15.0
 40
15.0
 40
16.0
 40
16.0
 40
16.0
 40
17.0
 40
17.0
 40
17.0
 40
18.0
 40
18.0
 40
18.0
 40
19.0
 40
19.0
 40
19.0
 40
19.0
 10
92.8050157103057
 20
-149.9915337081619
 10
92.7209553804656
 20
-149.9915337081619
 10
92.52837454284013
 20
-149.9705186257018
 10
92.41847599686066
 20
-149.7844834694983
 10
92.35301918264092
 20
-149.6721733566792
 10
92.34922957760715
 20
-149.572954606704
 10
92.34543997257336
 20
-149.4882052577669
 10
92.34543997257336
 20
-149.4882052577669
 10
92.53974335794146
 20
-149.4882052577669
 10
92.53974335794146
 20
-149.4882052577669
 10
92.54146590568408
 20
-149.5622748106997
 10
92.55076766349426
 20
-149.7968858132452
 10
92.80122610527192
 20
-149.7968858132452
 10
92.92249346635272
 20
-149.7968858132452
 10
93.05719669982598
 20
-149.7272948844432
 10
93.05719669982598
 20
-149.4988850537711
 10
93.05719669982598
 20
-149.3824408263697
 10
93.02343476407053
 20
-149.3338649800276
 10
92.99552949064001
 20
-149.3021701015633
 10
92.93007267642027
 20
-149.2281005486305
 10
92.82740883095983
 20
-149.2153536953351
 10
92.7788329846178
 20
-149.2153536953351
 10
92.76195201674007
 20
-149.2153536953351
 10
92.73025713827577
 20
-149.2174207526262
 10
92.7057969603305
 20
-149.2215548672085
 10
92.7057969603305
 20
-149.2215548672085
 10
92.7057969603305
 20
-149.0269069722919
 10
92.7057969603305
 20
-149.0269069722919
 10
92.73955889608595
 20
-149.0334526537139
 10
92.77711043687518
 20
-149.035519711005
 10
92.78262258965157
 20
-149.035519711005
 10
92.84050019380376
 20
-149.035519711005
 10
93.01620006355151
 20
-149.0141601189965
 10
93.01620006355151
 20
-148.7774820591598
 10
93.01620006355151
 20
-148.5997151321209
 10
92.90010034569859
 20
-148.5445936043569
 10
92.80294865301454
 20
-148.5445936043569
 10
92.56971568866314
 20
-148.5445936043569
 10
92.56213647859558
 20
-148.7774820591598
 10
92.5583468735618
 20
-148.849140045253
 10
92.5583468735618
 20
-148.849140045253
 10
92.37920190832881
 20
-148.849140045253
 10
92.37920190832881
 20
-148.849140045253
 10
92.38643660884784
 20
-148.724427588687
 10
92.41089678679312
 20
-148.3478786521491
 10
92.81431746811587
 20
-148.3478786521491
 10
93.01241045851773
 20
-148.3478786521491
 10
93.22531735950618
 20
-148.4750026755549
 10
93.22531735950618
 20
-148.7709363777378
 10
93.22531735950618
 20
-148.9573160434898
 10
93.14125702966608
 20
-149.0396538255873
 10
93.0534070947922
 20
-149.1009765252248
 10
93.10749509391063
 20
-149.1285372891068
 10
93.26803654352327
 20
-149.2088080139131
 10
93.26803654352327
 20
-149.4861382004757
 10
93.26803654352327
 20
-149.8244465771272
 10
93.04961748975843
 20
-149.9915337081619
 10
92.8050157103057
 20
-149.9915337081619
 97
        0
 97
        0
 75
     2
 76
     1
 98
        0
  0
ENDBLK
  5
C5
330
C2
100
AcDbEntity
  8
0
100
AcDbBlockEnd
  0
BLOCK
  5
CC
330
CA
100
AcDbEntity
  8
0
100
AcDbBlockBegin
  2
block 6
 70
     0
 10
0.0
 20
0.0
 30
0.0
  3
block 6
  1

  0
SPLINE
  5
CE
330
CA
100
AcDbEntity
  8
_U+30EC_U+30A4_U+30E4_U+30FC 1
370
     0
100
AcDbSpline
210
0.0
220
0.0
230
1.0
 70
    11
 71
     3
 72
    44
 73
    40
 74
     0
 42
0.0000000001
 43
0.0000000001
 12
1.0
 22
0.0
 32
0.0
 13
1.0
 23
0.0
 33
0.0
 40
0.0
 40
0.0
 40
0.0
 40
0.0
 40
1.0
 40
1.0
 40
1.0
 40
2.0
 40
2.0
 40
2.0
 40
3.0
 40
3.0
 40
3.0
 40
4.0
 40
4.0
 40
4.0
 40
5.0
 40
5.0
 40
5.0
 40
6.0
 40
6.0
 40
6.0
 40
7.0
 40
7.0
 40
7.0
 40
8.0
 40
8.0
 40
8.0
 40
9.0
 40
9.0
 40
9.0
 40
10.0
 40
10.0
 40
10.0
 40
11.0
 40
11.0
 40
11.0
 40
12.0
 40
12.0
 40
12.0
 40
13.0
 40
13.0
 40
13.0
 40
13.0
 10
101.4298122576287
 20
-127.0251491652923
 30
0.0
 10
101.5886311594987
 20
-127.2177300029178
 30
0.0
 10
101.6627007124316
 20
-127.2997232754667
 30
0.0
 10
101.8063611941665
 20
-127.3427869690324
 30
0.0
 10
101.8063611941665
 20
-127.3427869690324
 30
0.0
 10
101.8063611941665
 20
-126.655490419725
 30
0.0
 10
101.8063611941665
 20
-126.655490419725
 30
0.0
 10
101.8063611941665
 20
-126.655490419725
 30
0.0
 10
102.0116888850874
 20
-126.655490419725
 30
0.0
 10
102.0116888850874
 20
-126.655490419725
 30
0.0
 10
102.0116888850874
 20
-126.655490419725
 30
0.0
 10
102.0116888850874
 20
-127.5632730800884
 30
0.0
 10
102.0116888850874
 20
-127.5632730800884
 30
0.0
 10
101.6540879737184
 20
-127.5350232971093
 30
0.0
 10
101.5758843062032
 20
-127.4771456929571
 30
0.0
 10
101.2775390371806
 20
-127.137114768563
 30
0.0
 10
101.0787570276817
 20
-126.9111165047306
 30
0.0
 10
101.0108886466223
 20
-126.8532389005784
 30
0.0
 10
100.8734293367608
 20
-126.8532389005784
 30
0.0
 10
100.7549180520682
 20
-126.8532389005784
 30
0.0
 10
100.6240044236287
 20
-126.9169731670555
 30
0.0
 10
100.6240044236287
 20
-127.0906059795121
 30
0.0
 10
100.6240044236287
 20
-127.3203938483782
 30
0.0
 10
100.8544813115919
 20
-127.3279730584458
 30
0.0
 10
100.9709255389934
 20
-127.331418153931
 30
0.0
 10
100.9709255389934
 20
-127.331418153931
 30
0.0
 10
100.9709255389934
 20
-127.5295111443329
 30
0.0
 10
100.9709255389934
 20
-127.5295111443329
 30
0.0
 10
100.8438015155877
 20
-127.5219319342654
 30
0.0
 10
100.7318359123171
 20
-127.5126301764552
 30
0.0
 10
100.6133246276245
 20
-127.441661209459
 30
0.0
 10
100.4524386684633
 20
-127.344509516775
 30
0.0
 10
100.4186767327078
 20
-127.1801784621286
 30
0.0
 10
100.4186767327078
 20
-127.0775146166681
 30
0.0
 10
100.4186767327078
 20
-126.8329128372154
 30
0.0
 10
100.6026448316202
 20
-126.6496337574001
 30
0.0
 10
100.875496394052
 20
-126.6496337574001
 30
0.0
 10
101.1042507342726
 20
-126.6496337574001
 30
0.0
 10
101.2034694842477
 20
-126.7526421124091
 30
0.0
 10
101.4298122576287
 20
-127.0251491652923
 30
0.0
  0
HATCH
  5
CF
330
CA
100
AcDbEntity
  8
_U+30EC_U+30A4_U+30E4_U+30FC 1
 62
   179
420
  2234388
100
AcDbHatch
 10
0.0
 20
0.0
 30
0.0
210
0.0
220
0.0
230
1.0
  2
SOLID
 70
     1
 71
     0
 91
        1
 92
        1
 93
        1
 72
     4
 94
        3
 73
     0
 74
     1
 95
       44
 96
       40
 40
0.0
 40
0.0
 40
0.0
 40
0.0
 40
1.0
 40
1.0
 40
1.0
 40
2.0
 40
2.0
 40
2.0
 40
3.0
 40
3.0
 40
3.0
 40
4.0
 40
4.0
 40
4.0
 40
5.0
 40
5.0
 40
5.0
 40
6.0
 40
6.0
 40
6.0
 40
7.0
 40
7.0
 40
7.0
 40
8.0
 40
8.0
 40
8.0
 40
9.0
 40
9.0
 40
9.0
 40
10.0
 40
10.0
 40
10.0
 40
11.0
 40
11.0
 40
11.0
 40
12.0
 40
12.0
 40
12.0
 40
13.0
 40
13.0
 40
13.0
 40
13.0
 10
101.4298122576287
 20
-127.0251491652923
 10
101.5886311594987
 20
-127.2177300029178
 10
101.6627007124316
 20
-127.2997232754667
 10
101.8063611941665
 20
-127.3427869690324
 10
101.8063611941665
 20
-127.3427869690324
 10
101.8063611941665
 20
-126.655490419725
 10
101.8063611941665
 20
-126.655490419725
 10
101.8063611941665
 20
-126.655490419725
 10
102.0116888850874
 20
-126.655490419725
 10
102.0116888850874
 20
-126.655490419725
 10
102.0116888850874
 20
-126.655490419725
 10
102.0116888850874
 20
-127.5632730800884
 10
102.0116888850874
 20
-127.5632730800884
 10
101.6540879737184
 20
-127.5350232971093
 10
101.5758843062032
 20
-127.4771456929571
 10
101.2775390371806
 20
-127.137114768563
 10
101.0787570276817
 20
-126.9111165047306
 10
101.0108886466223
 20
-126.8532389005784
 10
100.8734293367608
 20
-126.8532389005784
 10
100.7549180520682
 20
-126.8532389005784
 10
100.6240044236287
 20
-126.9169731670555
 10
100.6240044236287
 20
-127.0906059795121
 10
100.6240044236287
 20
-127.3203938483782
 10
100.8544813115919
 20
-127.3279730584458
 10
100.9709255389934
 20
-127.331418153931
 10
100.9709255389934
 20
-127.331418153931
 10
100.9709255389934
 20
-127.5295111443329
 10
100.9709255389934
 20
-127.5295111443329
 10
100.8438015155877
 20
-127.5219319342654
 10
100.7318359123171
 20
-127.5126301764552
 10
100.6133246276245
 20
-127.441661209459
 10
100.4524386684633
 20
-127.344509516775
 10
100.4186767327078
 20
-127.1801784621286
 10
100.4186767327078
 20
-127.0775146166681
 10
100.4186767327078
 20
-126.8329128372154
 10
100.6026448316202
 20
-126.6496337574001
 10
100.875496394052
 20
-126.6496337574001
 10
101.1042507342726
 20
-126.6496337574001
 10
101.2034694842477
 20
-126.7526421124091
 10
101.4298122576287
 20
-127.0251491652923
 97
        0
 97
        0
 75
     2
 76
     1
 98
        0
  0
SPLINE
  5
D0
330
CA
100
AcDbEntity
  8
_U+30EC_U+30A4_U+30E4_U+30FC 1
370
     0
100
AcDbSpline
210
0.0
220
0.0
230
1.0
 70
    11
 71
     3
 72
    53
 73
    49
 74
     0
 42
0.0000000001
 43
0.0000000001
 12
1.0
 22
0.0
 32
0.0
 13
1.0
 23
0.0
 33
0.0
 40
0.0
 40
0.0
 40
0.0
 40
0.0
 40
1.0
 40
1.0
 40
1.0
 40
2.0
 40
2.0
 40
2.0
 40
3.0
 40
3.0
 40
3.0
 40
4.0
 40
4.0
 40
4.0
 40
5.0
 40
5.0
 40
5.0
 40
6.0
 40
6.0
 40
6.0
 40
7.0
 40
7.0
 40
7.0
 40
8.0
 40
8.0
 40
8.0
 40
9.0
 40
9.0
 40
9.0
 40
10.0
 40
10.0
 40
10.0
 40
11.0
 40
11.0
 40
11.0
 40
12.0
 40
12.0
 40
12.0
 40
13.0
 40
13.0
 40
13.0
 40
14.0
 40
14.0
 40
14.0
 40
15.0
 40
15.0
 40
15.0
 40
16.0
 40
16.0
 40
16.0
 40
16.0
 10
102.0623317887205
 20
-126.0846380978191
 30
0.0
 10
102.0623317887205
 20
-126.1535400075241
 30
0.0
 10
102.0454508208428
 20
-126.2431124901406
 30
0.0
 10
101.9820610639142
 20
-126.3330294823056
 30
0.0
 10
101.8721625179347
 20
-126.4859917218507
 30
0.0
 10
101.7409043799467
 20
-126.5045952374711
 30
0.0
 10
101.6330728912584
 20
-126.5214762053488
 30
0.0
 10
101.6330728912584
 20
-126.5214762053488
 30
0.0
 10
101.6330728912584
 20
-126.3254502722381
 30
0.0
 10
101.6330728912584
 20
-126.3254502722381
 30
0.0
 10
101.8318549007573
 20
-126.2768744258961
 30
0.0
 10
101.8614827219305
 20
-126.1649088226254
 30
0.0
 10
101.8614827219305
 20
-126.082571040528
 30
0.0
 10
101.8614827219305
 20
-125.959236622156
 30
0.0
 10
101.7619194624068
 20
-125.8248778982313
 30
0.0
 10
101.5293755171524
 20
-125.8248778982313
 30
0.0
 10
101.2734049225983
 20
-125.8248778982313
 30
0.0
 10
101.2034694842477
 20
-125.9836968001013
 30
0.0
 10
101.2034694842477
 20
-126.0901502505955
 30
0.0
 10
101.2034694842477
 20
-126.118055524026
 30
0.0
 10
101.2034694842477
 20
-126.2431124901406
 30
0.0
 10
101.3326605649446
 20
-126.3216606672043
 30
0.0
 10
101.3326605649446
 20
-126.3216606672043
 30
0.0
 10
101.3137125397758
 20
-126.4766899640406
 30
0.0
 10
101.3137125397758
 20
-126.4766899640406
 30
0.0
 10
101.3137125397758
 20
-126.4766899640406
 30
0.0
 10
100.4672525790499
 20
-126.3702365135463
 30
0.0
 10
100.4672525790499
 20
-126.3702365135463
 30
0.0
 10
100.4672525790499
 20
-126.3702365135463
 30
0.0
 10
100.4672525790499
 20
-125.682939964239
 30
0.0
 10
100.4672525790499
 20
-125.682939964239
 30
0.0
 10
100.4672525790499
 20
-125.682939964239
 30
0.0
 10
100.6619004739665
 20
-125.682939964239
 30
0.0
 10
100.6619004739665
 20
-125.682939964239
 30
0.0
 10
100.6619004739665
 20
-125.682939964239
 30
0.0
 10
100.6619004739665
 20
-126.2265760318114
 30
0.0
 10
100.6619004739665
 20
-126.2265760318114
 30
0.0
 10
100.6619004739665
 20
-126.2265760318114
 30
0.0
 10
101.0849581995552
 20
-126.2844536359636
 30
0.0
 10
101.0849581995552
 20
-126.2844536359636
 30
0.0
 10
101.0511962637997
 20
-126.2300211272967
 30
0.0
 10
101.0108886466223
 20
-126.1573296125579
 30
0.0
 10
101.0108886466223
 20
-126.0525987098063
 30
0.0
 10
101.0108886466223
 20
-125.8286675032651
 30
0.0
 10
101.1972683123743
 20
-125.6192056977619
 30
0.0
 10
101.5104274919835
 20
-125.6192056977619
 30
0.0
 10
101.827720786175
 20
-125.6192056977619
 30
0.0
 10
102.0623317887205
 20
-125.8172986881637
 30
0.0
 10
102.0623317887205
 20
-126.0846380978191
 30
0.0
  0
HATCH
  5
D1
330
CA
100
AcDbEntity
  8
_U+30EC_U+30A4_U+30E4_U+30FC 1
 62
   179
420
  2234388
100
AcDbHatch
 10
0.0
 20
0.0
 30
0.0
210
0.0
220
0.0
230
1.0
  2
SOLID
 70
     1
 71
     0
 91
        1
 92
        1
 93
        1
 72
     4
 94
        3
 73
     0
 74
     1
 95
       53
 96
       49
 40
0.0
 40
0.0
 40
0.0
 40
0.0
 40
1.0
 40
1.0
 40
1.0
 40
2.0
 40
2.0
 40
2.0
 40
3.0
 40
3.0
 40
3.0
 40
4.0
 40
4.0
 40
4.0
 40
5.0
 40
5.0
 40
5.0
 40
6.0
 40
6.0
 40
6.0
 40
7.0
 40
7.0
 40
7.0
 40
8.0
 40
8.0
 40
8.0
 40
9.0
 40
9.0
 40
9.0
 40
10.0
 40
10.0
 40
10.0
 40
11.0
 40
11.0
 40
11.0
 40
12.0
 40
12.0
 40
12.0
 40
13.0
 40
13.0
 40
13.0
 40
14.0
 40
14.0
 40
14.0
 40
15.0
 40
15.0
 40
15.0
 40
16.0
 40
16.0
 40
16.0
 40
16.0
 10
102.0623317887205
 20
-126.0846380978191
 10
102.0623317887205
 20
-126.1535400075241
 10
102.0454508208428
 20
-126.2431124901406
 10
101.9820610639142
 20
-126.3330294823056
 10
101.8721625179347
 20
-126.4859917218507
 10
101.7409043799467
 20
-126.5045952374711
 10
101.6330728912584
 20
-126.5214762053488
 10
101.6330728912584
 20
-126.5214762053488
 10
101.6330728912584
 20
-126.3254502722381
 10
101.6330728912584
 20
-126.3254502722381
 10
101.8318549007573
 20
-126.2768744258961
 10
101.8614827219305
 20
-126.1649088226254
 10
101.8614827219305
 20
-126.082571040528
 10
101.8614827219305
 20
-125.959236622156
 10
101.7619194624068
 20
-125.8248778982313
 10
101.5293755171524
 20
-125.8248778982313
 10
101.2734049225983
 20
-125.8248778982313
 10
101.2034694842477
 20
-125.9836968001013
 10
101.2034694842477
 20
-126.0901502505955
 10
101.2034694842477
 20
-126.118055524026
 10
101.2034694842477
 20
-126.2431124901406
 10
101.3326605649446
 20
-126.3216606672043
 10
101.3326605649446
 20
-126.3216606672043
 10
101.3137125397758
 20
-126.4766899640406
 10
101.3137125397758
 20
-126.4766899640406
 10
101.3137125397758
 20
-126.4766899640406
 10
100.4672525790499
 20
-126.3702365135463
 10
100.4672525790499
 20
-126.3702365135463
 10
100.4672525790499
 20
-126.3702365135463
 10
100.4672525790499
 20
-125.682939964239
 10
100.4672525790499
 20
-125.682939964239
 10
100.4672525790499
 20
-125.682939964239
 10
100.6619004739665
 20
-125.682939964239
 10
100.6619004739665
 20
-125.682939964239
 10
100.6619004739665
 20
-125.682939964239
 10
100.6619004739665
 20
-126.2265760318114
 10
100.6619004739665
 20
-126.2265760318114
 10
100.6619004739665
 20
-126.2265760318114
 10
101.0849581995552
 20
-126.2844536359636
 10
101.0849581995552
 20
-126.2844536359636
 10
101.0511962637997
 20
-126.2300211272967
 10
101.0108886466223
 20
-126.1573296125579
 10
101.0108886466223
 20
-126.0525987098063
 10
101.0108886466223
 20
-125.8286675032651
 10
101.1972683123743
 20
-125.6192056977619
 10
101.5104274919835
 20
-125.6192056977619
 10
101.827720786175
 20
-125.6192056977619
 10
102.0623317887205
 20
-125.8172986881637
 10
102.0623317887205
 20
-126.0846380978191
 97
        0
 97
        0
 75
     2
 76
     1
 98
        0
  0
ENDBLK
  5
CD
330
CA
100
AcDbEntity
  8
0
100
AcDbBlockEnd
  0
BLOCK
  5
D4
330
D2
100
AcDbEntity
  8
0
100
AcDbBlockBegin
  2
block 7
 70
     0
 10
0.0
 20
0.0
 30
0.0
  3
block 7
  1

  0
SPLINE
  5
D6
330
D2
100
AcDbEntity
  8
_U+30EC_U+30A4_U+30E4_U+30FC 1
370
     0
100
AcDbSpline
210
0.0
220
0.0
230
1.0
 70
    11
 71
     3
 72
    32
 73
    28
 74
     0
 42
0.0000000001
 43
0.0000000001
 12
1.0
 22
0.0
 32
0.0
 13
1.0
 23
0.0
 33
0.0
 40
0.0
 40
0.0
 40
0.0
 40
0.0
 40
1.0
 40
1.0
 40
1.0
 40
2.0
 40
2.0
 40
2.0
 40
3.0
 40
3.0
 40
3.0
 40
4.0
 40
4.0
 40
4.0
 40
5.0
 40
5.0
 40
5.0
 40
6.0
 40
6.0
 40
6.0
 40
7.0
 40
7.0
 40
7.0
 40
8.0
 40
8.0
 40
8.0
 40
9.0
 40
9.0
 40
9.0
 40
9.0
 10
102.0623317887205
 20
-143.0954860753372
 30
0.0
 10
102.0623317887205
 20
-143.5512722080358
 30
0.0
 10
101.5083604346924
 20
-143.5585069085548
 30
0.0
 10
101.2944200050583
 20
-143.5585069085548
 30
0.0
 10
101.0639431170951
 20
-143.5585069085548
 30
0.0
 10
100.4166096754167
 20
-143.5419704502256
 30
0.0
 10
100.4166096754167
 20
-143.0617241395818
 30
0.0
 10
100.4166096754167
 20
-142.9087619000367
 30
0.0
 10
100.4865451137673
 20
-142.6920653940145
 30
0.0
 10
100.8186523185453
 20
-142.658303458259
 30
0.0
 10
100.8186523185453
 20
-142.658303458259
 30
0.0
 10
100.8186523185453
 20
-142.8470946908507
 30
0.0
 10
100.8186523185453
 20
-142.8470946908507
 30
0.0
 10
100.7614637334902
 20
-142.8563964486609
 30
0.0
 10
100.6133246276245
 20
-142.8843017220914
 30
0.0
 10
100.6133246276245
 20
-143.063791196873
 30
0.0
 10
100.6133246276245
 20
-143.3214843391696
 30
0.0
 10
100.9412977178202
 20
-143.3569688226677
 30
0.0
 10
101.1462808991926
 20
-143.3679931282205
 30
0.0
 10
101.0680772316774
 20
-143.2859998556715
 30
0.0
 10
101.0088215893311
 20
-143.2260551942282
 30
0.0
 10
101.0088215893311
 20
-143.0655137446156
 30
0.0
 10
101.0088215893311
 20
-142.9066948427456
 30
0.0
 10
101.116997587568
 20
-142.6396999426387
 30
0.0
 10
101.5231743452789
 20
-142.6396999426387
 30
0.0
 10
101.8425346967616
 20
-142.6396999426387
 30
0.0
 10
102.0623317887205
 20
-142.8153998123864
 30
0.0
 10
102.0623317887205
 20
-143.0954860753372
 30
0.0
  0
SPLINE
  5
D7
330
D2
100
AcDbEntity
  8
_U+30EC_U+30A4_U+30E4_U+30FC 1
370
     0
100
AcDbSpline
210
0.0
220
0.0
230
1.0
 70
    11
 71
     3
 72
    17
 73
    13
 74
     0
 42
0.0000000001
 43
0.0000000001
 12
1.0
 22
0.0
 32
0.0
 13
1.0
 23
0.0
 33
0.0
 40
0.0
 40
0.0
 40
0.0
 40
0.0
 40
1.0
 40
1.0
 40
1.0
 40
2.0
 40
2.0
 40
2.0
 40
3.0
 40
3.0
 40
3.0
 40
4.0
 40
4.0
 40
4.0
 40
4.0
 10
101.2034694842477
 20
-143.0803276552022
 30
0.0
 10
101.2034694842477
 20
-143.3121825813595
 30
0.0
 10
101.4149983470421
 20
-143.3456000075664
 30
0.0
 10
101.5314425744435
 20
-143.3456000075664
 30
0.0
 10
101.7071424441913
 20
-143.3456000075664
 30
0.0
 10
101.8700954606436
 20
-143.2615396777263
 30
0.0
 10
101.8700954606436
 20
-143.099275680371
 30
0.0
 10
101.8700954606436
 20
-142.9928222298768
 30
0.0
 10
101.8108398182973
 20
-142.8377929330406
 30
0.0
 10
101.5252414025701
 20
-142.8377929330406
 30
0.0
 10
101.3009656864803
 20
-142.8377929330406
 30
0.0
 10
101.2034694842477
 20
-142.9611273514125
 30
0.0
 10
101.2034694842477
 20
-143.0803276552022
 30
0.0
  0
HATCH
  5
D8
330
D2
100
AcDbEntity
  8
_U+30EC_U+30A4_U+30E4_U+30FC 1
 62
   179
420
  2234388
100
AcDbHatch
 10
0.0
 20
0.0
 30
0.0
210
0.0
220
0.0
230
1.0
  2
SOLID
 70
     1
 71
     0
 91
        2
 92
        1
 93
        1
 72
     4
 94
        3
 73
     0
 74
     1
 95
       32
 96
       28
 40
0.0
 40
0.0
 40
0.0
 40
0.0
 40
1.0
 40
1.0
 40
1.0
 40
2.0
 40
2.0
 40
2.0
 40
3.0
 40
3.0
 40
3.0
 40
4.0
 40
4.0
 40
4.0
 40
5.0
 40
5.0
 40
5.0
 40
6.0
 40
6.0
 40
6.0
 40
7.0
 40
7.0
 40
7.0
 40
8.0
 40
8.0
 40
8.0
 40
9.0
 40
9.0
 40
9.0
 40
9.0
 10
102.0623317887205
 20
-143.0954860753372
 10
102.0623317887205
 20
-143.5512722080358
 10
101.5083604346924
 20
-143.5585069085548
 10
101.2944200050583
 20
-143.5585069085548
 10
101.0639431170951
 20
-143.5585069085548
 10
100.4166096754167
 20
-143.5419704502256
 10
100.4166096754167
 20
-143.0617241395818
 10
100.4166096754167
 20
-142.9087619000367
 10
100.4865451137673
 20
-142.6920653940145
 10
100.8186523185453
 20
-142.658303458259
 10
100.8186523185453
 20
-142.658303458259
 10
100.8186523185453
 20
-142.8470946908507
 10
100.8186523185453
 20
-142.8470946908507
 10
100.7614637334902
 20
-142.8563964486609
 10
100.6133246276245
 20
-142.8843017220914
 10
100.6133246276245
 20
-143.063791196873
 10
100.6133246276245
 20
-143.3214843391696
 10
100.9412977178202
 20
-143.3569688226677
 10
101.1462808991926
 20
-143.3679931282205
 10
101.0680772316774
 20
-143.2859998556715
 10
101.0088215893311
 20
-143.2260551942282
 10
101.0088215893311
 20
-143.0655137446156
 10
101.0088215893311
 20
-142.9066948427456
 10
101.116997587568
 20
-142.6396999426387
 10
101.5231743452789
 20
-142.6396999426387
 10
101.8425346967616
 20
-142.6396999426387
 10
102.0623317887205
 20
-142.8153998123864
 10
102.0623317887205
 20
-143.0954860753372
 97
        0
 97
        0
 92
        1
 93
        1
 72
     4
 94
        3
 73
     0
 74
     1
 95
       17
 96
       13
 40
0.0
 40
0.0
 40
0.0
 40
0.0
 40
1.0
 40
1.0
 40
1.0
 40
2.0
 40
2.0
 40
2.0
 40
3.0
 40
3.0
 40
3.0
 40
4.0
 40
4.0
 40
4.0
 40
4.0
 10
101.2034694842477
 20
-143.0803276552022
 10
101.2034694842477
 20
-143.3121825813595
 10
101.4149983470421
 20
-143.3456000075664
 10
101.5314425744435
 20
-143.3456000075664
 10
101.7071424441913
 20
-143.3456000075664
 10
101.8700954606436
 20
-143.2615396777263
 10
101.8700954606436
 20
-143.099275680371
 10
101.8700954606436
 20
-142.9928222298768
 10
101.8108398182973
 20
-142.8377929330406
 10
101.5252414025701
 20
-142.8377929330406
 10
101.3009656864803
 20
-142.8377929330406
 10
101.2034694842477
 20
-142.9611273514125
 10
101.2034694842477
 20
-143.0803276552022
 97
        0
 97
        0
 75
     2
 76
     1
 98
        0
  0
POLYLINE
  5
D9
330
D2
100
AcDbEntity
  8
_U+30EC_U+30A4_U+30E4_U+30FC 1
370
     0
100
AcDb2dPolyline
 66
     1
 10
0.0
 20
0.0
 30
0.0
  0
VERTEX
  5
DA
330
D9
100
AcDbEntity
  8
_U+30EC_U+30A4_U+30E4_U+30FC 1
370
     0
100
AcDbVertex
100
AcDb2dVertex
 10
102.0116888850874
 20
-142.4478081241103
 30
0.0
  0
VERTEX
  5
DB
330
D9
100
AcDbEntity
  8
_U+30EC_U+30A4_U+30E4_U+30FC 1
370
     0
100
AcDbVertex
100
AcDb2dVertex
 10
101.7598524051156
 20
-142.4478081241103
 30
0.0
  0
VERTEX
  5
DC
330
D9
100
AcDbEntity
  8
_U+30EC_U+30A4_U+30E4_U+30FC 1
370
     0
100
AcDbVertex
100
AcDb2dVertex
 10
101.7598524051156
 20
-142.2255994653117
 30
0.0
  0
VERTEX
  5
DD
330
D9
100
AcDbEntity
  8
_U+30EC_U+30A4_U+30E4_U+30FC 1
370
     0
100
AcDbVertex
100
AcDb2dVertex
 10
102.0116888850874
 20
-142.2255994653117
 30
0.0
  0
VERTEX
  5
DE
330
D9
100
AcDbEntity
  8
_U+30EC_U+30A4_U+30E4_U+30FC 1
370
     0
100
AcDbVertex
100
AcDb2dVertex
 10
102.0116888850874
 20
-142.4478081241103
 30
0.0
  0
SEQEND
  5
DF
330
D9
100
AcDbEntity
  8
_U+30EC_U+30A4_U+30E4_U+30FC 1
370
     0
  0
HATCH
  5
E0
330
D2
100
AcDbEntity
  8
_U+30EC_U+30A4_U+30E4_U+30FC 1
 62
   179
420
  2234388
100
AcDbHatch
 10
0.0
 20
0.0
 30
0.0
210
0.0
220
0.0
230
1.0
  2
SOLID
 70
     1
 71
     0
 91
        1
 92
        1
 93
        4
 72
     1
 10
102.0116888850874
 20
-142.4478081241103
 11
101.7598524051156
 21
-142.4478081241103
 72
     1
 10
101.7598524051156
 20
-142.4478081241103
 11
101.7598524051156
 21
-142.2255994653117
 72
     1
 10
101.7598524051156
 20
-142.2255994653117
 11
102.0116888850874
 21
-142.2255994653117
 72
     1
 10
102.0116888850874
 20
-142.2255994653117
 11
102.0116888850874
 21
-142.4478081241103
 97
        0
 75
     2
 76
     1
 98
        0
  0
SPLINE
  5
E1
330
D2
100
AcDbEntity
  8
_U+30EC_U+30A4_U+30E4_U+30FC 1
370
     0
100
AcDbSpline
210
0.0
220
0.0
230
1.0
 70
    11
 71
     3
 72
    53
 73
    49
 74
     0
 42
0.0000000001
 43
0.0000000001
 12
1.0
 22
0.0
 32
0.0
 13
1.0
 23
0.0
 33
0.0
 40
0.0
 40
0.0
 40
0.0
 40
0.0
 40
1.0
 40
1.0
 40
1.0
 40
2.0
 40
2.0
 40
2.0
 40
3.0
 40
3.0
 40
3.0
 40
4.0
 40
4.0
 40
4.0
 40
5.0
 40
5.0
 40
5.0
 40
6.0
 40
6.0
 40
6.0
 40
7.0
 40
7.0
 40
7.0
 40
8.0
 40
8.0
 40
8.0
 40
9.0
 40
9.0
 40
9.0
 40
10.0
 40
10.0
 40
10.0
 40
11.0
 40
11.0
 40
11.0
 40
12.0
 40
12.0
 40
12.0
 40
13.0
 40
13.0
 40
13.0
 40
14.0
 40
14.0
 40
14.0
 40
15.0
 40
15.0
 40
15.0
 40
16.0
 40
16.0
 40
16.0
 40
16.0
 10
102.0623317887205
 20
-141.5920464055742
 30
0.0
 10
102.0623317887205
 20
-141.6609483152792
 30
0.0
 10
102.0454508208428
 20
-141.7505207978957
 30
0.0
 10
101.9820610639142
 20
-141.8404377900607
 30
0.0
 10
101.8721625179347
 20
-141.9934000296058
 30
0.0
 10
101.7409043799467
 20
-142.0120035452262
 30
0.0
 10
101.6330728912584
 20
-142.0288845131039
 30
0.0
 10
101.6330728912584
 20
-142.0288845131039
 30
0.0
 10
101.6330728912584
 20
-141.8328585799932
 30
0.0
 10
101.6330728912584
 20
-141.8328585799932
 30
0.0
 10
101.8318549007573
 20
-141.7842827336512
 30
0.0
 10
101.8614827219305
 20
-141.6723171303805
 30
0.0
 10
101.8614827219305
 20
-141.5899793482831
 30
0.0
 10
101.8614827219305
 20
-141.4666449299111
 30
0.0
 10
101.7619194624068
 20
-141.3322862059864
 30
0.0
 10
101.5293755171524
 20
-141.3322862059864
 30
0.0
 10
101.2734049225983
 20
-141.3322862059864
 30
0.0
 10
101.2034694842477
 20
-141.4911051078564
 30
0.0
 10
101.2034694842477
 20
-141.5975585583506
 30
0.0
 10
101.2034694842477
 20
-141.6254638317811
 30
0.0
 10
101.2034694842477
 20
-141.7505207978957
 30
0.0
 10
101.3326605649446
 20
-141.8290689749594
 30
0.0
 10
101.3326605649446
 20
-141.8290689749594
 30
0.0
 10
101.3137125397758
 20
-141.9840982717957
 30
0.0
 10
101.3137125397758
 20
-141.9840982717957
 30
0.0
 10
101.3137125397758
 20
-141.9840982717957
 30
0.0
 10
100.4672525790499
 20
-141.8776448213014
 30
0.0
 10
100.4672525790499
 20
-141.8776448213014
 30
0.0
 10
100.4672525790499
 20
-141.8776448213014
 30
0.0
 10
100.4672525790499
 20
-141.1903482719941
 30
0.0
 10
100.4672525790499
 20
-141.1903482719941
 30
0.0
 10
100.4672525790499
 20
-141.1903482719941
 30
0.0
 10
100.6619004739665
 20
-141.1903482719941
 30
0.0
 10
100.6619004739665
 20
-141.1903482719941
 30
0.0
 10
100.6619004739665
 20
-141.1903482719941
 30
0.0
 10
100.6619004739665
 20
-141.7339843395665
 30
0.0
 10
100.6619004739665
 20
-141.7339843395665
 30
0.0
 10
100.6619004739665
 20
-141.7339843395665
 30
0.0
 10
101.0849581995552
 20
-141.7918619437187
 30
0.0
 10
101.0849581995552
 20
-141.7918619437187
 30
0.0
 10
101.0511962637997
 20
-141.7374294350518
 30
0.0
 10
101.0108886466223
 20
-141.664737920313
 30
0.0
 10
101.0108886466223
 20
-141.5600070175614
 30
0.0
 10
101.0108886466223
 20
-141.3360758110202
 30
0.0
 10
101.1972683123743
 20
-141.126614005517
 30
0.0
 10
101.5104274919835
 20
-141.126614005517
 30
0.0
 10
101.827720786175
 20
-141.126614005517
 30
0.0
 10
102.0623317887205
 20
-141.3247069959188
 30
0.0
 10
102.0623317887205
 20
-141.5920464055742
 30
0.0
  0
HATCH
  5
E2
330
D2
100
AcDbEntity
  8
_U+30EC_U+30A4_U+30E4_U+30FC 1
 62
   179
420
  2234388
100
AcDbHatch
 10
0.0
 20
0.0
 30
0.0
210
0.0
220
0.0
230
1.0
  2
SOLID
 70
     1
 71
     0
 91
        1
 92
        1
 93
        1
 72
     4
 94
        3
 73
     0
 74
     1
 95
       53
 96
       49
 40
0.0
 40
0.0
 40
0.0
 40
0.0
 40
1.0
 40
1.0
 40
1.0
 40
2.0
 40
2.0
 40
2.0
 40
3.0
 40
3.0
 40
3.0
 40
4.0
 40
4.0
 40
4.0
 40
5.0
 40
5.0
 40
5.0
 40
6.0
 40
6.0
 40
6.0
 40
7.0
 40
7.0
 40
7.0
 40
8.0
 40
8.0
 40
8.0
 40
9.0
 40
9.0
 40
9.0
 40
10.0
 40
10.0
 40
10.0
 40
11.0
 40
11.0
 40
11.0
 40
12.0
 40
12.0
 40
12.0
 40
13.0
 40
13.0
 40
13.0
 40
14.0
 40
14.0
 40
14.0
 40
15.0
 40
15.0
 40
15.0
 40
16.0
 40
16.0
 40
16.0
 40
16.0
 10
102.0623317887205
 20
-141.5920464055742
 10
102.0623317887205
 20
-141.6609483152792
 10
102.0454508208428
 20
-141.7505207978957
 10
101.9820610639142
 20
-141.8404377900607
 10
101.8721625179347
 20
-141.9934000296058
 10
101.7409043799467
 20
-142.0120035452262
 10
101.6330728912584
 20
-142.0288845131039
 10
101.6330728912584
 20
-142.0288845131039
 10
101.6330728912584
 20
-141.8328585799932
 10
101.6330728912584
 20
-141.8328585799932
 10
101.8318549007573
 20
-141.7842827336512
 10
101.8614827219305
 20
-141.6723171303805
 10
101.8614827219305
 20
-141.5899793482831
 10
101.8614827219305
 20
-141.4666449299111
 10
101.7619194624068
 20
-141.3322862059864
 10
101.5293755171524
 20
-141.3322862059864
 10
101.2734049225983
 20
-141.3322862059864
 10
101.2034694842477
 20
-141.4911051078564
 10
101.2034694842477
 20
-141.5975585583506
 10
101.2034694842477
 20
-141.6254638317811
 10
101.2034694842477
 20
-141.7505207978957
 10
101.3326605649446
 20
-141.8290689749594
 10
101.3326605649446
 20
-141.8290689749594
 10
101.3137125397758
 20
-141.9840982717957
 10
101.3137125397758
 20
-141.9840982717957
 10
101.3137125397758
 20
-141.9840982717957
 10
100.4672525790499
 20
-141.8776448213014
 10
100.4672525790499
 20
-141.8776448213014
 10
100.4672525790499
 20
-141.8776448213014
 10
100.4672525790499
 20
-141.1903482719941
 10
100.4672525790499
 20
-141.1903482719941
 10
100.4672525790499
 20
-141.1903482719941
 10
100.6619004739665
 20
-141.1903482719941
 10
100.6619004739665
 20
-141.1903482719941
 10
100.6619004739665
 20
-141.1903482719941
 10
100.6619004739665
 20
-141.7339843395665
 10
100.6619004739665
 20
-141.7339843395665
 10
100.6619004739665
 20
-141.7339843395665
 10
101.0849581995552
 20
-141.7918619437187
 10
101.0849581995552
 20
-141.7918619437187
 10
101.0511962637997
 20
-141.7374294350518
 10
101.0108886466223
 20
-141.664737920313
 10
101.0108886466223
 20
-141.5600070175614
 10
101.0108886466223
 20
-141.3360758110202
 10
101.1972683123743
 20
-141.126614005517
 10
101.5104274919835
 20
-141.126614005517
 10
101.827720786175
 20
-141.126614005517
 10
102.0623317887205
 20
-141.3247069959188
 10
102.0623317887205
 20
-141.5920464055742
 97
        0
 97
        0
 75
     2
 76
     1
 98
        0
  0
ENDBLK
  5
D5
330
D2
100
AcDbEntity
  8
0
100
AcDbBlockEnd
  0
BLOCK
  5
E5
330
E3
100
AcDbEntity
  8
0
100
AcDbBlockBegin
  2
block 8
 70
     0
 10
0.0
 20
0.0
 30
0.0
  3
block 8
  1

  0
SPLINE
  5
E7
330
E3
100
AcDbEntity
  8
_U+30EC_U+30A4_U+30E4_U+30FC 1
370
     0
100
AcDbSpline
210
0.0
220
0.0
230
1.0
 70
    11
 71
     3
 72
    26
 73
    22
 74
     0
 42
0.0000000001
 43
0.0000000001
 12
1.0
 22
0.0
 32
0.0
 13
1.0
 23
0.0
 33
0.0
 40
0.0
 40
0.0
 40
0.0
 40
0.0
 40
1.0
 40
1.0
 40
1.0
 40
2.0
 40
2.0
 40
2.0
 40
3.0
 40
3.0
 40
3.0
 40
4.0
 40
4.0
 40
4.0
 40
5.0
 40
5.0
 40
5.0
 40
6.0
 40
6.0
 40
6.0
 40
7.0
 40
7.0
 40
7.0
 40
7.0
 10
90.21395939584929
 20
-128.8224554799472
 30
0.0
 10
90.21395939584929
 20
-128.8224554799472
 30
0.0
 10
90.00484209989463
 20
-128.8224554799472
 30
0.0
 10
90.00484209989463
 20
-128.8224554799472
 30
0.0
 10
90.02723522054875
 20
-128.5136026696945
 30
0.0
 10
90.19725068274583
 20
-127.9952880539387
 30
0.0
 10
90.55588512276034
 20
-127.4897202914783
 30
0.0
 10
90.55588512276034
 20
-127.4897202914783
 30
0.0
 10
89.81605086730293
 20
-127.4897202914783
 30
0.0
 10
89.81605086730293
 20
-127.4897202914783
 30
0.0
 10
89.81605086730293
 20
-127.4897202914783
 30
0.0
 10
89.81605086730293
 20
-127.2781914286839
 30
0.0
 10
89.81605086730293
 20
-127.2781914286839
 30
0.0
 10
89.81605086730293
 20
-127.2781914286839
 30
0.0
 10
90.765002418715
 20
-127.2781914286839
 30
0.0
 10
90.765002418715
 20
-127.2781914286839
 30
0.0
 10
90.765002418715
 20
-127.2781914286839
 30
0.0
 10
90.765002418715
 20
-127.4897202914783
 30
0.0
 10
90.765002418715
 20
-127.4897202914783
 30
0.0
 10
90.47923174821354
 20
-127.7794528217878
 30
0.0
 10
90.24393172657096
 20
-128.3718369904765
 30
0.0
 10
90.21395939584929
 20
-128.8224554799472
 30
0.0
  0
HATCH
  5
E8
330
E3
100
AcDbEntity
  8
_U+30EC_U+30A4_U+30E4_U+30FC 1
 62
   179
420
  2234388
100
AcDbHatch
 10
0.0
 20
0.0
 30
0.0
210
0.0
220
0.0
230
1.0
  2
SOLID
 70
     1
 71
     0
 91
        1
 92
        1
 93
        1
 72
     4
 94
        3
 73
     0
 74
     1
 95
       26
 96
       22
 40
0.0
 40
0.0
 40
0.0
 40
0.0
 40
1.0
 40
1.0
 40
1.0
 40
2.0
 40
2.0
 40
2.0
 40
3.0
 40
3.0
 40
3.0
 40
4.0
 40
4.0
 40
4.0
 40
5.0
 40
5.0
 40
5.0
 40
6.0
 40
6.0
 40
6.0
 40
7.0
 40
7.0
 40
7.0
 40
7.0
 10
90.21395939584929
 20
-128.8224554799472
 10
90.21395939584929
 20
-128.8224554799472
 10
90.00484209989463
 20
-128.8224554799472
 10
90.00484209989463
 20
-128.8224554799472
 10
90.02723522054875
 20
-128.5136026696945
 10
90.19725068274583
 20
-127.9952880539387
 10
90.55588512276034
 20
-127.4897202914783
 10
90.55588512276034
 20
-127.4897202914783
 10
89.81605086730293
 20
-127.4897202914783
 10
89.81605086730293
 20
-127.4897202914783
 10
89.81605086730293
 20
-127.4897202914783
 10
89.81605086730293
 20
-127.2781914286839
 10
89.81605086730293
 20
-127.2781914286839
 10
89.81605086730293
 20
-127.2781914286839
 10
90.765002418715
 20
-127.2781914286839
 10
90.765002418715
 20
-127.2781914286839
 10
90.765002418715
 20
-127.2781914286839
 10
90.765002418715
 20
-127.4897202914783
 10
90.765002418715
 20
-127.4897202914783
 10
90.47923174821354
 20
-127.7794528217878
 10
90.24393172657096
 20
-128.3718369904765
 10
90.21395939584929
 20
-128.8224554799472
 97
        0
 97
        0
 75
     2
 76
     1
 98
        0
  0
ENDBLK
  5
E6
330
E3
100
AcDbEntity
  8
0
100
AcDbBlockEnd
  0
ENDSEC
  0
SECTION
  2
ENTITIES
  0
SPLINE
  5
41
330
1F
100
AcDbEntity
  8
_U+30EC_U+30A4_U+30E4_U+30FC 1
 62
   179
420
  2234388
370
     9
100
AcDbSpline
210
0.0
220
0.0
230
1.0
 70
    11
 71
     3
 72
    17
 73
    13
 74
     0
 42
0.0000000001
 43
0.0000000001
 12
1.0
 22
0.0
 32
0.0
 13
1.0
 23
0.0
 33
0.0
 40
0.0
 40
0.0
 40
0.0
 40
0.0
 40
1.0
 40
1.0
 40
1.0
 40
2.0
 40
2.0
 40
2.0
 40
3.0
 40
3.0
 40
3.0
 40
4.0
 40
4.0
 40
4.0
 40
4.0
 10
94.69257341752453
 20
-110.085787194701
 30
0.0
 10
94.69257341752453
 20
-110.0306480280479
 30
0.0
 10
94.73737619415928
 20
-109.985880528059
 30
0.0
 10
94.79283285941113
 20
-109.985880528059
 30
0.0
 10
94.84828952466299
 20
-109.985880528059
 30
0.0
 10
94.89273952352897
 20
-110.0306480280479
 30
0.0
 10
94.89273952352897
 20
-110.085787194701
 30
0.0
 10
94.89273952352897
 20
-110.1408910835759
 30
0.0
 10
94.84828952466299
 20
-110.1856938613426
 30
0.0
 10
94.79283285941113
 20
-110.1856938613426
 30
0.0
 10
94.73737619415928
 20
-110.1856938613426
 30
0.0
 10
94.69257341752453
 20
-110.1408910835759
 30
0.0
 10
94.69257341752453
 20
-110.085787194701
 30
0.0
  0
SPLINE
  5
42
330
1F
100
AcDbEntity
  8
_U+30EC_U+30A4_U+30E4_U+30FC 1
 62
   179
420
  2234388
370
     9
100
AcDbSpline
210
0.0
220
0.0
230
1.0
 70
    11
 71
     3
 72
    17
 73
    13
 74
     0
 42
0.0000000001
 43
0.0000000001
 12
1.0
 22
0.0
 32
0.0
 13
1.0
 23
0.0
 33
0.0
 40
0.0
 40
0.0
 40
0.0
 40
0.0
 40
1.0
 40
1.0
 40
1.0
 40
2.0
 40
2.0
 40
2.0
 40
3.0
 40
3.0
 40
3.0
 40
4.0
 40
4.0
 40
4.0
 40
4.0
 10
93.69280122080862
 20
-110.085787194701
 30
0.0
 10
93.69280122080862
 20
-110.0306480280479
 30
0.0
 10
93.73760399744337
 20
-109.985880528059
 30
0.0
 10
93.79270788492644
 20
-109.985880528059
 30
0.0
 10
93.8478470501864
 20
-109.985880528059
 30
0.0
 10
93.89261454904428
 20
-110.0306480280479
 30
0.0
 10
93.89261454904428
 20
-110.085787194701
 30
0.0
 10
93.89261454904428
 20
-110.1408910835759
 30
0.0
 10
93.8478470501864
 20
-110.1856938613426
 30
0.0
 10
93.79270788492644
 20
-110.1856938613426
 30
0.0
 10
93.73760399744337
 20
-110.1856938613426
 30
0.0
 10
93.69280122080862
 20
-110.1408910835759
 30
0.0
 10
93.69280122080862
 20
-110.085787194701
 30
0.0
  0
POLYLINE
  5
43
330
1F
100
AcDbEntity
  8
_U+30EC_U+30A4_U+30E4_U+30FC 1
 62
   179
420
  2234388
370
     9
100
AcDb2dPolyline
 66
     1
 10
0.0
 20
0.0
 30
0.0
  0
VERTEX
  5
44
330
43
100
AcDbEntity
  8
_U+30EC_U+30A4_U+30E4_U+30FC 1
 62
   179
420
  2234388
370
     9
100
AcDbVertex
100
AcDb2dVertex
 10
94.79283285941113
 20
-110.085787194701
 30
0.0
  0
VERTEX
  5
45
330
43
100
AcDbEntity
  8
_U+30EC_U+30A4_U+30E4_U+30FC 1
 62
   179
420
  2234388
370
     9
100
AcDbVertex
100
AcDb2dVertex
 10
98.56279248545367
 20
-110.085787194701
 30
0.0
  0
SEQEND
  5
46
330
43
100
AcDbEntity
  8
_U+30EC_U+30A4_U+30E4_U+30FC 1
 62
   179
420
  2234388
370
     9
  0
POLYLINE
  5
47
330
1F
100
AcDbEntity
  8
_U+30EC_U+30A4_U+30E4_U+30FC 1
 62
   179
420
  2234388
370
     9
100
AcDb2dPolyline
 66
     1
 10
0.0
 20
0.0
 30
0.0
  0
VERTEX
  5
48
330
47
100
AcDbEntity
  8
_U+30EC_U+30A4_U+30E4_U+30FC 1
 62
   179
420
  2234388
370
     9
100
AcDbVertex
100
AcDb2dVertex
 10
94.79283285941113
 20
-110.085787194701
 30
0.0
  0
VERTEX
  5
49
330
47
100
AcDbEntity
  8
_U+30EC_U+30A4_U+30E4_U+30FC 1
 62
   179
420
  2234388
370
     9
100
AcDbVertex
100
AcDb2dVertex
 10
92.79297096598742
 20
-110.085787194701
 30
0.0
  0
SEQEND
  5
4A
330
47
100
AcDbEntity
  8
_U+30EC_U+30A4_U+30E4_U+30FC 1
 62
   179
420
  2234388
370
     9
  0
POLYLINE
  5
4B
330
1F
100
AcDbEntity
  8
_U+30EC_U+30A4_U+30E4_U+30FC 1
 62
   179
420
  2234388
370
     9
100
AcDb2dPolyline
 66
     1
 10
0.0
 20
0.0
 30
0.0
  0
VERTEX
  5
4C
330
4B
100
AcDbEntity
  8
_U+30EC_U+30A4_U+30E4_U+30FC 1
 62
   179
420
  2234388
370
     9
100
AcDbVertex
100
AcDb2dVertex
 10
94.79283285941113
 20
-111.5458285832247
 30
0.0
  0
VERTEX
  5
4D
330
4B
100
AcDbEntity
  8
_U+30EC_U+30A4_U+30E4_U+30FC 1
 62
   179
420
  2234388
370
     9
100
AcDbVertex
100
AcDb2dVertex
 10
94.79283285941113
 20
-109.0860149727284
 30
0.0
  0
SEQEND
  5
4E
330
4B
100
AcDbEntity
  8
_U+30EC_U+30A4_U+30E4_U+30FC 1
 62
   179
420
  2234388
370
     9
  0
POLYLINE
  5
4F
330
1F
100
AcDbEntity
  8
_U+30EC_U+30A4_U+30E4_U+30FC 1
 62
   179
420
  2234388
370
     9
100
AcDb2dPolyline
 66
     1
 10
0.0
 20
0.0
 30
0.0
  0
VERTEX
  5
50
330
4F
100
AcDbEntity
  8
_U+30EC_U+30A4_U+30E4_U+30FC 1
 62
   179
420
  2234388
370
     9
100
AcDbVertex
100
AcDb2dVertex
 10
93.79270788492644
 20
-111.5458285832247
 30
0.0
  0
VERTEX
  5
51
330
4F
100
AcDbEntity
  8
_U+30EC_U+30A4_U+30E4_U+30FC 1
 62
   179
420
  2234388
370
     9
100
AcDbVertex
100
AcDb2dVertex
 10
93.79270788492644
 20
-109.0860149727284
 30
0.0
  0
SEQEND
  5
52
330
4F
100
AcDbEntity
  8
_U+30EC_U+30A4_U+30E4_U+30FC 1
 62
   179
420
  2234388
370
     9
  0
INSERT
  5
54
330
1F
100
AcDbEntity
  8
_U+30EC_U+30A4_U+30E4_U+30FC 1
100
AcDbBlockReference
  2
block 2
 10
0.0
 20
0.0
 30
0.0
  0
POLYLINE
  5
59
330
1F
100
AcDbEntity
  8
_U+30EC_U+30A4_U+30E4_U+30FC 1
 62
   179
420
  2234388
370
     9
100
AcDb2dPolyline
 66
     1
 10
0.0
 20
0.0
 30
0.0
  0
VERTEX
  5
5A
330
59
100
AcDbEntity
  8
_U+30EC_U+30A4_U+30E4_U+30FC 1
 62
   179
420
  2234388
370
     9
100
AcDbVertex
100
AcDb2dVertex
 10
90.78273740616164
 20
-120.7035869142685
 30
0.0
  0
VERTEX
  5
5B
330
59
100
AcDbEntity
  8
_U+30EC_U+30A4_U+30E4_U+30FC 1
 62
   179
420
  2234388
370
     9
100
AcDbVertex
100
AcDb2dVertex
 10
82.53758011651313
 20
-120.7035869142685
 30
0.0
  0
SEQEND
  5
5C
330
59
100
AcDbEntity
  8
_U+30EC_U+30A4_U+30E4_U+30FC 1
 62
   179
420
  2234388
370
     9
  0
POLYLINE
  5
5D
330
1F
100
AcDbEntity
  8
_U+30EC_U+30A4_U+30E4_U+30FC 1
 62
   179
420
  2234388
370
     9
100
AcDb2dPolyline
 66
     1
 10
0.0
 20
0.0
 30
0.0
  0
VERTEX
  5
5E
330
5D
100
AcDbEntity
  8
_U+30EC_U+30A4_U+30E4_U+30FC 1
 62
   179
420
  2234388
370
     9
100
AcDbVertex
100
AcDb2dVertex
 10
94.04282732298981
 20
-122.5859738582424
 30
0.0
  0
VERTEX
  5
5F
330
5D
100
AcDbEntity
  8
_U+30EC_U+30A4_U+30E4_U+30FC 1
 62
   179
420
  2234388
370
     9
100
AcDbVertex
100
AcDb2dVertex
 10
90.78273740616164
 20
-120.7035869142685
 30
0.0
  0
SEQEND
  5
60
330
5D
100
AcDbEntity
  8
_U+30EC_U+30A4_U+30E4_U+30FC 1
 62
   179
420
  2234388
370
     9
  0
POLYLINE
  5
61
330
1F
100
AcDbEntity
  8
_U+30EC_U+30A4_U+30E4_U+30FC 1
 62
   179
420
  2234388
370
     9
100
AcDb2dPolyline
 66
     1
 10
0.0
 20
0.0
 30
0.0
  0
VERTEX
  5
62
330
61
100
AcDbEntity
  8
_U+30EC_U+30A4_U+30E4_U+30FC 1
 62
   179
420
  2234388
370
     9
100
AcDbVertex
100
AcDb2dVertex
 10
94.04282732298981
 20
-122.5859738582424
 30
0.0
  0
VERTEX
  5
63
330
61
100
AcDbEntity
  8
_U+30EC_U+30A4_U+30E4_U+30FC 1
 62
   179
420
  2234388
370
     9
100
AcDbVertex
100
AcDb2dVertex
 10
92.98209512782913
 20
-121.5248888585075
 30
0.0
  0
SEQEND
  5
64
330
61
100
AcDbEntity
  8
_U+30EC_U+30A4_U+30E4_U+30FC 1
 62
   179
420
  2234388
370
     9
  0
POLYLINE
  5
65
330
1F
100
AcDbEntity
  8
_U+30EC_U+30A4_U+30E4_U+30FC 1
 62
   179
420
  2234388
370
     9
100
AcDb2dPolyline
 66
     1
 10
0.0
 20
0.0
 30
0.0
  0
VERTEX
  5
66
330
65
100
AcDbEntity
  8
_U+30EC_U+30A4_U+30E4_U+30FC 1
 62
   179
420
  2234388
370
     9
100
AcDbVertex
100
AcDb2dVertex
 10
94.04282732298981
 20
-122.5859738582424
 30
0.0
  0
VERTEX
  5
67
330
65
100
AcDbEntity
  8
_U+30EC_U+30A4_U+30E4_U+30FC 1
 62
   179
420
  2234388
370
     9
100
AcDbVertex
100
AcDb2dVertex
 10
92.59382791551242
 20
-122.1973538583395
 30
0.0
  0
SEQEND
  5
68
330
65
100
AcDbEntity
  8
_U+30EC_U+30A4_U+30E4_U+30FC 1
 62
   179
420
  2234388
370
     9
  0
SPLINE
  5
69
330
1F
100
AcDbEntity
  8
_U+30EC_U+30A4_U+30E4_U+30FC 1
 62
   179
420
  2234388
370
     9
100
AcDbSpline
210
0.0
220
0.0
230
1.0
 70
    11
 71
     3
 72
    17
 73
    13
 74
     0
 42
0.0000000001
 43
0.0000000001
 12
1.0
 22
0.0
 32
0.0
 13
1.0
 23
0.0
 33
0.0
 40
0.0
 40
0.0
 40
0.0
 40
0.0
 40
1.0
 40
1.0
 40
1.0
 40
2.0
 40
2.0
 40
2.0
 40
3.0
 40
3.0
 40
3.0
 40
4.0
 40
4.0
 40
4.0
 40
4.0
 10
102.6927971023107
 20
-145.5862735747144
 30
0.0
 10
102.6927971023107
 20
-145.530464130284
 30
0.0
 10
102.7375646011686
 20
-145.4856966302954
 30
0.0
 10
102.7927037664285
 20
-145.4856966302954
 30
0.0
 10
102.8478076539116
 20
-145.4856966302954
 30
0.0
 10
102.8926104305464
 20
-145.530464130284
 30
0.0
 10
102.8926104305464
 20
-145.5862735747144
 30
0.0
 10
102.8926104305464
 20
-145.6414127413675
 30
0.0
 10
102.8478076539116
 20
-145.6862155191342
 30
0.0
 10
102.7927037664285
 20
-145.6862155191342
 30
0.0
 10
102.7375646011686
 20
-145.6862155191342
 30
0.0
 10
102.6927971023107
 20
-145.6414127413675
 30
0.0
 10
102.6927971023107
 20
-145.5862735747144
 30
0.0
  0
SPLINE
  5
6A
330
1F
100
AcDbEntity
  8
_U+30EC_U+30A4_U+30E4_U+30FC 1
 62
   179
420
  2234388
370
     9
100
AcDbSpline
210
0.0
220
0.0
230
1.0
 70
    11
 71
     3
 72
    17
 73
    13
 74
     0
 42
0.0000000001
 43
0.0000000001
 12
1.0
 22
0.0
 32
0.0
 13
1.0
 23
0.0
 33
0.0
 40
0.0
 40
0.0
 40
0.0
 40
0.0
 40
1.0
 40
1.0
 40
1.0
 40
2.0
 40
2.0
 40
2.0
 40
3.0
 40
3.0
 40
3.0
 40
4.0
 40
4.0
 40
4.0
 40
4.0
 10
98.69303803768639
 20
-150.5858049623538
 30
0.0
 10
98.69303803768639
 20
-150.5307010734783
 30
0.0
 10
98.73780553654427
 20
-150.4858982957116
 30
0.0
 10
98.79294719752387
 20
-150.4858982957116
 30
0.0
 10
98.8480485892873
 20
-150.4858982957116
 30
0.0
 10
98.89285136592206
 20
-150.5307010734783
 30
0.0
 10
98.89285136592206
 20
-150.5858049623538
 30
0.0
 10
98.89285136592206
 20
-150.6409441290063
 30
0.0
 10
98.8480485892873
 20
-150.6857116289955
 30
0.0
 10
98.79294719752387
 20
-150.6857116289955
 30
0.0
 10
98.73780553654427
 20
-150.6857116289955
 30
0.0
 10
98.69303803768639
 20
-150.6409441290063
 30
0.0
 10
98.69303803768639
 20
-150.5858049623538
 30
0.0
  0
SPLINE
  5
6B
330
1F
100
AcDbEntity
  8
_U+30EC_U+30A4_U+30E4_U+30FC 1
 62
   179
420
  2234388
370
     9
100
AcDbSpline
210
0.0
220
0.0
230
1.0
 70
    11
 71
     3
 72
    17
 73
    13
 74
     0
 42
0.0000000001
 43
0.0000000001
 12
1.0
 22
0.0
 32
0.0
 13
1.0
 23
0.0
 33
0.0
 40
0.0
 40
0.0
 40
0.0
 40
0.0
 40
1.0
 40
1.0
 40
1.0
 40
2.0
 40
2.0
 40
2.0
 40
3.0
 40
3.0
 40
3.0
 40
4.0
 40
4.0
 40
4.0
 40
4.0
 10
85.6929655915681
 20
-150.5858049623538
 30
0.0
 10
85.6929655915681
 20
-150.5307010734783
 30
0.0
 10
85.73773309042598
 20
-150.4858982957116
 30
0.0
 10
85.79287225568592
 20
-150.4858982957116
 30
0.0
 10
85.84797614316899
 20
-150.4858982957116
 30
0.0
 10
85.89277891980376
 20
-150.5307010734783
 30
0.0
 10
85.89277891980376
 20
-150.5858049623538
 30
0.0
 10
85.89277891980376
 20
-150.6409441290063
 30
0.0
 10
85.84797614316899
 20
-150.6857116289955
 30
0.0
 10
85.79287225568592
 20
-150.6857116289955
 30
0.0
 10
85.73773309042598
 20
-150.6857116289955
 30
0.0
 10
85.6929655915681
 20
-150.6409441290063
 30
0.0
 10
85.6929655915681
 20
-150.5858049623538
 30
0.0
  0
SPLINE
  5
6C
330
1F
100
AcDbEntity
  8
_U+30EC_U+30A4_U+30E4_U+30FC 1
 62
   179
420
  2234388
370
     9
100
AcDbSpline
210
0.0
220
0.0
230
1.0
 70
    11
 71
     3
 72
    17
 73
    13
 74
     0
 42
0.0000000001
 43
0.0000000001
 12
1.0
 22
0.0
 32
0.0
 13
1.0
 23
0.0
 33
0.0
 40
0.0
 40
0.0
 40
0.0
 40
0.0
 40
1.0
 40
1.0
 40
1.0
 40
2.0
 40
2.0
 40
2.0
 40
3.0
 40
3.0
 40
3.0
 40
4.0
 40
4.0
 40
4.0
 40
4.0
 10
102.6927971023107
 20
-114.0855463603675
 30
0.0
 10
102.6927971023107
 20
-114.0304071937148
 30
0.0
 10
102.7375646011686
 20
-113.9856396937259
 30
0.0
 10
102.7927037664285
 20
-113.9856396937259
 30
0.0
 10
102.8478076539116
 20
-113.9856396937259
 30
0.0
 10
102.8926104305464
 20
-114.0304071937148
 30
0.0
 10
102.8926104305464
 20
-114.0855463603675
 30
0.0
 10
102.8926104305464
 20
-114.1410030270202
 30
0.0
 10
102.8478076539116
 20
-114.1858058047869
 30
0.0
 10
102.7927037664285
 20
-114.1858058047869
 30
0.0
 10
102.7375646011686
 20
-114.1858058047869
 30
0.0
 10
102.6927971023107
 20
-114.1410030270202
 30
0.0
 10
102.6927971023107
 20
-114.0855463603675
 30
0.0
  0
SPLINE
  5
6D
330
1F
100
AcDbEntity
  8
_U+30EC_U+30A4_U+30E4_U+30FC 1
 62
   179
420
  2234388
370
     9
100
AcDbSpline
210
0.0
220
0.0
230
1.0
 70
    11
 71
     3
 72
    17
 73
    13
 74
     0
 42
0.0000000001
 43
0.0000000001
 12
1.0
 22
0.0
 32
0.0
 13
1.0
 23
0.0
 33
0.0
 40
0.0
 40
0.0
 40
0.0
 40
0.0
 40
1.0
 40
1.0
 40
1.0
 40
2.0
 40
2.0
 40
2.0
 40
3.0
 40
3.0
 40
3.0
 40
4.0
 40
4.0
 40
4.0
 40
4.0
 10
102.6927971023107
 20
-139.0860960763395
 30
0.0
 10
102.6927971023107
 20
-139.0309569096864
 30
0.0
 10
102.7375646011686
 20
-138.9861894096979
 30
0.0
 10
102.7927037664285
 20
-138.9861894096979
 30
0.0
 10
102.8478076539116
 20
-138.9861894096979
 30
0.0
 10
102.8926104305464
 20
-139.0309569096864
 30
0.0
 10
102.8926104305464
 20
-139.0860960763395
 30
0.0
 10
102.8926104305464
 20
-139.1411999652144
 30
0.0
 10
102.8478076539116
 20
-139.1860027429812
 30
0.0
 10
102.7927037664285
 20
-139.1860027429812
 30
0.0
 10
102.7375646011686
 20
-139.1860027429812
 30
0.0
 10
102.6927971023107
 20
-139.1411999652144
 30
0.0
 10
102.6927971023107
 20
-139.0860960763395
 30
0.0
  0
SPLINE
  5
6E
330
1F
100
AcDbEntity
  8
_U+30EC_U+30A4_U+30E4_U+30FC 1
 62
   179
420
  2234388
370
     9
100
AcDbSpline
210
0.0
220
0.0
230
1.0
 70
    11
 71
     3
 72
    17
 73
    13
 74
     0
 42
0.0000000001
 43
0.0000000001
 12
1.0
 22
0.0
 32
0.0
 13
1.0
 23
0.0
 33
0.0
 40
0.0
 40
0.0
 40
0.0
 40
0.0
 40
1.0
 40
1.0
 40
1.0
 40
2.0
 40
2.0
 40
2.0
 40
3.0
 40
3.0
 40
3.0
 40
4.0
 40
4.0
 40
4.0
 40
4.0
 10
93.69280122080862
 20
-129.5858963564922
 30
0.0
 10
93.69280122080862
 20
-129.5307571898397
 30
0.0
 10
93.73760399744337
 20
-129.4859896898505
 30
0.0
 10
93.79270788492644
 20
-129.4859896898505
 30
0.0
 10
93.8478470501864
 20
-129.4859896898505
 30
0.0
 10
93.89261454904428
 20
-129.5307571898397
 30
0.0
 10
93.89261454904428
 20
-129.5858963564922
 30
0.0
 10
93.89261454904428
 20
-129.6410002453677
 30
0.0
 10
93.8478470501864
 20
-129.6858030231344
 30
0.0
 10
93.79270788492644
 20
-129.6858030231344
 30
0.0
 10
93.73760399744337
 20
-129.6858030231344
 30
0.0
 10
93.69280122080862
 20
-129.6410002453677
 30
0.0
 10
93.69280122080862
 20
-129.5858963564922
 30
0.0
  0
SPLINE
  5
6F
330
1F
100
AcDbEntity
  8
_U+30EC_U+30A4_U+30E4_U+30FC 1
 62
   179
420
  2234388
370
     9
100
AcDbSpline
210
0.0
220
0.0
230
1.0
 70
    11
 71
     3
 72
    17
 73
    13
 74
     0
 42
0.0000000001
 43
0.0000000001
 12
1.0
 22
0.0
 32
0.0
 13
1.0
 23
0.0
 33
0.0
 40
0.0
 40
0.0
 40
0.0
 40
0.0
 40
1.0
 40
1.0
 40
1.0
 40
2.0
 40
2.0
 40
2.0
 40
3.0
 40
3.0
 40
3.0
 40
4.0
 40
4.0
 40
4.0
 40
4.0
 10
86.692737788284
 20
-129.5858963564922
 30
0.0
 10
86.692737788284
 20
-129.5307571898397
 30
0.0
 10
86.73750528714189
 20
-129.4859896898505
 30
0.0
 10
86.79296195239374
 20
-129.4859896898505
 30
0.0
 10
86.84810111765368
 20
-129.4859896898505
 30
0.0
 10
86.89286861651156
 20
-129.5307571898397
 30
0.0
 10
86.89286861651156
 20
-129.5858963564922
 30
0.0
 10
86.89286861651156
 20
-129.6410002453677
 30
0.0
 10
86.84810111765368
 20
-129.6858030231344
 30
0.0
 10
86.79296195239374
 20
-129.6858030231344
 30
0.0
 10
86.73750528714189
 20
-129.6858030231344
 30
0.0
 10
86.692737788284
 20
-129.6410002453677
 30
0.0
 10
86.692737788284
 20
-129.5858963564922
 30
0.0
  0
SPLINE
  5
70
330
1F
100
AcDbEntity
  8
_U+30EC_U+30A4_U+30E4_U+30FC 1
 62
   179
420
  2234388
370
     9
100
AcDbSpline
210
0.0
220
0.0
230
1.0
 70
    11
 71
     3
 72
    17
 73
    13
 74
     0
 42
0.0000000001
 43
0.0000000001
 12
1.0
 22
0.0
 32
0.0
 13
1.0
 23
0.0
 33
0.0
 40
0.0
 40
0.0
 40
0.0
 40
0.0
 40
1.0
 40
1.0
 40
1.0
 40
2.0
 40
2.0
 40
2.0
 40
3.0
 40
3.0
 40
3.0
 40
4.0
 40
4.0
 40
4.0
 40
4.0
 10
81.692853749175
 20
-146.586045796687
 30
0.0
 10
81.692853749175
 20
-146.530941907812
 30
0.0
 10
81.73765652580977
 20
-146.4861391300453
 30
0.0
 10
81.79276041329284
 20
-146.4861391300453
 30
0.0
 10
81.84789957855278
 20
-146.4861391300453
 30
0.0
 10
81.89266707741068
 20
-146.530941907812
 30
0.0
 10
81.89266707741068
 20
-146.586045796687
 30
0.0
 10
81.89266707741068
 20
-146.64118496334
 30
0.0
 10
81.84789957855278
 20
-146.6859524633286
 30
0.0
 10
81.79276041329284
 20
-146.6859524633286
 30
0.0
 10
81.73765652580977
 20
-146.6859524633286
 30
0.0
 10
81.692853749175
 20
-146.64118496334
 30
0.0
 10
81.692853749175
 20
-146.586045796687
 30
0.0
  0
SPLINE
  5
71
330
1F
100
AcDbEntity
  8
_U+30EC_U+30A4_U+30E4_U+30FC 1
 62
   179
420
  2234388
370
     9
100
AcDbSpline
210
0.0
220
0.0
230
1.0
 70
    11
 71
     3
 72
    17
 73
    13
 74
     0
 42
0.0000000001
 43
0.0000000001
 12
1.0
 22
0.0
 32
0.0
 13
1.0
 23
0.0
 33
0.0
 40
0.0
 40
0.0
 40
0.0
 40
0.0
 40
1.0
 40
1.0
 40
1.0
 40
2.0
 40
2.0
 40
2.0
 40
3.0
 40
3.0
 40
3.0
 40
4.0
 40
4.0
 40
4.0
 40
4.0
 10
81.692853749175
 20
-133.585655522159
 30
0.0
 10
81.692853749175
 20
-133.5305163555059
 30
0.0
 10
81.73765652580977
 20
-133.4857488555174
 30
0.0
 10
81.79276041329284
 20
-133.4857488555174
 30
0.0
 10
81.84789957855278
 20
-133.4857488555174
 30
0.0
 10
81.89266707741068
 20
-133.5305163555059
 30
0.0
 10
81.89266707741068
 20
-133.585655522159
 30
0.0
 10
81.89266707741068
 20
-133.6407594110339
 30
0.0
 10
81.84789957855278
 20
-133.6855621888007
 30
0.0
 10
81.79276041329284
 20
-133.6855621888007
 30
0.0
 10
81.73765652580977
 20
-133.6855621888007
 30
0.0
 10
81.692853749175
 20
-133.6407594110339
 30
0.0
 10
81.692853749175
 20
-133.585655522159
 30
0.0
  0
POLYLINE
  5
72
330
1F
100
AcDbEntity
  8
_U+30EC_U+30A4_U+30E4_U+30FC 1
 62
   179
420
  2234388
370
     9
100
AcDb2dPolyline
 66
     1
 10
0.0
 20
0.0
 30
0.0
  0
VERTEX
  5
73
330
72
100
AcDbEntity
  8
_U+30EC_U+30A4_U+30E4_U+30FC 1
 62
   179
420
  2234388
370
     9
100
AcDbVertex
100
AcDb2dVertex
 10
81.79276041329284
 20
-133.585655522159
 30
0.0
  0
VERTEX
  5
74
330
72
100
AcDbEntity
  8
_U+30EC_U+30A4_U+30E4_U+30FC 1
 62
   179
420
  2234388
370
     9
100
AcDbVertex
100
AcDb2dVertex
 10
81.79276041329284
 20
-146.586045796687
 30
0.0
  0
SEQEND
  5
75
330
72
100
AcDbEntity
  8
_U+30EC_U+30A4_U+30E4_U+30FC 1
 62
   179
420
  2234388
370
     9
  0
POLYLINE
  5
76
330
1F
100
AcDbEntity
  8
_U+30EC_U+30A4_U+30E4_U+30FC 1
 62
   179
420
  2234388
370
     9
100
AcDb2dPolyline
 66
     1
 10
0.0
 20
0.0
 30
0.0
  0
VERTEX
  5
77
330
76
100
AcDbEntity
  8
_U+30EC_U+30A4_U+30E4_U+30FC 1
 62
   179
420
  2234388
370
     9
100
AcDbVertex
100
AcDb2dVertex
 10
83.25280176493297
 20
-133.585655522159
 30
0.0
  0
VERTEX
  5
78
330
76
100
AcDbEntity
  8
_U+30EC_U+30A4_U+30E4_U+30FC 1
 62
   179
420
  2234388
370
     9
100
AcDbVertex
100
AcDb2dVertex
 10
80.79298821657693
 20
-133.585655522159
 30
0.0
  0
SEQEND
  5
79
330
76
100
AcDbEntity
  8
_U+30EC_U+30A4_U+30E4_U+30FC 1
 62
   179
420
  2234388
370
     9
  0
POLYLINE
  5
7A
330
1F
100
AcDbEntity
  8
_U+30EC_U+30A4_U+30E4_U+30FC 1
 62
   179
420
  2234388
370
     9
100
AcDb2dPolyline
 66
     1
 10
0.0
 20
0.0
 30
0.0
  0
VERTEX
  5
7B
330
7A
100
AcDbEntity
  8
_U+30EC_U+30A4_U+30E4_U+30FC 1
 62
   179
420
  2234388
370
     9
100
AcDbVertex
100
AcDb2dVertex
 10
83.25280176493297
 20
-146.586045796687
 30
0.0
  0
VERTEX
  5
7C
330
7A
100
AcDbEntity
  8
_U+30EC_U+30A4_U+30E4_U+30FC 1
 62
   179
420
  2234388
370
     9
100
AcDbVertex
100
AcDb2dVertex
 10
80.79298821657693
 20
-146.586045796687
 30
0.0
  0
SEQEND
  5
7D
330
7A
100
AcDbEntity
  8
_U+30EC_U+30A4_U+30E4_U+30FC 1
 62
   179
420
  2234388
370
     9
  0
POLYLINE
  5
7E
330
1F
100
AcDbEntity
  8
_U+30EC_U+30A4_U+30E4_U+30FC 1
 62
   179
420
  2234388
370
     9
100
AcDb2dPolyline
 66
     1
 10
0.0
 20
0.0
 30
0.0
  0
VERTEX
  5
7F
330
7E
100
AcDbEntity
  8
_U+30EC_U+30A4_U+30E4_U+30FC 1
 62
   179
420
  2234388
370
     9
100
AcDbVertex
100
AcDb2dVertex
 10
98.79294719752387
 20
-150.5858049623538
 30
0.0
  0
VERTEX
  5
80
330
7E
100
AcDbEntity
  8
_U+30EC_U+30A4_U+30E4_U+30FC 1
 62
   179
420
  2234388
370
     9
100
AcDbVertex
100
AcDb2dVertex
 10
85.79287225568592
 20
-150.5858049623538
 30
0.0
  0
SEQEND
  5
81
330
7E
100
AcDbEntity
  8
_U+30EC_U+30A4_U+30E4_U+30FC 1
 62
   179
420
  2234388
370
     9
  0
POLYLINE
  5
82
330
1F
100
AcDbEntity
  8
_U+30EC_U+30A4_U+30E4_U+30FC 1
 62
   179
420
  2234388
370
     9
100
AcDb2dPolyline
 66
     1
 10
0.0
 20
0.0
 30
0.0
  0
VERTEX
  5
83
330
82
100
AcDbEntity
  8
_U+30EC_U+30A4_U+30E4_U+30FC 1
 62
   179
420
  2234388
370
     9
100
AcDbVertex
100
AcDb2dVertex
 10
98.79294719752387
 20
-149.1257988516076
 30
0.0
  0
VERTEX
  5
84
330
82
100
AcDbEntity
  8
_U+30EC_U+30A4_U+30E4_U+30FC 1
 62
   179
420
  2234388
370
     9
100
AcDbVertex
100
AcDb2dVertex
 10
98.79294719752387
 20
-151.5862827398813
 30
0.0
  0
SEQEND
  5
85
330
82
100
AcDbEntity
  8
_U+30EC_U+30A4_U+30E4_U+30FC 1
 62
   179
420
  2234388
370
     9
  0
POLYLINE
  5
86
330
1F
100
AcDbEntity
  8
_U+30EC_U+30A4_U+30E4_U+30FC 1
 62
   179
420
  2234388
370
     9
100
AcDb2dPolyline
 66
     1
 10
0.0
 20
0.0
 30
0.0
  0
VERTEX
  5
87
330
86
100
AcDbEntity
  8
_U+30EC_U+30A4_U+30E4_U+30FC 1
 62
   179
420
  2234388
370
     9
100
AcDbVertex
100
AcDb2dVertex
 10
85.79287225568592
 20
-149.1257988516076
 30
0.0
  0
VERTEX
  5
88
330
86
100
AcDbEntity
  8
_U+30EC_U+30A4_U+30E4_U+30FC 1
 62
   179
420
  2234388
370
     9
100
AcDbVertex
100
AcDb2dVertex
 10
85.79287225568592
 20
-151.5862827398813
 30
0.0
  0
SEQEND
  5
89
330
86
100
AcDbEntity
  8
_U+30EC_U+30A4_U+30E4_U+30FC 1
 62
   179
420
  2234388
370
     9
  0
POLYLINE
  5
8A
330
1F
100
AcDbEntity
  8
_U+30EC_U+30A4_U+30E4_U+30FC 1
 62
   179
420
  2234388
370
     9
100
AcDb2dPolyline
 66
     1
 10
0.0
 20
0.0
 30
0.0
  0
VERTEX
  5
8B
330
8A
100
AcDbEntity
  8
_U+30EC_U+30A4_U+30E4_U+30FC 1
 62
   179
420
  2234388
370
     9
100
AcDbVertex
100
AcDb2dVertex
 10
102.7927037664285
 20
-139.0860960763395
 30
0.0
  0
VERTEX
  5
8C
330
8A
100
AcDbEntity
  8
_U+30EC_U+30A4_U+30E4_U+30FC 1
 62
   179
420
  2234388
370
     9
100
AcDbVertex
100
AcDb2dVertex
 10
102.7927037664285
 20
-114.0855463603675
 30
0.0
  0
SEQEND
  5
8D
330
8A
100
AcDbEntity
  8
_U+30EC_U+30A4_U+30E4_U+30FC 1
 62
   179
420
  2234388
370
     9
  0
POLYLINE
  5
8E
330
1F
100
AcDbEntity
  8
_U+30EC_U+30A4_U+30E4_U+30FC 1
 62
   179
420
  2234388
370
     9
100
AcDb2dPolyline
 66
     1
 10
0.0
 20
0.0
 30
0.0
  0
VERTEX
  5
8F
330
8E
100
AcDbEntity
  8
_U+30EC_U+30A4_U+30E4_U+30FC 1
 62
   179
420
  2234388
370
     9
100
AcDbVertex
100
AcDb2dVertex
 10
97.33290335016409
 20
-139.0860960763395
 30
0.0
  0
VERTEX
  5
90
330
8E
100
AcDbEntity
  8
_U+30EC_U+30A4_U+30E4_U+30FC 1
 62
   179
420
  2234388
370
     9
100
AcDbVertex
100
AcDb2dVertex
 10
103.7924406853676
 20
-139.0860960763395
 30
0.0
  0
SEQEND
  5
91
330
8E
100
AcDbEntity
  8
_U+30EC_U+30A4_U+30E4_U+30FC 1
 62
   179
420
  2234388
370
     9
  0
POLYLINE
  5
92
330
1F
100
AcDbEntity
  8
_U+30EC_U+30A4_U+30E4_U+30FC 1
 62
   179
420
  2234388
370
     9
100
AcDb2dPolyline
 66
     1
 10
0.0
 20
0.0
 30
0.0
  0
VERTEX
  5
93
330
92
100
AcDbEntity
  8
_U+30EC_U+30A4_U+30E4_U+30FC 1
 62
   179
420
  2234388
370
     9
100
AcDbVertex
100
AcDb2dVertex
 10
97.33290335016409
 20
-114.0855463603675
 30
0.0
  0
VERTEX
  5
94
330
92
100
AcDbEntity
  8
_U+30EC_U+30A4_U+30E4_U+30FC 1
 62
   179
420
  2234388
370
     9
100
AcDbVertex
100
AcDb2dVertex
 10
103.7924406853676
 20
-114.0855463603675
 30
0.0
  0
SEQEND
  5
95
330
92
100
AcDbEntity
  8
_U+30EC_U+30A4_U+30E4_U+30FC 1
 62
   179
420
  2234388
370
     9
  0
POLYLINE
  5
96
330
1F
100
AcDbEntity
  8
_U+30EC_U+30A4_U+30E4_U+30FC 1
 62
   179
420
  2234388
370
     9
100
AcDb2dPolyline
 66
     1
 10
0.0
 20
0.0
 30
0.0
  0
VERTEX
  5
97
330
96
100
AcDbEntity
  8
_U+30EC_U+30A4_U+30E4_U+30FC 1
 62
   179
420
  2234388
370
     9
100
AcDbVertex
100
AcDb2dVertex
 10
102.7927037664285
 20
-145.5862735747144
 30
0.0
  0
VERTEX
  5
98
330
96
100
AcDbEntity
  8
_U+30EC_U+30A4_U+30E4_U+30FC 1
 62
   179
420
  2234388
370
     9
100
AcDbVertex
100
AcDb2dVertex
 10
102.7927037664285
 20
-139.0860960763395
 30
0.0
  0
SEQEND
  5
99
330
96
100
AcDbEntity
  8
_U+30EC_U+30A4_U+30E4_U+30FC 1
 62
   179
420
  2234388
370
     9
  0
POLYLINE
  5
9A
330
1F
100
AcDbEntity
  8
_U+30EC_U+30A4_U+30E4_U+30FC 1
 62
   179
420
  2234388
370
     9
100
AcDb2dPolyline
 66
     1
 10
0.0
 20
0.0
 30
0.0
  0
VERTEX
  5
9B
330
9A
100
AcDbEntity
  8
_U+30EC_U+30A4_U+30E4_U+30FC 1
 62
   179
420
  2234388
370
     9
100
AcDbVertex
100
AcDb2dVertex
 10
101.3326624147884
 20
-145.5862735747144
 30
0.0
  0
VERTEX
  5
9C
330
9A
100
AcDbEntity
  8
_U+30EC_U+30A4_U+30E4_U+30FC 1
 62
   179
420
  2234388
370
     9
100
AcDbVertex
100
AcDb2dVertex
 10
103.7924406853676
 20
-145.5862735747144
 30
0.0
  0
SEQEND
  5
9D
330
9A
100
AcDbEntity
  8
_U+30EC_U+30A4_U+30E4_U+30FC 1
 62
   179
420
  2234388
370
     9
  0
POLYLINE
  5
9E
330
1F
100
AcDbEntity
  8
_U+30EC_U+30A4_U+30E4_U+30FC 1
 62
   179
420
  2234388
370
     9
100
AcDb2dPolyline
 66
     1
 10
0.0
 20
0.0
 30
0.0
  0
VERTEX
  5
9F
330
9E
100
AcDbEntity
  8
_U+30EC_U+30A4_U+30E4_U+30FC 1
 62
   179
420
  2234388
370
     9
100
AcDbVertex
100
AcDb2dVertex
 10
93.79270788492644
 20
-129.5858963564922
 30
0.0
  0
VERTEX
  5
A0
330
9E
100
AcDbEntity
  8
_U+30EC_U+30A4_U+30E4_U+30FC 1
 62
   179
420
  2234388
370
     9
100
AcDbVertex
100
AcDb2dVertex
 10
86.79296195239374
 20
-129.5858963564922
 30
0.0
  0
SEQEND
  5
A1
330
9E
100
AcDbEntity
  8
_U+30EC_U+30A4_U+30E4_U+30FC 1
 62
   179
420
  2234388
370
     9
  0
POLYLINE
  5
A2
330
1F
100
AcDbEntity
  8
_U+30EC_U+30A4_U+30E4_U+30FC 1
 62
   179
420
  2234388
370
     9
100
AcDb2dPolyline
 66
     1
 10
0.0
 20
0.0
 30
0.0
  0
VERTEX
  5
A3
330
A2
100
AcDbEntity
  8
_U+30EC_U+30A4_U+30E4_U+30FC 1
 62
   179
420
  2234388
370
     9
100
AcDbVertex
100
AcDb2dVertex
 10
86.79296195239374
 20
-131.0459377450165
 30
0.0
  0
VERTEX
  5
A4
330
A2
100
AcDbEntity
  8
_U+30EC_U+30A4_U+30E4_U+30FC 1
 62
   179
420
  2234388
370
     9
100
AcDbVertex
100
AcDb2dVertex
 10
86.79296195239374
 20
-128.5859477456314
 30
0.0
  0
SEQEND
  5
A5
330
A2
100
AcDbEntity
  8
_U+30EC_U+30A4_U+30E4_U+30FC 1
 62
   179
420
  2234388
370
     9
  0
INSERT
  5
A7
330
1F
100
AcDbEntity
  8
_U+30EC_U+30A4_U+30E4_U+30FC 1
100
AcDbBlockReference
  2
block 3
 10
0.0
 20
0.0
 30
0.0
  0
INSERT
  5
BB
330
1F
100
AcDbEntity
  8
_U+30EC_U+30A4_U+30E4_U+30FC 1
100
AcDbBlockReference
  2
block 4
 10
0.0
 20
0.0
 30
0.0
  0
INSERT
  5
C3
330
1F
100
AcDbEntity
  8
_U+30EC_U+30A4_U+30E4_U+30FC 1
100
AcDbBlockReference
  2
block 5
 10
0.0
 20
0.0
 30
0.0
  0
INSERT
  5
CB
330
1F
100
AcDbEntity
  8
_U+30EC_U+30A4_U+30E4_U+30FC 1
100
AcDbBlockReference
  2
block 6
 10
0.0
 20
0.0
 30
0.0
  0
INSERT
  5
D3
330
1F
100
AcDbEntity
  8
_U+30EC_U+30A4_U+30E4_U+30FC 1
100
AcDbBlockReference
  2
block 7
 10
0.0
 20
0.0
 30
0.0
  0
INSERT
  5
E4
330
1F
100
AcDbEntity
  8
_U+30EC_U+30A4_U+30E4_U+30FC 1
100
AcDbBlockReference
  2
block 8
 10
0.0
 20
0.0
 30
0.0
  0
SPLINE
  5
E9
330
1F
100
AcDbEntity
  8
_U+30EC_U+30A4_U+30E4_U+30FC 1
 62
     7
420
 16777215
370
    25
100
AcDbSpline
210
0.0
220
0.0
230
1.0
 70
    11
 71
     3
 72
    98
 73
    94
 74
     0
 42
0.0000000001
 43
0.0000000001
 12
1.0
 22
0.0
 32
0.0
 13
1.0
 23
0.0
 33
0.0
 40
0.0
 40
0.0
 40
0.0
 40
0.0
 40
1.0
 40
1.0
 40
1.0
 40
2.0
 40
2.0
 40
2.0
 40
3.0
 40
3.0
 40
3.0
 40
4.0
 40
4.0
 40
4.0
 40
5.0
 40
5.0
 40
5.0
 40
6.0
 40
6.0
 40
6.0
 40
7.0
 40
7.0
 40
7.0
 40
8.0
 40
8.0
 40
8.0
 40
9.0
 40
9.0
 40
9.0
 40
10.0
 40
10.0
 40
10.0
 40
11.0
 40
11.0
 40
11.0
 40
12.0
 40
12.0
 40
12.0
 40
13.0
 40
13.0
 40
13.0
 40
14.0
 40
14.0
 40
14.0
 40
15.0
 40
15.0
 40
15.0
 40
16.0
 40
16.0
 40
16.0
 40
17.0
 40
17.0
 40
17.0
 40
18.0
 40
18.0
 40
18.0
 40
19.0
 40
19.0
 40
19.0
 40
20.0
 40
20.0
 40
20.0
 40
21.0
 40
21.0
 40
21.0
 40
22.0
 40
22.0
 40
22.0
 40
23.0
 40
23.0
 40
23.0
 40
24.0
 40
24.0
 40
24.0
 40
25.0
 40
25.0
 40
25.0
 40
26.0
 40
26.0
 40
26.0
 40
27.0
 40
27.0
 40
27.0
 40
28.0
 40
28.0
 40
28.0
 40
29.0
 40
29.0
 40
29.0
 40
30.0
 40
30.0
 40
30.0
 40
31.0
 40
31.0
 40
31.0
 40
31.0
 10
93.77344621875119
 20
-114.066249415928
 30
0.0
 10
93.77344621875119
 20
-114.066249415928
 30
0.0
 10
94.78937563727712
 20
-114.066249415928
 30
0.0
 10
94.78937563727712
 20
-114.066249415928
 30
0.0
 10
94.78937563727712
 20
-114.066249415928
 30
0.0
 10
94.78937563727712
 20
-139.1398241318816
 30
0.0
 10
94.78937563727712
 20
-139.1398241318816
 30
0.0
 10
94.78937563727712
 20
-139.1398241318816
 30
0.0
 10
86.80435667432525
 20
-139.1398241318816
 30
0.0
 10
86.80435667432525
 20
-139.1398241318816
 30
0.0
 10
86.80435667432525
 20
-139.1398241318816
 30
0.0
 10
86.80435667432525
 20
-145.6365796858133
 30
0.0
 10
86.80435667432525
 20
-145.6365796858133
 30
0.0
 10
86.80435667432525
 20
-145.6365796858133
 30
0.0
 10
98.76881470241983
 20
-145.6365796858133
 30
0.0
 10
98.76881470241983
 20
-145.6365796858133
 30
0.0
 10
98.76881470241983
 20
-145.6365796858133
 30
0.0
 10
98.76881470241983
 20
-146.6363519077852
 30
0.0
 10
98.76881470241983
 20
-146.6363519077852
 30
0.0
 10
98.76881470241983
 20
-146.6363519077852
 30
0.0
 10
87.42171776968617
 20
-146.6363519077852
 30
0.0
 10
87.42171776968617
 20
-146.6363519077852
 30
0.0
 10
87.42171776968617
 20
-146.6363519077852
 30
0.0
 10
85.74602336799225
 20
-146.9298630188231
 30
0.0
 10
85.74602336799225
 20
-145.1956074637013
 30
0.0
 10
85.74602336799225
 20
-145.1956074637013
 30
0.0
 10
85.74602336799225
 20
-133.5250130221744
 30
0.0
 10
85.74602336799225
 20
-133.5250130221744
 30
0.0
 10
85.74602336799225
 20
-133.5250130221744
 30
0.0
 10
86.77472334174793
 20
-133.5250130221744
 30
0.0
 10
86.77472334174793
 20
-133.5250130221744
 30
0.0
 10
86.77472334174793
 20
-133.5250130221744
 30
0.0
 10
86.77472334174793
 20
-138.0814907988128
 30
0.0
 10
86.77472334174793
 20
-138.0814907988128
 30
0.0
 10
86.77472334174793
 20
-138.0814907988128
 30
0.0
 10
93.83027871730127
 20
-138.0814907988128
 30
0.0
 10
93.83027871730127
 20
-138.0814907988128
 30
0.0
 10
93.83027871730127
 20
-138.0814907988128
 30
0.0
 10
93.83027871730127
 20
-131.0555685783473
 30
0.0
 10
93.83027871730127
 20
-131.0555685783473
 30
0.0
 10
93.83027871730127
 20
-131.0555685783473
 30
0.0
 10
94.33016481565923
 20
-130.1736241341234
 30
0.0
 10
94.33016481565923
 20
-130.1736241341234
 30
0.0
 10
94.33016481565923
 20
-130.1736241341234
 30
0.0
 10
93.74208427510685
 20
-129.203485245477
 30
0.0
 10
93.74208427510685
 20
-129.203485245477
 30
0.0
 10
93.74208427510685
 20
-129.203485245477
 30
0.0
 10
94.30088426085068
 20
-128.2624505234899
 30
0.0
 10
94.30088426085068
 20
-128.2624505234899
 30
0.0
 10
94.30088426085068
 20
-128.2624505234899
 30
0.0
 10
93.77171760768418
 20
-127.3217685792805
 30
0.0
 10
93.77171760768418
 20
-127.3217685792805
 30
0.0
 10
93.77171760768418
 20
-127.3217685792805
 30
0.0
 10
94.30088426085068
 20
-126.3516296906342
 30
0.0
 10
94.30088426085068
 20
-126.3516296906342
 30
0.0
 10
94.30088426085068
 20
-126.3516296906342
 30
0.0
 10
93.74208427510685
 20
-125.4402283019732
 30
0.0
 10
93.74208427510685
 20
-125.4402283019732
 30
0.0
 10
93.74208427510685
 20
-125.4402283019732
 30
0.0
 10
94.30088426085068
 20
-124.4408088577788
 30
0.0
 10
94.30088426085068
 20
-124.4408088577788
 30
0.0
 10
94.30088426085068
 20
-124.4408088577788
 30
0.0
 10
93.74208427510685
 20
-123.5294074691175
 30
0.0
 10
93.74208427510685
 20
-123.5294074691175
 30
0.0
 10
93.74208427510685
 20
-123.5294074691175
 30
0.0
 10
94.33016481565923
 20
-122.5298116360342
 30
0.0
 10
94.33016481565923
 20
-122.5298116360342
 30
0.0
 10
94.33016481565923
 20
-122.5298116360342
 30
0.0
 10
93.74208427510685
 20
-121.6478671918102
 30
0.0
 10
93.74208427510685
 20
-121.6478671918102
 30
0.0
 10
93.74208427510685
 20
-121.6478671918102
 30
0.0
 10
94.30088426085068
 20
-120.6484477476157
 30
0.0
 10
94.30088426085068
 20
-120.6484477476157
 30
0.0
 10
94.30088426085068
 20
-120.6484477476157
 30
0.0
 10
93.71280372029831
 20
-119.7075894145175
 30
0.0
 10
93.71280372029831
 20
-119.7075894145175
 30
0.0
 10
93.71280372029831
 20
-119.7075894145175
 30
0.0
 10
94.30088426085068
 20
-118.7669074703081
 30
0.0
 10
94.30088426085068
 20
-118.7669074703081
 30
0.0
 10
94.30088426085068
 20
-118.7669074703081
 30
0.0
 10
93.74208427510685
 20
-117.9437005260696
 30
0.0
 10
93.74208427510685
 20
-117.9437005260696
 30
0.0
 10
93.74208427510685
 20
-117.9437005260696
 30
0.0
 10
94.30088426085068
 20
-116.8560866374527
 30
0.0
 10
94.30088426085068
 20
-116.8560866374527
 30
0.0
 10
94.30088426085068
 20
-116.8560866374527
 30
0.0
 10
93.74208427510685
 20
-115.9741421932288
 30
0.0
 10
93.74208427510685
 20
-115.9741421932288
 30
0.0
 10
93.74208427510685
 20
-115.9741421932288
 30
0.0
 10
94.27125092827336
 20
-115.0040033045824
 30
0.0
 10
94.27125092827336
 20
-115.0040033045824
 30
0.0
 10
94.27125092827336
 20
-115.0040033045824
 30
0.0
 10
93.77344621875119
 20
-114.066249415928
 30
0.0
 10
93.77344621875119
 20
-114.066249415928
 30
0.0
  0
HATCH
  5
EA
330
1F
100
AcDbEntity
  8
_U+30EC_U+30A4_U+30E4_U+30FC 1
 62
   253
420
 11711154
100
AcDbHatch
 10
0.0
 20
0.0
 30
0.0
210
0.0
220
0.0
230
1.0
  2
SOLID
 70
     1
 71
     0
 91
        1
 92
        1
 93
        1
 72
     4
 94
        3
 73
     0
 74
     1
 95
       98
 96
       94
 40
0.0
 40
0.0
 40
0.0
 40
0.0
 40
1.0
 40
1.0
 40
1.0
 40
2.0
 40
2.0
 40
2.0
 40
3.0
 40
3.0
 40
3.0
 40
4.0
 40
4.0
 40
4.0
 40
5.0
 40
5.0
 40
5.0
 40
6.0
 40
6.0
 40
6.0
 40
7.0
 40
7.0
 40
7.0
 40
8.0
 40
8.0
 40
8.0
 40
9.0
 40
9.0
 40
9.0
 40
10.0
 40
10.0
 40
10.0
 40
11.0
 40
11.0
 40
11.0
 40
12.0
 40
12.0
 40
12.0
 40
13.0
 40
13.0
 40
13.0
 40
14.0
 40
14.0
 40
14.0
 40
15.0
 40
15.0
 40
15.0
 40
16.0
 40
16.0
 40
16.0
 40
17.0
 40
17.0
 40
17.0
 40
18.0
 40
18.0
 40
18.0
 40
19.0
 40
19.0
 40
19.0
 40
20.0
 40
20.0
 40
20.0
 40
21.0
 40
21.0
 40
21.0
 40
22.0
 40
22.0
 40
22.0
 40
23.0
 40
23.0
 40
23.0
 40
24.0
 40
24.0
 40
24.0
 40
25.0
 40
25.0
 40
25.0
 40
26.0
 40
26.0
 40
26.0
 40
27.0
 40
27.0
 40
27.0
 40
28.0
 40
28.0
 40
28.0
 40
29.0
 40
29.0
 40
29.0
 40
30.0
 40
30.0
 40
30.0
 40
31.0
 40
31.0
 40
31.0
 40
31.0
 10
93.77344621875119
 20
-114.066249415928
 10
93.77344621875119
 20
-114.066249415928
 10
94.78937563727712
 20
-114.066249415928
 10
94.78937563727712
 20
-114.066249415928
 10
94.78937563727712
 20
-114.066249415928
 10
94.78937563727712
 20
-139.1398241318816
 10
94.78937563727712
 20
-139.1398241318816
 10
94.78937563727712
 20
-139.1398241318816
 10
86.80435667432525
 20
-139.1398241318816
 10
86.80435667432525
 20
-139.1398241318816
 10
86.80435667432525
 20
-139.1398241318816
 10
86.80435667432525
 20
-145.6365796858133
 10
86.80435667432525
 20
-145.6365796858133
 10
86.80435667432525
 20
-145.6365796858133
 10
98.76881470241983
 20
-145.6365796858133
 10
98.76881470241983
 20
-145.6365796858133
 10
98.76881470241983
 20
-145.6365796858133
 10
98.76881470241983
 20
-146.6363519077852
 10
98.76881470241983
 20
-146.6363519077852
 10
98.76881470241983
 20
-146.6363519077852
 10
87.42171776968617
 20
-146.6363519077852
 10
87.42171776968617
 20
-146.6363519077852
 10
87.42171776968617
 20
-146.6363519077852
 10
85.74602336799225
 20
-146.9298630188231
 10
85.74602336799225
 20
-145.1956074637013
 10
85.74602336799225
 20
-145.1956074637013
 10
85.74602336799225
 20
-133.5250130221744
 10
85.74602336799225
 20
-133.5250130221744
 10
85.74602336799225
 20
-133.5250130221744
 10
86.77472334174793
 20
-133.5250130221744
 10
86.77472334174793
 20
-133.5250130221744
 10
86.77472334174793
 20
-133.5250130221744
 10
86.77472334174793
 20
-138.0814907988128
 10
86.77472334174793
 20
-138.0814907988128
 10
86.77472334174793
 20
-138.0814907988128
 10
93.83027871730127
 20
-138.0814907988128
 10
93.83027871730127
 20
-138.0814907988128
 10
93.83027871730127
 20
-138.0814907988128
 10
93.83027871730127
 20
-131.0555685783473
 10
93.83027871730127
 20
-131.0555685783473
 10
93.83027871730127
 20
-131.0555685783473
 10
94.33016481565923
 20
-130.1736241341234
 10
94.33016481565923
 20
-130.1736241341234
 10
94.33016481565923
 20
-130.1736241341234
 10
93.74208427510685
 20
-129.203485245477
 10
93.74208427510685
 20
-129.203485245477
 10
93.74208427510685
 20
-129.203485245477
 10
94.30088426085068
 20
-128.2624505234899
 10
94.30088426085068
 20
-128.2624505234899
 10
94.30088426085068
 20
-128.2624505234899
 10
93.77171760768418
 20
-127.3217685792805
 10
93.77171760768418
 20
-127.3217685792805
 10
93.77171760768418
 20
-127.3217685792805
 10
94.30088426085068
 20
-126.3516296906342
 10
94.30088426085068
 20
-126.3516296906342
 10
94.30088426085068
 20
-126.3516296906342
 10
93.74208427510685
 20
-125.4402283019732
 10
93.74208427510685
 20
-125.4402283019732
 10
93.74208427510685
 20
-125.4402283019732
 10
94.30088426085068
 20
-124.4408088577788
 10
94.30088426085068
 20
-124.4408088577788
 10
94.30088426085068
 20
-124.4408088577788
 10
93.74208427510685
 20
-123.5294074691175
 10
93.74208427510685
 20
-123.5294074691175
 10
93.74208427510685
 20
-123.5294074691175
 10
94.33016481565923
 20
-122.5298116360342
 10
94.33016481565923
 20
-122.5298116360342
 10
94.33016481565923
 20
-122.5298116360342
 10
93.74208427510685
 20
-121.6478671918102
 10
93.74208427510685
 20
-121.6478671918102
 10
93.74208427510685
 20
-121.6478671918102
 10
94.30088426085068
 20
-120.6484477476157
 10
94.30088426085068
 20
-120.6484477476157
 10
94.30088426085068
 20
-120.6484477476157
 10
93.71280372029831
 20
-119.7075894145175
 10
93.71280372029831
 20
-119.7075894145175
 10
93.71280372029831
 20
-119.7075894145175
 10
94.30088426085068
 20
-118.7669074703081
 10
94.30088426085068
 20
-118.7669074703081
 10
94.30088426085068
 20
-118.7669074703081
 10
93.74208427510685
 20
-117.9437005260696
 10
93.74208427510685
 20
-117.9437005260696
 10
93.74208427510685
 20
-117.9437005260696
 10
94.30088426085068
 20
-116.8560866374527
 10
94.30088426085068
 20
-116.8560866374527
 10
94.30088426085068
 20
-116.8560866374527
 10
93.74208427510685
 20
-115.9741421932288
 10
93.74208427510685
 20
-115.9741421932288
 10
93.74208427510685
 20
-115.9741421932288
 10
94.27125092827336
 20
-115.0040033045824
 10
94.27125092827336
 20
-115.0040033045824
 10
94.27125092827336
 20
-115.0040033045824
 10
93.77344621875119
 20
-114.066249415928
 10
93.77344621875119
 20
-114.066249415928
 97
        0
 97
        0
 75
     2
 76
     1
 98
        0
  0
ENDSEC
  0
SECTION
  2
OBJECTS
  0
DICTIONARY
  5
C
330
0
100
AcDbDictionary
281
     1
  3
ACAD_GROUP
350
D
  3
ACAD_LAYOUT
350
1A
  3
ACAD_MATERIAL
350
3B
  3
ACAD_MLEADERSTYLE
350
EC
  3
ACAD_MLINESTYLE
350
17
  3
ACAD_PLOTSETTINGS
350
19
  3
ACAD_PLOTSTYLENAME
350
E
  3
ACAD_TABLESTYLE
350
EB
  3
ACAD_VISUALSTYLE
350
2A
  0
SUN
  5
3F
330
29
100
AcDbSun
 90
        1
290
     0
 63
     7
421
 16777215
 40
1.0
291
     1
 91
  2455826
 92
 54000000
292
     0
 70
     2
 71
   256
280
     1
  0
DICTIONARY
  5
D
102
{ACAD_REACTORS
330
C
102
}
330
C
100
AcDbDictionary
281
     1
  0
DICTIONARY
  5
1A
102
{ACAD_REACTORS
330
C
102
}
330
C
100
AcDbDictionary
281
     1
  3
Layout1
350
1E
  3
Layout2
350
26
  3
Model
350
22
  0
DICTIONARY
  5
3B
102
{ACAD_REACTORS
330
C
102
}
330
C
100
AcDbDictionary
281
     1
  3
ByBlock
350
3D
  3
ByLayer
350
3C
  3
Global
350
3E
  0
DICTIONARY
  5
EC
102
{ACAD_REACTORS
330
C
102
}
330
C
100
AcDbDictionary
281
     1
  0
DICTIONARY
  5
17
102
{ACAD_REACTORS
330
C
102
}
330
C
100
AcDbDictionary
281
     1
  3
Standard
350
18
  0
DICTIONARY
  5
19
102
{ACAD_REACTORS
330
C
102
}
330
C
100
AcDbDictionary
281
     1
  0
ACDBDICTIONARYWDFLT
  5
E
102
{ACAD_REACTORS
330
C
102
}
330
C
100
AcDbDictionary
281
     1
  3
Normal
350
F
100
AcDbDictionaryWithDefault
340
F
  0
DICTIONARY
  5
EB
102
{ACAD_REACTORS
330
C
102
}
330
C
100
AcDbDictionary
281
     1
  0
DICTIONARY
  5
2A
102
{ACAD_REACTORS
330
C
102
}
330
C
100
AcDbDictionary
281
     1
  3
2dWireframe
350
2F
  3
3D Hidden
350
31
  3
3dWireframe
350
30
  3
Basic
350
32
  3
Brighten
350
36
  3
ColorChange
350
3A
  3
Conceptual
350
34
  3
Dim
350
35
  3
Facepattern
350
39
  3
Flat
350
2B
  3
FlatWithEdges
350
2C
  3
Gouraud
350
2D
  3
GouraudWithEdges
350
2E
  3
Linepattern
350
38
  3
Realistic
350
33
  3
Thicken
350
37
  0
LAYOUT
  5
1E
102
{ACAD_REACTORS
330
1A
102
}
330
1A
100
AcDbPlotSettings
  1

  2
none_device
  4

  6

 40
0.0
 41
0.0
 42
0.0
 43
0.0
 44
0.0
 45
0.0
 46
0.0
 47
0.0
 48
0.0
 49
0.0
140
0.0
141
0.0
142
1.0
143
1.0
 70
   688
 72
     0
 73
     0
 74
     5
  7

 75
    16
 76
     0
 77
     2
 78
   300
147
1.0
148
0.0
149
0.0
100
AcDbLayout
  1
Layout1
 70
     1
 71
     1
 10
0.0
 20
0.0
 11
12.0
 21
9.0
 12
0.0
 22
0.0
 32
0.0
 14
1.000000000000000E+20
 24
1.000000000000000E+20
 34
1.000000000000000E+20
 15
-1.000000000000000E+20
 25
-1.000000000000000E+20
 35
-1.000000000000000E+20
146
0.0
 13
0.0
 23
0.0
 33
0.0
 16
1.0
 26
0.0
 36
0.0
 17
0.0
 27
1.0
 37
0.0
 76
     0
330
1B
  0
LAYOUT
  5
26
102
{ACAD_REACTORS
330
1A
102
}
330
1A
100
AcDbPlotSettings
  1

  2
none_device
  4

  6

 40
0.0
 41
0.0
 42
0.0
 43
0.0
 44
0.0
 45
0.0
 46
0.0
 47
0.0
 48
0.0
 49
0.0
140
0.0
141
0.0
142
1.0
143
1.0
 70
   688
 72
     0
 73
     0
 74
     5
  7

 75
    16
 76
     0
 77
     2
 78
   300
147
1.0
148
0.0
149
0.0
100
AcDbLayout
  1
Layout2
 70
     1
 71
     2
 10
0.0
 20
0.0
 11
0.0
 21
0.0
 12
0.0
 22
0.0
 32
0.0
 14
0.0
 24
0.0
 34
0.0
 15
0.0
 25
0.0
 35
0.0
146
0.0
 13
0.0
 23
0.0
 33
0.0
 16
1.0
 26
0.0
 36
0.0
 17
0.0
 27
1.0
 37
0.0
 76
     0
330
23
  0
LAYOUT
  5
22
102
{ACAD_REACTORS
330
1A
102
}
330
1A
100
AcDbPlotSettings
  1

  2
none_device
  4

  6

 40
0.0
 41
0.0
 42
0.0
 43
0.0
 44
0.0
 45
0.0
 46
0.0
 47
0.0
 48
0.0
 49
0.0
140
0.0
141
0.0
142
1.0
143
1.0
 70
  1712
 72
     0
 73
     0
 74
     0
  7

 75
     0
 76
     0
 77
     2
 78
   300
147
1.0
148
0.0
149
0.0
100
AcDbLayout
  1
Model
 70
     1
 71
     0
 10
0.0
 20
0.0
 11
12.0
 21
9.0
 12
0.0
 22
0.0
 32
0.0
 14
1.000000000000000E+20
 24
1.000000000000000E+20
 34
1.000000000000000E+20
 15
-1.000000000000000E+20
 25
-1.000000000000000E+20
 35
-1.000000000000000E+20
146
0.0
 13
0.0
 23
0.0
 33
0.0
 16
1.0
 26
0.0
 36
0.0
 17
0.0
 27
1.0
 37
0.0
 76
     0
330
1F
331
29
  0
MATERIAL
  5
3D
102
{ACAD_REACTORS
330
3B
102
}
330
3B
100
AcDbMaterial
  1
ByBlock
 72
     1
 94
      127
  0
MATERIAL
  5
3C
102
{ACAD_REACTORS
330
3B
102
}
330
3B
100
AcDbMaterial
  1
ByLayer
 72
     1
 94
      127
  0
MATERIAL
  5
3E
102
{ACAD_REACTORS
330
3B
102
}
330
3B
100
AcDbMaterial
  1
Global
 72
     1
 94
      127
  0
MLINESTYLE
  5
18
102
{ACAD_REACTORS
330
17
102
}
330
17
100
AcDbMlineStyle
  2
Standard
 70
     0
  3

 62
   256
 51
90.0
 52
90.0
 71
     2
 49
0.5
 62
   256
  6
BYLAYER
 49
-0.5
 62
   256
  6
BYLAYER
  0
ACDBPLACEHOLDER
  5
F
102
{ACAD_REACTORS
330
E
102
}
330
E
  0
VISUALSTYLE
  5
2F
102
{ACAD_REACTORS
330
2A
102
}
330
2A
100
AcDbVisualStyle
  2
2dWireframe
 70
     4
177
     2
291
     0
 71
     0
176
     1
 72
     2
176
     1
 73
     0
176
     1
 90
        0
176
     1
 40
-0.6
176
     1
 41
-30.0
176
     1
 62
     5
 63
     7
421
 16777215
176
     1
 74
     1
176
     1
 91
        4
176
     1
 64
     7
176
     1
 65
   257
176
     1
 75
     1
176
     1
175
     1
176
     1
 42
1.0
176
     1
 92
        0
176
     1
 66
   257
176
     1
 43
1.0
176
     1
 76
     1
176
     1
 77
     6
176
     1
 78
     2
176
     1
 67
     7
176
     1
 79
     5
176
     1
170
     0
176
     1
171
     0
176
     1
290
     0
176
     1
 93
        1
176
     1
 44
0.0
176
     1
173
     0
176
     1
  0
VISUALSTYLE
  5
31
102
{ACAD_REACTORS
330
2A
102
}
330
2A
100
AcDbVisualStyle
  2
3D Hidden
 70
     6
177
     2
291
     0
 71
     1
176
     1
 72
     2
176
     1
 73
     2
176
     1
 90
        0
176
     1
 40
-0.6
176
     1
 41
-30.0
176
     1
 62
     5
 63
     7
421
 16777215
176
     1
 74
     2
176
     1
 91
        2
176
     1
 64
     7
176
     1
 65
   257
176
     1
 75
     2
176
     1
175
     1
176
     1
 42
40.0
176
     1
 92
        0
176
     1
 66
   257
176
     1
 43
1.0
176
     1
 76
     1
176
     1
 77
     6
176
     1
 78
     2
176
     1
 67
     7
176
     1
 79
     3
176
     1
170
     0
176
     1
171
     0
176
     1
290
     0
176
     1
 93
        1
176
     1
 44
0.0
176
     1
173
     0
176
     1
  0
VISUALSTYLE
  5
30
102
{ACAD_REACTORS
330
2A
102
}
330
2A
100
AcDbVisualStyle
  2
3dWireframe
 70
     5
177
     2
291
     0
 71
     0
176
     1
 72
     2
176
     1
 73
     0
176
     1
 90
        0
176
     1
 40
-0.6
176
     1
 41
-30.0
176
     1
 62
     5
 63
     7
421
 16777215
176
     1
 74
     1
176
     1
 91
        4
176
     1
 64
     7
176
     1
 65
   257
176
     1
 75
     1
176
     1
175
     1
176
     1
 42
1.0
176
     1
 92
        0
176
     1
 66
   257
176
     1
 43
1.0
176
     1
 76
     1
176
     1
 77
     6
176
     1
 78
     2
176
     1
 67
     7
176
     1
 79
     5
176
     1
170
     0
176
     1
171
     0
176
     1
290
     0
176
     1
 93
        1
176
     1
 44
0.0
176
     1
173
     0
176
     1
  0
VISUALSTYLE
  5
32
102
{ACAD_REACTORS
330
2A
102
}
330
2A
100
AcDbVisualStyle
  2
Basic
 70
     7
177
     2
291
     1
 71
     1
176
     1
 72
     0
176
     1
 73
     1
176
     1
 90
        0
176
     1
 40
-0.6
176
     1
 41
-30.0
176
     1
 62
     5
 63
     7
421
 16777215
176
     1
 74
     0
176
     1
 91
        4
176
     1
 64
     7
176
     1
 65
   257
176
     1
 75
     1
176
     1
175
     1
176
     1
 42
1.0
176
     1
 92
        8
176
     1
 66
     7
176
     1
 43
1.0
176
     1
 76
     1
176
     1
 77
     6
176
     1
 78
     2
176
     1
 67
     7
176
     1
 79
     5
176
     1
170
     0
176
     1
171
     0
176
     1
290
     0
176
     1
 93
        1
176
     1
 44
0.0
176
     1
173
     0
176
     1
  0
VISUALSTYLE
  5
36
102
{ACAD_REACTORS
330
2A
102
}
330
2A
100
AcDbVisualStyle
  2
Brighten
 70
    12
177
     2
291
     1
 71
     2
176
     1
 72
     2
176
     1
 73
     0
176
     1
 90
        0
176
     1
 40
-0.6
176
     1
 41
-30.0
176
     1
 62
     5
 63
     7
421
 16777215
176
     1
 74
     1
176
     1
 91
        4
176
     1
 64
     7
176
     1
 65
   257
176
     1
 75
     1
176
     1
175
     1
176
     1
 42
1.0
176
     1
 92
        8
176
     1
 66
     7
176
     1
 43
1.0
176
     1
 76
     1
176
     1
 77
     6
176
     1
 78
     2
176
     1
 67
     7
176
     1
 79
     5
176
     1
170
     0
176
     1
171
     0
176
     1
290
     0
176
     1
 93
        1
176
     1
 44
50.0
176
     1
173
     0
176
     1
  0
VISUALSTYLE
  5
3A
102
{ACAD_REACTORS
330
2A
102
}
330
2A
100
AcDbVisualStyle
  2
ColorChange
 70
    16
177
     2
291
     1
 71
     2
176
     1
 72
     2
176
     1
 73
     3
176
     1
 90
        0
176
     1
 40
-0.6
176
     1
 41
-30.0
176
     1
 62
     5
 63
     8
421
  8421504
176
     1
 74
     1
176
     1
 91
        4
176
     1
 64
     7
176
     1
 65
   257
176
     1
 75
     1
176
     1
175
     1
176
     1
 42
1.0
176
     1
 92
        8
176
     1
 66
     8
424
  8421504
176
     1
 43
1.0
176
     1
 76
     1
176
     1
 77
     6
176
     1
 78
     2
176
     1
 67
     7
176
     1
 79
     5
176
     1
170
     0
176
     1
171
     0
176
     1
290
     0
176
     1
 93
        1
176
     1
 44
0.0
176
     1
173
     0
176
     1
  0
VISUALSTYLE
  5
34
102
{ACAD_REACTORS
330
2A
102
}
330
2A
100
AcDbVisualStyle
  2
Conceptual
 70
     9
177
     2
291
     0
 71
     3
176
     1
 72
     2
176
     1
 73
     0
176
     1
 90
        0
176
     1
 40
-0.6
176
     1
 41
-30.0
176
     1
 62
     5
 63
     7
421
 16777215
176
     1
 74
     2
176
     1
 91
        2
176
     1
 64
     7
176
     1
 65
   257
176
     1
 75
     1
176
     1
175
     1
176
     1
 42
40.0
176
     1
 92
        8
176
     1
 66
     7
176
     1
 43
1.0
176
     1
 76
     1
176
     1
 77
     6
176
     1
 78
     2
176
     1
 67
     7
176
     1
 79
     3
176
     1
170
     0
176
     1
171
     0
176
     1
290
     0
176
     1
 93
        1
176
     1
 44
0.0
176
     1
173
     0
176
     1
  0
VISUALSTYLE
  5
35
102
{ACAD_REACTORS
330
2A
102
}
330
2A
100
AcDbVisualStyle
  2
Dim
 70
    11
177
     2
291
     1
 71
     2
176
     1
 72
     2
176
     1
 73
     0
176
     1
 90
        0
176
     1
 40
-0.6
176
     1
 41
-30.0
176
     1
 62
     5
 63
     7
421
 16777215
176
     1
 74
     1
176
     1
 91
        4
176
     1
 64
     7
176
     1
 65
   257
176
     1
 75
     1
176
     1
175
     1
176
     1
 42
1.0
176
     1
 92
        8
176
     1
 66
     7
176
     1
 43
1.0
176
     1
 76
     1
176
     1
 77
     6
176
     1
 78
     2
176
     1
 67
     7
176
     1
 79
     5
176
     1
170
     0
176
     1
171
     0
176
     1
290
     0
176
     1
 93
        1
176
     1
 44
-50.0
176
     1
173
     0
176
     1
  0
VISUALSTYLE
  5
39
102
{ACAD_REACTORS
330
2A
102
}
330
2A
100
AcDbVisualStyle
  2
Facepattern
 70
    15
177
     2
291
     1
 71
     2
176
     1
 72
     2
176
     1
 73
     0
176
     1
 90
        0
176
     1
 40
-0.6
176
     1
 41
-30.0
176
     1
 62
     5
 63
     7
421
 16777215
176
     1
 74
     1
176
     1
 91
        4
176
     1
 64
     7
176
     1
 65
   257
176
     1
 75
     1
176
     1
175
     1
176
     1
 42
1.0
176
     1
 92
        8
176
     1
 66
     7
176
     1
 43
1.0
176
     1
 76
     1
176
     1
 77
     6
176
     1
 78
     2
176
     1
 67
     7
176
     1
 79
     5
176
     1
170
     0
176
     1
171
     0
176
     1
290
     0
176
     1
 93
        1
176
     1
 44
0.0
176
     1
173
     0
176
     1
  0
VISUALSTYLE
  5
2B
102
{ACAD_REACTORS
330
2A
102
}
330
2A
100
AcDbVisualStyle
  2
Flat
 70
     0
177
     2
291
     1
 71
     2
176
     1
 72
     1
176
     1
 73
     1
176
     1
 90
        2
176
     1
 40
-0.6
176
     1
 41
30.0
176
     1
 62
     5
 63
     7
421
 16777215
176
     1
 74
     0
176
     1
 91
        4
176
     1
 64
     7
176
     1
 65
   257
176
     1
 75
     1
176
     1
175
     1
176
     1
 42
1.0
176
     1
 92
        8
176
     1
 66
     7
176
     1
 43
1.0
176
     1
 76
     1
176
     1
 77
     6
176
     1
 78
     2
176
     1
 67
     7
176
     1
 79
     5
176
     1
170
     0
176
     1
171
     0
176
     1
290
     0
176
     1
 93
       13
176
     1
 44
0.0
176
     1
173
     0
176
     1
  0
VISUALSTYLE
  5
2C
102
{ACAD_REACTORS
330
2A
102
}
330
2A
100
AcDbVisualStyle
  2
FlatWithEdges
 70
     1
177
     2
291
     1
 71
     2
176
     1
 72
     1
176
     1
 73
     1
176
     1
 90
        2
176
     1
 40
-0.6
176
     1
 41
30.0
176
     1
 62
     5
 63
     7
421
 16777215
176
     1
 74
     1
176
     1
 91
        4
176
     1
 64
     7
176
     1
 65
   257
176
     1
 75
     1
176
     1
175
     1
176
     1
 42
1.0
176
     1
 92
        0
176
     1
 66
   257
176
     1
 43
1.0
176
     1
 76
     1
176
     1
 77
     6
176
     1
 78
     2
176
     1
 67
     7
176
     1
 79
     5
176
     1
170
     0
176
     1
171
     0
176
     1
290
     0
176
     1
 93
       13
176
     1
 44
0.0
176
     1
173
     0
176
     1
  0
VISUALSTYLE
  5
2D
102
{ACAD_REACTORS
330
2A
102
}
330
2A
100
AcDbVisualStyle
  2
Gouraud
 70
     2
177
     2
291
     1
 71
     2
176
     1
 72
     2
176
     1
 73
     1
176
     1
 90
        2
176
     1
 40
-0.6
176
     1
 41
30.0
176
     1
 62
     5
 63
     7
421
 16777215
176
     1
 74
     0
176
     1
 91
        4
176
     1
 64
     7
176
     1
 65
   257
176
     1
 75
     1
176
     1
175
     1
176
     1
 42
1.0
176
     1
 92
        0
176
     1
 66
     7
176
     1
 43
1.0
176
     1
 76
     1
176
     1
 77
     6
176
     1
 78
     2
176
     1
 67
     7
176
     1
 79
     5
176
     1
170
     0
176
     1
171
     0
176
     1
290
     0
176
     1
 93
       13
176
     1
 44
0.0
176
     1
173
     0
176
     1
  0
VISUALSTYLE
  5
2E
102
{ACAD_REACTORS
330
2A
102
}
330
2A
100
AcDbVisualStyle
  2
GouraudWithEdges
 70
     3
177
     2
291
     1
 71
     2
176
     1
 72
     2
176
     1
 73
     1
176
     1
 90
        2
176
     1
 40
-0.6
176
     1
 41
30.0
176
     1
 62
     5
 63
     7
421
 16777215
176
     1
 74
     1
176
     1
 91
        4
176
     1
 64
     7
176
     1
 65
   257
176
     1
 75
     1
176
     1
175
     1
176
     1
 42
1.0
176
     1
 92
        0
176
     1
 66
   257
176
     1
 43
1.0
176
     1
 76
     1
176
     1
 77
     6
176
     1
 78
     2
176
     1
 67
     7
176
     1
 79
     5
176
     1
170
     0
176
     1
171
     0
176
     1
290
     0
176
     1
 93
       13
176
     1
 44
0.0
176
     1
173
     0
176
     1
  0
VISUALSTYLE
  5
38
102
{ACAD_REACTORS
330
2A
102
}
330
2A
100
AcDbVisualStyle
  2
Linepattern
 70
    14
177
     2
291
     1
 71
     2
176
     1
 72
     2
176
     1
 73
     0
176
     1
 90
        0
176
     1
 40
-0.6
176
     1
 41
-30.0
176
     1
 62
     5
 63
     7
421
 16777215
176
     1
 74
     1
176
     1
 91
        4
176
     1
 64
     7
176
     1
 65
   257
176
     1
 75
     7
176
     1
175
     7
176
     1
 42
1.0
176
     1
 92
        8
176
     1
 66
     7
176
     1
 43
1.0
176
     1
 76
     1
176
     1
 77
     6
176
     1
 78
     2
176
     1
 67
     7
176
     1
 79
     5
176
     1
170
     0
176
     1
171
     0
176
     1
290
     0
176
     1
 93
        1
176
     1
 44
0.0
176
     1
173
     0
176
     1
  0
VISUALSTYLE
  5
33
102
{ACAD_REACTORS
330
2A
102
}
330
2A
100
AcDbVisualStyle
  2
Realistic
 70
     8
177
     2
291
     0
 71
     2
176
     1
 72
     2
176
     1
 73
     0
176
     1
 90
        0
176
     1
 40
-0.6
176
     1
 41
-30.0
176
     1
 62
     5
 63
     7
421
 16777215
176
     1
 74
     1
176
     1
 91
        0
176
     1
 64
     7
176
     1
 65
   257
176
     1
 75
     1
176
     1
175
     1
176
     1
 42
1.0
176
     1
 92
        8
176
     1
 66
     8
424
  7895160
176
     1
 43
1.0
176
     1
 76
     1
176
     1
 77
     6
176
     1
 78
     2
176
     1
 67
     7
176
     1
 79
     5
176
     1
170
     0
176
     1
171
     0
176
     1
290
     0
176
     1
 93
       13
176
     1
 44
0.0
176
     1
173
     0
176
     1
  0
VISUALSTYLE
  5
37
102
{ACAD_REACTORS
330
2A
102
}
330
2A
100
AcDbVisualStyle
  2
Thicken
 70
    13
177
     2
291
     1
 71
     2
176
     1
 72
     2
176
     1
 73
     0
176
     1
 90
        0
176
     1
 40
-0.6
176
     1
 41
-30.0
176
     1
 62
     5
 63
     7
421
 16777215
176
     1
 74
     1
176
     1
 91
        4
176
     1
 64
     7
176
     1
 65
   257
176
     1
 75
     1
176
     1
175
     1
176
     1
 42
1.0
176
     1
 92
       12
176
     1
 66
     7
176
     1
 43
1.0
176
     1
 76
     1
176
     1
 77
     6
176
     1
 78
     2
176
     1
 67
     7
176
     1
 79
     5
176
     1
170
     0
176
     1
171
     0
176
     1
290
     0
176
     1
 93
        1
176
     1
 44
0.0
176
     1
173
     0
176
     1
  0
ENDSEC
  0
EOF
