  0
SECTION
  2
HEADER
  9
$ACADVER
  1
AC1024
  9
$ACADMAINTVER
 70
     6
  9
$DWGCODEPAGE
  3
UNDEFINED
  9
$INSBASE
 10
0.0
 20
0.0
 30
0.0
  9
$EXTMIN
 10
1.000000000000000E+20
 20
1.000000000000000E+20
 30
1.000000000000000E+20
  9
$EXTMAX
 10
-1.000000000000000E+20
 20
-1.000000000000000E+20
 30
-1.000000000000000E+20
  9
$LIMMIN
 10
0.0
 20
0.0
  9
$LIMMAX
 10
12.0
 20
9.0
  9
$ORTHOMODE
 70
     0
  9
$REGENMODE
 70
     1
  9
$FILLMODE
 70
     1
  9
$QTEXTMODE
 70
     0
  9
$MIRRTEXT
 70
     1
  9
$LTSCALE
 40
1.0
  9
$ATTMODE
 70
     1
  9
$TEXTSIZE
 40
0.2
  9
$TRACEWID
 40
0.05
  9
$TEXTSTYLE
  7
Standard
  9
$CLAYER
  8
0
  9
$CELTYPE
  6
ByLayer
  9
$CECOLOR
 62
   256
  9
$CELTSCALE
 40
1.0
  9
$DISPSILH
 70
     0
  9
$DIMSCALE
 40
1.0
  9
$DIMASZ
 40
0.18
  9
$DIMEXO
 40
0.0625
  9
$DIMDLI
 40
0.38
  9
$DIMRND
 40
0.0
  9
$DIMDLE
 40
0.0
  9
$DIMEXE
 40
0.18
  9
$DIMTP
 40
0.0
  9
$DIMTM
 40
0.0
  9
$DIMTXT
 40
0.18
  9
$DIMCEN
 40
0.09
  9
$DIMTSZ
 40
0.0
  9
$DIMTOL
 70
     0
  9
$DIMLIM
 70
     0
  9
$DIMTIH
 70
     1
  9
$DIMTOH
 70
     1
  9
$DIMSE1
 70
     0
  9
$DIMSE2
 70
     0
  9
$DIMTAD
 70
     0
  9
$DIMZIN
 70
     0
  9
$DIMBLK
  1

  9
$DIMASO
 70
     1
  9
$DIMSHO
 70
     1
  9
$DIMPOST
  1

  9
$DIMAPOST
  1

  9
$DIMALT
 70
     0
  9
$DIMALTD
 70
     2
  9
$DIMALTF
 40
25.4
  9
$DIMLFAC
 40
1.0
  9
$DIMTOFL
 70
     0
  9
$DIMTVP
 40
0.0
  9
$DIMTIX
 70
     0
  9
$DIMSOXD
 70
     0
  9
$DIMSAH
 70
     0
  9
$DIMBLK1
  1

  9
$DIMBLK2
  1

  9
$DIMSTYLE
  2
Standard
  9
$DIMCLRD
 70
     0
  9
$DIMCLRE
 70
     0
  9
$DIMCLRT
 70
     0
  9
$DIMTFAC
 40
1.0
  9
$DIMGAP
 40
0.09
  9
$DIMJUST
 70
     0
  9
$DIMSD1
 70
     0
  9
$DIMSD2
 70
     0
  9
$DIMTOLJ
 70
     1
  9
$DIMTZIN
 70
     0
  9
$DIMALTZ
 70
     0
  9
$DIMALTTZ
 70
     0
  9
$DIMUPT
 70
     0
  9
$DIMDEC
 70
     4
  9
$DIMTDEC
 70
     4
  9
$DIMALTU
 70
     2
  9
$DIMALTTD
 70
     2
  9
$DIMTXSTY
  7
Standard
  9
$DIMAUNIT
 70
     0
  9
$DIMADEC
 70
     0
  9
$DIMALTRND
 40
0.0
  9
$DIMAZIN
 70
     0
  9
$DIMDSEP
 70
    46
  9
$DIMATFIT
 70
     3
  9
$DIMFRAC
 70
     0
  9
$DIMLDRBLK
  1

  9
$DIMLUNIT
 70
     2
  9
$DIMLWD
 70
    -2
  9
$DIMLWE
 70
    -2
  9
$DIMTMOVE
 70
     0
  9
$DIMFXL
 40
1.0
  9
$DIMFXLON
 70
     0
  9
$DIMJOGANG
 40
0.7853981633974483
  9
$DIMTFILL
 70
     0
  9
$DIMTFILLCLR
 70
     0
  9
$DIMARCSYM
 70
     0
  9
$DIMLTYPE
  6

  9
$DIMLTEX1
  6

  9
$DIMLTEX2
  6

  9
$DIMTXTDIRECTION
 70
     0
  9
$LUNITS
 70
     2
  9
$LUPREC
 70
     4
  9
$SKETCHINC
 40
0.1
  9
$FILLETRAD
 40
0.5
  9
$AUNITS
 70
     0
  9
$AUPREC
 70
     0
  9
$MENU
  1
.
  9
$ELEVATION
 40
0.0
  9
$PELEVATION
 40
0.0
  9
$THICKNESS
 40
0.0
  9
$LIMCHECK
 70
     0
  9
$CHAMFERA
 40
0.5
  9
$CHAMFERB
 40
0.5
  9
$CHAMFERC
 40
1.0
  9
$CHAMFERD
 40
0.0
  9
$SKPOLY
 70
     0
  9
$TDCREATE
 40
2457917.613437488
  9
$TDUCREATE
 40
2457917.2384375
  9
$TDUPDATE
 40
2457917.613437488
  9
$TDUUPDATE
 40
2457917.2384375
  9
$TDINDWG
 40
0.0000000116
  9
$TDUSRTIMER
 40
0.0000000116
  9
$USRTIMER
 70
     1
  9
$ANGBASE
 50
0.0
  9
$ANGDIR
 70
     0
  9
$PDMODE
 70
     0
  9
$PDSIZE
 40
0.0
  9
$PLINEWID
 40
0.0
  9
$SPLFRAME
 70
     0
  9
$SPLINETYPE
 70
     6
  9
$SPLINESEGS
 70
     8
  9
$HANDSEED
  5
136
  9
$SURFTAB1
 70
     6
  9
$SURFTAB2
 70
     6
  9
$SURFTYPE
 70
     6
  9
$SURFU
 70
     6
  9
$SURFV
 70
     6
  9
$UCSBASE
  2

  9
$UCSNAME
  2

  9
$UCSORG
 10
0.0
 20
0.0
 30
0.0
  9
$UCSXDIR
 10
1.0
 20
0.0
 30
0.0
  9
$UCSYDIR
 10
0.0
 20
1.0
 30
0.0
  9
$UCSORTHOREF
  2

  9
$UCSORTHOVIEW
 70
     0
  9
$UCSORGTOP
 10
0.0
 20
0.0
 30
0.0
  9
$UCSORGBOTTOM
 10
0.0
 20
0.0
 30
0.0
  9
$UCSORGLEFT
 10
0.0
 20
0.0
 30
0.0
  9
$UCSORGRIGHT
 10
0.0
 20
0.0
 30
0.0
  9
$UCSORGFRONT
 10
0.0
 20
0.0
 30
0.0
  9
$UCSORGBACK
 10
0.0
 20
0.0
 30
0.0
  9
$PUCSBASE
  2

  9
$PUCSNAME
  2

  9
$PUCSORG
 10
0.0
 20
0.0
 30
0.0
  9
$PUCSXDIR
 10
1.0
 20
0.0
 30
0.0
  9
$PUCSYDIR
 10
0.0
 20
1.0
 30
0.0
  9
$PUCSORTHOREF
  2

  9
$PUCSORTHOVIEW
 70
     0
  9
$PUCSORGTOP
 10
0.0
 20
0.0
 30
0.0
  9
$PUCSORGBOTTOM
 10
0.0
 20
0.0
 30
0.0
  9
$PUCSORGLEFT
 10
0.0
 20
0.0
 30
0.0
  9
$PUCSORGRIGHT
 10
0.0
 20
0.0
 30
0.0
  9
$PUCSORGFRONT
 10
0.0
 20
0.0
 30
0.0
  9
$PUCSORGBACK
 10
0.0
 20
0.0
 30
0.0
  9
$USERI1
 70
     0
  9
$USERI2
 70
     0
  9
$USERI3
 70
     0
  9
$USERI4
 70
     0
  9
$USERI5
 70
     0
  9
$USERR1
 40
0.0
  9
$USERR2
 40
0.0
  9
$USERR3
 40
0.0
  9
$USERR4
 40
0.0
  9
$USERR5
 40
0.0
  9
$WORLDVIEW
 70
     1
  9
$SHADEDGE
 70
     3
  9
$SHADEDIF
 70
    70
  9
$TILEMODE
 70
     1
  9
$MAXACTVP
 70
    64
  9
$PINSBASE
 10
0.0
 20
0.0
 30
0.0
  9
$PLIMCHECK
 70
     0
  9
$PEXTMIN
 10
1.000000000000000E+20
 20
1.000000000000000E+20
 30
1.000000000000000E+20
  9
$PEXTMAX
 10
-1.000000000000000E+20
 20
-1.000000000000000E+20
 30
-1.000000000000000E+20
  9
$PLIMMIN
 10
0.0
 20
0.0
  9
$PLIMMAX
 10
12.0
 20
9.0
  9
$UNITMODE
 70
     0
  9
$VISRETAIN
 70
     1
  9
$PLINEGEN
 70
     0
  9
$PSLTSCALE
 70
     1
  9
$TREEDEPTH
 70
  3020
  9
$CMLSTYLE
  2
Standard
  9
$CMLJUST
 70
     0
  9
$CMLSCALE
 40
1.0
  9
$PROXYGRAPHICS
 70
     1
  9
$MEASUREMENT
 70
     0
  9
$CELWEIGHT
370
    -1
  9
$ENDCAPS
280
     0
  9
$JOINSTYLE
280
     0
  9
$LWDISPLAY
290
     1
  9
$INSUNITS
 70
     1
  9
$HYPERLINKBASE
  1

  9
$STYLESHEET
  1

  9
$XEDIT
290
     1
  9
$CEPSNTYPE
380
     0
  9
$PSTYLEMODE
290
     1
  9
$FINGERPRINTGUID
  2
{E7D0DAE0-3C5C-6E91-948B-B054F23C2225}
  9
$VERSIONGUID
  2
{FAEB1C32-E019-11D5-929B-00C0DF256EC4}
  9
$EXTNAMES
290
     1
  9
$PSVPSCALE
 40
0.0
  9
$OLESTARTUP
290
     0
  9
$SORTENTS
280
   127
  9
$INDEXCTL
280
     0
  9
$HIDETEXT
280
     1
  9
$XCLIPFRAME
280
     2
  9
$HALOGAP
280
     0
  9
$OBSCOLOR
 70
   257
  9
$OBSLTYPE
280
     0
  9
$INTERSECTIONDISPLAY
280
     0
  9
$INTERSECTIONCOLOR
 70
   257
  9
$DIMASSOC
280
     2
  9
$PROJECTNAME
  1

  9
$CAMERADISPLAY
290
     0
  9
$LENSLENGTH
 40
50.0
  9
$CAMERAHEIGHT
 40
0.0
  9
$STEPSPERSEC
 40
2.0
  9
$STEPSIZE
 40
6.0
  9
$3DDWFPREC
 40
2.0
  9
$PSOLWIDTH
 40
0.25
  9
$PSOLHEIGHT
 40
4.0
  9
$LOFTANG1
 40
1.570796326794897
  9
$LOFTANG2
 40
1.570796326794897
  9
$LOFTMAG1
 40
0.0
  9
$LOFTMAG2
 40
0.0
  9
$LOFTPARAM
 70
     7
  9
$LOFTNORMALS
280
     1
  9
$LATITUDE
 40
37.795
  9
$LONGITUDE
 40
-122.394
  9
$NORTHDIRECTION
 40
0.0
  9
$TIMEZONE
 70
 -8000
  9
$LIGHTGLYPHDISPLAY
280
     1
  9
$TILEMODELIGHTSYNCH
280
     1
  9
$CMATERIAL
347
3C
  9
$SOLIDHIST
280
     1
  9
$SHOWHIST
280
     1
  9
$DWFFRAME
280
     2
  9
$DGNFRAME
280
     2
  9
$REALWORLDSCALE
290
     1
  9
$INTERFERECOLOR
 62
   256
  9
$CSHADOW
280
     0
  9
$SHADOWPLANELOCATION
 40
0.0
  0
ENDSEC
  0
SECTION
  2
CLASSES
  0
CLASS
  1
ACDBDICTIONARYWDFLT
  2
AcDbDictionaryWithDefault
  3
ObjectDBX Classes
 90
        0
 91
        4
280
     0
281
     0
  0
CLASS
  1
VISUALSTYLE
  2
AcDbVisualStyle
  3
ObjectDBX Classes
 90
     4095
 91
        4
280
     0
281
     0
  0
CLASS
  1
MATERIAL
  2
AcDbMaterial
  3
ObjectDBX Classes
 90
     1153
 91
        4
280
     0
281
     0
  0
CLASS
  1
SUN
  2
AcDbSun
  3
SCENEOE
 90
     1024
 91
        4
280
     0
281
     0
  0
ENDSEC
  0
SECTION
  2
TABLES
  0
TABLE
  2
VPORT
  5
8
330
0
100
AcDbSymbolTable
 70
     1
  0
VPORT
  5
29
330
8
100
AcDbSymbolTableRecord
100
AcDbViewportTableRecord
  2
*Active
 70
     0
 10
0.0
 20
0.0
 11
1.0
 21
1.0
 12
0.0
 22
0.0
 13
0.0
 23
0.0
 14
0.5
 24
0.5
 15
0.5
 25
0.5
 16
0.0
 26
0.0
 36
1.0
 17
91.00082462281999
 27
-128.4993055234307
 37
0.0
 40
256.9986110468615
 41
0.7081814508812795
 42
50.0
 43
0.0
 44
0.0
 50
0.0
 51
0.0
 71
     0
 72
   100
 73
     1
 74
     3
 75
     0
 76
     0
 77
     0
 78
     0
281
     0
 65
     1
110
0.0
120
0.0
130
0.0
111
1.0
121
0.0
131
0.0
112
0.0
122
1.0
132
0.0
 79
     0
146
0.0
 60
     3
 61
     5
292
     1
282
     1
141
0.0
142
0.0
 63
   250
361
3F
  0
ENDTAB
  0
TABLE
  2
LTYPE
  5
5
330
0
100
AcDbSymbolTable
 70
     1
  0
LTYPE
  5
14
330
5
100
AcDbSymbolTableRecord
100
AcDbLinetypeTableRecord
  2
ByBlock
 70
     0
  3

 72
    65
 73
     0
 40
0.0
  0
LTYPE
  5
15
330
5
100
AcDbSymbolTableRecord
100
AcDbLinetypeTableRecord
  2
ByLayer
 70
     0
  3

 72
    65
 73
     0
 40
0.0
  0
LTYPE
  5
16
330
5
100
AcDbSymbolTableRecord
100
AcDbLinetypeTableRecord
  2
Continuous
 70
     0
  3
Solid line
 72
    65
 73
     0
 40
0.0
  0
ENDTAB
  0
TABLE
  2
LAYER
  5
2
330
0
100
AcDbSymbolTable
 70
     2
  0
LAYER
  5
10
330
2
100
AcDbSymbolTableRecord
100
AcDbLayerTableRecord
  2
0
 70
     0
 62
     7
  6
Continuous
370
    -3
390
F
347
3E
  0
LAYER
  5
40
330
2
100
AcDbSymbolTableRecord
100
AcDbLayerTableRecord
  2
_U+30EC_U+30A4_U+30E4_U+30FC 1
 70
     0
 62
     7
  6
Continuous
370
    -3
390
F
347
3E
  0
ENDTAB
  0
TABLE
  2
STYLE
  5
3
330
0
100
AcDbSymbolTable
 70
     1
  0
STYLE
  5
11
330
3
100
AcDbSymbolTableRecord
100
AcDbTextStyleTableRecord
  2
Standard
 70
     0
 40
0.0
 41
1.0
 50
0.0
 71
     0
 42
0.2
  3
txt
  4

  0
ENDTAB
  0
TABLE
  2
VIEW
  5
6
330
0
100
AcDbSymbolTable
 70
     0
  0
ENDTAB
  0
TABLE
  2
UCS
  5
7
330
0
100
AcDbSymbolTable
 70
     0
  0
ENDTAB
  0
TABLE
  2
APPID
  5
9
330
0
100
AcDbSymbolTable
 70
     1
  0
APPID
  5
12
330
9
100
AcDbSymbolTableRecord
100
AcDbRegAppTableRecord
  2
ACAD
 70
     0
  0
ENDTAB
  0
TABLE
  2
DIMSTYLE
  5
A
330
0
100
AcDbSymbolTable
 70
     1
100
AcDbDimStyleTable
  0
DIMSTYLE
105
27
330
A
100
AcDbSymbolTableRecord
100
AcDbDimStyleTableRecord
  2
Standard
 70
     0
178
     0
340
11
  0
ENDTAB
  0
TABLE
  2
BLOCK_RECORD
  5
1
330
0
100
AcDbSymbolTable
 70
     7
  0
BLOCK_RECORD
  5
1F
330
1
100
AcDbSymbolTableRecord
100
AcDbBlockTableRecord
  2
*Model_Space
340
22
 70
     0
280
     1
281
     0
  0
BLOCK_RECORD
  5
1B
330
1
100
AcDbSymbolTableRecord
100
AcDbBlockTableRecord
  2
*Paper_Space
340
1E
 70
     0
280
     1
281
     0
  0
BLOCK_RECORD
  5
23
330
1
100
AcDbSymbolTableRecord
100
AcDbBlockTableRecord
  2
*Paper_Space0
340
26
 70
     0
280
     1
281
     0
  0
BLOCK_RECORD
  5
D0
330
1
100
AcDbSymbolTableRecord
100
AcDbBlockTableRecord
  2
block 2
340
0
102
{BLKREFS
331
D1
102
}
 70
     0
280
     1
281
     0
  0
BLOCK_RECORD
  5
D8
330
1
100
AcDbSymbolTableRecord
100
AcDbBlockTableRecord
  2
block 3
340
0
102
{BLKREFS
331
D9
102
}
 70
     0
280
     1
281
     0
  0
BLOCK_RECORD
  5
FB
330
1
100
AcDbSymbolTableRecord
100
AcDbBlockTableRecord
  2
block 4
340
0
102
{BLKREFS
331
FC
102
}
 70
     0
280
     1
281
     0
  0
BLOCK_RECORD
  5
103
330
1
100
AcDbSymbolTableRecord
100
AcDbBlockTableRecord
  2
block 5
340
0
102
{BLKREFS
331
104
102
}
 70
     0
280
     1
281
     0
  0
BLOCK_RECORD
  5
10B
330
1
100
AcDbSymbolTableRecord
100
AcDbBlockTableRecord
  2
block 6
340
0
102
{BLKREFS
331
10C
102
}
 70
     0
280
     1
281
     0
  0
BLOCK_RECORD
  5
111
330
1
100
AcDbSymbolTableRecord
100
AcDbBlockTableRecord
  2
block 7
340
0
102
{BLKREFS
331
112
102
}
 70
     0
280
     1
281
     0
  0
ENDTAB
  0
ENDSEC
  0
SECTION
  2
BLOCKS
  0
BLOCK
  5
20
330
1F
100
AcDbEntity
  8
0
100
AcDbBlockBegin
  2
*Model_Space
 70
     0
 10
0.0
 20
0.0
 30
0.0
  3
*Model_Space
  1

  0
ENDBLK
  5
21
330
1F
100
AcDbEntity
  8
0
100
AcDbBlockEnd
  0
BLOCK
  5
1C
330
1B
100
AcDbEntity
 67
     1
  8
0
100
AcDbBlockBegin
  2
*Paper_Space
 70
     0
 10
0.0
 20
0.0
 30
0.0
  3
*Paper_Space
  1

  0
ENDBLK
  5
1D
330
1B
100
AcDbEntity
 67
     1
  8
0
100
AcDbBlockEnd
  0
BLOCK
  5
24
330
23
100
AcDbEntity
  8
0
100
AcDbBlockBegin
  2
*Paper_Space0
 70
     0
 10
0.0
 20
0.0
 30
0.0
  3
*Paper_Space0
  1

  0
ENDBLK
  5
25
330
23
100
AcDbEntity
  8
0
100
AcDbBlockEnd
  0
BLOCK
  5
D2
330
D0
100
AcDbEntity
  8
0
100
AcDbBlockBegin
  2
block 2
 70
     0
 10
0.0
 20
0.0
 30
0.0
  3
block 2
  1

  0
SPLINE
  5
D4
330
D0
100
AcDbEntity
  8
_U+30EC_U+30A4_U+30E4_U+30FC 1
370
     0
100
AcDbSpline
210
0.0
220
0.0
230
1.0
 70
    11
 71
     3
 72
    26
 73
    22
 74
     0
 42
0.0000000001
 43
0.0000000001
 12
1.0
 22
0.0
 32
0.0
 13
1.0
 23
0.0
 33
0.0
 40
0.0
 40
0.0
 40
0.0
 40
0.0
 40
1.0
 40
1.0
 40
1.0
 40
2.0
 40
2.0
 40
2.0
 40
3.0
 40
3.0
 40
3.0
 40
4.0
 40
4.0
 40
4.0
 40
5.0
 40
5.0
 40
5.0
 40
6.0
 40
6.0
 40
6.0
 40
7.0
 40
7.0
 40
7.0
 40
7.0
 10
81.12648652485727
 20
-139.5914794572896
 30
0.0
 10
81.12648652485727
 20
-139.5914794572896
 30
0.0
 10
80.0223334218347
 20
-139.5914794572896
 30
0.0
 10
80.0223334218347
 20
-139.5914794572896
 30
0.0
 10
80.0223334218347
 20
-139.5914794572896
 30
0.0
 10
80.0223334218347
 20
-139.8829345353418
 30
0.0
 10
80.0223334218347
 20
-139.8829345353418
 30
0.0
 10
80.0223334218347
 20
-139.8829345353418
 30
0.0
 10
79.87419431596895
 20
-139.8829345353418
 30
0.0
 10
79.87419431596895
 20
-139.8829345353418
 30
0.0
 10
79.85938040538238
 20
-139.589756909547
 30
0.0
 10
79.69642738893006
 20
-139.5487602732725
 30
0.0
 10
79.58205021881977
 20
-139.5225775475846
 30
0.0
 10
79.58205021881977
 20
-139.5225775475846
 30
0.0
 10
79.58205021881977
 20
-139.3937309764363
 30
0.0
 10
79.58205021881977
 20
-139.3937309764363
 30
0.0
 10
79.58205021881977
 20
-139.3937309764363
 30
0.0
 10
81.12648652485727
 20
-139.3937309764363
 30
0.0
 10
81.12648652485727
 20
-139.3937309764363
 30
0.0
 10
81.12648652485727
 20
-139.3937309764363
 30
0.0
 10
81.12648652485727
 20
-139.5914794572896
 30
0.0
 10
81.12648652485727
 20
-139.5914794572896
 30
0.0
  0
HATCH
  5
D5
330
D0
100
AcDbEntity
  8
_U+30EC_U+30A4_U+30E4_U+30FC 1
 62
   179
420
  2234388
100
AcDbHatch
 10
0.0
 20
0.0
 30
0.0
210
0.0
220
0.0
230
1.0
  2
SOLID
 70
     1
 71
     0
 91
        1
 92
        1
 93
        1
 72
     4
 94
        3
 73
     0
 74
     1
 95
       26
 96
       22
 40
0.0
 40
0.0
 40
0.0
 40
0.0
 40
1.0
 40
1.0
 40
1.0
 40
2.0
 40
2.0
 40
2.0
 40
3.0
 40
3.0
 40
3.0
 40
4.0
 40
4.0
 40
4.0
 40
5.0
 40
5.0
 40
5.0
 40
6.0
 40
6.0
 40
6.0
 40
7.0
 40
7.0
 40
7.0
 40
7.0
 10
81.12648652485727
 20
-139.5914794572896
 10
81.12648652485727
 20
-139.5914794572896
 10
80.0223334218347
 20
-139.5914794572896
 10
80.0223334218347
 20
-139.5914794572896
 10
80.0223334218347
 20
-139.5914794572896
 10
80.0223334218347
 20
-139.8829345353418
 10
80.0223334218347
 20
-139.8829345353418
 10
80.0223334218347
 20
-139.8829345353418
 10
79.87419431596895
 20
-139.8829345353418
 10
79.87419431596895
 20
-139.8829345353418
 10
79.85938040538238
 20
-139.589756909547
 10
79.69642738893006
 20
-139.5487602732725
 10
79.58205021881977
 20
-139.5225775475846
 10
79.58205021881977
 20
-139.5225775475846
 10
79.58205021881977
 20
-139.3937309764363
 10
79.58205021881977
 20
-139.3937309764363
 10
79.58205021881977
 20
-139.3937309764363
 10
81.12648652485727
 20
-139.3937309764363
 10
81.12648652485727
 20
-139.3937309764363
 10
81.12648652485727
 20
-139.3937309764363
 10
81.12648652485727
 20
-139.5914794572896
 10
81.12648652485727
 20
-139.5914794572896
 97
        0
 97
        0
 75
     2
 76
     1
 98
        0
  0
SPLINE
  5
D6
330
D0
100
AcDbEntity
  8
_U+30EC_U+30A4_U+30E4_U+30FC 1
370
     0
100
AcDbSpline
210
0.0
220
0.0
230
1.0
 70
    11
 71
     3
 72
    62
 73
    58
 74
     0
 42
0.0000000001
 43
0.0000000001
 12
1.0
 22
0.0
 32
0.0
 13
1.0
 23
0.0
 33
0.0
 40
0.0
 40
0.0
 40
0.0
 40
0.0
 40
1.0
 40
1.0
 40
1.0
 40
2.0
 40
2.0
 40
2.0
 40
3.0
 40
3.0
 40
3.0
 40
4.0
 40
4.0
 40
4.0
 40
5.0
 40
5.0
 40
5.0
 40
6.0
 40
6.0
 40
6.0
 40
7.0
 40
7.0
 40
7.0
 40
8.0
 40
8.0
 40
8.0
 40
9.0
 40
9.0
 40
9.0
 40
10.0
 40
10.0
 40
10.0
 40
11.0
 40
11.0
 40
11.0
 40
12.0
 40
12.0
 40
12.0
 40
13.0
 40
13.0
 40
13.0
 40
14.0
 40
14.0
 40
14.0
 40
15.0
 40
15.0
 40
15.0
 40
16.0
 40
16.0
 40
16.0
 40
17.0
 40
17.0
 40
17.0
 40
18.0
 40
18.0
 40
18.0
 40
19.0
 40
19.0
 40
19.0
 40
19.0
 10
81.17712942849045
 20
-138.5162651563432
 30
0.0
 10
81.17712942849045
 20
-138.6003254861833
 30
0.0
 10
81.15611434603042
 20
-138.7929063238087
 30
0.0
 10
80.97007918982693
 20
-138.9031493793367
 30
0.0
 10
80.85776907700779
 20
-138.9682616840079
 30
0.0
 10
80.7585503270326
 20
-138.9720512890417
 30
0.0
 10
80.67380097809544
 20
-138.9758408940755
 30
0.0
 10
80.67380097809544
 20
-138.9758408940755
 30
0.0
 10
80.67380097809544
 20
-138.7815375087074
 30
0.0
 10
80.67380097809544
 20
-138.7815375087074
 30
0.0
 10
80.74787053102831
 20
-138.7798149609648
 30
0.0
 10
80.98248153357383
 20
-138.7705132031546
 30
0.0
 10
80.98248153357383
 20
-138.5200547613769
 30
0.0
 10
80.98248153357383
 20
-138.3987874002961
 30
0.0
 10
80.91289060477177
 20
-138.2640841668229
 30
0.0
 10
80.68448077409971
 20
-138.2640841668229
 30
0.0
 10
80.56803654669827
 20
-138.2640841668229
 30
0.0
 10
80.51946070035625
 20
-138.2978461025783
 30
0.0
 10
80.48776582189195
 20
-138.3257513760088
 30
0.0
 10
80.41369626895909
 20
-138.3912081902286
 30
0.0
 10
80.40094941566366
 20
-138.493872035689
 30
0.0
 10
80.40094941566366
 20
-138.5424478820311
 30
0.0
 10
80.40094941566366
 20
-138.5593288499088
 30
0.0
 10
80.4030164729548
 20
-138.5910237283731
 30
0.0
 10
80.4071505875371
 20
-138.6154839063184
 30
0.0
 10
80.4071505875371
 20
-138.6154839063184
 30
0.0
 10
80.21250269262049
 20
-138.6154839063184
 30
0.0
 10
80.21250269262049
 20
-138.6154839063184
 30
0.0
 10
80.21904837404246
 20
-138.5817219705629
 30
0.0
 10
80.22111543133362
 20
-138.5445149393222
 30
0.0
 10
80.22111543133362
 20
-138.5386582769973
 30
0.0
 10
80.22111543133362
 20
-138.4807806728451
 30
0.0
 10
80.19975583932506
 20
-138.3054253126459
 30
0.0
 10
79.9630777794884
 20
-138.3054253126459
 30
0.0
 10
79.78531085244951
 20
-138.3054253126459
 30
0.0
 10
79.73018932468551
 20
-138.4211805209503
 30
0.0
 10
79.73018932468551
 20
-138.5183322136343
 30
0.0
 10
79.73018932468551
 20
-138.7519096875342
 30
0.0
 10
79.9630777794884
 20
-138.7591443880533
 30
0.0
 10
80.0347357655816
 20
-138.762933993087
 30
0.0
 10
80.0347357655816
 20
-138.762933993087
 30
0.0
 10
80.0347357655816
 20
-138.9424234678686
 30
0.0
 10
80.0347357655816
 20
-138.9424234678686
 30
0.0
 10
79.91002330901556
 20
-138.934844257801
 30
0.0
 10
79.53347437247774
 20
-138.9103840798557
 30
0.0
 10
79.53347437247774
 20
-138.506963398533
 30
0.0
 10
79.53347437247774
 20
-138.3092149176796
 30
0.0
 10
79.66059839588347
 20
-138.0959635071427
 30
0.0
 10
79.95653209806643
 20
-138.0959635071427
 30
0.0
 10
80.14291176381845
 20
-138.0959635071427
 30
0.0
 10
80.22524954591591
 20
-138.1800238369828
 30
0.0
 10
80.28657224555336
 20
-138.2678737718566
 30
0.0
 10
80.31413300943537
 20
-138.2137857727382
 30
0.0
 10
80.39440373424168
 20
-138.0532443231256
 30
0.0
 10
80.67173392080429
 20
-138.0532443231256
 30
0.0
 10
81.01004229745583
 20
-138.0532443231256
 30
0.0
 10
81.17712942849045
 20
-138.2716633768904
 30
0.0
 10
81.17712942849045
 20
-138.5162651563432
 30
0.0
  0
HATCH
  5
D7
330
D0
100
AcDbEntity
  8
_U+30EC_U+30A4_U+30E4_U+30FC 1
 62
   179
420
  2234388
100
AcDbHatch
 10
0.0
 20
0.0
 30
0.0
210
0.0
220
0.0
230
1.0
  2
SOLID
 70
     1
 71
     0
 91
        1
 92
        1
 93
        1
 72
     4
 94
        3
 73
     0
 74
     1
 95
       62
 96
       58
 40
0.0
 40
0.0
 40
0.0
 40
0.0
 40
1.0
 40
1.0
 40
1.0
 40
2.0
 40
2.0
 40
2.0
 40
3.0
 40
3.0
 40
3.0
 40
4.0
 40
4.0
 40
4.0
 40
5.0
 40
5.0
 40
5.0
 40
6.0
 40
6.0
 40
6.0
 40
7.0
 40
7.0
 40
7.0
 40
8.0
 40
8.0
 40
8.0
 40
9.0
 40
9.0
 40
9.0
 40
10.0
 40
10.0
 40
10.0
 40
11.0
 40
11.0
 40
11.0
 40
12.0
 40
12.0
 40
12.0
 40
13.0
 40
13.0
 40
13.0
 40
14.0
 40
14.0
 40
14.0
 40
15.0
 40
15.0
 40
15.0
 40
16.0
 40
16.0
 40
16.0
 40
17.0
 40
17.0
 40
17.0
 40
18.0
 40
18.0
 40
18.0
 40
19.0
 40
19.0
 40
19.0
 40
19.0
 10
81.17712942849045
 20
-138.5162651563432
 10
81.17712942849045
 20
-138.6003254861833
 10
81.15611434603042
 20
-138.7929063238087
 10
80.97007918982693
 20
-138.9031493793367
 10
80.85776907700779
 20
-138.9682616840079
 10
80.7585503270326
 20
-138.9720512890417
 10
80.67380097809544
 20
-138.9758408940755
 10
80.67380097809544
 20
-138.9758408940755
 10
80.67380097809544
 20
-138.7815375087074
 10
80.67380097809544
 20
-138.7815375087074
 10
80.74787053102831
 20
-138.7798149609648
 10
80.98248153357383
 20
-138.7705132031546
 10
80.98248153357383
 20
-138.5200547613769
 10
80.98248153357383
 20
-138.3987874002961
 10
80.91289060477177
 20
-138.2640841668229
 10
80.68448077409971
 20
-138.2640841668229
 10
80.56803654669827
 20
-138.2640841668229
 10
80.51946070035625
 20
-138.2978461025783
 10
80.48776582189195
 20
-138.3257513760088
 10
80.41369626895909
 20
-138.3912081902286
 10
80.40094941566366
 20
-138.493872035689
 10
80.40094941566366
 20
-138.5424478820311
 10
80.40094941566366
 20
-138.5593288499088
 10
80.4030164729548
 20
-138.5910237283731
 10
80.4071505875371
 20
-138.6154839063184
 10
80.4071505875371
 20
-138.6154839063184
 10
80.21250269262049
 20
-138.6154839063184
 10
80.21250269262049
 20
-138.6154839063184
 10
80.21904837404246
 20
-138.5817219705629
 10
80.22111543133362
 20
-138.5445149393222
 10
80.22111543133362
 20
-138.5386582769973
 10
80.22111543133362
 20
-138.4807806728451
 10
80.19975583932506
 20
-138.3054253126459
 10
79.9630777794884
 20
-138.3054253126459
 10
79.78531085244951
 20
-138.3054253126459
 10
79.73018932468551
 20
-138.4211805209503
 10
79.73018932468551
 20
-138.5183322136343
 10
79.73018932468551
 20
-138.7519096875342
 10
79.9630777794884
 20
-138.7591443880533
 10
80.0347357655816
 20
-138.762933993087
 10
80.0347357655816
 20
-138.762933993087
 10
80.0347357655816
 20
-138.9424234678686
 10
80.0347357655816
 20
-138.9424234678686
 10
79.91002330901556
 20
-138.934844257801
 10
79.53347437247774
 20
-138.9103840798557
 10
79.53347437247774
 20
-138.506963398533
 10
79.53347437247774
 20
-138.3092149176796
 10
79.66059839588347
 20
-138.0959635071427
 10
79.95653209806643
 20
-138.0959635071427
 10
80.14291176381845
 20
-138.0959635071427
 10
80.22524954591591
 20
-138.1800238369828
 10
80.28657224555336
 20
-138.2678737718566
 10
80.31413300943537
 20
-138.2137857727382
 10
80.39440373424168
 20
-138.0532443231256
 10
80.67173392080429
 20
-138.0532443231256
 10
81.01004229745583
 20
-138.0532443231256
 10
81.17712942849045
 20
-138.2716633768904
 10
81.17712942849045
 20
-138.5162651563432
 97
        0
 97
        0
 75
     2
 76
     1
 98
        0
  0
ENDBLK
  5
D3
330
D0
100
AcDbEntity
  8
0
100
AcDbBlockEnd
  0
BLOCK
  5
DA
330
D8
100
AcDbEntity
  8
0
100
AcDbBlockBegin
  2
block 3
 70
     0
 10
0.0
 20
0.0
 30
0.0
  3
block 3
  1

  0
POLYLINE
  5
DC
330
D8
100
AcDbEntity
  8
_U+30EC_U+30A4_U+30E4_U+30FC 1
370
     0
100
AcDb2dPolyline
 66
     1
 10
0.0
 20
0.0
 30
0.0
  0
VERTEX
  5
DD
330
DC
100
AcDbEntity
  8
_U+30EC_U+30A4_U+30E4_U+30FC 1
370
     0
100
AcDbVertex
100
AcDb2dVertex
 10
101.7595078955671
 20
-142.4708902638615
 30
0.0
  0
VERTEX
  5
DE
330
DC
100
AcDbEntity
  8
_U+30EC_U+30A4_U+30E4_U+30FC 1
370
     0
100
AcDbVertex
100
AcDb2dVertex
 10
102.1064290109317
 20
-142.4708902638615
 30
0.0
  0
VERTEX
  5
DF
330
DC
100
AcDbEntity
  8
_U+30EC_U+30A4_U+30E4_U+30FC 1
370
     0
100
AcDbVertex
100
AcDb2dVertex
 10
102.1064290109317
 20
-142.6634711014869
 30
0.0
  0
VERTEX
  5
E0
330
DC
100
AcDbEntity
  8
_U+30EC_U+30A4_U+30E4_U+30FC 1
370
     0
100
AcDbVertex
100
AcDb2dVertex
 10
101.7595078955671
 20
-142.6634711014869
 30
0.0
  0
VERTEX
  5
E1
330
DC
100
AcDbEntity
  8
_U+30EC_U+30A4_U+30E4_U+30FC 1
370
     0
100
AcDbVertex
100
AcDb2dVertex
 10
101.7595078955671
 20
-143.2425916525574
 30
0.0
  0
VERTEX
  5
E2
330
DC
100
AcDbEntity
  8
_U+30EC_U+30A4_U+30E4_U+30FC 1
370
     0
100
AcDbVertex
100
AcDb2dVertex
 10
101.5352321794773
 20
-143.2425916525574
 30
0.0
  0
VERTEX
  5
E3
330
DC
100
AcDbEntity
  8
_U+30EC_U+30A4_U+30E4_U+30FC 1
370
     0
100
AcDbVertex
100
AcDb2dVertex
 10
100.5619927048942
 20
-142.6428005285754
 30
0.0
  0
VERTEX
  5
E4
330
DC
100
AcDbEntity
  8
_U+30EC_U+30A4_U+30E4_U+30FC 1
370
     0
100
AcDbVertex
100
AcDb2dVertex
 10
100.5619927048942
 20
-142.4708902638615
 30
0.0
  0
VERTEX
  5
E5
330
DC
100
AcDbEntity
  8
_U+30EC_U+30A4_U+30E4_U+30FC 1
370
     0
100
AcDbVertex
100
AcDb2dVertex
 10
101.5607258860682
 20
-142.4708902638615
 30
0.0
  0
VERTEX
  5
E6
330
DC
100
AcDbEntity
  8
_U+30EC_U+30A4_U+30E4_U+30FC 1
370
     0
100
AcDbVertex
100
AcDb2dVertex
 10
101.5607258860682
 20
-142.2879556935947
 30
0.0
  0
VERTEX
  5
E7
330
DC
100
AcDbEntity
  8
_U+30EC_U+30A4_U+30E4_U+30FC 1
370
     0
100
AcDbVertex
100
AcDb2dVertex
 10
101.7595078955671
 20
-142.2879556935947
 30
0.0
  0
VERTEX
  5
E8
330
DC
100
AcDbEntity
  8
_U+30EC_U+30A4_U+30E4_U+30FC 1
370
     0
100
AcDbVertex
100
AcDb2dVertex
 10
101.7595078955671
 20
-142.4708902638615
 30
0.0
  0
SEQEND
  5
E9
330
DC
100
AcDbEntity
  8
_U+30EC_U+30A4_U+30E4_U+30FC 1
370
     0
  0
POLYLINE
  5
EA
330
D8
100
AcDbEntity
  8
_U+30EC_U+30A4_U+30E4_U+30FC 1
370
     0
100
AcDb2dPolyline
 66
     1
 10
0.0
 20
0.0
 30
0.0
  0
VERTEX
  5
EB
330
EA
100
AcDbEntity
  8
_U+30EC_U+30A4_U+30E4_U+30FC 1
370
     0
100
AcDbVertex
100
AcDb2dVertex
 10
100.9047797056766
 20
-142.6634711014869
 30
0.0
  0
VERTEX
  5
EC
330
EA
100
AcDbEntity
  8
_U+30EC_U+30A4_U+30E4_U+30FC 1
370
     0
100
AcDbVertex
100
AcDb2dVertex
 10
101.5607258860682
 20
-143.0668917828097
 30
0.0
  0
VERTEX
  5
ED
330
EA
100
AcDbEntity
  8
_U+30EC_U+30A4_U+30E4_U+30FC 1
370
     0
100
AcDbVertex
100
AcDb2dVertex
 10
101.5607258860682
 20
-142.6634711014869
 30
0.0
  0
VERTEX
  5
EE
330
EA
100
AcDbEntity
  8
_U+30EC_U+30A4_U+30E4_U+30FC 1
370
     0
100
AcDbVertex
100
AcDb2dVertex
 10
100.9047797056766
 20
-142.6634711014869
 30
0.0
  0
SEQEND
  5
EF
330
EA
100
AcDbEntity
  8
_U+30EC_U+30A4_U+30E4_U+30FC 1
370
     0
  0
HATCH
  5
F0
330
D8
100
AcDbEntity
  8
_U+30EC_U+30A4_U+30E4_U+30FC 1
 62
   179
420
  2234388
100
AcDbHatch
 10
0.0
 20
0.0
 30
0.0
210
0.0
220
0.0
230
1.0
  2
SOLID
 70
     1
 71
     0
 91
        2
 92
        1
 93
       11
 72
     1
 10
101.7595078955671
 20
-142.4708902638615
 11
102.1064290109317
 21
-142.4708902638615
 72
     1
 10
102.1064290109317
 20
-142.4708902638615
 11
102.1064290109317
 21
-142.6634711014869
 72
     1
 10
102.1064290109317
 20
-142.6634711014869
 11
101.7595078955671
 21
-142.6634711014869
 72
     1
 10
101.7595078955671
 20
-142.6634711014869
 11
101.7595078955671
 21
-143.2425916525574
 72
     1
 10
101.7595078955671
 20
-143.2425916525574
 11
101.5352321794773
 21
-143.2425916525574
 72
     1
 10
101.5352321794773
 20
-143.2425916525574
 11
100.5619927048942
 21
-142.6428005285754
 72
     1
 10
100.5619927048942
 20
-142.6428005285754
 11
100.5619927048942
 21
-142.4708902638615
 72
     1
 10
100.5619927048942
 20
-142.4708902638615
 11
101.5607258860682
 21
-142.4708902638615
 72
     1
 10
101.5607258860682
 20
-142.4708902638615
 11
101.5607258860682
 21
-142.2879556935947
 72
     1
 10
101.5607258860682
 20
-142.2879556935947
 11
101.7595078955671
 21
-142.2879556935947
 72
     1
 10
101.7595078955671
 20
-142.2879556935947
 11
101.7595078955671
 21
-142.4708902638615
 97
        0
 92
        1
 93
        3
 72
     1
 10
100.9047797056766
 20
-142.6634711014869
 11
101.5607258860682
 21
-143.0668917828097
 72
     1
 10
101.5607258860682
 20
-143.0668917828097
 11
101.5607258860682
 21
-142.6634711014869
 72
     1
 10
101.5607258860682
 20
-142.6634711014869
 11
100.9047797056766
 21
-142.6634711014869
 97
        0
 75
     2
 76
     1
 98
        0
  0
POLYLINE
  5
F1
330
D8
100
AcDbEntity
  8
_U+30EC_U+30A4_U+30E4_U+30FC 1
370
     0
100
AcDb2dPolyline
 66
     1
 10
0.0
 20
0.0
 30
0.0
  0
VERTEX
  5
F2
330
F1
100
AcDbEntity
  8
_U+30EC_U+30A4_U+30E4_U+30FC 1
370
     0
100
AcDbVertex
100
AcDb2dVertex
 10
102.1064290109317
 20
-142.112944842944
 30
0.0
  0
VERTEX
  5
F3
330
F1
100
AcDbEntity
  8
_U+30EC_U+30A4_U+30E4_U+30FC 1
370
     0
100
AcDbVertex
100
AcDb2dVertex
 10
101.85459253096
 20
-142.112944842944
 30
0.0
  0
VERTEX
  5
F4
330
F1
100
AcDbEntity
  8
_U+30EC_U+30A4_U+30E4_U+30FC 1
370
     0
100
AcDbVertex
100
AcDb2dVertex
 10
101.85459253096
 20
-141.8907361841454
 30
0.0
  0
VERTEX
  5
F5
330
F1
100
AcDbEntity
  8
_U+30EC_U+30A4_U+30E4_U+30FC 1
370
     0
100
AcDbVertex
100
AcDb2dVertex
 10
102.1064290109317
 20
-141.8907361841454
 30
0.0
  0
VERTEX
  5
F6
330
F1
100
AcDbEntity
  8
_U+30EC_U+30A4_U+30E4_U+30FC 1
370
     0
100
AcDbVertex
100
AcDb2dVertex
 10
102.1064290109317
 20
-142.112944842944
 30
0.0
  0
SEQEND
  5
F7
330
F1
100
AcDbEntity
  8
_U+30EC_U+30A4_U+30E4_U+30FC 1
370
     0
  0
HATCH
  5
F8
330
D8
100
AcDbEntity
  8
_U+30EC_U+30A4_U+30E4_U+30FC 1
 62
   179
420
  2234388
100
AcDbHatch
 10
0.0
 20
0.0
 30
0.0
210
0.0
220
0.0
230
1.0
  2
SOLID
 70
     1
 71
     0
 91
        1
 92
        1
 93
        4
 72
     1
 10
102.1064290109317
 20
-142.112944842944
 11
101.85459253096
 21
-142.112944842944
 72
     1
 10
101.85459253096
 20
-142.112944842944
 11
101.85459253096
 21
-141.8907361841454
 72
     1
 10
101.85459253096
 20
-141.8907361841454
 11
102.1064290109317
 21
-141.8907361841454
 72
     1
 10
102.1064290109317
 20
-141.8907361841454
 11
102.1064290109317
 21
-142.112944842944
 97
        0
 75
     2
 76
     1
 98
        0
  0
SPLINE
  5
F9
330
D8
100
AcDbEntity
  8
_U+30EC_U+30A4_U+30E4_U+30FC 1
370
     0
100
AcDbSpline
210
0.0
220
0.0
230
1.0
 70
    11
 71
     3
 72
    53
 73
    49
 74
     0
 42
0.0000000001
 43
0.0000000001
 12
1.0
 22
0.0
 32
0.0
 13
1.0
 23
0.0
 33
0.0
 40
0.0
 40
0.0
 40
0.0
 40
0.0
 40
1.0
 40
1.0
 40
1.0
 40
2.0
 40
2.0
 40
2.0
 40
3.0
 40
3.0
 40
3.0
 40
4.0
 40
4.0
 40
4.0
 40
5.0
 40
5.0
 40
5.0
 40
6.0
 40
6.0
 40
6.0
 40
7.0
 40
7.0
 40
7.0
 40
8.0
 40
8.0
 40
8.0
 40
9.0
 40
9.0
 40
9.0
 40
10.0
 40
10.0
 40
10.0
 40
11.0
 40
11.0
 40
11.0
 40
12.0
 40
12.0
 40
12.0
 40
13.0
 40
13.0
 40
13.0
 40
14.0
 40
14.0
 40
14.0
 40
15.0
 40
15.0
 40
15.0
 40
16.0
 40
16.0
 40
16.0
 40
16.0
 10
102.1570719145649
 20
-141.2571831244079
 30
0.0
 10
102.1570719145649
 20
-141.3260850341129
 30
0.0
 10
102.1401909466872
 20
-141.4156575167294
 30
0.0
 10
102.0768011897586
 20
-141.5055745088945
 30
0.0
 10
101.9669026437791
 20
-141.6585367484395
 30
0.0
 10
101.8356445057911
 20
-141.6771402640599
 30
0.0
 10
101.7278130171028
 20
-141.6940212319376
 30
0.0
 10
101.7278130171028
 20
-141.6940212319376
 30
0.0
 10
101.7278130171028
 20
-141.4979952988269
 30
0.0
 10
101.7278130171028
 20
-141.4979952988269
 30
0.0
 10
101.9265950266017
 20
-141.4494194524849
 30
0.0
 10
101.9562228477748
 20
-141.3374538492143
 30
0.0
 10
101.9562228477748
 20
-141.2551160671168
 30
0.0
 10
101.9562228477748
 20
-141.1317816487448
 30
0.0
 10
101.8566595882511
 20
-140.9974229248201
 30
0.0
 10
101.6241156429968
 20
-140.9974229248201
 30
0.0
 10
101.3681450484427
 20
-140.9974229248201
 30
0.0
 10
101.2982096100921
 20
-141.1562418266901
 30
0.0
 10
101.2982096100921
 20
-141.2626952771843
 30
0.0
 10
101.2982096100921
 20
-141.2906005506149
 30
0.0
 10
101.2982096100921
 20
-141.4156575167294
 30
0.0
 10
101.427400690789
 20
-141.4942056937931
 30
0.0
 10
101.427400690789
 20
-141.4942056937931
 30
0.0
 10
101.4084526656201
 20
-141.6492349906294
 30
0.0
 10
101.4084526656201
 20
-141.6492349906294
 30
0.0
 10
101.4084526656201
 20
-141.6492349906294
 30
0.0
 10
100.5619927048942
 20
-141.5427815401351
 30
0.0
 10
100.5619927048942
 20
-141.5427815401351
 30
0.0
 10
100.5619927048942
 20
-141.5427815401351
 30
0.0
 10
100.5619927048942
 20
-140.8554849908278
 30
0.0
 10
100.5619927048942
 20
-140.8554849908278
 30
0.0
 10
100.5619927048942
 20
-140.8554849908278
 30
0.0
 10
100.7566405998109
 20
-140.8554849908278
 30
0.0
 10
100.7566405998109
 20
-140.8554849908278
 30
0.0
 10
100.7566405998109
 20
-140.8554849908278
 30
0.0
 10
100.7566405998109
 20
-141.3991210584002
 30
0.0
 10
100.7566405998109
 20
-141.3991210584002
 30
0.0
 10
100.7566405998109
 20
-141.3991210584002
 30
0.0
 10
101.1796983253995
 20
-141.4569986625524
 30
0.0
 10
101.1796983253995
 20
-141.4569986625524
 30
0.0
 10
101.1459363896441
 20
-141.4025661538855
 30
0.0
 10
101.1056287724667
 20
-141.3298746391467
 30
0.0
 10
101.1056287724667
 20
-141.2251437363951
 30
0.0
 10
101.1056287724667
 20
-141.0012125298539
 30
0.0
 10
101.2920084382187
 20
-140.7917507243507
 30
0.0
 10
101.6051676178279
 20
-140.7917507243507
 30
0.0
 10
101.9224609120194
 20
-140.7917507243507
 30
0.0
 10
102.1570719145649
 20
-140.9898437147525
 30
0.0
 10
102.1570719145649
 20
-141.2571831244079
 30
0.0
  0
HATCH
  5
FA
330
D8
100
AcDbEntity
  8
_U+30EC_U+30A4_U+30E4_U+30FC 1
 62
   179
420
  2234388
100
AcDbHatch
 10
0.0
 20
0.0
 30
0.0
210
0.0
220
0.0
230
1.0
  2
SOLID
 70
     1
 71
     0
 91
        1
 92
        1
 93
        1
 72
     4
 94
        3
 73
     0
 74
     1
 95
       53
 96
       49
 40
0.0
 40
0.0
 40
0.0
 40
0.0
 40
1.0
 40
1.0
 40
1.0
 40
2.0
 40
2.0
 40
2.0
 40
3.0
 40
3.0
 40
3.0
 40
4.0
 40
4.0
 40
4.0
 40
5.0
 40
5.0
 40
5.0
 40
6.0
 40
6.0
 40
6.0
 40
7.0
 40
7.0
 40
7.0
 40
8.0
 40
8.0
 40
8.0
 40
9.0
 40
9.0
 40
9.0
 40
10.0
 40
10.0
 40
10.0
 40
11.0
 40
11.0
 40
11.0
 40
12.0
 40
12.0
 40
12.0
 40
13.0
 40
13.0
 40
13.0
 40
14.0
 40
14.0
 40
14.0
 40
15.0
 40
15.0
 40
15.0
 40
16.0
 40
16.0
 40
16.0
 40
16.0
 10
102.1570719145649
 20
-141.2571831244079
 10
102.1570719145649
 20
-141.3260850341129
 10
102.1401909466872
 20
-141.4156575167294
 10
102.0768011897586
 20
-141.5055745088945
 10
101.9669026437791
 20
-141.6585367484395
 10
101.8356445057911
 20
-141.6771402640599
 10
101.7278130171028
 20
-141.6940212319376
 10
101.7278130171028
 20
-141.6940212319376
 10
101.7278130171028
 20
-141.4979952988269
 10
101.7278130171028
 20
-141.4979952988269
 10
101.9265950266017
 20
-141.4494194524849
 10
101.9562228477748
 20
-141.3374538492143
 10
101.9562228477748
 20
-141.2551160671168
 10
101.9562228477748
 20
-141.1317816487448
 10
101.8566595882511
 20
-140.9974229248201
 10
101.6241156429968
 20
-140.9974229248201
 10
101.3681450484427
 20
-140.9974229248201
 10
101.2982096100921
 20
-141.1562418266901
 10
101.2982096100921
 20
-141.2626952771843
 10
101.2982096100921
 20
-141.2906005506149
 10
101.2982096100921
 20
-141.4156575167294
 10
101.427400690789
 20
-141.4942056937931
 10
101.427400690789
 20
-141.4942056937931
 10
101.4084526656201
 20
-141.6492349906294
 10
101.4084526656201
 20
-141.6492349906294
 10
101.4084526656201
 20
-141.6492349906294
 10
100.5619927048942
 20
-141.5427815401351
 10
100.5619927048942
 20
-141.5427815401351
 10
100.5619927048942
 20
-141.5427815401351
 10
100.5619927048942
 20
-140.8554849908278
 10
100.5619927048942
 20
-140.8554849908278
 10
100.5619927048942
 20
-140.8554849908278
 10
100.7566405998109
 20
-140.8554849908278
 10
100.7566405998109
 20
-140.8554849908278
 10
100.7566405998109
 20
-140.8554849908278
 10
100.7566405998109
 20
-141.3991210584002
 10
100.7566405998109
 20
-141.3991210584002
 10
100.7566405998109
 20
-141.3991210584002
 10
101.1796983253995
 20
-141.4569986625524
 10
101.1796983253995
 20
-141.4569986625524
 10
101.1459363896441
 20
-141.4025661538855
 10
101.1056287724667
 20
-141.3298746391467
 10
101.1056287724667
 20
-141.2251437363951
 10
101.1056287724667
 20
-141.0012125298539
 10
101.2920084382187
 20
-140.7917507243507
 10
101.6051676178279
 20
-140.7917507243507
 10
101.9224609120194
 20
-140.7917507243507
 10
102.1570719145649
 20
-140.9898437147525
 10
102.1570719145649
 20
-141.2571831244079
 97
        0
 97
        0
 75
     2
 76
     1
 98
        0
  0
ENDBLK
  5
DB
330
D8
100
AcDbEntity
  8
0
100
AcDbBlockEnd
  0
BLOCK
  5
FD
330
FB
100
AcDbEntity
  8
0
100
AcDbBlockBegin
  2
block 4
 70
     0
 10
0.0
 20
0.0
 30
0.0
  3
block 4
  1

  0
SPLINE
  5
FF
330
FB
100
AcDbEntity
  8
_U+30EC_U+30A4_U+30E4_U+30FC 1
370
     0
100
AcDbSpline
210
0.0
220
0.0
230
1.0
 70
    11
 71
     3
 72
    44
 73
    40
 74
     0
 42
0.0000000001
 43
0.0000000001
 12
1.0
 22
0.0
 32
0.0
 13
1.0
 23
0.0
 33
0.0
 40
0.0
 40
0.0
 40
0.0
 40
0.0
 40
1.0
 40
1.0
 40
1.0
 40
2.0
 40
2.0
 40
2.0
 40
3.0
 40
3.0
 40
3.0
 40
4.0
 40
4.0
 40
4.0
 40
5.0
 40
5.0
 40
5.0
 40
6.0
 40
6.0
 40
6.0
 40
7.0
 40
7.0
 40
7.0
 40
8.0
 40
8.0
 40
8.0
 40
9.0
 40
9.0
 40
9.0
 40
10.0
 40
10.0
 40
10.0
 40
11.0
 40
11.0
 40
11.0
 40
12.0
 40
12.0
 40
12.0
 40
13.0
 40
13.0
 40
13.0
 40
13.0
 10
101.5248968930216
 20
-127.9677272900567
 30
0.0
 10
101.6837157948916
 20
-128.1603081276822
 30
0.0
 10
101.7577853478245
 20
-128.2423014002311
 30
0.0
 10
101.9014458295594
 20
-128.2853650937967
 30
0.0
 10
101.9014458295594
 20
-128.2853650937967
 30
0.0
 10
101.9014458295594
 20
-127.5980685444894
 30
0.0
 10
101.9014458295594
 20
-127.5980685444894
 30
0.0
 10
101.9014458295594
 20
-127.5980685444894
 30
0.0
 10
102.1067735204803
 20
-127.5980685444894
 30
0.0
 10
102.1067735204803
 20
-127.5980685444894
 30
0.0
 10
102.1067735204803
 20
-127.5980685444894
 30
0.0
 10
102.1067735204803
 20
-128.5058512048527
 30
0.0
 10
102.1067735204803
 20
-128.5058512048527
 30
0.0
 10
101.7491726091113
 20
-128.4776014218737
 30
0.0
 10
101.6709689415962
 20
-128.4197238177215
 30
0.0
 10
101.3726236725735
 20
-128.0796928933273
 30
0.0
 10
101.1738416630746
 20
-127.8536946294949
 30
0.0
 10
101.1059732820152
 20
-127.7958170253427
 30
0.0
 10
100.9685139721537
 20
-127.7958170253427
 30
0.0
 10
100.8500026874611
 20
-127.7958170253427
 30
0.0
 10
100.7190890590216
 20
-127.8595512918198
 30
0.0
 10
100.7190890590216
 20
-128.0331841042764
 30
0.0
 10
100.7190890590216
 20
-128.2629719731426
 30
0.0
 10
100.9495659469848
 20
-128.2705511832102
 30
0.0
 10
101.0660101743863
 20
-128.2739962786954
 30
0.0
 10
101.0660101743863
 20
-128.2739962786954
 30
0.0
 10
101.0660101743863
 20
-128.4720892690973
 30
0.0
 10
101.0660101743863
 20
-128.4720892690973
 30
0.0
 10
100.9388861509806
 20
-128.4645100590297
 30
0.0
 10
100.8269205477099
 20
-128.4552083012195
 30
0.0
 10
100.7084092630173
 20
-128.3842393342234
 30
0.0
 10
100.5475233038562
 20
-128.2870876415394
 30
0.0
 10
100.5137613681007
 20
-128.1227565868929
 30
0.0
 10
100.5137613681007
 20
-128.0200927414325
 30
0.0
 10
100.5137613681007
 20
-127.7754909619797
 30
0.0
 10
100.6977294670131
 20
-127.5922118821644
 30
0.0
 10
100.9705810294449
 20
-127.5922118821644
 30
0.0
 10
101.1993353696654
 20
-127.5922118821644
 30
0.0
 10
101.2985541196406
 20
-127.6952202371734
 30
0.0
 10
101.5248968930216
 20
-127.9677272900567
 30
0.0
  0
HATCH
  5
100
330
FB
100
AcDbEntity
  8
_U+30EC_U+30A4_U+30E4_U+30FC 1
 62
   179
420
  2234388
100
AcDbHatch
 10
0.0
 20
0.0
 30
0.0
210
0.0
220
0.0
230
1.0
  2
SOLID
 70
     1
 71
     0
 91
        1
 92
        1
 93
        1
 72
     4
 94
        3
 73
     0
 74
     1
 95
       44
 96
       40
 40
0.0
 40
0.0
 40
0.0
 40
0.0
 40
1.0
 40
1.0
 40
1.0
 40
2.0
 40
2.0
 40
2.0
 40
3.0
 40
3.0
 40
3.0
 40
4.0
 40
4.0
 40
4.0
 40
5.0
 40
5.0
 40
5.0
 40
6.0
 40
6.0
 40
6.0
 40
7.0
 40
7.0
 40
7.0
 40
8.0
 40
8.0
 40
8.0
 40
9.0
 40
9.0
 40
9.0
 40
10.0
 40
10.0
 40
10.0
 40
11.0
 40
11.0
 40
11.0
 40
12.0
 40
12.0
 40
12.0
 40
13.0
 40
13.0
 40
13.0
 40
13.0
 10
101.5248968930216
 20
-127.9677272900567
 10
101.6837157948916
 20
-128.1603081276822
 10
101.7577853478245
 20
-128.2423014002311
 10
101.9014458295594
 20
-128.2853650937967
 10
101.9014458295594
 20
-128.2853650937967
 10
101.9014458295594
 20
-127.5980685444894
 10
101.9014458295594
 20
-127.5980685444894
 10
101.9014458295594
 20
-127.5980685444894
 10
102.1067735204803
 20
-127.5980685444894
 10
102.1067735204803
 20
-127.5980685444894
 10
102.1067735204803
 20
-127.5980685444894
 10
102.1067735204803
 20
-128.5058512048527
 10
102.1067735204803
 20
-128.5058512048527
 10
101.7491726091113
 20
-128.4776014218737
 10
101.6709689415962
 20
-128.4197238177215
 10
101.3726236725735
 20
-128.0796928933273
 10
101.1738416630746
 20
-127.8536946294949
 10
101.1059732820152
 20
-127.7958170253427
 10
100.9685139721537
 20
-127.7958170253427
 10
100.8500026874611
 20
-127.7958170253427
 10
100.7190890590216
 20
-127.8595512918198
 10
100.7190890590216
 20
-128.0331841042764
 10
100.7190890590216
 20
-128.2629719731426
 10
100.9495659469848
 20
-128.2705511832102
 10
101.0660101743863
 20
-128.2739962786954
 10
101.0660101743863
 20
-128.2739962786954
 10
101.0660101743863
 20
-128.4720892690973
 10
101.0660101743863
 20
-128.4720892690973
 10
100.9388861509806
 20
-128.4645100590297
 10
100.8269205477099
 20
-128.4552083012195
 10
100.7084092630173
 20
-128.3842393342234
 10
100.5475233038562
 20
-128.2870876415394
 10
100.5137613681007
 20
-128.1227565868929
 10
100.5137613681007
 20
-128.0200927414325
 10
100.5137613681007
 20
-127.7754909619797
 10
100.6977294670131
 20
-127.5922118821644
 10
100.9705810294449
 20
-127.5922118821644
 10
101.1993353696654
 20
-127.5922118821644
 10
101.2985541196406
 20
-127.6952202371734
 10
101.5248968930216
 20
-127.9677272900567
 97
        0
 97
        0
 75
     2
 76
     1
 98
        0
  0
SPLINE
  5
101
330
FB
100
AcDbEntity
  8
_U+30EC_U+30A4_U+30E4_U+30FC 1
370
     0
100
AcDbSpline
210
0.0
220
0.0
230
1.0
 70
    11
 71
     3
 72
    53
 73
    49
 74
     0
 42
0.0000000001
 43
0.0000000001
 12
1.0
 22
0.0
 32
0.0
 13
1.0
 23
0.0
 33
0.0
 40
0.0
 40
0.0
 40
0.0
 40
0.0
 40
1.0
 40
1.0
 40
1.0
 40
2.0
 40
2.0
 40
2.0
 40
3.0
 40
3.0
 40
3.0
 40
4.0
 40
4.0
 40
4.0
 40
5.0
 40
5.0
 40
5.0
 40
6.0
 40
6.0
 40
6.0
 40
7.0
 40
7.0
 40
7.0
 40
8.0
 40
8.0
 40
8.0
 40
9.0
 40
9.0
 40
9.0
 40
10.0
 40
10.0
 40
10.0
 40
11.0
 40
11.0
 40
11.0
 40
12.0
 40
12.0
 40
12.0
 40
13.0
 40
13.0
 40
13.0
 40
14.0
 40
14.0
 40
14.0
 40
15.0
 40
15.0
 40
15.0
 40
16.0
 40
16.0
 40
16.0
 40
16.0
 10
102.1574164241134
 20
-127.0272162225835
 30
0.0
 10
102.1574164241134
 20
-127.0961181322885
 30
0.0
 10
102.1405354562357
 20
-127.185690614905
 30
0.0
 10
102.0771456993071
 20
-127.27560760707
 30
0.0
 10
101.9672471533276
 20
-127.4285698466151
 30
0.0
 10
101.8359890153396
 20
-127.4471733622354
 30
0.0
 10
101.7281575266513
 20
-127.4640543301132
 30
0.0
 10
101.7281575266513
 20
-127.4640543301132
 30
0.0
 10
101.7281575266513
 20
-127.2680283970024
 30
0.0
 10
101.7281575266513
 20
-127.2680283970024
 30
0.0
 10
101.9269395361502
 20
-127.2194525506604
 30
0.0
 10
101.9565673573234
 20
-127.1074869473898
 30
0.0
 10
101.9565673573234
 20
-127.0251491652923
 30
0.0
 10
101.9565673573234
 20
-126.9018147469204
 30
0.0
 10
101.8570040977996
 20
-126.7674560229956
 30
0.0
 10
101.6244601525453
 20
-126.7674560229956
 30
0.0
 10
101.3684895579912
 20
-126.7674560229956
 30
0.0
 10
101.2985541196406
 20
-126.9262749248657
 30
0.0
 10
101.2985541196406
 20
-127.0327283753599
 30
0.0
 10
101.2985541196406
 20
-127.0606336487904
 30
0.0
 10
101.2985541196406
 20
-127.185690614905
 30
0.0
 10
101.4277452003375
 20
-127.2642387919687
 30
0.0
 10
101.4277452003375
 20
-127.2642387919687
 30
0.0
 10
101.4087971751686
 20
-127.4192680888049
 30
0.0
 10
101.4087971751686
 20
-127.4192680888049
 30
0.0
 10
101.4087971751686
 20
-127.4192680888049
 30
0.0
 10
100.5623372144427
 20
-127.3128146383107
 30
0.0
 10
100.5623372144427
 20
-127.3128146383107
 30
0.0
 10
100.5623372144427
 20
-127.3128146383107
 30
0.0
 10
100.5623372144427
 20
-126.6255180890034
 30
0.0
 10
100.5623372144427
 20
-126.6255180890034
 30
0.0
 10
100.5623372144427
 20
-126.6255180890034
 30
0.0
 10
100.7569851093594
 20
-126.6255180890034
 30
0.0
 10
100.7569851093594
 20
-126.6255180890034
 30
0.0
 10
100.7569851093594
 20
-126.6255180890034
 30
0.0
 10
100.7569851093594
 20
-127.1691541565758
 30
0.0
 10
100.7569851093594
 20
-127.1691541565758
 30
0.0
 10
100.7569851093594
 20
-127.1691541565758
 30
0.0
 10
101.1800428349481
 20
-127.227031760728
 30
0.0
 10
101.1800428349481
 20
-127.227031760728
 30
0.0
 10
101.1462808991926
 20
-127.172599252061
 30
0.0
 10
101.1059732820152
 20
-127.0999077373223
 30
0.0
 10
101.1059732820152
 20
-126.9951768345707
 30
0.0
 10
101.1059732820152
 20
-126.7712456280294
 30
0.0
 10
101.2923529477672
 20
-126.5617838225262
 30
0.0
 10
101.6055121273764
 20
-126.5617838225262
 30
0.0
 10
101.9228054215679
 20
-126.5617838225262
 30
0.0
 10
102.1574164241134
 20
-126.7598768129281
 30
0.0
 10
102.1574164241134
 20
-127.0272162225835
 30
0.0
  0
HATCH
  5
102
330
FB
100
AcDbEntity
  8
_U+30EC_U+30A4_U+30E4_U+30FC 1
 62
   179
420
  2234388
100
AcDbHatch
 10
0.0
 20
0.0
 30
0.0
210
0.0
220
0.0
230
1.0
  2
SOLID
 70
     1
 71
     0
 91
        1
 92
        1
 93
        1
 72
     4
 94
        3
 73
     0
 74
     1
 95
       53
 96
       49
 40
0.0
 40
0.0
 40
0.0
 40
0.0
 40
1.0
 40
1.0
 40
1.0
 40
2.0
 40
2.0
 40
2.0
 40
3.0
 40
3.0
 40
3.0
 40
4.0
 40
4.0
 40
4.0
 40
5.0
 40
5.0
 40
5.0
 40
6.0
 40
6.0
 40
6.0
 40
7.0
 40
7.0
 40
7.0
 40
8.0
 40
8.0
 40
8.0
 40
9.0
 40
9.0
 40
9.0
 40
10.0
 40
10.0
 40
10.0
 40
11.0
 40
11.0
 40
11.0
 40
12.0
 40
12.0
 40
12.0
 40
13.0
 40
13.0
 40
13.0
 40
14.0
 40
14.0
 40
14.0
 40
15.0
 40
15.0
 40
15.0
 40
16.0
 40
16.0
 40
16.0
 40
16.0
 10
102.1574164241134
 20
-127.0272162225835
 10
102.1574164241134
 20
-127.0961181322885
 10
102.1405354562357
 20
-127.185690614905
 10
102.0771456993071
 20
-127.27560760707
 10
101.9672471533276
 20
-127.4285698466151
 10
101.8359890153396
 20
-127.4471733622354
 10
101.7281575266513
 20
-127.4640543301132
 10
101.7281575266513
 20
-127.4640543301132
 10
101.7281575266513
 20
-127.2680283970024
 10
101.7281575266513
 20
-127.2680283970024
 10
101.9269395361502
 20
-127.2194525506604
 10
101.9565673573234
 20
-127.1074869473898
 10
101.9565673573234
 20
-127.0251491652923
 10
101.9565673573234
 20
-126.9018147469204
 10
101.8570040977996
 20
-126.7674560229956
 10
101.6244601525453
 20
-126.7674560229956
 10
101.3684895579912
 20
-126.7674560229956
 10
101.2985541196406
 20
-126.9262749248657
 10
101.2985541196406
 20
-127.0327283753599
 10
101.2985541196406
 20
-127.0606336487904
 10
101.2985541196406
 20
-127.185690614905
 10
101.4277452003375
 20
-127.2642387919687
 10
101.4277452003375
 20
-127.2642387919687
 10
101.4087971751686
 20
-127.4192680888049
 10
101.4087971751686
 20
-127.4192680888049
 10
101.4087971751686
 20
-127.4192680888049
 10
100.5623372144427
 20
-127.3128146383107
 10
100.5623372144427
 20
-127.3128146383107
 10
100.5623372144427
 20
-127.3128146383107
 10
100.5623372144427
 20
-126.6255180890034
 10
100.5623372144427
 20
-126.6255180890034
 10
100.5623372144427
 20
-126.6255180890034
 10
100.7569851093594
 20
-126.6255180890034
 10
100.7569851093594
 20
-126.6255180890034
 10
100.7569851093594
 20
-126.6255180890034
 10
100.7569851093594
 20
-127.1691541565758
 10
100.7569851093594
 20
-127.1691541565758
 10
100.7569851093594
 20
-127.1691541565758
 10
101.1800428349481
 20
-127.227031760728
 10
101.1800428349481
 20
-127.227031760728
 10
101.1462808991926
 20
-127.172599252061
 10
101.1059732820152
 20
-127.0999077373223
 10
101.1059732820152
 20
-126.9951768345707
 10
101.1059732820152
 20
-126.7712456280294
 10
101.2923529477672
 20
-126.5617838225262
 10
101.6055121273764
 20
-126.5617838225262
 10
101.9228054215679
 20
-126.5617838225262
 10
102.1574164241134
 20
-126.7598768129281
 10
102.1574164241134
 20
-127.0272162225835
 97
        0
 97
        0
 75
     2
 76
     1
 98
        0
  0
ENDBLK
  5
FE
330
FB
100
AcDbEntity
  8
0
100
AcDbBlockEnd
  0
BLOCK
  5
105
330
103
100
AcDbEntity
  8
0
100
AcDbBlockBegin
  2
block 5
 70
     0
 10
0.0
 20
0.0
 30
0.0
  3
block 5
  1

  0
SPLINE
  5
107
330
103
100
AcDbEntity
  8
_U+30EC_U+30A4_U+30E4_U+30FC 1
370
     0
100
AcDbSpline
210
0.0
220
0.0
230
1.0
 70
    11
 71
     3
 72
    26
 73
    22
 74
     0
 42
0.0000000001
 43
0.0000000001
 12
1.0
 22
0.0
 32
0.0
 13
1.0
 23
0.0
 33
0.0
 40
0.0
 40
0.0
 40
0.0
 40
0.0
 40
1.0
 40
1.0
 40
1.0
 40
2.0
 40
2.0
 40
2.0
 40
3.0
 40
3.0
 40
3.0
 40
4.0
 40
4.0
 40
4.0
 40
5.0
 40
5.0
 40
5.0
 40
6.0
 40
6.0
 40
6.0
 40
7.0
 40
7.0
 40
7.0
 40
7.0
 10
91.89516599265121
 20
-148.8822129619114
 30
0.0
 10
91.89516599265121
 20
-148.8822129619114
 30
0.0
 10
91.89516599265121
 20
-147.7780598588888
 30
0.0
 10
91.89516599265121
 20
-147.7780598588888
 30
0.0
 10
91.89516599265121
 20
-147.7780598588888
 30
0.0
 10
91.6040554241476
 20
-147.7780598588888
 30
0.0
 10
91.6040554241476
 20
-147.7780598588888
 30
0.0
 10
91.6040554241476
 20
-147.7780598588888
 30
0.0
 10
91.6040554241476
 20
-147.6299207530231
 30
0.0
 10
91.6040554241476
 20
-147.6299207530231
 30
0.0
 10
91.89723304994236
 20
-147.6151068424365
 30
0.0
 10
91.93822968621683
 20
-147.4521538259842
 30
0.0
 10
91.96441241190473
 20
-147.3377766558739
 30
0.0
 10
91.96441241190473
 20
-147.3377766558739
 30
0.0
 10
92.09325898305308
 20
-147.3377766558739
 30
0.0
 10
92.09325898305308
 20
-147.3377766558739
 30
0.0
 10
92.09325898305308
 20
-147.3377766558739
 30
0.0
 10
92.09325898305308
 20
-148.8822129619114
 30
0.0
 10
92.09325898305308
 20
-148.8822129619114
 30
0.0
 10
92.09325898305308
 20
-148.8822129619114
 30
0.0
 10
91.89516599265121
 20
-148.8822129619114
 30
0.0
 10
91.89516599265121
 20
-148.8822129619114
 30
0.0
  0
HATCH
  5
108
330
103
100
AcDbEntity
  8
_U+30EC_U+30A4_U+30E4_U+30FC 1
 62
   179
420
  2234388
100
AcDbHatch
 10
0.0
 20
0.0
 30
0.0
210
0.0
220
0.0
230
1.0
  2
SOLID
 70
     1
 71
     0
 91
        1
 92
        1
 93
        1
 72
     4
 94
        3
 73
     0
 74
     1
 95
       26
 96
       22
 40
0.0
 40
0.0
 40
0.0
 40
0.0
 40
1.0
 40
1.0
 40
1.0
 40
2.0
 40
2.0
 40
2.0
 40
3.0
 40
3.0
 40
3.0
 40
4.0
 40
4.0
 40
4.0
 40
5.0
 40
5.0
 40
5.0
 40
6.0
 40
6.0
 40
6.0
 40
7.0
 40
7.0
 40
7.0
 40
7.0
 10
91.89516599265121
 20
-148.8822129619114
 10
91.89516599265121
 20
-148.8822129619114
 10
91.89516599265121
 20
-147.7780598588888
 10
91.89516599265121
 20
-147.7780598588888
 10
91.89516599265121
 20
-147.7780598588888
 10
91.6040554241476
 20
-147.7780598588888
 10
91.6040554241476
 20
-147.7780598588888
 10
91.6040554241476
 20
-147.7780598588888
 10
91.6040554241476
 20
-147.6299207530231
 10
91.6040554241476
 20
-147.6299207530231
 10
91.89723304994236
 20
-147.6151068424365
 10
91.93822968621683
 20
-147.4521538259842
 10
91.96441241190473
 20
-147.3377766558739
 10
91.96441241190473
 20
-147.3377766558739
 10
92.09325898305308
 20
-147.3377766558739
 10
92.09325898305308
 20
-147.3377766558739
 10
92.09325898305308
 20
-147.3377766558739
 10
92.09325898305308
 20
-148.8822129619114
 10
92.09325898305308
 20
-148.8822129619114
 10
92.09325898305308
 20
-148.8822129619114
 10
91.89516599265121
 20
-148.8822129619114
 10
91.89516599265121
 20
-148.8822129619114
 97
        0
 97
        0
 75
     2
 76
     1
 98
        0
  0
SPLINE
  5
109
330
103
100
AcDbEntity
  8
_U+30EC_U+30A4_U+30E4_U+30FC 1
370
     0
100
AcDbSpline
210
0.0
220
0.0
230
1.0
 70
    11
 71
     3
 72
    62
 73
    58
 74
     0
 42
0.0000000001
 43
0.0000000001
 12
1.0
 22
0.0
 32
0.0
 13
1.0
 23
0.0
 33
0.0
 40
0.0
 40
0.0
 40
0.0
 40
0.0
 40
1.0
 40
1.0
 40
1.0
 40
2.0
 40
2.0
 40
2.0
 40
3.0
 40
3.0
 40
3.0
 40
4.0
 40
4.0
 40
4.0
 40
5.0
 40
5.0
 40
5.0
 40
6.0
 40
6.0
 40
6.0
 40
7.0
 40
7.0
 40
7.0
 40
8.0
 40
8.0
 40
8.0
 40
9.0
 40
9.0
 40
9.0
 40
10.0
 40
10.0
 40
10.0
 40
11.0
 40
11.0
 40
11.0
 40
12.0
 40
12.0
 40
12.0
 40
13.0
 40
13.0
 40
13.0
 40
14.0
 40
14.0
 40
14.0
 40
15.0
 40
15.0
 40
15.0
 40
16.0
 40
16.0
 40
16.0
 40
17.0
 40
17.0
 40
17.0
 40
18.0
 40
18.0
 40
18.0
 40
19.0
 40
19.0
 40
19.0
 40
19.0
 10
92.97038029359769
 20
-148.9328558655446
 30
0.0
 10
92.88631996375759
 20
-148.9328558655446
 30
0.0
 10
92.69408363568066
 20
-148.9118407830846
 30
0.0
 10
92.58384058015265
 20
-148.7258056268811
 30
0.0
 10
92.51838376593291
 20
-148.6134955140619
 30
0.0
 10
92.51459416089914
 20
-148.5142767640867
 30
0.0
 10
92.51114906541389
 20
-148.4295274151496
 30
0.0
 10
92.51114906541389
 20
-148.4295274151496
 30
0.0
 10
92.70510794123345
 20
-148.4295274151496
 30
0.0
 10
92.70510794123345
 20
-148.4295274151496
 30
0.0
 10
92.7071749985246
 20
-148.5035969680824
 30
0.0
 10
92.71647675633477
 20
-148.738207970628
 30
0.0
 10
92.96659068856391
 20
-148.738207970628
 30
0.0
 10
93.08820255919323
 20
-148.738207970628
 30
0.0
 10
93.22256128311797
 20
-148.6686170418259
 30
0.0
 10
93.22256128311797
 20
-148.4402072111538
 30
0.0
 10
93.22256128311797
 20
-148.3237629837524
 30
0.0
 10
93.18914385691104
 20
-148.2751871374104
 30
0.0
 10
93.160894073932
 20
-148.2434922589461
 30
0.0
 10
93.09578176926078
 20
-148.1694227060132
 30
0.0
 10
92.99277341425181
 20
-148.1566758527178
 30
0.0
 10
92.94419756790978
 20
-148.1566758527178
 30
0.0
 10
92.92766110958058
 20
-148.1566758527178
 30
0.0
 10
92.89562172156776
 20
-148.1587429100089
 30
0.0
 10
92.87150605317102
 20
-148.1628770245912
 30
0.0
 10
92.87150605317102
 20
-148.1628770245912
 30
0.0
 10
92.87150605317102
 20
-147.9682291296746
 30
0.0
 10
92.87150605317102
 20
-147.9682291296746
 30
0.0
 10
92.90526798892647
 20
-147.9747748110966
 30
0.0
 10
92.94247502016717
 20
-147.9768418683877
 30
0.0
 10
92.94798717294357
 20
-147.9768418683877
 30
0.0
 10
93.00586477709577
 20
-147.9768418683877
 30
0.0
 10
93.1815646468435
 20
-147.9554822763792
 30
0.0
 10
93.1815646468435
 20
-147.7188042165425
 30
0.0
 10
93.1815646468435
 20
-147.5410372895036
 30
0.0
 10
93.0658094385391
 20
-147.4859157617396
 30
0.0
 10
92.96865774585507
 20
-147.4859157617396
 30
0.0
 10
92.73508027195513
 20
-147.4859157617396
 30
0.0
 10
92.72750106188758
 20
-147.7188042165425
 30
0.0
 10
92.72405596640232
 20
-147.7904622026357
 30
0.0
 10
92.72405596640232
 20
-147.7904622026357
 30
0.0
 10
92.54456649162081
 20
-147.7904622026357
 30
0.0
 10
92.54456649162081
 20
-147.7904622026357
 30
0.0
 10
92.55214570168836
 20
-147.6657497460697
 30
0.0
 10
92.5762613700851
 20
-147.2892008095319
 30
0.0
 10
92.97968205140786
 20
-147.2892008095319
 30
0.0
 10
93.17777504180972
 20
-147.2892008095319
 30
0.0
 10
93.39068194279817
 20
-147.4163248329376
 30
0.0
 10
93.39068194279817
 20
-147.7122585351206
 30
0.0
 10
93.39068194279817
 20
-147.8986382008726
 30
0.0
 10
93.30662161295807
 20
-147.9809759829701
 30
0.0
 10
93.2187716780842
 20
-148.0422986826075
 30
0.0
 10
93.27320418675114
 20
-148.0698594464895
 30
0.0
 10
93.4337456363638
 20
-148.1501301712958
 30
0.0
 10
93.4337456363638
 20
-148.4274603578584
 30
0.0
 10
93.4337456363638
 20
-148.7657687345099
 30
0.0
 10
93.21532658259895
 20
-148.9328558655446
 30
0.0
 10
92.97038029359769
 20
-148.9328558655446
 30
0.0
  0
HATCH
  5
10A
330
103
100
AcDbEntity
  8
_U+30EC_U+30A4_U+30E4_U+30FC 1
 62
   179
420
  2234388
100
AcDbHatch
 10
0.0
 20
0.0
 30
0.0
210
0.0
220
0.0
230
1.0
  2
SOLID
 70
     1
 71
     0
 91
        1
 92
        1
 93
        1
 72
     4
 94
        3
 73
     0
 74
     1
 95
       62
 96
       58
 40
0.0
 40
0.0
 40
0.0
 40
0.0
 40
1.0
 40
1.0
 40
1.0
 40
2.0
 40
2.0
 40
2.0
 40
3.0
 40
3.0
 40
3.0
 40
4.0
 40
4.0
 40
4.0
 40
5.0
 40
5.0
 40
5.0
 40
6.0
 40
6.0
 40
6.0
 40
7.0
 40
7.0
 40
7.0
 40
8.0
 40
8.0
 40
8.0
 40
9.0
 40
9.0
 40
9.0
 40
10.0
 40
10.0
 40
10.0
 40
11.0
 40
11.0
 40
11.0
 40
12.0
 40
12.0
 40
12.0
 40
13.0
 40
13.0
 40
13.0
 40
14.0
 40
14.0
 40
14.0
 40
15.0
 40
15.0
 40
15.0
 40
16.0
 40
16.0
 40
16.0
 40
17.0
 40
17.0
 40
17.0
 40
18.0
 40
18.0
 40
18.0
 40
19.0
 40
19.0
 40
19.0
 40
19.0
 10
92.97038029359769
 20
-148.9328558655446
 10
92.88631996375759
 20
-148.9328558655446
 10
92.69408363568066
 20
-148.9118407830846
 10
92.58384058015265
 20
-148.7258056268811
 10
92.51838376593291
 20
-148.6134955140619
 10
92.51459416089914
 20
-148.5142767640867
 10
92.51114906541389
 20
-148.4295274151496
 10
92.51114906541389
 20
-148.4295274151496
 10
92.70510794123345
 20
-148.4295274151496
 10
92.70510794123345
 20
-148.4295274151496
 10
92.7071749985246
 20
-148.5035969680824
 10
92.71647675633477
 20
-148.738207970628
 10
92.96659068856391
 20
-148.738207970628
 10
93.08820255919323
 20
-148.738207970628
 10
93.22256128311797
 20
-148.6686170418259
 10
93.22256128311797
 20
-148.4402072111538
 10
93.22256128311797
 20
-148.3237629837524
 10
93.18914385691104
 20
-148.2751871374104
 10
93.160894073932
 20
-148.2434922589461
 10
93.09578176926078
 20
-148.1694227060132
 10
92.99277341425181
 20
-148.1566758527178
 10
92.94419756790978
 20
-148.1566758527178
 10
92.92766110958058
 20
-148.1566758527178
 10
92.89562172156776
 20
-148.1587429100089
 10
92.87150605317102
 20
-148.1628770245912
 10
92.87150605317102
 20
-148.1628770245912
 10
92.87150605317102
 20
-147.9682291296746
 10
92.87150605317102
 20
-147.9682291296746
 10
92.90526798892647
 20
-147.9747748110966
 10
92.94247502016717
 20
-147.9768418683877
 10
92.94798717294357
 20
-147.9768418683877
 10
93.00586477709577
 20
-147.9768418683877
 10
93.1815646468435
 20
-147.9554822763792
 10
93.1815646468435
 20
-147.7188042165425
 10
93.1815646468435
 20
-147.5410372895036
 10
93.0658094385391
 20
-147.4859157617396
 10
92.96865774585507
 20
-147.4859157617396
 10
92.73508027195513
 20
-147.4859157617396
 10
92.72750106188758
 20
-147.7188042165425
 10
92.72405596640232
 20
-147.7904622026357
 10
92.72405596640232
 20
-147.7904622026357
 10
92.54456649162081
 20
-147.7904622026357
 10
92.54456649162081
 20
-147.7904622026357
 10
92.55214570168836
 20
-147.6657497460697
 10
92.5762613700851
 20
-147.2892008095319
 10
92.97968205140786
 20
-147.2892008095319
 10
93.17777504180972
 20
-147.2892008095319
 10
93.39068194279817
 20
-147.4163248329376
 10
93.39068194279817
 20
-147.7122585351206
 10
93.39068194279817
 20
-147.8986382008726
 10
93.30662161295807
 20
-147.9809759829701
 10
93.2187716780842
 20
-148.0422986826075
 10
93.27320418675114
 20
-148.0698594464895
 10
93.4337456363638
 20
-148.1501301712958
 10
93.4337456363638
 20
-148.4274603578584
 10
93.4337456363638
 20
-148.7657687345099
 10
93.21532658259895
 20
-148.9328558655446
 10
92.97038029359769
 20
-148.9328558655446
 97
        0
 97
        0
 75
     2
 76
     1
 98
        0
  0
ENDBLK
  5
106
330
103
100
AcDbEntity
  8
0
100
AcDbBlockEnd
  0
BLOCK
  5
10D
330
10B
100
AcDbEntity
  8
0
100
AcDbBlockBegin
  2
block 6
 70
     0
 10
0.0
 20
0.0
 30
0.0
  3
block 6
  1

  0
SPLINE
  5
10F
330
10B
100
AcDbEntity
  8
_U+30EC_U+30A4_U+30E4_U+30FC 1
370
     0
100
AcDbSpline
210
0.0
220
0.0
230
1.0
 70
    11
 71
     3
 72
    26
 73
    22
 74
     0
 42
0.0000000001
 43
0.0000000001
 12
1.0
 22
0.0
 32
0.0
 13
1.0
 23
0.0
 33
0.0
 40
0.0
 40
0.0
 40
0.0
 40
0.0
 40
1.0
 40
1.0
 40
1.0
 40
2.0
 40
2.0
 40
2.0
 40
3.0
 40
3.0
 40
3.0
 40
4.0
 40
4.0
 40
4.0
 40
5.0
 40
5.0
 40
5.0
 40
6.0
 40
6.0
 40
6.0
 40
7.0
 40
7.0
 40
7.0
 40
7.0
 10
91.94305281989618
 20
-109.3232150334331
 30
0.0
 10
91.94305281989618
 20
-109.3232150334331
 30
0.0
 10
91.94305281989618
 20
-108.2188896756362
 30
0.0
 10
91.94305281989618
 20
-108.2188896756362
 30
0.0
 10
91.94305281989618
 20
-108.2188896756362
 30
0.0
 10
91.65159774184404
 20
-108.2188896756362
 30
0.0
 10
91.65159774184404
 20
-108.2188896756362
 30
0.0
 10
91.65159774184404
 20
-108.2188896756362
 30
0.0
 10
91.65159774184404
 20
-108.0709228245448
 30
0.0
 10
91.65159774184404
 20
-108.0709228245448
 30
0.0
 10
91.94511987718734
 20
-108.0561089139582
 30
0.0
 10
91.98611651346181
 20
-107.8931558975059
 30
0.0
 10
92.01229923914971
 20
-107.7789509821698
 30
0.0
 10
92.01229923914971
 20
-107.7789509821698
 30
0.0
 10
92.14114581029806
 20
-107.7789509821698
 30
0.0
 10
92.14114581029806
 20
-107.7789509821698
 30
0.0
 10
92.14114581029806
 20
-107.7789509821698
 30
0.0
 10
92.14114581029806
 20
-109.3232150334331
 30
0.0
 10
92.14114581029806
 20
-109.3232150334331
 30
0.0
 10
92.14114581029806
 20
-109.3232150334331
 30
0.0
 10
91.94305281989618
 20
-109.3232150334331
 30
0.0
 10
91.94305281989618
 20
-109.3232150334331
 30
0.0
  0
HATCH
  5
110
330
10B
100
AcDbEntity
  8
_U+30EC_U+30A4_U+30E4_U+30FC 1
 62
   179
420
  2234388
100
AcDbHatch
 10
0.0
 20
0.0
 30
0.0
210
0.0
220
0.0
230
1.0
  2
SOLID
 70
     1
 71
     0
 91
        1
 92
        1
 93
        1
 72
     4
 94
        3
 73
     0
 74
     1
 95
       26
 96
       22
 40
0.0
 40
0.0
 40
0.0
 40
0.0
 40
1.0
 40
1.0
 40
1.0
 40
2.0
 40
2.0
 40
2.0
 40
3.0
 40
3.0
 40
3.0
 40
4.0
 40
4.0
 40
4.0
 40
5.0
 40
5.0
 40
5.0
 40
6.0
 40
6.0
 40
6.0
 40
7.0
 40
7.0
 40
7.0
 40
7.0
 10
91.94305281989618
 20
-109.3232150334331
 10
91.94305281989618
 20
-109.3232150334331
 10
91.94305281989618
 20
-108.2188896756362
 10
91.94305281989618
 20
-108.2188896756362
 10
91.94305281989618
 20
-108.2188896756362
 10
91.65159774184404
 20
-108.2188896756362
 10
91.65159774184404
 20
-108.2188896756362
 10
91.65159774184404
 20
-108.2188896756362
 10
91.65159774184404
 20
-108.0709228245448
 10
91.65159774184404
 20
-108.0709228245448
 10
91.94511987718734
 20
-108.0561089139582
 10
91.98611651346181
 20
-107.8931558975059
 10
92.01229923914971
 20
-107.7789509821698
 10
92.01229923914971
 20
-107.7789509821698
 10
92.14114581029806
 20
-107.7789509821698
 10
92.14114581029806
 20
-107.7789509821698
 10
92.14114581029806
 20
-107.7789509821698
 10
92.14114581029806
 20
-109.3232150334331
 10
92.14114581029806
 20
-109.3232150334331
 10
92.14114581029806
 20
-109.3232150334331
 10
91.94305281989618
 20
-109.3232150334331
 10
91.94305281989618
 20
-109.3232150334331
 97
        0
 97
        0
 75
     2
 76
     1
 98
        0
  0
ENDBLK
  5
10E
330
10B
100
AcDbEntity
  8
0
100
AcDbBlockEnd
  0
BLOCK
  5
113
330
111
100
AcDbEntity
  8
0
100
AcDbBlockBegin
  2
block 7
 70
     0
 10
0.0
 20
0.0
 30
0.0
  3
block 7
  1

  0
POLYLINE
  5
115
330
111
100
AcDbEntity
  8
_U+30EC_U+30A4_U+30E4_U+30FC 1
370
     0
100
AcDb2dPolyline
 66
     1
 10
0.0
 20
0.0
 30
0.0
  0
VERTEX
  5
116
330
115
100
AcDbEntity
  8
_U+30EC_U+30A4_U+30E4_U+30FC 1
370
     0
100
AcDbVertex
100
AcDb2dVertex
 10
88.59304197003924
 20
-127.5353678066578
 30
0.0
  0
VERTEX
  5
117
330
115
100
AcDbEntity
  8
_U+30EC_U+30A4_U+30E4_U+30FC 1
370
     0
100
AcDbVertex
100
AcDb2dVertex
 10
88.59304197003924
 20
-127.8822889220225
 30
0.0
  0
VERTEX
  5
118
330
115
100
AcDbEntity
  8
_U+30EC_U+30A4_U+30E4_U+30FC 1
370
     0
100
AcDbVertex
100
AcDb2dVertex
 10
88.40046113241378
 20
-127.8822889220225
 30
0.0
  0
VERTEX
  5
119
330
115
100
AcDbEntity
  8
_U+30EC_U+30A4_U+30E4_U+30FC 1
370
     0
100
AcDbVertex
100
AcDb2dVertex
 10
88.40046113241378
 20
-127.5353678066578
 30
0.0
  0
VERTEX
  5
11A
330
115
100
AcDbEntity
  8
_U+30EC_U+30A4_U+30E4_U+30FC 1
370
     0
100
AcDbVertex
100
AcDb2dVertex
 10
87.82134058134328
 20
-127.5353678066578
 30
0.0
  0
VERTEX
  5
11B
330
115
100
AcDbEntity
  8
_U+30EC_U+30A4_U+30E4_U+30FC 1
370
     0
100
AcDbVertex
100
AcDb2dVertex
 10
87.82134058134328
 20
-127.3110920905681
 30
0.0
  0
VERTEX
  5
11C
330
115
100
AcDbEntity
  8
_U+30EC_U+30A4_U+30E4_U+30FC 1
370
     0
100
AcDbVertex
100
AcDb2dVertex
 10
88.42113170532528
 20
-126.3380248707593
 30
0.0
  0
VERTEX
  5
11D
330
115
100
AcDbEntity
  8
_U+30EC_U+30A4_U+30E4_U+30FC 1
370
     0
100
AcDbVertex
100
AcDb2dVertex
 10
88.59304197003924
 20
-126.3380248707593
 30
0.0
  0
VERTEX
  5
11E
330
115
100
AcDbEntity
  8
_U+30EC_U+30A4_U+30E4_U+30FC 1
370
     0
100
AcDbVertex
100
AcDb2dVertex
 10
88.59304197003924
 20
-127.3364135423846
 30
0.0
  0
VERTEX
  5
11F
330
115
100
AcDbEntity
  8
_U+30EC_U+30A4_U+30E4_U+30FC 1
370
     0
100
AcDbVertex
100
AcDb2dVertex
 10
88.775976540306
 20
-127.3364135423846
 30
0.0
  0
VERTEX
  5
120
330
115
100
AcDbEntity
  8
_U+30EC_U+30A4_U+30E4_U+30FC 1
370
     0
100
AcDbVertex
100
AcDb2dVertex
 10
88.775976540306
 20
-127.5353678066578
 30
0.0
  0
VERTEX
  5
121
330
115
100
AcDbEntity
  8
_U+30EC_U+30A4_U+30E4_U+30FC 1
370
     0
100
AcDbVertex
100
AcDb2dVertex
 10
88.59304197003924
 20
-127.5353678066578
 30
0.0
  0
SEQEND
  5
122
330
115
100
AcDbEntity
  8
_U+30EC_U+30A4_U+30E4_U+30FC 1
370
     0
  0
POLYLINE
  5
123
330
111
100
AcDbEntity
  8
_U+30EC_U+30A4_U+30E4_U+30FC 1
370
     0
100
AcDb2dPolyline
 66
     1
 10
0.0
 20
0.0
 30
0.0
  0
VERTEX
  5
124
330
123
100
AcDbEntity
  8
_U+30EC_U+30A4_U+30E4_U+30FC 1
370
     0
100
AcDbVertex
100
AcDb2dVertex
 10
88.40046113241378
 20
-126.6806396167674
 30
0.0
  0
VERTEX
  5
125
330
123
100
AcDbEntity
  8
_U+30EC_U+30A4_U+30E4_U+30FC 1
370
     0
100
AcDbVertex
100
AcDb2dVertex
 10
87.99704045109102
 20
-127.3364135423846
 30
0.0
  0
VERTEX
  5
126
330
123
100
AcDbEntity
  8
_U+30EC_U+30A4_U+30E4_U+30FC 1
370
     0
100
AcDbVertex
100
AcDb2dVertex
 10
88.40046113241378
 20
-127.3364135423846
 30
0.0
  0
VERTEX
  5
127
330
123
100
AcDbEntity
  8
_U+30EC_U+30A4_U+30E4_U+30FC 1
370
     0
100
AcDbVertex
100
AcDb2dVertex
 10
88.40046113241378
 20
-126.6806396167674
 30
0.0
  0
SEQEND
  5
128
330
123
100
AcDbEntity
  8
_U+30EC_U+30A4_U+30E4_U+30FC 1
370
     0
  0
HATCH
  5
129
330
111
100
AcDbEntity
  8
_U+30EC_U+30A4_U+30E4_U+30FC 1
 62
   179
420
  2234388
100
AcDbHatch
 10
0.0
 20
0.0
 30
0.0
210
0.0
220
0.0
230
1.0
  2
SOLID
 70
     1
 71
     0
 91
        2
 92
        1
 93
       11
 72
     1
 10
88.59304197003924
 20
-127.5353678066578
 11
88.59304197003924
 21
-127.8822889220225
 72
     1
 10
88.59304197003924
 20
-127.8822889220225
 11
88.40046113241378
 21
-127.8822889220225
 72
     1
 10
88.40046113241378
 20
-127.8822889220225
 11
88.40046113241378
 21
-127.5353678066578
 72
     1
 10
88.40046113241378
 20
-127.5353678066578
 11
87.82134058134328
 21
-127.5353678066578
 72
     1
 10
87.82134058134328
 20
-127.5353678066578
 11
87.82134058134328
 21
-127.3110920905681
 72
     1
 10
87.82134058134328
 20
-127.3110920905681
 11
88.42113170532528
 21
-126.3380248707593
 72
     1
 10
88.42113170532528
 20
-126.3380248707593
 11
88.59304197003924
 21
-126.3380248707593
 72
     1
 10
88.59304197003924
 20
-126.3380248707593
 11
88.59304197003924
 21
-127.3364135423846
 72
     1
 10
88.59304197003924
 20
-127.3364135423846
 11
88.775976540306
 21
-127.3364135423846
 72
     1
 10
88.775976540306
 20
-127.3364135423846
 11
88.775976540306
 21
-127.5353678066578
 72
     1
 10
88.775976540306
 20
-127.5353678066578
 11
88.59304197003924
 21
-127.5353678066578
 97
        0
 92
        1
 93
        3
 72
     1
 10
88.40046113241378
 20
-126.6806396167674
 11
87.99704045109102
 21
-127.3364135423846
 72
     1
 10
87.99704045109102
 20
-127.3364135423846
 11
88.40046113241378
 21
-127.3364135423846
 72
     1
 10
88.40046113241378
 20
-127.3364135423846
 11
88.40046113241378
 21
-126.6806396167674
 97
        0
 75
     2
 76
     1
 98
        0
  0
POLYLINE
  5
12A
330
111
100
AcDbEntity
  8
_U+30EC_U+30A4_U+30E4_U+30FC 1
370
     0
100
AcDb2dPolyline
 66
     1
 10
0.0
 20
0.0
 30
0.0
  0
VERTEX
  5
12B
330
12A
100
AcDbEntity
  8
_U+30EC_U+30A4_U+30E4_U+30FC 1
370
     0
100
AcDbVertex
100
AcDb2dVertex
 10
88.9509873909567
 20
-127.8822889220225
 30
0.0
  0
VERTEX
  5
12C
330
12A
100
AcDbEntity
  8
_U+30EC_U+30A4_U+30E4_U+30FC 1
370
     0
100
AcDbVertex
100
AcDb2dVertex
 10
88.9509873909567
 20
-127.630624696825
 30
0.0
  0
VERTEX
  5
12D
330
12A
100
AcDbEntity
  8
_U+30EC_U+30A4_U+30E4_U+30FC 1
370
     0
100
AcDbVertex
100
AcDb2dVertex
 10
89.17319604975532
 20
-127.630624696825
 30
0.0
  0
VERTEX
  5
12E
330
12A
100
AcDbEntity
  8
_U+30EC_U+30A4_U+30E4_U+30FC 1
370
     0
100
AcDbVertex
100
AcDb2dVertex
 10
89.17319604975532
 20
-127.8822889220225
 30
0.0
  0
VERTEX
  5
12F
330
12A
100
AcDbEntity
  8
_U+30EC_U+30A4_U+30E4_U+30FC 1
370
     0
100
AcDbVertex
100
AcDb2dVertex
 10
88.9509873909567
 20
-127.8822889220225
 30
0.0
  0
SEQEND
  5
130
330
12A
100
AcDbEntity
  8
_U+30EC_U+30A4_U+30E4_U+30FC 1
370
     0
  0
HATCH
  5
131
330
111
100
AcDbEntity
  8
_U+30EC_U+30A4_U+30E4_U+30FC 1
 62
   179
420
  2234388
100
AcDbHatch
 10
0.0
 20
0.0
 30
0.0
210
0.0
220
0.0
230
1.0
  2
SOLID
 70
     1
 71
     0
 91
        1
 92
        1
 93
        4
 72
     1
 10
88.9509873909567
 20
-127.8822889220225
 11
88.9509873909567
 21
-127.630624696825
 72
     1
 10
88.9509873909567
 20
-127.630624696825
 11
89.17319604975532
 21
-127.630624696825
 72
     1
 10
89.17319604975532
 20
-127.630624696825
 11
89.17319604975532
 21
-127.8822889220225
 72
     1
 10
89.17319604975532
 20
-127.8822889220225
 11
88.9509873909567
 21
-127.8822889220225
 97
        0
 75
     2
 76
     1
 98
        0
  0
SPLINE
  5
132
330
111
100
AcDbEntity
  8
_U+30EC_U+30A4_U+30E4_U+30FC 1
370
     0
100
AcDbSpline
210
0.0
220
0.0
230
1.0
 70
    11
 71
     3
 72
    53
 73
    49
 74
     0
 42
0.0000000001
 43
0.0000000001
 12
1.0
 22
0.0
 32
0.0
 13
1.0
 23
0.0
 33
0.0
 40
0.0
 40
0.0
 40
0.0
 40
0.0
 40
1.0
 40
1.0
 40
1.0
 40
2.0
 40
2.0
 40
2.0
 40
3.0
 40
3.0
 40
3.0
 40
4.0
 40
4.0
 40
4.0
 40
5.0
 40
5.0
 40
5.0
 40
6.0
 40
6.0
 40
6.0
 40
7.0
 40
7.0
 40
7.0
 40
8.0
 40
8.0
 40
8.0
 40
9.0
 40
9.0
 40
9.0
 40
10.0
 40
10.0
 40
10.0
 40
11.0
 40
11.0
 40
11.0
 40
12.0
 40
12.0
 40
12.0
 40
13.0
 40
13.0
 40
13.0
 40
14.0
 40
14.0
 40
14.0
 40
15.0
 40
15.0
 40
15.0
 40
16.0
 40
16.0
 40
16.0
 40
16.0
 10
89.80674910949276
 20
-127.9331040804299
 30
0.0
 10
89.73784719978777
 20
-127.9331040804299
 30
0.0
 10
89.64827471717126
 20
-127.9160508577779
 30
0.0
 10
89.55835772500625
 20
-127.8526611008493
 30
0.0
 10
89.40539548546116
 20
-127.7425903000956
 30
0.0
 10
89.3867919698408
 20
-127.6115044168819
 30
0.0
 10
89.36991100196308
 20
-127.5036729281935
 30
0.0
 10
89.36991100196308
 20
-127.5036729281935
 30
0.0
 10
89.5659369350738
 20
-127.5036729281935
 30
0.0
 10
89.5659369350738
 20
-127.5036729281935
 30
0.0
 10
89.61451278141583
 20
-127.7024549376925
 30
0.0
 10
89.72647838468644
 20
-127.7320827588656
 30
0.0
 10
89.80881616678391
 20
-127.7320827588656
 30
0.0
 10
89.93215058515585
 20
-127.7320827588656
 30
0.0
 10
90.0665093090806
 20
-127.6326917541161
 30
0.0
 10
90.0665093090806
 20
-127.3999755540875
 30
0.0
 10
90.0665093090806
 20
-127.1440049595334
 30
0.0
 10
89.90769040721058
 20
-127.0742417759571
 30
0.0
 10
89.80123695671637
 20
-127.0742417759571
 30
0.0
 10
89.77333168328583
 20
-127.0742417759571
 30
0.0
 10
89.64827471717126
 20
-127.0742417759571
 30
0.0
 10
89.56972654010757
 20
-127.2032606018797
 30
0.0
 10
89.56972654010757
 20
-127.2032606018797
 30
0.0
 10
89.41469724327133
 20
-127.1841403219366
 30
0.0
 10
89.41469724327133
 20
-127.1841403219366
 30
0.0
 10
89.41469724327133
 20
-127.1841403219366
 30
0.0
 10
89.52115069376555
 20
-126.3380248707593
 30
0.0
 10
89.52115069376555
 20
-126.3380248707593
 30
0.0
 10
89.52115069376555
 20
-126.3380248707593
 30
0.0
 10
90.2084472430729
 20
-126.3380248707593
 30
0.0
 10
90.2084472430729
 20
-126.3380248707593
 30
0.0
 10
90.2084472430729
 20
-126.3380248707593
 30
0.0
 10
90.2084472430729
 20
-126.5326727656759
 30
0.0
 10
90.2084472430729
 20
-126.5326727656759
 30
0.0
 10
90.2084472430729
 20
-126.5326727656759
 30
0.0
 10
89.66481117550047
 20
-126.5326727656759
 30
0.0
 10
89.66481117550047
 20
-126.5326727656759
 30
0.0
 10
89.66481117550047
 20
-126.5326727656759
 30
0.0
 10
89.60693357134826
 20
-126.9557304912645
 30
0.0
 10
89.60693357134826
 20
-126.9557304912645
 30
0.0
 10
89.66136608001521
 20
-126.9217963007348
 30
0.0
 10
89.73405759475399
 20
-126.8816609383317
 30
0.0
 10
89.83878849750559
 20
-126.8816609383317
 30
0.0
 10
90.06271970404683
 20
-126.8816609383317
 30
0.0
 10
90.27218150955001
 20
-127.0678683493094
 30
0.0
 10
90.27218150955001
 20
-127.3808552741444
 30
0.0
 10
90.27218150955001
 20
-127.6983208231102
 30
0.0
 10
90.07408851914815
 20
-127.9331040804299
 30
0.0
 10
89.80674910949276
 20
-127.9331040804299
 30
0.0
  0
HATCH
  5
133
330
111
100
AcDbEntity
  8
_U+30EC_U+30A4_U+30E4_U+30FC 1
 62
   179
420
  2234388
100
AcDbHatch
 10
0.0
 20
0.0
 30
0.0
210
0.0
220
0.0
230
1.0
  2
SOLID
 70
     1
 71
     0
 91
        1
 92
        1
 93
        1
 72
     4
 94
        3
 73
     0
 74
     1
 95
       53
 96
       49
 40
0.0
 40
0.0
 40
0.0
 40
0.0
 40
1.0
 40
1.0
 40
1.0
 40
2.0
 40
2.0
 40
2.0
 40
3.0
 40
3.0
 40
3.0
 40
4.0
 40
4.0
 40
4.0
 40
5.0
 40
5.0
 40
5.0
 40
6.0
 40
6.0
 40
6.0
 40
7.0
 40
7.0
 40
7.0
 40
8.0
 40
8.0
 40
8.0
 40
9.0
 40
9.0
 40
9.0
 40
10.0
 40
10.0
 40
10.0
 40
11.0
 40
11.0
 40
11.0
 40
12.0
 40
12.0
 40
12.0
 40
13.0
 40
13.0
 40
13.0
 40
14.0
 40
14.0
 40
14.0
 40
15.0
 40
15.0
 40
15.0
 40
16.0
 40
16.0
 40
16.0
 40
16.0
 10
89.80674910949276
 20
-127.9331040804299
 10
89.73784719978777
 20
-127.9331040804299
 10
89.64827471717126
 20
-127.9160508577779
 10
89.55835772500625
 20
-127.8526611008493
 10
89.40539548546116
 20
-127.7425903000956
 10
89.3867919698408
 20
-127.6115044168819
 10
89.36991100196308
 20
-127.5036729281935
 10
89.36991100196308
 20
-127.5036729281935
 10
89.5659369350738
 20
-127.5036729281935
 10
89.5659369350738
 20
-127.5036729281935
 10
89.61451278141583
 20
-127.7024549376925
 10
89.72647838468644
 20
-127.7320827588656
 10
89.80881616678391
 20
-127.7320827588656
 10
89.93215058515585
 20
-127.7320827588656
 10
90.0665093090806
 20
-127.6326917541161
 10
90.0665093090806
 20
-127.3999755540875
 10
90.0665093090806
 20
-127.1440049595334
 10
89.90769040721058
 20
-127.0742417759571
 10
89.80123695671637
 20
-127.0742417759571
 10
89.77333168328583
 20
-127.0742417759571
 10
89.64827471717126
 20
-127.0742417759571
 10
89.56972654010757
 20
-127.2032606018797
 10
89.56972654010757
 20
-127.2032606018797
 10
89.41469724327133
 20
-127.1841403219366
 10
89.41469724327133
 20
-127.1841403219366
 10
89.41469724327133
 20
-127.1841403219366
 10
89.52115069376555
 20
-126.3380248707593
 10
89.52115069376555
 20
-126.3380248707593
 10
89.52115069376555
 20
-126.3380248707593
 10
90.2084472430729
 20
-126.3380248707593
 10
90.2084472430729
 20
-126.3380248707593
 10
90.2084472430729
 20
-126.3380248707593
 10
90.2084472430729
 20
-126.5326727656759
 10
90.2084472430729
 20
-126.5326727656759
 10
90.2084472430729
 20
-126.5326727656759
 10
89.66481117550047
 20
-126.5326727656759
 10
89.66481117550047
 20
-126.5326727656759
 10
89.66481117550047
 20
-126.5326727656759
 10
89.60693357134826
 20
-126.9557304912645
 10
89.60693357134826
 20
-126.9557304912645
 10
89.66136608001521
 20
-126.9217963007348
 10
89.73405759475399
 20
-126.8816609383317
 10
89.83878849750559
 20
-126.8816609383317
 10
90.06271970404683
 20
-126.8816609383317
 10
90.27218150955001
 20
-127.0678683493094
 10
90.27218150955001
 20
-127.3808552741444
 10
90.27218150955001
 20
-127.6983208231102
 10
90.07408851914815
 20
-127.9331040804299
 10
89.80674910949276
 20
-127.9331040804299
 97
        0
 97
        0
 75
     2
 76
     1
 98
        0
  0
ENDBLK
  5
114
330
111
100
AcDbEntity
  8
0
100
AcDbBlockEnd
  0
ENDSEC
  0
SECTION
  2
ENTITIES
  0
POLYLINE
  5
41
330
1F
100
AcDbEntity
  8
_U+30EC_U+30A4_U+30E4_U+30FC 1
370
     0
100
AcDb2dPolyline
 66
     1
 10
0.0
 20
0.0
 30
0.0
  0
VERTEX
  5
42
330
41
100
AcDbEntity
  8
_U+30EC_U+30A4_U+30E4_U+30FC 1
370
     0
100
AcDbVertex
100
AcDb2dVertex
 10
86.95887333704987
 20
-139.0278524652429
 30
0.0
  0
VERTEX
  5
43
330
41
100
AcDbEntity
  8
_U+30EC_U+30A4_U+30E4_U+30FC 1
370
     0
100
AcDbVertex
100
AcDb2dVertex
 10
91.45901238890842
 20
-139.0278524652429
 30
0.0
  0
VERTEX
  5
44
330
41
100
AcDbEntity
  8
_U+30EC_U+30A4_U+30E4_U+30FC 1
370
     0
100
AcDbVertex
100
AcDb2dVertex
 10
91.45901238890842
 20
-115.0276041379098
 30
0.0
  0
VERTEX
  5
45
330
41
100
AcDbEntity
  8
_U+30EC_U+30A4_U+30E4_U+30FC 1
370
     0
100
AcDbVertex
100
AcDb2dVertex
 10
92.45878458562433
 20
-115.0276041379098
 30
0.0
  0
VERTEX
  5
46
330
41
100
AcDbEntity
  8
_U+30EC_U+30A4_U+30E4_U+30FC 1
370
     0
100
AcDbVertex
100
AcDb2dVertex
 10
92.45878458562433
 20
-140.0276246872155
 30
0.0
  0
VERTEX
  5
47
330
41
100
AcDbEntity
  8
_U+30EC_U+30A4_U+30E4_U+30FC 1
370
     0
100
AcDbVertex
100
AcDb2dVertex
 10
86.95887333704987
 20
-140.0276246872155
 30
0.0
  0
VERTEX
  5
48
330
41
100
AcDbEntity
  8
_U+30EC_U+30A4_U+30E4_U+30FC 1
370
     0
100
AcDbVertex
100
AcDb2dVertex
 10
86.95887333704987
 20
-144.527622741646
 30
0.0
  0
VERTEX
  5
49
330
41
100
AcDbEntity
  8
_U+30EC_U+30A4_U+30E4_U+30FC 1
370
     0
100
AcDbVertex
100
AcDb2dVertex
 10
98.95899719756787
 20
-144.527622741646
 30
0.0
  0
VERTEX
  5
4A
330
41
100
AcDbEntity
  8
_U+30EC_U+30A4_U+30E4_U+30FC 1
370
     0
100
AcDbVertex
100
AcDb2dVertex
 10
98.95899719756787
 20
-145.527394963618
 30
0.0
  0
VERTEX
  5
4B
330
41
100
AcDbEntity
  8
_U+30EC_U+30A4_U+30E4_U+30FC 1
370
     0
100
AcDbVertex
100
AcDb2dVertex
 10
85.95874836256519
 20
-145.527394963618
 30
0.0
  0
VERTEX
  5
4C
330
41
100
AcDbEntity
  8
_U+30EC_U+30A4_U+30E4_U+30FC 1
370
     0
100
AcDbVertex
100
AcDb2dVertex
 10
85.95874836256519
 20
-132.5276396890905
 30
0.0
  0
VERTEX
  5
4D
330
41
100
AcDbEntity
  8
_U+30EC_U+30A4_U+30E4_U+30FC 1
370
     0
100
AcDbVertex
100
AcDb2dVertex
 10
86.95887333704987
 20
-132.5276396890905
 30
0.0
  0
VERTEX
  5
4E
330
41
100
AcDbEntity
  8
_U+30EC_U+30A4_U+30E4_U+30FC 1
370
     0
100
AcDbVertex
100
AcDb2dVertex
 10
86.95887333704987
 20
-139.0278524652429
 30
0.0
  0
SEQEND
  5
50
330
41
100
AcDbEntity
  8
_U+30EC_U+30A4_U+30E4_U+30FC 1
370
     0
  0
HATCH
  5
4F
330
1F
100
AcDbEntity
  8
_U+30EC_U+30A4_U+30E4_U+30FC 1
 62
   253
420
 11711154
100
AcDbHatch
 10
0.0
 20
0.0
 30
0.0
210
0.0
220
0.0
230
1.0
  2
SOLID
 70
     1
 71
     0
 91
        1
 92
        1
 93
       12
 72
     1
 10
86.95887333704987
 20
-139.0278524652429
 11
91.45901238890842
 21
-139.0278524652429
 72
     1
 10
91.45901238890842
 20
-139.0278524652429
 11
91.45901238890842
 21
-115.0276041379098
 72
     1
 10
91.45901238890842
 20
-115.0276041379098
 11
92.45878458562433
 21
-115.0276041379098
 72
     1
 10
92.45878458562433
 20
-115.0276041379098
 11
92.45878458562433
 21
-140.0276246872155
 72
     1
 10
92.45878458562433
 20
-140.0276246872155
 11
86.95887333704987
 21
-140.0276246872155
 72
     1
 10
86.95887333704987
 20
-140.0276246872155
 11
86.95887333704987
 21
-144.527622741646
 72
     1
 10
86.95887333704987
 20
-144.527622741646
 11
98.95899719756787
 21
-144.527622741646
 72
     1
 10
98.95899719756787
 20
-144.527622741646
 11
98.95899719756787
 21
-145.527394963618
 72
     1
 10
98.95899719756787
 20
-145.527394963618
 11
85.95874836256519
 21
-145.527394963618
 72
     1
 10
85.95874836256519
 20
-145.527394963618
 11
85.95874836256519
 21
-132.5276396890905
 72
     1
 10
85.95874836256519
 20
-132.5276396890905
 11
86.95887333704987
 21
-132.5276396890905
 72
     1
 10
86.95887333704987
 20
-132.5276396890905
 11
86.95887333704987
 21
-139.0278524652429
 97
        0
 75
     2
 76
     1
 98
        0
  0
POLYLINE
  5
51
330
1F
100
AcDbEntity
  8
_U+30EC_U+30A4_U+30E4_U+30FC 1
 62
   179
420
  2234388
370
    25
100
AcDb2dPolyline
 66
     1
 10
0.0
 20
0.0
 30
0.0
  0
VERTEX
  5
52
330
51
100
AcDbEntity
  8
_U+30EC_U+30A4_U+30E4_U+30FC 1
 62
   179
420
  2234388
370
    25
100
AcDbVertex
100
AcDb2dVertex
 10
98.95899719756787
 20
-144.527622741646
 30
0.0
  0
VERTEX
  5
53
330
51
100
AcDbEntity
  8
_U+30EC_U+30A4_U+30E4_U+30FC 1
 62
   179
420
  2234388
370
    25
100
AcDbVertex
100
AcDb2dVertex
 10
98.95899719756787
 20
-145.527394963618
 30
0.0
  0
SEQEND
  5
54
330
51
100
AcDbEntity
  8
_U+30EC_U+30A4_U+30E4_U+30FC 1
 62
   179
420
  2234388
370
    25
  0
POLYLINE
  5
55
330
1F
100
AcDbEntity
  8
_U+30EC_U+30A4_U+30E4_U+30FC 1
 62
   179
420
  2234388
370
    25
100
AcDb2dPolyline
 66
     1
 10
0.0
 20
0.0
 30
0.0
  0
VERTEX
  5
56
330
55
100
AcDbEntity
  8
_U+30EC_U+30A4_U+30E4_U+30FC 1
 62
   179
420
  2234388
370
    25
100
AcDbVertex
100
AcDb2dVertex
 10
98.95899719756787
 20
-145.527394963618
 30
0.0
  0
VERTEX
  5
57
330
55
100
AcDbEntity
  8
_U+30EC_U+30A4_U+30E4_U+30FC 1
 62
   179
420
  2234388
370
    25
100
AcDbVertex
100
AcDb2dVertex
 10
85.95874836256519
 20
-145.527394963618
 30
0.0
  0
SEQEND
  5
58
330
55
100
AcDbEntity
  8
_U+30EC_U+30A4_U+30E4_U+30FC 1
 62
   179
420
  2234388
370
    25
  0
POLYLINE
  5
59
330
1F
100
AcDbEntity
  8
_U+30EC_U+30A4_U+30E4_U+30FC 1
 62
   179
420
  2234388
370
    25
100
AcDb2dPolyline
 66
     1
 10
0.0
 20
0.0
 30
0.0
  0
VERTEX
  5
5A
330
59
100
AcDbEntity
  8
_U+30EC_U+30A4_U+30E4_U+30FC 1
 62
   179
420
  2234388
370
    25
100
AcDbVertex
100
AcDb2dVertex
 10
98.95899719756787
 20
-144.527622741646
 30
0.0
  0
VERTEX
  5
5B
330
59
100
AcDbEntity
  8
_U+30EC_U+30A4_U+30E4_U+30FC 1
 62
   179
420
  2234388
370
    25
100
AcDbVertex
100
AcDb2dVertex
 10
86.95887333704987
 20
-144.527622741646
 30
0.0
  0
SEQEND
  5
5C
330
59
100
AcDbEntity
  8
_U+30EC_U+30A4_U+30E4_U+30FC 1
 62
   179
420
  2234388
370
    25
  0
POLYLINE
  5
5D
330
1F
100
AcDbEntity
  8
_U+30EC_U+30A4_U+30E4_U+30FC 1
 62
   179
420
  2234388
370
    25
100
AcDb2dPolyline
 66
     1
 10
0.0
 20
0.0
 30
0.0
  0
VERTEX
  5
5E
330
5D
100
AcDbEntity
  8
_U+30EC_U+30A4_U+30E4_U+30FC 1
 62
   179
420
  2234388
370
    25
100
AcDbVertex
100
AcDb2dVertex
 10
92.45878458562433
 20
-140.0276246872155
 30
0.0
  0
VERTEX
  5
5F
330
5D
100
AcDbEntity
  8
_U+30EC_U+30A4_U+30E4_U+30FC 1
 62
   179
420
  2234388
370
    25
100
AcDbVertex
100
AcDb2dVertex
 10
86.95887333704987
 20
-140.0276246872155
 30
0.0
  0
SEQEND
  5
60
330
5D
100
AcDbEntity
  8
_U+30EC_U+30A4_U+30E4_U+30FC 1
 62
   179
420
  2234388
370
    25
  0
POLYLINE
  5
61
330
1F
100
AcDbEntity
  8
_U+30EC_U+30A4_U+30E4_U+30FC 1
 62
   179
420
  2234388
370
    25
100
AcDb2dPolyline
 66
     1
 10
0.0
 20
0.0
 30
0.0
  0
VERTEX
  5
62
330
61
100
AcDbEntity
  8
_U+30EC_U+30A4_U+30E4_U+30FC 1
 62
   179
420
  2234388
370
    25
100
AcDbVertex
100
AcDb2dVertex
 10
92.45878458562433
 20
-115.0276041379098
 30
0.0
  0
VERTEX
  5
63
330
61
100
AcDbEntity
  8
_U+30EC_U+30A4_U+30E4_U+30FC 1
 62
   179
420
  2234388
370
    25
100
AcDbVertex
100
AcDb2dVertex
 10
91.45901238890842
 20
-115.0276041379098
 30
0.0
  0
SEQEND
  5
64
330
61
100
AcDbEntity
  8
_U+30EC_U+30A4_U+30E4_U+30FC 1
 62
   179
420
  2234388
370
    25
  0
POLYLINE
  5
65
330
1F
100
AcDbEntity
  8
_U+30EC_U+30A4_U+30E4_U+30FC 1
 62
   179
420
  2234388
370
    25
100
AcDb2dPolyline
 66
     1
 10
0.0
 20
0.0
 30
0.0
  0
VERTEX
  5
66
330
65
100
AcDbEntity
  8
_U+30EC_U+30A4_U+30E4_U+30FC 1
 62
   179
420
  2234388
370
    25
100
AcDbVertex
100
AcDb2dVertex
 10
86.95887333704987
 20
-132.5276396890905
 30
0.0
  0
VERTEX
  5
67
330
65
100
AcDbEntity
  8
_U+30EC_U+30A4_U+30E4_U+30FC 1
 62
   179
420
  2234388
370
    25
100
AcDbVertex
100
AcDb2dVertex
 10
86.95887333704987
 20
-139.0278524652429
 30
0.0
  0
SEQEND
  5
68
330
65
100
AcDbEntity
  8
_U+30EC_U+30A4_U+30E4_U+30FC 1
 62
   179
420
  2234388
370
    25
  0
POLYLINE
  5
69
330
1F
100
AcDbEntity
  8
_U+30EC_U+30A4_U+30E4_U+30FC 1
 62
   179
420
  2234388
370
    25
100
AcDb2dPolyline
 66
     1
 10
0.0
 20
0.0
 30
0.0
  0
VERTEX
  5
6A
330
69
100
AcDbEntity
  8
_U+30EC_U+30A4_U+30E4_U+30FC 1
 62
   179
420
  2234388
370
    25
100
AcDbVertex
100
AcDb2dVertex
 10
86.95887333704987
 20
-132.5276396890905
 30
0.0
  0
VERTEX
  5
6B
330
69
100
AcDbEntity
  8
_U+30EC_U+30A4_U+30E4_U+30FC 1
 62
   179
420
  2234388
370
    25
100
AcDbVertex
100
AcDb2dVertex
 10
85.95874836256519
 20
-132.5276396890905
 30
0.0
  0
SEQEND
  5
6C
330
69
100
AcDbEntity
  8
_U+30EC_U+30A4_U+30E4_U+30FC 1
 62
   179
420
  2234388
370
    25
  0
POLYLINE
  5
6D
330
1F
100
AcDbEntity
  8
_U+30EC_U+30A4_U+30E4_U+30FC 1
 62
   179
420
  2234388
370
    25
100
AcDb2dPolyline
 66
     1
 10
0.0
 20
0.0
 30
0.0
  0
VERTEX
  5
6E
330
6D
100
AcDbEntity
  8
_U+30EC_U+30A4_U+30E4_U+30FC 1
 62
   179
420
  2234388
370
    25
100
AcDbVertex
100
AcDb2dVertex
 10
91.45901238890842
 20
-139.0278524652429
 30
0.0
  0
VERTEX
  5
6F
330
6D
100
AcDbEntity
  8
_U+30EC_U+30A4_U+30E4_U+30FC 1
 62
   179
420
  2234388
370
    25
100
AcDbVertex
100
AcDb2dVertex
 10
86.95887333704987
 20
-139.0278524652429
 30
0.0
  0
SEQEND
  5
70
330
6D
100
AcDbEntity
  8
_U+30EC_U+30A4_U+30E4_U+30FC 1
 62
   179
420
  2234388
370
    25
  0
POLYLINE
  5
71
330
1F
100
AcDbEntity
  8
_U+30EC_U+30A4_U+30E4_U+30FC 1
 62
   179
420
  2234388
370
    25
100
AcDb2dPolyline
 66
     1
 10
0.0
 20
0.0
 30
0.0
  0
VERTEX
  5
72
330
71
100
AcDbEntity
  8
_U+30EC_U+30A4_U+30E4_U+30FC 1
 62
   179
420
  2234388
370
    25
100
AcDbVertex
100
AcDb2dVertex
 10
91.45901238890842
 20
-115.0276041379098
 30
0.0
  0
VERTEX
  5
73
330
71
100
AcDbEntity
  8
_U+30EC_U+30A4_U+30E4_U+30FC 1
 62
   179
420
  2234388
370
    25
100
AcDbVertex
100
AcDb2dVertex
 10
91.45901238890842
 20
-139.0278524652429
 30
0.0
  0
SEQEND
  5
74
330
71
100
AcDbEntity
  8
_U+30EC_U+30A4_U+30E4_U+30FC 1
 62
   179
420
  2234388
370
    25
  0
POLYLINE
  5
75
330
1F
100
AcDbEntity
  8
_U+30EC_U+30A4_U+30E4_U+30FC 1
 62
   179
420
  2234388
370
    25
100
AcDb2dPolyline
 66
     1
 10
0.0
 20
0.0
 30
0.0
  0
VERTEX
  5
76
330
75
100
AcDbEntity
  8
_U+30EC_U+30A4_U+30E4_U+30FC 1
 62
   179
420
  2234388
370
    25
100
AcDbVertex
100
AcDb2dVertex
 10
92.45878458562433
 20
-115.0276041379098
 30
0.0
  0
VERTEX
  5
77
330
75
100
AcDbEntity
  8
_U+30EC_U+30A4_U+30E4_U+30FC 1
 62
   179
420
  2234388
370
    25
100
AcDbVertex
100
AcDb2dVertex
 10
92.45878458562433
 20
-140.0276246872155
 30
0.0
  0
SEQEND
  5
78
330
75
100
AcDbEntity
  8
_U+30EC_U+30A4_U+30E4_U+30FC 1
 62
   179
420
  2234388
370
    25
  0
POLYLINE
  5
79
330
1F
100
AcDbEntity
  8
_U+30EC_U+30A4_U+30E4_U+30FC 1
 62
   179
420
  2234388
370
    25
100
AcDb2dPolyline
 66
     1
 10
0.0
 20
0.0
 30
0.0
  0
VERTEX
  5
7A
330
79
100
AcDbEntity
  8
_U+30EC_U+30A4_U+30E4_U+30FC 1
 62
   179
420
  2234388
370
    25
100
AcDbVertex
100
AcDb2dVertex
 10
86.95887333704987
 20
-140.0276246872155
 30
0.0
  0
VERTEX
  5
7B
330
79
100
AcDbEntity
  8
_U+30EC_U+30A4_U+30E4_U+30FC 1
 62
   179
420
  2234388
370
    25
100
AcDbVertex
100
AcDb2dVertex
 10
86.95887333704987
 20
-144.527622741646
 30
0.0
  0
SEQEND
  5
7C
330
79
100
AcDbEntity
  8
_U+30EC_U+30A4_U+30E4_U+30FC 1
 62
   179
420
  2234388
370
    25
  0
POLYLINE
  5
7D
330
1F
100
AcDbEntity
  8
_U+30EC_U+30A4_U+30E4_U+30FC 1
 62
   179
420
  2234388
370
    25
100
AcDb2dPolyline
 66
     1
 10
0.0
 20
0.0
 30
0.0
  0
VERTEX
  5
7E
330
7D
100
AcDbEntity
  8
_U+30EC_U+30A4_U+30E4_U+30FC 1
 62
   179
420
  2234388
370
    25
100
AcDbVertex
100
AcDb2dVertex
 10
85.95874836256519
 20
-132.5276396890905
 30
0.0
  0
VERTEX
  5
7F
330
7D
100
AcDbEntity
  8
_U+30EC_U+30A4_U+30E4_U+30FC 1
 62
   179
420
  2234388
370
    25
100
AcDbVertex
100
AcDb2dVertex
 10
85.95874836256519
 20
-145.527394963618
 30
0.0
  0
SEQEND
  5
80
330
7D
100
AcDbEntity
  8
_U+30EC_U+30A4_U+30E4_U+30FC 1
 62
   179
420
  2234388
370
    25
  0
SPLINE
  5
81
330
1F
100
AcDbEntity
  8
_U+30EC_U+30A4_U+30E4_U+30FC 1
 62
   179
420
  2234388
370
     9
100
AcDbSpline
210
0.0
220
0.0
230
1.0
 70
    11
 71
     3
 72
    17
 73
    13
 74
     0
 42
0.0000000001
 43
0.0000000001
 12
1.0
 22
0.0
 32
0.0
 13
1.0
 23
0.0
 33
0.0
 40
0.0
 40
0.0
 40
0.0
 40
0.0
 40
1.0
 40
1.0
 40
1.0
 40
2.0
 40
2.0
 40
2.0
 40
3.0
 40
3.0
 40
3.0
 40
4.0
 40
4.0
 40
4.0
 40
4.0
 10
102.8588495980743
 20
-144.527622741646
 30
0.0
 10
102.8588495980743
 20
-144.472483574993
 30
0.0
 10
102.9036170969322
 20
-144.4277160750044
 30
0.0
 10
102.9587562621922
 20
-144.4277160750044
 30
0.0
 10
103.0138601496753
 20
-144.4277160750044
 30
0.0
 10
103.05866292631
 20
-144.472483574993
 30
0.0
 10
103.05866292631
 20
-144.527622741646
 30
0.0
 10
103.05866292631
 20
-144.582726630521
 30
0.0
 10
103.0138601496753
 20
-144.6275294082877
 30
0.0
 10
102.9587562621922
 20
-144.6275294082877
 30
0.0
 10
102.9036170969322
 20
-144.6275294082877
 30
0.0
 10
102.8588495980743
 20
-144.582726630521
 30
0.0
 10
102.8588495980743
 20
-144.527622741646
 30
0.0
  0
SPLINE
  5
82
330
1F
100
AcDbEntity
  8
_U+30EC_U+30A4_U+30E4_U+30FC 1
 62
   179
420
  2234388
370
     9
100
AcDbSpline
210
0.0
220
0.0
230
1.0
 70
    11
 71
     3
 72
    17
 73
    13
 74
     0
 42
0.0000000001
 43
0.0000000001
 12
1.0
 22
0.0
 32
0.0
 13
1.0
 23
0.0
 33
0.0
 40
0.0
 40
0.0
 40
0.0
 40
0.0
 40
1.0
 40
1.0
 40
1.0
 40
2.0
 40
2.0
 40
2.0
 40
3.0
 40
3.0
 40
3.0
 40
4.0
 40
4.0
 40
4.0
 40
4.0
 10
102.8588495980743
 20
-140.0276246872155
 30
0.0
 10
102.8588495980743
 20
-139.9725207983399
 30
0.0
 10
102.9036170969322
 20
-139.9277180205738
 30
0.0
 10
102.9587562621922
 20
-139.9277180205738
 30
0.0
 10
103.0138601496753
 20
-139.9277180205738
 30
0.0
 10
103.05866292631
 20
-139.9725207983399
 30
0.0
 10
103.05866292631
 20
-140.0276246872155
 30
0.0
 10
103.05866292631
 20
-140.0827638538679
 30
0.0
 10
103.0138601496753
 20
-140.1275313538571
 30
0.0
 10
102.9587562621922
 20
-140.1275313538571
 30
0.0
 10
102.9036170969322
 20
-140.1275313538571
 30
0.0
 10
102.8588495980743
 20
-140.0827638538679
 30
0.0
 10
102.8588495980743
 20
-140.0276246872155
 30
0.0
  0
SPLINE
  5
83
330
1F
100
AcDbEntity
  8
_U+30EC_U+30A4_U+30E4_U+30FC 1
 62
   179
420
  2234388
370
     9
100
AcDbSpline
210
0.0
220
0.0
230
1.0
 70
    11
 71
     3
 72
    17
 73
    13
 74
     0
 42
0.0000000001
 43
0.0000000001
 12
1.0
 22
0.0
 32
0.0
 13
1.0
 23
0.0
 33
0.0
 40
0.0
 40
0.0
 40
0.0
 40
0.0
 40
1.0
 40
1.0
 40
1.0
 40
2.0
 40
2.0
 40
2.0
 40
3.0
 40
3.0
 40
3.0
 40
4.0
 40
4.0
 40
4.0
 40
4.0
 10
98.85909053345004
 20
-149.5278244070622
 30
0.0
 10
98.85909053345004
 20
-149.4726852404098
 30
0.0
 10
98.90385803230792
 20
-149.4279177404206
 30
0.0
 10
98.95899719756787
 20
-149.4279177404206
 30
0.0
 10
99.01410108505094
 20
-149.4279177404206
 30
0.0
 10
99.0589038616857
 20
-149.4726852404098
 30
0.0
 10
99.0589038616857
 20
-149.5278244070622
 30
0.0
 10
99.0589038616857
 20
-149.5829282959378
 30
0.0
 10
99.01410108505094
 20
-149.6277310737045
 30
0.0
 10
98.95899719756787
 20
-149.6277310737045
 30
0.0
 10
98.90385803230792
 20
-149.6277310737045
 30
0.0
 10
98.85909053345004
 20
-149.5829282959378
 30
0.0
 10
98.85909053345004
 20
-149.5278244070622
 30
0.0
  0
SPLINE
  5
84
330
1F
100
AcDbEntity
  8
_U+30EC_U+30A4_U+30E4_U+30FC 1
 62
   179
420
  2234388
370
     9
100
AcDbSpline
210
0.0
220
0.0
230
1.0
 70
    11
 71
     3
 72
    17
 73
    13
 74
     0
 42
0.0000000001
 43
0.0000000001
 12
1.0
 22
0.0
 32
0.0
 13
1.0
 23
0.0
 33
0.0
 40
0.0
 40
0.0
 40
0.0
 40
0.0
 40
1.0
 40
1.0
 40
1.0
 40
2.0
 40
2.0
 40
2.0
 40
3.0
 40
3.0
 40
3.0
 40
4.0
 40
4.0
 40
4.0
 40
4.0
 10
85.85884169844735
 20
-149.5278244070622
 30
0.0
 10
85.85884169844735
 20
-149.4726852404098
 30
0.0
 10
85.90360919730523
 20
-149.4279177404206
 30
0.0
 10
85.95874836256519
 20
-149.4279177404206
 30
0.0
 10
86.01385225004826
 20
-149.4279177404206
 30
0.0
 10
86.05865502668303
 20
-149.4726852404098
 30
0.0
 10
86.05865502668303
 20
-149.5278244070622
 30
0.0
 10
86.05865502668303
 20
-149.5829282959378
 30
0.0
 10
86.01385225004826
 20
-149.6277310737045
 30
0.0
 10
85.95874836256519
 20
-149.6277310737045
 30
0.0
 10
85.90360919730523
 20
-149.6277310737045
 30
0.0
 10
85.85884169844735
 20
-149.5829282959378
 30
0.0
 10
85.85884169844735
 20
-149.5278244070622
 30
0.0
  0
SPLINE
  5
85
330
1F
100
AcDbEntity
  8
_U+30EC_U+30A4_U+30E4_U+30FC 1
 62
   179
420
  2234388
370
     9
100
AcDbSpline
210
0.0
220
0.0
230
1.0
 70
     8
 71
     3
 72
    14
 73
    10
 74
     0
 42
0.0000000001
 43
0.0000000001
 12
1.0
 22
0.0
 32
0.0
 13
1.0
 23
0.0
 33
0.0
 40
0.0
 40
0.0
 40
0.0
 40
0.0
 40
1.0
 40
1.0
 40
1.0
 40
2.0
 40
2.0
 40
2.0
 40
3.0
 40
3.0
 40
3.0
 40
3.0
 10
81.95863652017209
 20
-145.4274882969763
 30
0.0
 10
82.01377775727418
 20
-145.4274882969763
 30
0.0
 10
82.05854318428993
 20
-145.4722557969655
 30
0.0
 10
82.05854318428993
 20
-145.527394963618
 30
0.0
 10
82.05854318428993
 20
-145.5824988524935
 30
0.0
 10
82.01377775727418
 20
-145.6273016302596
 30
0.0
 10
81.95863652017209
 20
-145.6273016302596
 30
0.0
 10
81.90353263268902
 20
-145.6273016302596
 30
0.0
 10
81.85872985605425
 20
-145.5824988524935
 30
0.0
 10
81.85872985605425
 20
-145.527394963618
 30
0.0
  0
SPLINE
  5
86
330
1F
100
AcDbEntity
  8
_U+30EC_U+30A4_U+30E4_U+30FC 1
 62
   179
420
  2234388
370
     9
100
AcDbSpline
210
0.0
220
0.0
230
1.0
 70
     8
 71
     3
 72
    14
 73
    10
 74
     0
 42
0.0000000001
 43
0.0000000001
 12
1.0
 22
0.0
 32
0.0
 13
1.0
 23
0.0
 33
0.0
 40
0.0
 40
0.0
 40
0.0
 40
0.0
 40
1.0
 40
1.0
 40
1.0
 40
2.0
 40
2.0
 40
2.0
 40
3.0
 40
3.0
 40
3.0
 40
3.0
 10
82.0368473515101
 20
-132.464951077995
 30
0.0
 10
82.07131373951968
 20
-132.5083780224282
 30
0.0
 10
82.06439929525165
 20
-132.5710666335237
 30
0.0
 10
82.02136040746076
 20
-132.6054977446265
 30
0.0
 10
81.97793346412423
 20
-132.6399641335069
 30
0.0
 10
81.91524485461244
 20
-132.6330849668419
 30
0.0
 10
81.88078053508539
 20
-132.5903635779636
 30
0.0
 10
81.86631664620006
 20
-132.5724424668566
 30
0.0
 10
81.85872985605425
 20
-132.550393855751
 30
0.0
 10
81.85872985605425
 20
-132.5276396890905
 30
0.0
  0
SPLINE
  5
87
330
1F
100
AcDbEntity
  8
_U+30EC_U+30A4_U+30E4_U+30FC 1
 62
   179
420
  2234388
370
     9
100
AcDbSpline
210
0.0
220
0.0
230
1.0
 70
    11
 71
     3
 72
    17
 73
    13
 74
     0
 42
0.0000000001
 43
0.0000000001
 12
1.0
 22
0.0
 32
0.0
 13
1.0
 23
0.0
 33
0.0
 40
0.0
 40
0.0
 40
0.0
 40
0.0
 40
1.0
 40
1.0
 40
1.0
 40
2.0
 40
2.0
 40
2.0
 40
3.0
 40
3.0
 40
3.0
 40
4.0
 40
4.0
 40
4.0
 40
4.0
 10
86.85861389516326
 20
-128.5279158012015
 30
0.0
 10
86.85861389516326
 20
-128.4727766345484
 30
0.0
 10
86.90338139402114
 20
-128.4280091345595
 30
0.0
 10
86.95887333704987
 20
-128.4280091345595
 30
0.0
 10
87.01397722453294
 20
-128.4280091345595
 30
0.0
 10
87.0587800011677
 20
-128.4727766345484
 30
0.0
 10
87.0587800011677
 20
-128.5279158012015
 30
0.0
 10
87.0587800011677
 20
-128.5830196900764
 30
0.0
 10
87.01397722453294
 20
-128.6278224678431
 30
0.0
 10
86.95887333704987
 20
-128.6278224678431
 30
0.0
 10
86.90338139402114
 20
-128.6278224678431
 30
0.0
 10
86.85861389516326
 20
-128.5830196900764
 30
0.0
 10
86.85861389516326
 20
-128.5279158012015
 30
0.0
  0
SPLINE
  5
88
330
1F
100
AcDbEntity
  8
_U+30EC_U+30A4_U+30E4_U+30FC 1
 62
   179
420
  2234388
370
     9
100
AcDbSpline
210
0.0
220
0.0
230
1.0
 70
    11
 71
     3
 72
    17
 73
    13
 74
     0
 42
0.0000000001
 43
0.0000000001
 12
1.0
 22
0.0
 32
0.0
 13
1.0
 23
0.0
 33
0.0
 40
0.0
 40
0.0
 40
0.0
 40
0.0
 40
1.0
 40
1.0
 40
1.0
 40
2.0
 40
2.0
 40
2.0
 40
3.0
 40
3.0
 40
3.0
 40
4.0
 40
4.0
 40
4.0
 40
4.0
 10
91.3589293359062
 20
-128.5279158012015
 30
0.0
 10
91.3589293359062
 20
-128.4727766345484
 30
0.0
 10
91.40390850142535
 20
-128.4280091345595
 30
0.0
 10
91.45901238890842
 20
-128.4280091345595
 30
0.0
 10
91.51415155416838
 20
-128.4280091345595
 30
0.0
 10
91.55891905302626
 20
-128.4727766345484
 30
0.0
 10
91.55891905302626
 20
-128.5279158012015
 30
0.0
 10
91.55891905302626
 20
-128.5830196900764
 30
0.0
 10
91.51415155416838
 20
-128.6278224678431
 30
0.0
 10
91.45901238890842
 20
-128.6278224678431
 30
0.0
 10
91.40390850142535
 20
-128.6278224678431
 30
0.0
 10
91.3589293359062
 20
-128.5830196900764
 30
0.0
 10
91.3589293359062
 20
-128.5279158012015
 30
0.0
  0
SPLINE
  5
89
330
1F
100
AcDbEntity
  8
_U+30EC_U+30A4_U+30E4_U+30FC 1
 62
   179
420
  2234388
370
     9
100
AcDbSpline
210
0.0
220
0.0
230
1.0
 70
    11
 71
     3
 72
    17
 73
    13
 74
     0
 42
0.0000000001
 43
0.0000000001
 12
1.0
 22
0.0
 32
0.0
 13
1.0
 23
0.0
 33
0.0
 40
0.0
 40
0.0
 40
0.0
 40
0.0
 40
1.0
 40
1.0
 40
1.0
 40
2.0
 40
2.0
 40
2.0
 40
3.0
 40
3.0
 40
3.0
 40
4.0
 40
4.0
 40
4.0
 40
4.0
 10
102.8588495980743
 20
-115.0276041379098
 30
0.0
 10
102.8588495980743
 20
-114.9721474712571
 30
0.0
 10
102.9036170969322
 20
-114.9273446934904
 30
0.0
 10
102.9587562621922
 20
-114.9273446934904
 30
0.0
 10
103.0138601496753
 20
-114.9273446934904
 30
0.0
 10
103.05866292631
 20
-114.9721474712571
 30
0.0
 10
103.05866292631
 20
-115.0276041379098
 30
0.0
 10
103.05866292631
 20
-115.0830608045625
 30
0.0
 10
103.0138601496753
 20
-115.1278635823292
 30
0.0
 10
102.9587562621922
 20
-115.1278635823292
 30
0.0
 10
102.9036170969322
 20
-115.1278635823292
 30
0.0
 10
102.8588495980743
 20
-115.0830608045625
 30
0.0
 10
102.8588495980743
 20
-115.0276041379098
 30
0.0
  0
SPLINE
  5
8A
330
1F
100
AcDbEntity
  8
_U+30EC_U+30A4_U+30E4_U+30FC 1
 62
   179
420
  2234388
370
     9
100
AcDbSpline
210
0.0
220
0.0
230
1.0
 70
    11
 71
     3
 72
    17
 73
    13
 74
     0
 42
0.0000000001
 43
0.0000000001
 12
1.0
 22
0.0
 32
0.0
 13
1.0
 23
0.0
 33
0.0
 40
0.0
 40
0.0
 40
0.0
 40
0.0
 40
1.0
 40
1.0
 40
1.0
 40
2.0
 40
2.0
 40
2.0
 40
3.0
 40
3.0
 40
3.0
 40
4.0
 40
4.0
 40
4.0
 40
4.0
 10
92.3588779215065
 20
-111.0274921944655
 30
0.0
 10
92.3588779215065
 20
-110.9723883055902
 30
0.0
 10
92.40364542036438
 20
-110.9275855278238
 30
0.0
 10
92.45878458562433
 20
-110.9275855278238
 30
0.0
 10
92.5138884731074
 20
-110.9275855278238
 30
0.0
 10
92.55869124974217
 20
-110.9723883055902
 30
0.0
 10
92.55869124974217
 20
-111.0274921944655
 30
0.0
 10
92.55869124974217
 20
-111.0826313611182
 30
0.0
 10
92.5138884731074
 20
-111.1273988611071
 30
0.0
 10
92.45878458562433
 20
-111.1273988611071
 30
0.0
 10
92.40364542036438
 20
-111.1273988611071
 30
0.0
 10
92.3588779215065
 20
-111.0826313611182
 30
0.0
 10
92.3588779215065
 20
-111.0274921944655
 30
0.0
  0
SPLINE
  5
8B
330
1F
100
AcDbEntity
  8
_U+30EC_U+30A4_U+30E4_U+30FC 1
 62
   179
420
  2234388
370
     9
100
AcDbSpline
210
0.0
220
0.0
230
1.0
 70
    11
 71
     3
 72
    17
 73
    13
 74
     0
 42
0.0000000001
 43
0.0000000001
 12
1.0
 22
0.0
 32
0.0
 13
1.0
 23
0.0
 33
0.0
 40
0.0
 40
0.0
 40
0.0
 40
0.0
 40
1.0
 40
1.0
 40
1.0
 40
2.0
 40
2.0
 40
2.0
 40
3.0
 40
3.0
 40
3.0
 40
4.0
 40
4.0
 40
4.0
 40
4.0
 10
91.3589293359062
 20
-111.0274921944655
 30
0.0
 10
91.3589293359062
 20
-110.9723883055902
 30
0.0
 10
91.40390850142535
 20
-110.9275855278238
 30
0.0
 10
91.45901238890842
 20
-110.9275855278238
 30
0.0
 10
91.51415155416838
 20
-110.9275855278238
 30
0.0
 10
91.55891905302626
 20
-110.9723883055902
 30
0.0
 10
91.55891905302626
 20
-111.0274921944655
 30
0.0
 10
91.55891905302626
 20
-111.0826313611182
 30
0.0
 10
91.51415155416838
 20
-111.1273988611071
 30
0.0
 10
91.45901238890842
 20
-111.1273988611071
 30
0.0
 10
91.40390850142535
 20
-111.1273988611071
 30
0.0
 10
91.3589293359062
 20
-111.0826313611182
 30
0.0
 10
91.3589293359062
 20
-111.0274921944655
 30
0.0
  0
POLYLINE
  5
8C
330
1F
100
AcDbEntity
  8
_U+30EC_U+30A4_U+30E4_U+30FC 1
 62
   179
420
  2234388
370
     9
100
AcDb2dPolyline
 66
     1
 10
0.0
 20
0.0
 30
0.0
  0
VERTEX
  5
8D
330
8C
100
AcDbEntity
  8
_U+30EC_U+30A4_U+30E4_U+30FC 1
 62
   179
420
  2234388
370
     9
100
AcDbVertex
100
AcDb2dVertex
 10
81.95863652017209
 20
-132.5276396890905
 30
0.0
  0
VERTEX
  5
8E
330
8C
100
AcDbEntity
  8
_U+30EC_U+30A4_U+30E4_U+30FC 1
 62
   179
420
  2234388
370
     9
100
AcDbVertex
100
AcDb2dVertex
 10
81.95863652017209
 20
-145.527394963618
 30
0.0
  0
SEQEND
  5
8F
330
8C
100
AcDbEntity
  8
_U+30EC_U+30A4_U+30E4_U+30FC 1
 62
   179
420
  2234388
370
     9
  0
POLYLINE
  5
90
330
1F
100
AcDbEntity
  8
_U+30EC_U+30A4_U+30E4_U+30FC 1
 62
   179
420
  2234388
370
     9
100
AcDb2dPolyline
 66
     1
 10
0.0
 20
0.0
 30
0.0
  0
VERTEX
  5
91
330
90
100
AcDbEntity
  8
_U+30EC_U+30A4_U+30E4_U+30FC 1
 62
   179
420
  2234388
370
     9
100
AcDbVertex
100
AcDb2dVertex
 10
83.41867787181222
 20
-132.5276396890905
 30
0.0
  0
VERTEX
  5
92
330
90
100
AcDbEntity
  8
_U+30EC_U+30A4_U+30E4_U+30FC 1
 62
   179
420
  2234388
370
     9
100
AcDbVertex
100
AcDb2dVertex
 10
80.95886432345618
 20
-132.5276396890905
 30
0.0
  0
SEQEND
  5
93
330
90
100
AcDbEntity
  8
_U+30EC_U+30A4_U+30E4_U+30FC 1
 62
   179
420
  2234388
370
     9
  0
POLYLINE
  5
94
330
1F
100
AcDbEntity
  8
_U+30EC_U+30A4_U+30E4_U+30FC 1
 62
   179
420
  2234388
370
     9
100
AcDb2dPolyline
 66
     1
 10
0.0
 20
0.0
 30
0.0
  0
VERTEX
  5
95
330
94
100
AcDbEntity
  8
_U+30EC_U+30A4_U+30E4_U+30FC 1
 62
   179
420
  2234388
370
     9
100
AcDbVertex
100
AcDb2dVertex
 10
83.41867787181222
 20
-145.527394963618
 30
0.0
  0
VERTEX
  5
96
330
94
100
AcDbEntity
  8
_U+30EC_U+30A4_U+30E4_U+30FC 1
 62
   179
420
  2234388
370
     9
100
AcDbVertex
100
AcDb2dVertex
 10
80.95886432345618
 20
-145.527394963618
 30
0.0
  0
SEQEND
  5
97
330
94
100
AcDbEntity
  8
_U+30EC_U+30A4_U+30E4_U+30FC 1
 62
   179
420
  2234388
370
     9
  0
POLYLINE
  5
98
330
1F
100
AcDbEntity
  8
_U+30EC_U+30A4_U+30E4_U+30FC 1
 62
   179
420
  2234388
370
     9
100
AcDb2dPolyline
 66
     1
 10
0.0
 20
0.0
 30
0.0
  0
VERTEX
  5
99
330
98
100
AcDbEntity
  8
_U+30EC_U+30A4_U+30E4_U+30FC 1
 62
   179
420
  2234388
370
     9
100
AcDbVertex
100
AcDb2dVertex
 10
102.9587562621922
 20
-144.527622741646
 30
0.0
  0
VERTEX
  5
9A
330
98
100
AcDbEntity
  8
_U+30EC_U+30A4_U+30E4_U+30FC 1
 62
   179
420
  2234388
370
     9
100
AcDbVertex
100
AcDb2dVertex
 10
102.9587562621922
 20
-140.0276246872155
 30
0.0
  0
SEQEND
  5
9B
330
98
100
AcDbEntity
  8
_U+30EC_U+30A4_U+30E4_U+30FC 1
 62
   179
420
  2234388
370
     9
  0
POLYLINE
  5
9C
330
1F
100
AcDbEntity
  8
_U+30EC_U+30A4_U+30E4_U+30FC 1
 62
   179
420
  2234388
370
     9
100
AcDb2dPolyline
 66
     1
 10
0.0
 20
0.0
 30
0.0
  0
VERTEX
  5
9D
330
9C
100
AcDbEntity
  8
_U+30EC_U+30A4_U+30E4_U+30FC 1
 62
   179
420
  2234388
370
     9
100
AcDbVertex
100
AcDb2dVertex
 10
101.4987149105521
 20
-144.527622741646
 30
0.0
  0
VERTEX
  5
9E
330
9C
100
AcDbEntity
  8
_U+30EC_U+30A4_U+30E4_U+30FC 1
 62
   179
420
  2234388
370
     9
100
AcDbVertex
100
AcDb2dVertex
 10
103.9584931811312
 20
-144.527622741646
 30
0.0
  0
SEQEND
  5
9F
330
9C
100
AcDbEntity
  8
_U+30EC_U+30A4_U+30E4_U+30FC 1
 62
   179
420
  2234388
370
     9
  0
POLYLINE
  5
A0
330
1F
100
AcDbEntity
  8
_U+30EC_U+30A4_U+30E4_U+30FC 1
 62
   179
420
  2234388
370
     9
100
AcDb2dPolyline
 66
     1
 10
0.0
 20
0.0
 30
0.0
  0
VERTEX
  5
A1
330
A0
100
AcDbEntity
  8
_U+30EC_U+30A4_U+30E4_U+30FC 1
 62
   179
420
  2234388
370
     9
100
AcDbVertex
100
AcDb2dVertex
 10
94.99850229860851
 20
-140.0276246872155
 30
0.0
  0
VERTEX
  5
A2
330
A0
100
AcDbEntity
  8
_U+30EC_U+30A4_U+30E4_U+30FC 1
 62
   179
420
  2234388
370
     9
100
AcDbVertex
100
AcDb2dVertex
 10
103.9584931811312
 20
-140.0276246872155
 30
0.0
  0
SEQEND
  5
A3
330
A0
100
AcDbEntity
  8
_U+30EC_U+30A4_U+30E4_U+30FC 1
 62
   179
420
  2234388
370
     9
  0
POLYLINE
  5
A4
330
1F
100
AcDbEntity
  8
_U+30EC_U+30A4_U+30E4_U+30FC 1
 62
   179
420
  2234388
370
     9
100
AcDb2dPolyline
 66
     1
 10
0.0
 20
0.0
 30
0.0
  0
VERTEX
  5
A5
330
A4
100
AcDbEntity
  8
_U+30EC_U+30A4_U+30E4_U+30FC 1
 62
   179
420
  2234388
370
     9
100
AcDbVertex
100
AcDb2dVertex
 10
102.9587562621922
 20
-140.0276246872155
 30
0.0
  0
VERTEX
  5
A6
330
A4
100
AcDbEntity
  8
_U+30EC_U+30A4_U+30E4_U+30FC 1
 62
   179
420
  2234388
370
     9
100
AcDbVertex
100
AcDb2dVertex
 10
102.9587562621922
 20
-115.0276041379098
 30
0.0
  0
SEQEND
  5
A7
330
A4
100
AcDbEntity
  8
_U+30EC_U+30A4_U+30E4_U+30FC 1
 62
   179
420
  2234388
370
     9
  0
POLYLINE
  5
A8
330
1F
100
AcDbEntity
  8
_U+30EC_U+30A4_U+30E4_U+30FC 1
 62
   179
420
  2234388
370
     9
100
AcDb2dPolyline
 66
     1
 10
0.0
 20
0.0
 30
0.0
  0
VERTEX
  5
A9
330
A8
100
AcDbEntity
  8
_U+30EC_U+30A4_U+30E4_U+30FC 1
 62
   179
420
  2234388
370
     9
100
AcDbVertex
100
AcDb2dVertex
 10
94.99850229860851
 20
-115.0276041379098
 30
0.0
  0
VERTEX
  5
AA
330
A8
100
AcDbEntity
  8
_U+30EC_U+30A4_U+30E4_U+30FC 1
 62
   179
420
  2234388
370
     9
100
AcDbVertex
100
AcDb2dVertex
 10
103.9584931811312
 20
-115.0276041379098
 30
0.0
  0
SEQEND
  5
AB
330
A8
100
AcDbEntity
  8
_U+30EC_U+30A4_U+30E4_U+30FC 1
 62
   179
420
  2234388
370
     9
  0
POLYLINE
  5
AC
330
1F
100
AcDbEntity
  8
_U+30EC_U+30A4_U+30E4_U+30FC 1
 62
   179
420
  2234388
370
     9
100
AcDb2dPolyline
 66
     1
 10
0.0
 20
0.0
 30
0.0
  0
VERTEX
  5
AD
330
AC
100
AcDbEntity
  8
_U+30EC_U+30A4_U+30E4_U+30FC 1
 62
   179
420
  2234388
370
     9
100
AcDbVertex
100
AcDb2dVertex
 10
98.95899719756787
 20
-149.5278244070622
 30
0.0
  0
VERTEX
  5
AE
330
AC
100
AcDbEntity
  8
_U+30EC_U+30A4_U+30E4_U+30FC 1
 62
   179
420
  2234388
370
     9
100
AcDbVertex
100
AcDb2dVertex
 10
85.95874836256519
 20
-149.5278244070622
 30
0.0
  0
SEQEND
  5
AF
330
AC
100
AcDbEntity
  8
_U+30EC_U+30A4_U+30E4_U+30FC 1
 62
   179
420
  2234388
370
     9
  0
POLYLINE
  5
B0
330
1F
100
AcDbEntity
  8
_U+30EC_U+30A4_U+30E4_U+30FC 1
 62
   179
420
  2234388
370
     9
100
AcDb2dPolyline
 66
     1
 10
0.0
 20
0.0
 30
0.0
  0
VERTEX
  5
B1
330
B0
100
AcDbEntity
  8
_U+30EC_U+30A4_U+30E4_U+30FC 1
 62
   179
420
  2234388
370
     9
100
AcDbVertex
100
AcDb2dVertex
 10
98.95899719756787
 20
-148.0677830185385
 30
0.0
  0
VERTEX
  5
B2
330
B0
100
AcDbEntity
  8
_U+30EC_U+30A4_U+30E4_U+30FC 1
 62
   179
420
  2234388
370
     9
100
AcDbVertex
100
AcDb2dVertex
 10
98.95899719756787
 20
-150.5275966290347
 30
0.0
  0
SEQEND
  5
B3
330
B0
100
AcDbEntity
  8
_U+30EC_U+30A4_U+30E4_U+30FC 1
 62
   179
420
  2234388
370
     9
  0
POLYLINE
  5
B4
330
1F
100
AcDbEntity
  8
_U+30EC_U+30A4_U+30E4_U+30FC 1
 62
   179
420
  2234388
370
     9
100
AcDb2dPolyline
 66
     1
 10
0.0
 20
0.0
 30
0.0
  0
VERTEX
  5
B5
330
B4
100
AcDbEntity
  8
_U+30EC_U+30A4_U+30E4_U+30FC 1
 62
   179
420
  2234388
370
     9
100
AcDbVertex
100
AcDb2dVertex
 10
85.95874836256519
 20
-148.0677830185385
 30
0.0
  0
VERTEX
  5
B6
330
B4
100
AcDbEntity
  8
_U+30EC_U+30A4_U+30E4_U+30FC 1
 62
   179
420
  2234388
370
     9
100
AcDbVertex
100
AcDb2dVertex
 10
85.95874836256519
 20
-150.5275966290347
 30
0.0
  0
SEQEND
  5
B7
330
B4
100
AcDbEntity
  8
_U+30EC_U+30A4_U+30E4_U+30FC 1
 62
   179
420
  2234388
370
     9
  0
POLYLINE
  5
B8
330
1F
100
AcDbEntity
  8
_U+30EC_U+30A4_U+30E4_U+30FC 1
 62
   179
420
  2234388
370
     9
100
AcDb2dPolyline
 66
     1
 10
0.0
 20
0.0
 30
0.0
  0
VERTEX
  5
B9
330
B8
100
AcDbEntity
  8
_U+30EC_U+30A4_U+30E4_U+30FC 1
 62
   179
420
  2234388
370
     9
100
AcDbVertex
100
AcDb2dVertex
 10
91.45901238890842
 20
-111.0274921944655
 30
0.0
  0
VERTEX
  5
BA
330
B8
100
AcDbEntity
  8
_U+30EC_U+30A4_U+30E4_U+30FC 1
 62
   179
420
  2234388
370
     9
100
AcDbVertex
100
AcDb2dVertex
 10
87.68852359621272
 20
-111.0274921944655
 30
0.0
  0
SEQEND
  5
BB
330
B8
100
AcDbEntity
  8
_U+30EC_U+30A4_U+30E4_U+30FC 1
 62
   179
420
  2234388
370
     9
  0
POLYLINE
  5
BC
330
1F
100
AcDbEntity
  8
_U+30EC_U+30A4_U+30E4_U+30FC 1
 62
   179
420
  2234388
370
     9
100
AcDb2dPolyline
 66
     1
 10
0.0
 20
0.0
 30
0.0
  0
VERTEX
  5
BD
330
BC
100
AcDbEntity
  8
_U+30EC_U+30A4_U+30E4_U+30FC 1
 62
   179
420
  2234388
370
     9
100
AcDbVertex
100
AcDb2dVertex
 10
93.45855678234024
 20
-111.0274921944655
 30
0.0
  0
VERTEX
  5
BE
330
BC
100
AcDbEntity
  8
_U+30EC_U+30A4_U+30E4_U+30FC 1
 62
   179
420
  2234388
370
     9
100
AcDbVertex
100
AcDb2dVertex
 10
91.45901238890842
 20
-111.0274921944655
 30
0.0
  0
SEQEND
  5
BF
330
BC
100
AcDbEntity
  8
_U+30EC_U+30A4_U+30E4_U+30FC 1
 62
   179
420
  2234388
370
     9
  0
POLYLINE
  5
C0
330
1F
100
AcDbEntity
  8
_U+30EC_U+30A4_U+30E4_U+30FC 1
 62
   179
420
  2234388
370
     9
100
AcDb2dPolyline
 66
     1
 10
0.0
 20
0.0
 30
0.0
  0
VERTEX
  5
C1
330
C0
100
AcDbEntity
  8
_U+30EC_U+30A4_U+30E4_U+30FC 1
 62
   179
420
  2234388
370
     9
100
AcDbVertex
100
AcDb2dVertex
 10
92.45878458562433
 20
-112.4875335829892
 30
0.0
  0
VERTEX
  5
C2
330
C0
100
AcDbEntity
  8
_U+30EC_U+30A4_U+30E4_U+30FC 1
 62
   179
420
  2234388
370
     9
100
AcDbVertex
100
AcDb2dVertex
 10
92.45878458562433
 20
-110.0277199724932
 30
0.0
  0
SEQEND
  5
C3
330
C0
100
AcDbEntity
  8
_U+30EC_U+30A4_U+30E4_U+30FC 1
 62
   179
420
  2234388
370
     9
  0
POLYLINE
  5
C4
330
1F
100
AcDbEntity
  8
_U+30EC_U+30A4_U+30E4_U+30FC 1
 62
   179
420
  2234388
370
     9
100
AcDb2dPolyline
 66
     1
 10
0.0
 20
0.0
 30
0.0
  0
VERTEX
  5
C5
330
C4
100
AcDbEntity
  8
_U+30EC_U+30A4_U+30E4_U+30FC 1
 62
   179
420
  2234388
370
     9
100
AcDbVertex
100
AcDb2dVertex
 10
91.45901238890842
 20
-112.4875335829892
 30
0.0
  0
VERTEX
  5
C6
330
C4
100
AcDbEntity
  8
_U+30EC_U+30A4_U+30E4_U+30FC 1
 62
   179
420
  2234388
370
     9
100
AcDbVertex
100
AcDb2dVertex
 10
91.45901238890842
 20
-110.0277199724932
 30
0.0
  0
SEQEND
  5
C7
330
C4
100
AcDbEntity
  8
_U+30EC_U+30A4_U+30E4_U+30FC 1
 62
   179
420
  2234388
370
     9
  0
POLYLINE
  5
C8
330
1F
100
AcDbEntity
  8
_U+30EC_U+30A4_U+30E4_U+30FC 1
 62
   179
420
  2234388
370
     9
100
AcDb2dPolyline
 66
     1
 10
0.0
 20
0.0
 30
0.0
  0
VERTEX
  5
C9
330
C8
100
AcDbEntity
  8
_U+30EC_U+30A4_U+30E4_U+30FC 1
 62
   179
420
  2234388
370
     9
100
AcDbVertex
100
AcDb2dVertex
 10
86.95887333704987
 20
-128.5279158012015
 30
0.0
  0
VERTEX
  5
CA
330
C8
100
AcDbEntity
  8
_U+30EC_U+30A4_U+30E4_U+30FC 1
 62
   179
420
  2234388
370
     9
100
AcDbVertex
100
AcDb2dVertex
 10
91.45901238890842
 20
-128.5279158012015
 30
0.0
  0
SEQEND
  5
CB
330
C8
100
AcDbEntity
  8
_U+30EC_U+30A4_U+30E4_U+30FC 1
 62
   179
420
  2234388
370
     9
  0
POLYLINE
  5
CC
330
1F
100
AcDbEntity
  8
_U+30EC_U+30A4_U+30E4_U+30FC 1
 62
   179
420
  2234388
370
     9
100
AcDb2dPolyline
 66
     1
 10
0.0
 20
0.0
 30
0.0
  0
VERTEX
  5
CD
330
CC
100
AcDbEntity
  8
_U+30EC_U+30A4_U+30E4_U+30FC 1
 62
   179
420
  2234388
370
     9
100
AcDbVertex
100
AcDb2dVertex
 10
86.95887333704987
 20
-129.9879219119474
 30
0.0
  0
VERTEX
  5
CE
330
CC
100
AcDbEntity
  8
_U+30EC_U+30A4_U+30E4_U+30FC 1
 62
   179
420
  2234388
370
     9
100
AcDbVertex
100
AcDb2dVertex
 10
86.95887333704987
 20
-127.5274380236737
 30
0.0
  0
SEQEND
  5
CF
330
CC
100
AcDbEntity
  8
_U+30EC_U+30A4_U+30E4_U+30FC 1
 62
   179
420
  2234388
370
     9
  0
INSERT
  5
D1
330
1F
100
AcDbEntity
  8
_U+30EC_U+30A4_U+30E4_U+30FC 1
100
AcDbBlockReference
  2
block 2
 10
0.0
 20
0.0
 30
0.0
  0
INSERT
  5
D9
330
1F
100
AcDbEntity
  8
_U+30EC_U+30A4_U+30E4_U+30FC 1
100
AcDbBlockReference
  2
block 3
 10
0.0
 20
0.0
 30
0.0
  0
INSERT
  5
FC
330
1F
100
AcDbEntity
  8
_U+30EC_U+30A4_U+30E4_U+30FC 1
100
AcDbBlockReference
  2
block 4
 10
0.0
 20
0.0
 30
0.0
  0
INSERT
  5
104
330
1F
100
AcDbEntity
  8
_U+30EC_U+30A4_U+30E4_U+30FC 1
100
AcDbBlockReference
  2
block 5
 10
0.0
 20
0.0
 30
0.0
  0
INSERT
  5
10C
330
1F
100
AcDbEntity
  8
_U+30EC_U+30A4_U+30E4_U+30FC 1
100
AcDbBlockReference
  2
block 6
 10
0.0
 20
0.0
 30
0.0
  0
INSERT
  5
112
330
1F
100
AcDbEntity
  8
_U+30EC_U+30A4_U+30E4_U+30FC 1
100
AcDbBlockReference
  2
block 7
 10
0.0
 20
0.0
 30
0.0
  0
ENDSEC
  0
SECTION
  2
OBJECTS
  0
DICTIONARY
  5
C
330
0
100
AcDbDictionary
281
     1
  3
ACAD_GROUP
350
D
  3
ACAD_LAYOUT
350
1A
  3
ACAD_MATERIAL
350
3B
  3
ACAD_MLEADERSTYLE
350
135
  3
ACAD_MLINESTYLE
350
17
  3
ACAD_PLOTSETTINGS
350
19
  3
ACAD_PLOTSTYLENAME
350
E
  3
ACAD_TABLESTYLE
350
134
  3
ACAD_VISUALSTYLE
350
2A
  0
SUN
  5
3F
330
29
100
AcDbSun
 90
        1
290
     0
 63
     7
421
 16777215
 40
1.0
291
     1
 91
  2455826
 92
 54000000
292
     0
 70
     2
 71
   256
280
     1
  0
DICTIONARY
  5
D
102
{ACAD_REACTORS
330
C
102
}
330
C
100
AcDbDictionary
281
     1
  0
DICTIONARY
  5
1A
102
{ACAD_REACTORS
330
C
102
}
330
C
100
AcDbDictionary
281
     1
  3
Layout1
350
1E
  3
Layout2
350
26
  3
Model
350
22
  0
DICTIONARY
  5
3B
102
{ACAD_REACTORS
330
C
102
}
330
C
100
AcDbDictionary
281
     1
  3
ByBlock
350
3D
  3
ByLayer
350
3C
  3
Global
350
3E
  0
DICTIONARY
  5
135
102
{ACAD_REACTORS
330
C
102
}
330
C
100
AcDbDictionary
281
     1
  0
DICTIONARY
  5
17
102
{ACAD_REACTORS
330
C
102
}
330
C
100
AcDbDictionary
281
     1
  3
Standard
350
18
  0
DICTIONARY
  5
19
102
{ACAD_REACTORS
330
C
102
}
330
C
100
AcDbDictionary
281
     1
  0
ACDBDICTIONARYWDFLT
  5
E
102
{ACAD_REACTORS
330
C
102
}
330
C
100
AcDbDictionary
281
     1
  3
Normal
350
F
100
AcDbDictionaryWithDefault
340
F
  0
DICTIONARY
  5
134
102
{ACAD_REACTORS
330
C
102
}
330
C
100
AcDbDictionary
281
     1
  0
DICTIONARY
  5
2A
102
{ACAD_REACTORS
330
C
102
}
330
C
100
AcDbDictionary
281
     1
  3
2dWireframe
350
2F
  3
3D Hidden
350
31
  3
3dWireframe
350
30
  3
Basic
350
32
  3
Brighten
350
36
  3
ColorChange
350
3A
  3
Conceptual
350
34
  3
Dim
350
35
  3
Facepattern
350
39
  3
Flat
350
2B
  3
FlatWithEdges
350
2C
  3
Gouraud
350
2D
  3
GouraudWithEdges
350
2E
  3
Linepattern
350
38
  3
Realistic
350
33
  3
Thicken
350
37
  0
LAYOUT
  5
1E
102
{ACAD_REACTORS
330
1A
102
}
330
1A
100
AcDbPlotSettings
  1

  2
none_device
  4

  6

 40
0.0
 41
0.0
 42
0.0
 43
0.0
 44
0.0
 45
0.0
 46
0.0
 47
0.0
 48
0.0
 49
0.0
140
0.0
141
0.0
142
1.0
143
1.0
 70
   688
 72
     0
 73
     0
 74
     5
  7

 75
    16
 76
     0
 77
     2
 78
   300
147
1.0
148
0.0
149
0.0
100
AcDbLayout
  1
Layout1
 70
     1
 71
     1
 10
0.0
 20
0.0
 11
12.0
 21
9.0
 12
0.0
 22
0.0
 32
0.0
 14
1.000000000000000E+20
 24
1.000000000000000E+20
 34
1.000000000000000E+20
 15
-1.000000000000000E+20
 25
-1.000000000000000E+20
 35
-1.000000000000000E+20
146
0.0
 13
0.0
 23
0.0
 33
0.0
 16
1.0
 26
0.0
 36
0.0
 17
0.0
 27
1.0
 37
0.0
 76
     0
330
1B
  0
LAYOUT
  5
26
102
{ACAD_REACTORS
330
1A
102
}
330
1A
100
AcDbPlotSettings
  1

  2
none_device
  4

  6

 40
0.0
 41
0.0
 42
0.0
 43
0.0
 44
0.0
 45
0.0
 46
0.0
 47
0.0
 48
0.0
 49
0.0
140
0.0
141
0.0
142
1.0
143
1.0
 70
   688
 72
     0
 73
     0
 74
     5
  7

 75
    16
 76
     0
 77
     2
 78
   300
147
1.0
148
0.0
149
0.0
100
AcDbLayout
  1
Layout2
 70
     1
 71
     2
 10
0.0
 20
0.0
 11
0.0
 21
0.0
 12
0.0
 22
0.0
 32
0.0
 14
0.0
 24
0.0
 34
0.0
 15
0.0
 25
0.0
 35
0.0
146
0.0
 13
0.0
 23
0.0
 33
0.0
 16
1.0
 26
0.0
 36
0.0
 17
0.0
 27
1.0
 37
0.0
 76
     0
330
23
  0
LAYOUT
  5
22
102
{ACAD_REACTORS
330
1A
102
}
330
1A
100
AcDbPlotSettings
  1

  2
none_device
  4

  6

 40
0.0
 41
0.0
 42
0.0
 43
0.0
 44
0.0
 45
0.0
 46
0.0
 47
0.0
 48
0.0
 49
0.0
140
0.0
141
0.0
142
1.0
143
1.0
 70
  1712
 72
     0
 73
     0
 74
     0
  7

 75
     0
 76
     0
 77
     2
 78
   300
147
1.0
148
0.0
149
0.0
100
AcDbLayout
  1
Model
 70
     1
 71
     0
 10
0.0
 20
0.0
 11
12.0
 21
9.0
 12
0.0
 22
0.0
 32
0.0
 14
1.000000000000000E+20
 24
1.000000000000000E+20
 34
1.000000000000000E+20
 15
-1.000000000000000E+20
 25
-1.000000000000000E+20
 35
-1.000000000000000E+20
146
0.0
 13
0.0
 23
0.0
 33
0.0
 16
1.0
 26
0.0
 36
0.0
 17
0.0
 27
1.0
 37
0.0
 76
     0
330
1F
331
29
  0
MATERIAL
  5
3D
102
{ACAD_REACTORS
330
3B
102
}
330
3B
100
AcDbMaterial
  1
ByBlock
 72
     1
 94
      127
  0
MATERIAL
  5
3C
102
{ACAD_REACTORS
330
3B
102
}
330
3B
100
AcDbMaterial
  1
ByLayer
 72
     1
 94
      127
  0
MATERIAL
  5
3E
102
{ACAD_REACTORS
330
3B
102
}
330
3B
100
AcDbMaterial
  1
Global
 72
     1
 94
      127
  0
MLINESTYLE
  5
18
102
{ACAD_REACTORS
330
17
102
}
330
17
100
AcDbMlineStyle
  2
Standard
 70
     0
  3

 62
   256
 51
90.0
 52
90.0
 71
     2
 49
0.5
 62
   256
  6
BYLAYER
 49
-0.5
 62
   256
  6
BYLAYER
  0
ACDBPLACEHOLDER
  5
F
102
{ACAD_REACTORS
330
E
102
}
330
E
  0
VISUALSTYLE
  5
2F
102
{ACAD_REACTORS
330
2A
102
}
330
2A
100
AcDbVisualStyle
  2
2dWireframe
 70
     4
177
     2
291
     0
 71
     0
176
     1
 72
     2
176
     1
 73
     0
176
     1
 90
        0
176
     1
 40
-0.6
176
     1
 41
-30.0
176
     1
 62
     5
 63
     7
421
 16777215
176
     1
 74
     1
176
     1
 91
        4
176
     1
 64
     7
176
     1
 65
   257
176
     1
 75
     1
176
     1
175
     1
176
     1
 42
1.0
176
     1
 92
        0
176
     1
 66
   257
176
     1
 43
1.0
176
     1
 76
     1
176
     1
 77
     6
176
     1
 78
     2
176
     1
 67
     7
176
     1
 79
     5
176
     1
170
     0
176
     1
171
     0
176
     1
290
     0
176
     1
 93
        1
176
     1
 44
0.0
176
     1
173
     0
176
     1
  0
VISUALSTYLE
  5
31
102
{ACAD_REACTORS
330
2A
102
}
330
2A
100
AcDbVisualStyle
  2
3D Hidden
 70
     6
177
     2
291
     0
 71
     1
176
     1
 72
     2
176
     1
 73
     2
176
     1
 90
        0
176
     1
 40
-0.6
176
     1
 41
-30.0
176
     1
 62
     5
 63
     7
421
 16777215
176
     1
 74
     2
176
     1
 91
        2
176
     1
 64
     7
176
     1
 65
   257
176
     1
 75
     2
176
     1
175
     1
176
     1
 42
40.0
176
     1
 92
        0
176
     1
 66
   257
176
     1
 43
1.0
176
     1
 76
     1
176
     1
 77
     6
176
     1
 78
     2
176
     1
 67
     7
176
     1
 79
     3
176
     1
170
     0
176
     1
171
     0
176
     1
290
     0
176
     1
 93
        1
176
     1
 44
0.0
176
     1
173
     0
176
     1
  0
VISUALSTYLE
  5
30
102
{ACAD_REACTORS
330
2A
102
}
330
2A
100
AcDbVisualStyle
  2
3dWireframe
 70
     5
177
     2
291
     0
 71
     0
176
     1
 72
     2
176
     1
 73
     0
176
     1
 90
        0
176
     1
 40
-0.6
176
     1
 41
-30.0
176
     1
 62
     5
 63
     7
421
 16777215
176
     1
 74
     1
176
     1
 91
        4
176
     1
 64
     7
176
     1
 65
   257
176
     1
 75
     1
176
     1
175
     1
176
     1
 42
1.0
176
     1
 92
        0
176
     1
 66
   257
176
     1
 43
1.0
176
     1
 76
     1
176
     1
 77
     6
176
     1
 78
     2
176
     1
 67
     7
176
     1
 79
     5
176
     1
170
     0
176
     1
171
     0
176
     1
290
     0
176
     1
 93
        1
176
     1
 44
0.0
176
     1
173
     0
176
     1
  0
VISUALSTYLE
  5
32
102
{ACAD_REACTORS
330
2A
102
}
330
2A
100
AcDbVisualStyle
  2
Basic
 70
     7
177
     2
291
     1
 71
     1
176
     1
 72
     0
176
     1
 73
     1
176
     1
 90
        0
176
     1
 40
-0.6
176
     1
 41
-30.0
176
     1
 62
     5
 63
     7
421
 16777215
176
     1
 74
     0
176
     1
 91
        4
176
     1
 64
     7
176
     1
 65
   257
176
     1
 75
     1
176
     1
175
     1
176
     1
 42
1.0
176
     1
 92
        8
176
     1
 66
     7
176
     1
 43
1.0
176
     1
 76
     1
176
     1
 77
     6
176
     1
 78
     2
176
     1
 67
     7
176
     1
 79
     5
176
     1
170
     0
176
     1
171
     0
176
     1
290
     0
176
     1
 93
        1
176
     1
 44
0.0
176
     1
173
     0
176
     1
  0
VISUALSTYLE
  5
36
102
{ACAD_REACTORS
330
2A
102
}
330
2A
100
AcDbVisualStyle
  2
Brighten
 70
    12
177
     2
291
     1
 71
     2
176
     1
 72
     2
176
     1
 73
     0
176
     1
 90
        0
176
     1
 40
-0.6
176
     1
 41
-30.0
176
     1
 62
     5
 63
     7
421
 16777215
176
     1
 74
     1
176
     1
 91
        4
176
     1
 64
     7
176
     1
 65
   257
176
     1
 75
     1
176
     1
175
     1
176
     1
 42
1.0
176
     1
 92
        8
176
     1
 66
     7
176
     1
 43
1.0
176
     1
 76
     1
176
     1
 77
     6
176
     1
 78
     2
176
     1
 67
     7
176
     1
 79
     5
176
     1
170
     0
176
     1
171
     0
176
     1
290
     0
176
     1
 93
        1
176
     1
 44
50.0
176
     1
173
     0
176
     1
  0
VISUALSTYLE
  5
3A
102
{ACAD_REACTORS
330
2A
102
}
330
2A
100
AcDbVisualStyle
  2
ColorChange
 70
    16
177
     2
291
     1
 71
     2
176
     1
 72
     2
176
     1
 73
     3
176
     1
 90
        0
176
     1
 40
-0.6
176
     1
 41
-30.0
176
     1
 62
     5
 63
     8
421
  8421504
176
     1
 74
     1
176
     1
 91
        4
176
     1
 64
     7
176
     1
 65
   257
176
     1
 75
     1
176
     1
175
     1
176
     1
 42
1.0
176
     1
 92
        8
176
     1
 66
     8
424
  8421504
176
     1
 43
1.0
176
     1
 76
     1
176
     1
 77
     6
176
     1
 78
     2
176
     1
 67
     7
176
     1
 79
     5
176
     1
170
     0
176
     1
171
     0
176
     1
290
     0
176
     1
 93
        1
176
     1
 44
0.0
176
     1
173
     0
176
     1
  0
VISUALSTYLE
  5
34
102
{ACAD_REACTORS
330
2A
102
}
330
2A
100
AcDbVisualStyle
  2
Conceptual
 70
     9
177
     2
291
     0
 71
     3
176
     1
 72
     2
176
     1
 73
     0
176
     1
 90
        0
176
     1
 40
-0.6
176
     1
 41
-30.0
176
     1
 62
     5
 63
     7
421
 16777215
176
     1
 74
     2
176
     1
 91
        2
176
     1
 64
     7
176
     1
 65
   257
176
     1
 75
     1
176
     1
175
     1
176
     1
 42
40.0
176
     1
 92
        8
176
     1
 66
     7
176
     1
 43
1.0
176
     1
 76
     1
176
     1
 77
     6
176
     1
 78
     2
176
     1
 67
     7
176
     1
 79
     3
176
     1
170
     0
176
     1
171
     0
176
     1
290
     0
176
     1
 93
        1
176
     1
 44
0.0
176
     1
173
     0
176
     1
  0
VISUALSTYLE
  5
35
102
{ACAD_REACTORS
330
2A
102
}
330
2A
100
AcDbVisualStyle
  2
Dim
 70
    11
177
     2
291
     1
 71
     2
176
     1
 72
     2
176
     1
 73
     0
176
     1
 90
        0
176
     1
 40
-0.6
176
     1
 41
-30.0
176
     1
 62
     5
 63
     7
421
 16777215
176
     1
 74
     1
176
     1
 91
        4
176
     1
 64
     7
176
     1
 65
   257
176
     1
 75
     1
176
     1
175
     1
176
     1
 42
1.0
176
     1
 92
        8
176
     1
 66
     7
176
     1
 43
1.0
176
     1
 76
     1
176
     1
 77
     6
176
     1
 78
     2
176
     1
 67
     7
176
     1
 79
     5
176
     1
170
     0
176
     1
171
     0
176
     1
290
     0
176
     1
 93
        1
176
     1
 44
-50.0
176
     1
173
     0
176
     1
  0
VISUALSTYLE
  5
39
102
{ACAD_REACTORS
330
2A
102
}
330
2A
100
AcDbVisualStyle
  2
Facepattern
 70
    15
177
     2
291
     1
 71
     2
176
     1
 72
     2
176
     1
 73
     0
176
     1
 90
        0
176
     1
 40
-0.6
176
     1
 41
-30.0
176
     1
 62
     5
 63
     7
421
 16777215
176
     1
 74
     1
176
     1
 91
        4
176
     1
 64
     7
176
     1
 65
   257
176
     1
 75
     1
176
     1
175
     1
176
     1
 42
1.0
176
     1
 92
        8
176
     1
 66
     7
176
     1
 43
1.0
176
     1
 76
     1
176
     1
 77
     6
176
     1
 78
     2
176
     1
 67
     7
176
     1
 79
     5
176
     1
170
     0
176
     1
171
     0
176
     1
290
     0
176
     1
 93
        1
176
     1
 44
0.0
176
     1
173
     0
176
     1
  0
VISUALSTYLE
  5
2B
102
{ACAD_REACTORS
330
2A
102
}
330
2A
100
AcDbVisualStyle
  2
Flat
 70
     0
177
     2
291
     1
 71
     2
176
     1
 72
     1
176
     1
 73
     1
176
     1
 90
        2
176
     1
 40
-0.6
176
     1
 41
30.0
176
     1
 62
     5
 63
     7
421
 16777215
176
     1
 74
     0
176
     1
 91
        4
176
     1
 64
     7
176
     1
 65
   257
176
     1
 75
     1
176
     1
175
     1
176
     1
 42
1.0
176
     1
 92
        8
176
     1
 66
     7
176
     1
 43
1.0
176
     1
 76
     1
176
     1
 77
     6
176
     1
 78
     2
176
     1
 67
     7
176
     1
 79
     5
176
     1
170
     0
176
     1
171
     0
176
     1
290
     0
176
     1
 93
       13
176
     1
 44
0.0
176
     1
173
     0
176
     1
  0
VISUALSTYLE
  5
2C
102
{ACAD_REACTORS
330
2A
102
}
330
2A
100
AcDbVisualStyle
  2
FlatWithEdges
 70
     1
177
     2
291
     1
 71
     2
176
     1
 72
     1
176
     1
 73
     1
176
     1
 90
        2
176
     1
 40
-0.6
176
     1
 41
30.0
176
     1
 62
     5
 63
     7
421
 16777215
176
     1
 74
     1
176
     1
 91
        4
176
     1
 64
     7
176
     1
 65
   257
176
     1
 75
     1
176
     1
175
     1
176
     1
 42
1.0
176
     1
 92
        0
176
     1
 66
   257
176
     1
 43
1.0
176
     1
 76
     1
176
     1
 77
     6
176
     1
 78
     2
176
     1
 67
     7
176
     1
 79
     5
176
     1
170
     0
176
     1
171
     0
176
     1
290
     0
176
     1
 93
       13
176
     1
 44
0.0
176
     1
173
     0
176
     1
  0
VISUALSTYLE
  5
2D
102
{ACAD_REACTORS
330
2A
102
}
330
2A
100
AcDbVisualStyle
  2
Gouraud
 70
     2
177
     2
291
     1
 71
     2
176
     1
 72
     2
176
     1
 73
     1
176
     1
 90
        2
176
     1
 40
-0.6
176
     1
 41
30.0
176
     1
 62
     5
 63
     7
421
 16777215
176
     1
 74
     0
176
     1
 91
        4
176
     1
 64
     7
176
     1
 65
   257
176
     1
 75
     1
176
     1
175
     1
176
     1
 42
1.0
176
     1
 92
        0
176
     1
 66
     7
176
     1
 43
1.0
176
     1
 76
     1
176
     1
 77
     6
176
     1
 78
     2
176
     1
 67
     7
176
     1
 79
     5
176
     1
170
     0
176
     1
171
     0
176
     1
290
     0
176
     1
 93
       13
176
     1
 44
0.0
176
     1
173
     0
176
     1
  0
VISUALSTYLE
  5
2E
102
{ACAD_REACTORS
330
2A
102
}
330
2A
100
AcDbVisualStyle
  2
GouraudWithEdges
 70
     3
177
     2
291
     1
 71
     2
176
     1
 72
     2
176
     1
 73
     1
176
     1
 90
        2
176
     1
 40
-0.6
176
     1
 41
30.0
176
     1
 62
     5
 63
     7
421
 16777215
176
     1
 74
     1
176
     1
 91
        4
176
     1
 64
     7
176
     1
 65
   257
176
     1
 75
     1
176
     1
175
     1
176
     1
 42
1.0
176
     1
 92
        0
176
     1
 66
   257
176
     1
 43
1.0
176
     1
 76
     1
176
     1
 77
     6
176
     1
 78
     2
176
     1
 67
     7
176
     1
 79
     5
176
     1
170
     0
176
     1
171
     0
176
     1
290
     0
176
     1
 93
       13
176
     1
 44
0.0
176
     1
173
     0
176
     1
  0
VISUALSTYLE
  5
38
102
{ACAD_REACTORS
330
2A
102
}
330
2A
100
AcDbVisualStyle
  2
Linepattern
 70
    14
177
     2
291
     1
 71
     2
176
     1
 72
     2
176
     1
 73
     0
176
     1
 90
        0
176
     1
 40
-0.6
176
     1
 41
-30.0
176
     1
 62
     5
 63
     7
421
 16777215
176
     1
 74
     1
176
     1
 91
        4
176
     1
 64
     7
176
     1
 65
   257
176
     1
 75
     7
176
     1
175
     7
176
     1
 42
1.0
176
     1
 92
        8
176
     1
 66
     7
176
     1
 43
1.0
176
     1
 76
     1
176
     1
 77
     6
176
     1
 78
     2
176
     1
 67
     7
176
     1
 79
     5
176
     1
170
     0
176
     1
171
     0
176
     1
290
     0
176
     1
 93
        1
176
     1
 44
0.0
176
     1
173
     0
176
     1
  0
VISUALSTYLE
  5
33
102
{ACAD_REACTORS
330
2A
102
}
330
2A
100
AcDbVisualStyle
  2
Realistic
 70
     8
177
     2
291
     0
 71
     2
176
     1
 72
     2
176
     1
 73
     0
176
     1
 90
        0
176
     1
 40
-0.6
176
     1
 41
-30.0
176
     1
 62
     5
 63
     7
421
 16777215
176
     1
 74
     1
176
     1
 91
        0
176
     1
 64
     7
176
     1
 65
   257
176
     1
 75
     1
176
     1
175
     1
176
     1
 42
1.0
176
     1
 92
        8
176
     1
 66
     8
424
  7895160
176
     1
 43
1.0
176
     1
 76
     1
176
     1
 77
     6
176
     1
 78
     2
176
     1
 67
     7
176
     1
 79
     5
176
     1
170
     0
176
     1
171
     0
176
     1
290
     0
176
     1
 93
       13
176
     1
 44
0.0
176
     1
173
     0
176
     1
  0
VISUALSTYLE
  5
37
102
{ACAD_REACTORS
330
2A
102
}
330
2A
100
AcDbVisualStyle
  2
Thicken
 70
    13
177
     2
291
     1
 71
     2
176
     1
 72
     2
176
     1
 73
     0
176
     1
 90
        0
176
     1
 40
-0.6
176
     1
 41
-30.0
176
     1
 62
     5
 63
     7
421
 16777215
176
     1
 74
     1
176
     1
 91
        4
176
     1
 64
     7
176
     1
 65
   257
176
     1
 75
     1
176
     1
175
     1
176
     1
 42
1.0
176
     1
 92
       12
176
     1
 66
     7
176
     1
 43
1.0
176
     1
 76
     1
176
     1
 77
     6
176
     1
 78
     2
176
     1
 67
     7
176
     1
 79
     5
176
     1
170
     0
176
     1
171
     0
176
     1
290
     0
176
     1
 93
        1
176
     1
 44
0.0
176
     1
173
     0
176
     1
  0
ENDSEC
  0
EOF
