  0
SECTION
  2
HEADER
  9
$ACADVER
  1
AC1024
  9
$ACADMAINTVER
 70
     6
  9
$DWGCODEPAGE
  3
UNDEFINED
  9
$INSBASE
 10
0.0
 20
0.0
 30
0.0
  9
$EXTMIN
 10
1.000000000000000E+20
 20
1.000000000000000E+20
 30
1.000000000000000E+20
  9
$EXTMAX
 10
-1.000000000000000E+20
 20
-1.000000000000000E+20
 30
-1.000000000000000E+20
  9
$LIMMIN
 10
0.0
 20
0.0
  9
$LIMMAX
 10
12.0
 20
9.0
  9
$ORTHOMODE
 70
     0
  9
$REGENMODE
 70
     1
  9
$FILLMODE
 70
     1
  9
$QTEXTMODE
 70
     0
  9
$MIRRTEXT
 70
     1
  9
$LTSCALE
 40
1.0
  9
$ATTMODE
 70
     1
  9
$TEXTSIZE
 40
0.2
  9
$TRACEWID
 40
0.05
  9
$TEXTSTYLE
  7
Standard
  9
$CLAYER
  8
0
  9
$CELTYPE
  6
ByLayer
  9
$CECOLOR
 62
   256
  9
$CELTSCALE
 40
1.0
  9
$DISPSILH
 70
     0
  9
$DIMSCALE
 40
1.0
  9
$DIMASZ
 40
0.18
  9
$DIMEXO
 40
0.0625
  9
$DIMDLI
 40
0.38
  9
$DIMRND
 40
0.0
  9
$DIMDLE
 40
0.0
  9
$DIMEXE
 40
0.18
  9
$DIMTP
 40
0.0
  9
$DIMTM
 40
0.0
  9
$DIMTXT
 40
0.18
  9
$DIMCEN
 40
0.09
  9
$DIMTSZ
 40
0.0
  9
$DIMTOL
 70
     0
  9
$DIMLIM
 70
     0
  9
$DIMTIH
 70
     1
  9
$DIMTOH
 70
     1
  9
$DIMSE1
 70
     0
  9
$DIMSE2
 70
     0
  9
$DIMTAD
 70
     0
  9
$DIMZIN
 70
     0
  9
$DIMBLK
  1

  9
$DIMASO
 70
     1
  9
$DIMSHO
 70
     1
  9
$DIMPOST
  1

  9
$DIMAPOST
  1

  9
$DIMALT
 70
     0
  9
$DIMALTD
 70
     2
  9
$DIMALTF
 40
25.4
  9
$DIMLFAC
 40
1.0
  9
$DIMTOFL
 70
     0
  9
$DIMTVP
 40
0.0
  9
$DIMTIX
 70
     0
  9
$DIMSOXD
 70
     0
  9
$DIMSAH
 70
     0
  9
$DIMBLK1
  1

  9
$DIMBLK2
  1

  9
$DIMSTYLE
  2
Standard
  9
$DIMCLRD
 70
     0
  9
$DIMCLRE
 70
     0
  9
$DIMCLRT
 70
     0
  9
$DIMTFAC
 40
1.0
  9
$DIMGAP
 40
0.09
  9
$DIMJUST
 70
     0
  9
$DIMSD1
 70
     0
  9
$DIMSD2
 70
     0
  9
$DIMTOLJ
 70
     1
  9
$DIMTZIN
 70
     0
  9
$DIMALTZ
 70
     0
  9
$DIMALTTZ
 70
     0
  9
$DIMUPT
 70
     0
  9
$DIMDEC
 70
     4
  9
$DIMTDEC
 70
     4
  9
$DIMALTU
 70
     2
  9
$DIMALTTD
 70
     2
  9
$DIMTXSTY
  7
Standard
  9
$DIMAUNIT
 70
     0
  9
$DIMADEC
 70
     0
  9
$DIMALTRND
 40
0.0
  9
$DIMAZIN
 70
     0
  9
$DIMDSEP
 70
    46
  9
$DIMATFIT
 70
     3
  9
$DIMFRAC
 70
     0
  9
$DIMLDRBLK
  1

  9
$DIMLUNIT
 70
     2
  9
$DIMLWD
 70
    -2
  9
$DIMLWE
 70
    -2
  9
$DIMTMOVE
 70
     0
  9
$DIMFXL
 40
1.0
  9
$DIMFXLON
 70
     0
  9
$DIMJOGANG
 40
0.7853981633974483
  9
$DIMTFILL
 70
     0
  9
$DIMTFILLCLR
 70
     0
  9
$DIMARCSYM
 70
     0
  9
$DIMLTYPE
  6

  9
$DIMLTEX1
  6

  9
$DIMLTEX2
  6

  9
$DIMTXTDIRECTION
 70
     0
  9
$LUNITS
 70
     2
  9
$LUPREC
 70
     4
  9
$SKETCHINC
 40
0.1
  9
$FILLETRAD
 40
0.5
  9
$AUNITS
 70
     0
  9
$AUPREC
 70
     0
  9
$MENU
  1
.
  9
$ELEVATION
 40
0.0
  9
$PELEVATION
 40
0.0
  9
$THICKNESS
 40
0.0
  9
$LIMCHECK
 70
     0
  9
$CHAMFERA
 40
0.5
  9
$CHAMFERB
 40
0.5
  9
$CHAMFERC
 40
1.0
  9
$CHAMFERD
 40
0.0
  9
$SKPOLY
 70
     0
  9
$TDCREATE
 40
2457917.613391204
  9
$TDUCREATE
 40
2457917.238391204
  9
$TDUPDATE
 40
2457917.613402778
  9
$TDUUPDATE
 40
2457917.238402778
  9
$TDINDWG
 40
0.0000000116
  9
$TDUSRTIMER
 40
0.0000000116
  9
$USRTIMER
 70
     1
  9
$ANGBASE
 50
0.0
  9
$ANGDIR
 70
     0
  9
$PDMODE
 70
     0
  9
$PDSIZE
 40
0.0
  9
$PLINEWID
 40
0.0
  9
$SPLFRAME
 70
     0
  9
$SPLINETYPE
 70
     6
  9
$SPLINESEGS
 70
     8
  9
$HANDSEED
  5
107
  9
$SURFTAB1
 70
     6
  9
$SURFTAB2
 70
     6
  9
$SURFTYPE
 70
     6
  9
$SURFU
 70
     6
  9
$SURFV
 70
     6
  9
$UCSBASE
  2

  9
$UCSNAME
  2

  9
$UCSORG
 10
0.0
 20
0.0
 30
0.0
  9
$UCSXDIR
 10
1.0
 20
0.0
 30
0.0
  9
$UCSYDIR
 10
0.0
 20
1.0
 30
0.0
  9
$UCSORTHOREF
  2

  9
$UCSORTHOVIEW
 70
     0
  9
$UCSORGTOP
 10
0.0
 20
0.0
 30
0.0
  9
$UCSORGBOTTOM
 10
0.0
 20
0.0
 30
0.0
  9
$UCSORGLEFT
 10
0.0
 20
0.0
 30
0.0
  9
$UCSORGRIGHT
 10
0.0
 20
0.0
 30
0.0
  9
$UCSORGFRONT
 10
0.0
 20
0.0
 30
0.0
  9
$UCSORGBACK
 10
0.0
 20
0.0
 30
0.0
  9
$PUCSBASE
  2

  9
$PUCSNAME
  2

  9
$PUCSORG
 10
0.0
 20
0.0
 30
0.0
  9
$PUCSXDIR
 10
1.0
 20
0.0
 30
0.0
  9
$PUCSYDIR
 10
0.0
 20
1.0
 30
0.0
  9
$PUCSORTHOREF
  2

  9
$PUCSORTHOVIEW
 70
     0
  9
$PUCSORGTOP
 10
0.0
 20
0.0
 30
0.0
  9
$PUCSORGBOTTOM
 10
0.0
 20
0.0
 30
0.0
  9
$PUCSORGLEFT
 10
0.0
 20
0.0
 30
0.0
  9
$PUCSORGRIGHT
 10
0.0
 20
0.0
 30
0.0
  9
$PUCSORGFRONT
 10
0.0
 20
0.0
 30
0.0
  9
$PUCSORGBACK
 10
0.0
 20
0.0
 30
0.0
  9
$USERI1
 70
     0
  9
$USERI2
 70
     0
  9
$USERI3
 70
     0
  9
$USERI4
 70
     0
  9
$USERI5
 70
     0
  9
$USERR1
 40
0.0
  9
$USERR2
 40
0.0
  9
$USERR3
 40
0.0
  9
$USERR4
 40
0.0
  9
$USERR5
 40
0.0
  9
$WORLDVIEW
 70
     1
  9
$SHADEDGE
 70
     3
  9
$SHADEDIF
 70
    70
  9
$TILEMODE
 70
     1
  9
$MAXACTVP
 70
    64
  9
$PINSBASE
 10
0.0
 20
0.0
 30
0.0
  9
$PLIMCHECK
 70
     0
  9
$PEXTMIN
 10
1.000000000000000E+20
 20
1.000000000000000E+20
 30
1.000000000000000E+20
  9
$PEXTMAX
 10
-1.000000000000000E+20
 20
-1.000000000000000E+20
 30
-1.000000000000000E+20
  9
$PLIMMIN
 10
0.0
 20
0.0
  9
$PLIMMAX
 10
12.0
 20
9.0
  9
$UNITMODE
 70
     0
  9
$VISRETAIN
 70
     1
  9
$PLINEGEN
 70
     0
  9
$PSLTSCALE
 70
     1
  9
$TREEDEPTH
 70
  3020
  9
$CMLSTYLE
  2
Standard
  9
$CMLJUST
 70
     0
  9
$CMLSCALE
 40
1.0
  9
$PROXYGRAPHICS
 70
     1
  9
$MEASUREMENT
 70
     0
  9
$CELWEIGHT
370
    -1
  9
$ENDCAPS
280
     0
  9
$JOINSTYLE
280
     0
  9
$LWDISPLAY
290
     1
  9
$INSUNITS
 70
     1
  9
$HYPERLINKBASE
  1

  9
$STYLESHEET
  1

  9
$XEDIT
290
     1
  9
$CEPSNTYPE
380
     0
  9
$PSTYLEMODE
290
     1
  9
$FINGERPRINTGUID
  2
{080B6861-9CC4-2C87-A87E-17502140038D}
  9
$VERSIONGUID
  2
{FAEB1C32-E019-11D5-929B-00C0DF256EC4}
  9
$EXTNAMES
290
     1
  9
$PSVPSCALE
 40
0.0
  9
$OLESTARTUP
290
     0
  9
$SORTENTS
280
   127
  9
$INDEXCTL
280
     0
  9
$HIDETEXT
280
     1
  9
$XCLIPFRAME
280
     2
  9
$HALOGAP
280
     0
  9
$OBSCOLOR
 70
   257
  9
$OBSLTYPE
280
     0
  9
$INTERSECTIONDISPLAY
280
     0
  9
$INTERSECTIONCOLOR
 70
   257
  9
$DIMASSOC
280
     2
  9
$PROJECTNAME
  1

  9
$CAMERADISPLAY
290
     0
  9
$LENSLENGTH
 40
50.0
  9
$CAMERAHEIGHT
 40
0.0
  9
$STEPSPERSEC
 40
2.0
  9
$STEPSIZE
 40
6.0
  9
$3DDWFPREC
 40
2.0
  9
$PSOLWIDTH
 40
0.25
  9
$PSOLHEIGHT
 40
4.0
  9
$LOFTANG1
 40
1.570796326794897
  9
$LOFTANG2
 40
1.570796326794897
  9
$LOFTMAG1
 40
0.0
  9
$LOFTMAG2
 40
0.0
  9
$LOFTPARAM
 70
     7
  9
$LOFTNORMALS
280
     1
  9
$LATITUDE
 40
37.795
  9
$LONGITUDE
 40
-122.394
  9
$NORTHDIRECTION
 40
0.0
  9
$TIMEZONE
 70
 -8000
  9
$LIGHTGLYPHDISPLAY
280
     1
  9
$TILEMODELIGHTSYNCH
280
     1
  9
$CMATERIAL
347
3C
  9
$SOLIDHIST
280
     1
  9
$SHOWHIST
280
     1
  9
$DWFFRAME
280
     2
  9
$DGNFRAME
280
     2
  9
$REALWORLDSCALE
290
     1
  9
$INTERFERECOLOR
 62
   256
  9
$CSHADOW
280
     0
  9
$SHADOWPLANELOCATION
 40
0.0
  0
ENDSEC
  0
SECTION
  2
CLASSES
  0
CLASS
  1
ACDBDICTIONARYWDFLT
  2
AcDbDictionaryWithDefault
  3
ObjectDBX Classes
 90
        0
 91
        4
280
     0
281
     0
  0
CLASS
  1
VISUALSTYLE
  2
AcDbVisualStyle
  3
ObjectDBX Classes
 90
     4095
 91
        4
280
     0
281
     0
  0
CLASS
  1
MATERIAL
  2
AcDbMaterial
  3
ObjectDBX Classes
 90
     1153
 91
        4
280
     0
281
     0
  0
CLASS
  1
SUN
  2
AcDbSun
  3
SCENEOE
 90
     1024
 91
        4
280
     0
281
     0
  0
ENDSEC
  0
SECTION
  2
TABLES
  0
TABLE
  2
VPORT
  5
8
330
0
100
AcDbSymbolTable
 70
     1
  0
VPORT
  5
29
330
8
100
AcDbSymbolTableRecord
100
AcDbViewportTableRecord
  2
*Active
 70
     0
 10
0.0
 20
0.0
 11
1.0
 21
1.0
 12
0.0
 22
0.0
 13
0.0
 23
0.0
 14
0.5
 24
0.5
 15
0.5
 25
0.5
 16
0.0
 26
0.0
 36
1.0
 17
91.00082462281999
 27
-128.4993055234307
 37
0.0
 40
256.9986110468615
 41
0.7081814508812795
 42
50.0
 43
0.0
 44
0.0
 50
0.0
 51
0.0
 71
     0
 72
   100
 73
     1
 74
     3
 75
     0
 76
     0
 77
     0
 78
     0
281
     0
 65
     1
110
0.0
120
0.0
130
0.0
111
1.0
121
0.0
131
0.0
112
0.0
122
1.0
132
0.0
 79
     0
146
0.0
 60
     3
 61
     5
292
     1
282
     1
141
0.0
142
0.0
 63
   250
361
3F
  0
ENDTAB
  0
TABLE
  2
LTYPE
  5
5
330
0
100
AcDbSymbolTable
 70
     1
  0
LTYPE
  5
14
330
5
100
AcDbSymbolTableRecord
100
AcDbLinetypeTableRecord
  2
ByBlock
 70
     0
  3

 72
    65
 73
     0
 40
0.0
  0
LTYPE
  5
15
330
5
100
AcDbSymbolTableRecord
100
AcDbLinetypeTableRecord
  2
ByLayer
 70
     0
  3

 72
    65
 73
     0
 40
0.0
  0
LTYPE
  5
16
330
5
100
AcDbSymbolTableRecord
100
AcDbLinetypeTableRecord
  2
Continuous
 70
     0
  3
Solid line
 72
    65
 73
     0
 40
0.0
  0
ENDTAB
  0
TABLE
  2
LAYER
  5
2
330
0
100
AcDbSymbolTable
 70
     2
  0
LAYER
  5
10
330
2
100
AcDbSymbolTableRecord
100
AcDbLayerTableRecord
  2
0
 70
     0
 62
     7
  6
Continuous
370
    -3
390
F
347
3E
  0
LAYER
  5
40
330
2
100
AcDbSymbolTableRecord
100
AcDbLayerTableRecord
  2
_U+30EC_U+30A4_U+30E4_U+30FC 1
 70
     0
 62
     7
  6
Continuous
370
    -3
390
F
347
3E
  0
ENDTAB
  0
TABLE
  2
STYLE
  5
3
330
0
100
AcDbSymbolTable
 70
     1
  0
STYLE
  5
11
330
3
100
AcDbSymbolTableRecord
100
AcDbTextStyleTableRecord
  2
Standard
 70
     0
 40
0.0
 41
1.0
 50
0.0
 71
     0
 42
0.2
  3
txt
  4

  0
ENDTAB
  0
TABLE
  2
VIEW
  5
6
330
0
100
AcDbSymbolTable
 70
     0
  0
ENDTAB
  0
TABLE
  2
UCS
  5
7
330
0
100
AcDbSymbolTable
 70
     0
  0
ENDTAB
  0
TABLE
  2
APPID
  5
9
330
0
100
AcDbSymbolTable
 70
     1
  0
APPID
  5
12
330
9
100
AcDbSymbolTableRecord
100
AcDbRegAppTableRecord
  2
ACAD
 70
     0
  0
ENDTAB
  0
TABLE
  2
DIMSTYLE
  5
A
330
0
100
AcDbSymbolTable
 70
     1
100
AcDbDimStyleTable
  0
DIMSTYLE
105
27
330
A
100
AcDbSymbolTableRecord
100
AcDbDimStyleTableRecord
  2
Standard
 70
     0
178
     0
340
11
  0
ENDTAB
  0
TABLE
  2
BLOCK_RECORD
  5
1
330
0
100
AcDbSymbolTable
 70
     8
  0
BLOCK_RECORD
  5
1F
330
1
100
AcDbSymbolTableRecord
100
AcDbBlockTableRecord
  2
*Model_Space
340
22
 70
     0
280
     1
281
     0
  0
BLOCK_RECORD
  5
1B
330
1
100
AcDbSymbolTableRecord
100
AcDbBlockTableRecord
  2
*Paper_Space
340
1E
 70
     0
280
     1
281
     0
  0
BLOCK_RECORD
  5
23
330
1
100
AcDbSymbolTableRecord
100
AcDbBlockTableRecord
  2
*Paper_Space0
340
26
 70
     0
280
     1
281
     0
  0
BLOCK_RECORD
  5
71
330
1
100
AcDbSymbolTableRecord
100
AcDbBlockTableRecord
  2
block 2
340
0
102
{BLKREFS
331
72
102
}
 70
     0
280
     1
281
     0
  0
BLOCK_RECORD
  5
94
330
1
100
AcDbSymbolTableRecord
100
AcDbBlockTableRecord
  2
block 3
340
0
102
{BLKREFS
331
95
102
}
 70
     0
280
     1
281
     0
  0
BLOCK_RECORD
  5
AD
330
1
100
AcDbSymbolTableRecord
100
AcDbBlockTableRecord
  2
block 4
340
0
102
{BLKREFS
331
AE
102
}
 70
     0
280
     1
281
     0
  0
BLOCK_RECORD
  5
BF
330
1
100
AcDbSymbolTableRecord
100
AcDbBlockTableRecord
  2
block 5
340
0
102
{BLKREFS
331
C0
102
}
 70
     0
280
     1
281
     0
  0
BLOCK_RECORD
  5
D4
330
1
100
AcDbSymbolTableRecord
100
AcDbBlockTableRecord
  2
block 6
340
0
102
{BLKREFS
331
D5
102
}
 70
     0
280
     1
281
     0
  0
BLOCK_RECORD
  5
E9
330
1
100
AcDbSymbolTableRecord
100
AcDbBlockTableRecord
  2
block 7
340
0
102
{BLKREFS
331
EA
102
}
 70
     0
280
     1
281
     0
  0
BLOCK_RECORD
  5
F3
330
1
100
AcDbSymbolTableRecord
100
AcDbBlockTableRecord
  2
block 8
340
0
102
{BLKREFS
331
F4
102
}
 70
     0
280
     1
281
     0
  0
ENDTAB
  0
ENDSEC
  0
SECTION
  2
BLOCKS
  0
BLOCK
  5
20
330
1F
100
AcDbEntity
  8
0
100
AcDbBlockBegin
  2
*Model_Space
 70
     0
 10
0.0
 20
0.0
 30
0.0
  3
*Model_Space
  1

  0
ENDBLK
  5
21
330
1F
100
AcDbEntity
  8
0
100
AcDbBlockEnd
  0
BLOCK
  5
1C
330
1B
100
AcDbEntity
 67
     1
  8
0
100
AcDbBlockBegin
  2
*Paper_Space
 70
     0
 10
0.0
 20
0.0
 30
0.0
  3
*Paper_Space
  1

  0
ENDBLK
  5
1D
330
1B
100
AcDbEntity
 67
     1
  8
0
100
AcDbBlockEnd
  0
BLOCK
  5
24
330
23
100
AcDbEntity
  8
0
100
AcDbBlockBegin
  2
*Paper_Space0
 70
     0
 10
0.0
 20
0.0
 30
0.0
  3
*Paper_Space0
  1

  0
ENDBLK
  5
25
330
23
100
AcDbEntity
  8
0
100
AcDbBlockEnd
  0
BLOCK
  5
73
330
71
100
AcDbEntity
  8
0
100
AcDbBlockBegin
  2
block 2
 70
     0
 10
0.0
 20
0.0
 30
0.0
  3
block 2
  1

  0
POLYLINE
  5
75
330
71
100
AcDbEntity
  8
_U+30EC_U+30A4_U+30E4_U+30FC 1
 62
     7
420
 16777215
370
    25
100
AcDb2dPolyline
 66
     1
 10
0.0
 20
0.0
 30
0.0
  0
VERTEX
  5
76
330
75
100
AcDbEntity
  8
_U+30EC_U+30A4_U+30E4_U+30FC 1
 62
     7
420
 16777215
370
    25
100
AcDbVertex
100
AcDb2dVertex
 10
89.2841374443941
 20
-136.4884874658781
 30
0.0
  0
VERTEX
  5
77
330
75
100
AcDbEntity
  8
_U+30EC_U+30A4_U+30E4_U+30FC 1
 62
     7
420
 16777215
370
    25
100
AcDbVertex
100
AcDb2dVertex
 10
90.28457991887069
 20
-136.4884874658781
 30
0.0
  0
SEQEND
  5
78
330
75
100
AcDbEntity
  8
_U+30EC_U+30A4_U+30E4_U+30FC 1
 62
     7
420
 16777215
370
    25
  0
POLYLINE
  5
79
330
71
100
AcDbEntity
  8
_U+30EC_U+30A4_U+30E4_U+30FC 1
 62
     7
420
 16777215
370
    25
100
AcDb2dPolyline
 66
     1
 10
0.0
 20
0.0
 30
0.0
  0
VERTEX
  5
7A
330
79
100
AcDbEntity
  8
_U+30EC_U+30A4_U+30E4_U+30FC 1
 62
     7
420
 16777215
370
    25
100
AcDbVertex
100
AcDb2dVertex
 10
90.28457991887069
 20
-139.4884744095725
 30
0.0
  0
VERTEX
  5
7B
330
79
100
AcDbEntity
  8
_U+30EC_U+30A4_U+30E4_U+30FC 1
 62
     7
420
 16777215
370
    25
100
AcDbVertex
100
AcDb2dVertex
 10
90.28457991887069
 20
-136.4884874658781
 30
0.0
  0
SEQEND
  5
7C
330
79
100
AcDbEntity
  8
_U+30EC_U+30A4_U+30E4_U+30FC 1
 62
     7
420
 16777215
370
    25
  0
POLYLINE
  5
7D
330
71
100
AcDbEntity
  8
_U+30EC_U+30A4_U+30E4_U+30FC 1
 62
     7
420
 16777215
370
    25
100
AcDb2dPolyline
 66
     1
 10
0.0
 20
0.0
 30
0.0
  0
VERTEX
  5
7E
330
7D
100
AcDbEntity
  8
_U+30EC_U+30A4_U+30E4_U+30FC 1
 62
     7
420
 16777215
370
    25
100
AcDbVertex
100
AcDb2dVertex
 10
89.2841374443941
 20
-138.4880319098226
 30
0.0
  0
VERTEX
  5
7F
330
7D
100
AcDbEntity
  8
_U+30EC_U+30A4_U+30E4_U+30FC 1
 62
     7
420
 16777215
370
    25
100
AcDbVertex
100
AcDb2dVertex
 10
89.2841374443941
 20
-136.4884874658781
 30
0.0
  0
SEQEND
  5
80
330
7D
100
AcDbEntity
  8
_U+30EC_U+30A4_U+30E4_U+30FC 1
 62
     7
420
 16777215
370
    25
  0
ENDBLK
  5
74
330
71
100
AcDbEntity
  8
0
100
AcDbBlockEnd
  0
BLOCK
  5
96
330
94
100
AcDbEntity
  8
0
100
AcDbBlockBegin
  2
block 3
 70
     0
 10
0.0
 20
0.0
 30
0.0
  3
block 3
  1

  0
SPLINE
  5
98
330
94
100
AcDbEntity
  8
_U+30EC_U+30A4_U+30E4_U+30FC 1
370
     0
100
AcDbSpline
210
0.0
220
0.0
230
1.0
 70
    11
 71
     3
 72
    26
 73
    22
 74
     0
 42
0.0000000001
 43
0.0000000001
 12
1.0
 22
0.0
 32
0.0
 13
1.0
 23
0.0
 33
0.0
 40
0.0
 40
0.0
 40
0.0
 40
0.0
 40
1.0
 40
1.0
 40
1.0
 40
2.0
 40
2.0
 40
2.0
 40
3.0
 40
3.0
 40
3.0
 40
4.0
 40
4.0
 40
4.0
 40
5.0
 40
5.0
 40
5.0
 40
6.0
 40
6.0
 40
6.0
 40
7.0
 40
7.0
 40
7.0
 40
7.0
 10
84.83185897401773
 20
-143.0668917828097
 30
0.0
 10
84.83185897401773
 20
-143.0668917828097
 30
0.0
 10
84.83185897401773
 20
-141.9627386797871
 30
0.0
 10
84.83185897401773
 20
-141.9627386797871
 30
0.0
 10
84.83185897401773
 20
-141.9627386797871
 30
0.0
 10
84.5018188265308
 20
-141.9627386797871
 30
0.0
 10
84.5018188265308
 20
-141.9627386797871
 30
0.0
 10
84.5018188265308
 20
-141.9627386797871
 30
0.0
 10
84.5018188265308
 20
-141.8145995739214
 30
0.0
 10
84.5018188265308
 20
-141.8145995739214
 30
0.0
 10
84.83392603130888
 20
-141.7997856633348
 30
0.0
 10
84.88043482035975
 20
-141.6368326468825
 30
0.0
 10
84.9100626415329
 20
-141.5224554767722
 30
0.0
 10
84.9100626415329
 20
-141.5224554767722
 30
0.0
 10
85.0561346901075
 20
-141.5224554767722
 30
0.0
 10
85.0561346901075
 20
-141.5224554767722
 30
0.0
 10
85.0561346901075
 20
-141.5224554767722
 30
0.0
 10
85.0561346901075
 20
-143.0668917828097
 30
0.0
 10
85.0561346901075
 20
-143.0668917828097
 30
0.0
 10
85.0561346901075
 20
-143.0668917828097
 30
0.0
 10
84.83185897401773
 20
-143.0668917828097
 30
0.0
 10
84.83185897401773
 20
-143.0668917828097
 30
0.0
  0
HATCH
  5
99
330
94
100
AcDbEntity
  8
_U+30EC_U+30A4_U+30E4_U+30FC 1
 62
     7
420
 16777215
100
AcDbHatch
 10
0.0
 20
0.0
 30
0.0
210
0.0
220
0.0
230
1.0
  2
SOLID
 70
     1
 71
     0
 91
        1
 92
        1
 93
        1
 72
     4
 94
        3
 73
     0
 74
     1
 95
       26
 96
       22
 40
0.0
 40
0.0
 40
0.0
 40
0.0
 40
1.0
 40
1.0
 40
1.0
 40
2.0
 40
2.0
 40
2.0
 40
3.0
 40
3.0
 40
3.0
 40
4.0
 40
4.0
 40
4.0
 40
5.0
 40
5.0
 40
5.0
 40
6.0
 40
6.0
 40
6.0
 40
7.0
 40
7.0
 40
7.0
 40
7.0
 10
84.83185897401773
 20
-143.0668917828097
 10
84.83185897401773
 20
-143.0668917828097
 10
84.83185897401773
 20
-141.9627386797871
 10
84.83185897401773
 20
-141.9627386797871
 10
84.83185897401773
 20
-141.9627386797871
 10
84.5018188265308
 20
-141.9627386797871
 10
84.5018188265308
 20
-141.9627386797871
 10
84.5018188265308
 20
-141.9627386797871
 10
84.5018188265308
 20
-141.8145995739214
 10
84.5018188265308
 20
-141.8145995739214
 10
84.83392603130888
 20
-141.7997856633348
 10
84.88043482035975
 20
-141.6368326468825
 10
84.9100626415329
 20
-141.5224554767722
 10
84.9100626415329
 20
-141.5224554767722
 10
85.0561346901075
 20
-141.5224554767722
 10
85.0561346901075
 20
-141.5224554767722
 10
85.0561346901075
 20
-141.5224554767722
 10
85.0561346901075
 20
-143.0668917828097
 10
85.0561346901075
 20
-143.0668917828097
 10
85.0561346901075
 20
-143.0668917828097
 10
84.83185897401773
 20
-143.0668917828097
 10
84.83185897401773
 20
-143.0668917828097
 97
        0
 97
        0
 75
     2
 76
     1
 98
        0
  0
SPLINE
  5
9A
330
94
100
AcDbEntity
  8
_U+30EC_U+30A4_U+30E4_U+30FC 1
370
     0
100
AcDbSpline
210
0.0
220
0.0
230
1.0
 70
    11
 71
     3
 72
    29
 73
    25
 74
     0
 42
0.0000000001
 43
0.0000000001
 12
1.0
 22
0.0
 32
0.0
 13
1.0
 23
0.0
 33
0.0
 40
0.0
 40
0.0
 40
0.0
 40
0.0
 40
1.0
 40
1.0
 40
1.0
 40
2.0
 40
2.0
 40
2.0
 40
3.0
 40
3.0
 40
3.0
 40
4.0
 40
4.0
 40
4.0
 40
5.0
 40
5.0
 40
5.0
 40
6.0
 40
6.0
 40
6.0
 40
7.0
 40
7.0
 40
7.0
 40
8.0
 40
8.0
 40
8.0
 40
8.0
 10
86.45518796666745
 20
-142.8891248557708
 30
0.0
 10
86.3470119684306
 20
-143.098586661274
 30
0.0
 10
86.17372366552254
 20
-143.1175346864428
 30
0.0
 10
86.0572794381211
 20
-143.1175346864428
 30
0.0
 10
85.89639347895994
 20
-143.1175346864428
 30
0.0
 10
85.75480005451617
 20
-143.071025897392
 30
0.0
 10
85.65971541912327
 20
-142.8891248557708
 30
0.0
 10
85.55601804501725
 20
-142.6944769608542
 30
0.0
 10
85.53707001984837
 20
-142.457454391469
 30
0.0
 10
85.53707001984837
 20
-142.2948458845652
 30
0.0
 10
85.53707001984837
 20
-142.1508408932818
 30
0.0
 10
85.5539509877261
 20
-141.89900441331
 30
0.0
 10
85.65971541912327
 20
-141.7002224038111
 30
0.0
 10
85.76754690781159
 20
-141.4973062797299
 30
0.0
 10
85.92843286697276
 20
-141.4738796304302
 30
0.0
 10
86.0572794381211
 20
-141.4738796304302
 30
0.0
 10
86.21609833999112
 20
-141.4738796304302
 30
0.0
 10
86.35975882172603
 20
-141.5183213621899
 30
0.0
 10
86.45518796666745
 20
-141.7002224038111
 30
0.0
 10
86.55440671664265
 20
-141.8928032414365
 30
0.0
 10
86.57783336594235
 20
-142.1212130721086
 30
0.0
 10
86.57783336594235
 20
-142.2948458845652
 30
0.0
 10
86.57783336594235
 20
-142.4660671301821
 30
0.0
 10
86.5564737739338
 20
-142.6965440181453
 30
0.0
 10
86.45518796666745
 20
-142.8891248557708
 30
0.0
  0
SPLINE
  5
9B
330
94
100
AcDbEntity
  8
_U+30EC_U+30A4_U+30E4_U+30FC 1
370
     0
100
AcDbSpline
210
0.0
220
0.0
230
1.0
 70
    11
 71
     3
 72
    17
 73
    13
 74
     0
 42
0.0000000001
 43
0.0000000001
 12
1.0
 22
0.0
 32
0.0
 13
1.0
 23
0.0
 33
0.0
 40
0.0
 40
0.0
 40
0.0
 40
0.0
 40
1.0
 40
1.0
 40
1.0
 40
2.0
 40
2.0
 40
2.0
 40
3.0
 40
3.0
 40
3.0
 40
4.0
 40
4.0
 40
4.0
 40
4.0
 10
86.0572794381211
 20
-141.6664604680556
 30
0.0
 10
85.80785452498901
 20
-141.6664604680556
 30
0.0
 10
85.76100122638961
 20
-141.9499918264917
 30
0.0
 10
85.76100122638961
 20
-142.2948458845652
 30
0.0
 10
85.76100122638961
 20
-142.6142062360478
 30
0.0
 10
85.79717472898474
 20
-142.9228867915262
 30
0.0
 10
86.0572794381211
 20
-142.9228867915262
 30
0.0
 10
86.30498180351056
 20
-142.9228867915262
 30
0.0
 10
86.35355764985259
 20
-142.6417669999298
 30
0.0
 10
86.35355764985259
 20
-142.2948458845652
 30
0.0
 10
86.35355764985259
 20
-141.975141023534
 30
0.0
 10
86.31531708996631
 20
-141.6664604680556
 30
0.0
 10
86.0572794381211
 20
-141.6664604680556
 30
0.0
  0
HATCH
  5
9C
330
94
100
AcDbEntity
  8
_U+30EC_U+30A4_U+30E4_U+30FC 1
 62
     7
420
 16777215
100
AcDbHatch
 10
0.0
 20
0.0
 30
0.0
210
0.0
220
0.0
230
1.0
  2
SOLID
 70
     1
 71
     0
 91
        2
 92
        1
 93
        1
 72
     4
 94
        3
 73
     0
 74
     1
 95
       29
 96
       25
 40
0.0
 40
0.0
 40
0.0
 40
0.0
 40
1.0
 40
1.0
 40
1.0
 40
2.0
 40
2.0
 40
2.0
 40
3.0
 40
3.0
 40
3.0
 40
4.0
 40
4.0
 40
4.0
 40
5.0
 40
5.0
 40
5.0
 40
6.0
 40
6.0
 40
6.0
 40
7.0
 40
7.0
 40
7.0
 40
8.0
 40
8.0
 40
8.0
 40
8.0
 10
86.45518796666745
 20
-142.8891248557708
 10
86.3470119684306
 20
-143.098586661274
 10
86.17372366552254
 20
-143.1175346864428
 10
86.0572794381211
 20
-143.1175346864428
 10
85.89639347895994
 20
-143.1175346864428
 10
85.75480005451617
 20
-143.071025897392
 10
85.65971541912327
 20
-142.8891248557708
 10
85.55601804501725
 20
-142.6944769608542
 10
85.53707001984837
 20
-142.457454391469
 10
85.53707001984837
 20
-142.2948458845652
 10
85.53707001984837
 20
-142.1508408932818
 10
85.5539509877261
 20
-141.89900441331
 10
85.65971541912327
 20
-141.7002224038111
 10
85.76754690781159
 20
-141.4973062797299
 10
85.92843286697276
 20
-141.4738796304302
 10
86.0572794381211
 20
-141.4738796304302
 10
86.21609833999112
 20
-141.4738796304302
 10
86.35975882172603
 20
-141.5183213621899
 10
86.45518796666745
 20
-141.7002224038111
 10
86.55440671664265
 20
-141.8928032414365
 10
86.57783336594235
 20
-142.1212130721086
 10
86.57783336594235
 20
-142.2948458845652
 10
86.57783336594235
 20
-142.4660671301821
 10
86.5564737739338
 20
-142.6965440181453
 10
86.45518796666745
 20
-142.8891248557708
 97
        0
 97
        0
 92
        1
 93
        1
 72
     4
 94
        3
 73
     0
 74
     1
 95
       17
 96
       13
 40
0.0
 40
0.0
 40
0.0
 40
0.0
 40
1.0
 40
1.0
 40
1.0
 40
2.0
 40
2.0
 40
2.0
 40
3.0
 40
3.0
 40
3.0
 40
4.0
 40
4.0
 40
4.0
 40
4.0
 10
86.0572794381211
 20
-141.6664604680556
 10
85.80785452498901
 20
-141.6664604680556
 10
85.76100122638961
 20
-141.9499918264917
 10
85.76100122638961
 20
-142.2948458845652
 10
85.76100122638961
 20
-142.6142062360478
 10
85.79717472898474
 20
-142.9228867915262
 10
86.0572794381211
 20
-142.9228867915262
 10
86.30498180351056
 20
-142.9228867915262
 10
86.35355764985259
 20
-142.6417669999298
 10
86.35355764985259
 20
-142.2948458845652
 10
86.35355764985259
 20
-141.975141023534
 10
86.31531708996631
 20
-141.6664604680556
 10
86.0572794381211
 20
-141.6664604680556
 97
        0
 97
        0
 75
     2
 76
     1
 98
        0
  0
ENDBLK
  5
97
330
94
100
AcDbEntity
  8
0
100
AcDbBlockEnd
  0
BLOCK
  5
AF
330
AD
100
AcDbEntity
  8
0
100
AcDbBlockBegin
  2
block 4
 70
     0
 10
0.0
 20
0.0
 30
0.0
  3
block 4
  1

  0
SPLINE
  5
B1
330
AD
100
AcDbEntity
  8
_U+30EC_U+30A4_U+30E4_U+30FC 1
370
     0
100
AcDbSpline
210
0.0
220
0.0
230
1.0
 70
    11
 71
     3
 72
    26
 73
    22
 74
     0
 42
0.0000000001
 43
0.0000000001
 12
1.0
 22
0.0
 32
0.0
 13
1.0
 23
0.0
 33
0.0
 40
0.0
 40
0.0
 40
0.0
 40
0.0
 40
1.0
 40
1.0
 40
1.0
 40
2.0
 40
2.0
 40
2.0
 40
3.0
 40
3.0
 40
3.0
 40
4.0
 40
4.0
 40
4.0
 40
5.0
 40
5.0
 40
5.0
 40
6.0
 40
6.0
 40
6.0
 40
7.0
 40
7.0
 40
7.0
 40
7.0
 10
105.4836561151221
 20
-120.5139186981701
 30
0.0
 10
105.4836561151221
 20
-120.5139186981701
 30
0.0
 10
104.3795030120996
 20
-120.5139186981701
 30
0.0
 10
104.3795030120996
 20
-120.5139186981701
 30
0.0
 10
104.3795030120996
 20
-120.5139186981701
 30
0.0
 10
104.3795030120996
 20
-120.8439588456571
 30
0.0
 10
104.3795030120996
 20
-120.8439588456571
 30
0.0
 10
104.3795030120996
 20
-120.8439588456571
 30
0.0
 10
104.2313639062338
 20
-120.8439588456571
 30
0.0
 10
104.2313639062338
 20
-120.8439588456571
 30
0.0
 10
104.2165499956473
 20
-120.511851640879
 30
0.0
 10
104.0535969791949
 20
-120.4653428518281
 30
0.0
 10
103.9392198090846
 20
-120.435715030655
 30
0.0
 10
103.9392198090846
 20
-120.435715030655
 30
0.0
 10
103.9392198090846
 20
-120.2896429820804
 30
0.0
 10
103.9392198090846
 20
-120.2896429820804
 30
0.0
 10
103.9392198090846
 20
-120.2896429820804
 30
0.0
 10
105.4836561151221
 20
-120.2896429820804
 30
0.0
 10
105.4836561151221
 20
-120.2896429820804
 30
0.0
 10
105.4836561151221
 20
-120.2896429820804
 30
0.0
 10
105.4836561151221
 20
-120.5139186981701
 30
0.0
 10
105.4836561151221
 20
-120.5139186981701
 30
0.0
  0
HATCH
  5
B2
330
AD
100
AcDbEntity
  8
_U+30EC_U+30A4_U+30E4_U+30FC 1
 62
     7
420
 16777215
100
AcDbHatch
 10
0.0
 20
0.0
 30
0.0
210
0.0
220
0.0
230
1.0
  2
SOLID
 70
     1
 71
     0
 91
        1
 92
        1
 93
        1
 72
     4
 94
        3
 73
     0
 74
     1
 95
       26
 96
       22
 40
0.0
 40
0.0
 40
0.0
 40
0.0
 40
1.0
 40
1.0
 40
1.0
 40
2.0
 40
2.0
 40
2.0
 40
3.0
 40
3.0
 40
3.0
 40
4.0
 40
4.0
 40
4.0
 40
5.0
 40
5.0
 40
5.0
 40
6.0
 40
6.0
 40
6.0
 40
7.0
 40
7.0
 40
7.0
 40
7.0
 10
105.4836561151221
 20
-120.5139186981701
 10
105.4836561151221
 20
-120.5139186981701
 10
104.3795030120996
 20
-120.5139186981701
 10
104.3795030120996
 20
-120.5139186981701
 10
104.3795030120996
 20
-120.5139186981701
 10
104.3795030120996
 20
-120.8439588456571
 10
104.3795030120996
 20
-120.8439588456571
 10
104.3795030120996
 20
-120.8439588456571
 10
104.2313639062338
 20
-120.8439588456571
 10
104.2313639062338
 20
-120.8439588456571
 10
104.2165499956473
 20
-120.511851640879
 10
104.0535969791949
 20
-120.4653428518281
 10
103.9392198090846
 20
-120.435715030655
 10
103.9392198090846
 20
-120.435715030655
 10
103.9392198090846
 20
-120.2896429820804
 10
103.9392198090846
 20
-120.2896429820804
 10
103.9392198090846
 20
-120.2896429820804
 10
105.4836561151221
 20
-120.2896429820804
 10
105.4836561151221
 20
-120.2896429820804
 10
105.4836561151221
 20
-120.2896429820804
 10
105.4836561151221
 20
-120.5139186981701
 10
105.4836561151221
 20
-120.5139186981701
 97
        0
 97
        0
 75
     2
 76
     1
 98
        0
  0
ENDBLK
  5
B0
330
AD
100
AcDbEntity
  8
0
100
AcDbBlockEnd
  0
BLOCK
  5
C1
330
BF
100
AcDbEntity
  8
0
100
AcDbBlockBegin
  2
block 5
 70
     0
 10
0.0
 20
0.0
 30
0.0
  3
block 5
  1

  0
SPLINE
  5
C3
330
BF
100
AcDbEntity
  8
_U+30EC_U+30A4_U+30E4_U+30FC 1
370
     0
100
AcDbSpline
210
0.0
220
0.0
230
1.0
 70
    11
 71
     3
 72
    44
 73
    40
 74
     0
 42
0.0000000001
 43
0.0000000001
 12
1.0
 22
0.0
 32
0.0
 13
1.0
 23
0.0
 33
0.0
 40
0.0
 40
0.0
 40
0.0
 40
0.0
 40
1.0
 40
1.0
 40
1.0
 40
2.0
 40
2.0
 40
2.0
 40
3.0
 40
3.0
 40
3.0
 40
4.0
 40
4.0
 40
4.0
 40
5.0
 40
5.0
 40
5.0
 40
6.0
 40
6.0
 40
6.0
 40
7.0
 40
7.0
 40
7.0
 40
8.0
 40
8.0
 40
8.0
 40
9.0
 40
9.0
 40
9.0
 40
10.0
 40
10.0
 40
10.0
 40
11.0
 40
11.0
 40
11.0
 40
12.0
 40
12.0
 40
12.0
 40
13.0
 40
13.0
 40
13.0
 40
13.0
 10
88.19168834600764
 20
-114.5916273042514
 30
0.0
 10
87.97395831133984
 20
-114.7502739513472
 30
0.0
 10
87.8809407332381
 20
-114.82434350428
 30
0.0
 10
87.83202037734756
 20
-114.9681762407892
 30
0.0
 10
87.83202037734756
 20
-114.9681762407892
 30
0.0
 10
88.61061195701402
 20
-114.9681762407892
 30
0.0
 10
88.61061195701402
 20
-114.9681762407892
 30
0.0
 10
88.61061195701402
 20
-114.9681762407892
 30
0.0
 10
88.61061195701402
 20
-115.1733316769358
 30
0.0
 10
88.61061195701402
 20
-115.1733316769358
 30
0.0
 10
88.61061195701402
 20
-115.1733316769358
 30
0.0
 10
87.58259546421547
 20
-115.1733316769358
 30
0.0
 10
87.58259546421547
 20
-115.1733316769358
 30
0.0
 10
87.61429034267977
 20
-114.8157307655669
 30
0.0
 10
87.67974715689951
 20
-114.7375270980517
 30
0.0
 10
88.06490883215044
 20
-114.4391818290291
 30
0.0
 10
88.32087942670451
 20
-114.2403998195302
 30
0.0
 10
88.38633624092425
 20
-114.172703693245
 30
0.0
 10
88.38633624092425
 20
-114.0352443833836
 30
0.0
 10
88.38633624092425
 20
-113.916733098691
 30
0.0
 10
88.31433374528253
 20
-113.7856472154772
 30
0.0
 10
88.11761879307477
 20
-113.7856472154772
 30
0.0
 10
87.8575140839384
 20
-113.7856472154772
 30
0.0
 10
87.8492458547738
 20
-114.0161241034404
 30
0.0
 10
87.84476723064297
 20
-114.1325683308419
 30
0.0
 10
87.84476723064297
 20
-114.1325683308419
 30
0.0
 10
87.62049151455321
 20
-114.1325683308419
 30
0.0
 10
87.62049151455321
 20
-114.1325683308419
 30
0.0
 10
87.62910425326633
 20
-114.0056165622104
 30
0.0
 10
87.63978404927062
 20
-113.8934787041655
 30
0.0
 10
87.72005477407693
 20
-113.7749674194729
 30
0.0
 10
87.8299533200564
 20
-113.614253715086
 30
0.0
 10
88.01633298580842
 20
-113.5803195245563
 30
0.0
 10
88.13243270366134
 20
-113.5803195245563
 30
0.0
 10
88.40976289022396
 20
-113.5803195245563
 30
0.0
 10
88.617157638436
 20
-113.7644598782429
 30
0.0
 10
88.617157638436
 20
-114.0373114406747
 30
0.0
 10
88.617157638436
 20
-114.2657212713468
 30
0.0
 10
88.50071341103455
 20
-114.3652845308705
 30
0.0
 10
88.19168834600764
 20
-114.5916273042514
 30
0.0
  0
HATCH
  5
C4
330
BF
100
AcDbEntity
  8
_U+30EC_U+30A4_U+30E4_U+30FC 1
 62
     7
420
 16777215
100
AcDbHatch
 10
0.0
 20
0.0
 30
0.0
210
0.0
220
0.0
230
1.0
  2
SOLID
 70
     1
 71
     0
 91
        1
 92
        1
 93
        1
 72
     4
 94
        3
 73
     0
 74
     1
 95
       44
 96
       40
 40
0.0
 40
0.0
 40
0.0
 40
0.0
 40
1.0
 40
1.0
 40
1.0
 40
2.0
 40
2.0
 40
2.0
 40
3.0
 40
3.0
 40
3.0
 40
4.0
 40
4.0
 40
4.0
 40
5.0
 40
5.0
 40
5.0
 40
6.0
 40
6.0
 40
6.0
 40
7.0
 40
7.0
 40
7.0
 40
8.0
 40
8.0
 40
8.0
 40
9.0
 40
9.0
 40
9.0
 40
10.0
 40
10.0
 40
10.0
 40
11.0
 40
11.0
 40
11.0
 40
12.0
 40
12.0
 40
12.0
 40
13.0
 40
13.0
 40
13.0
 40
13.0
 10
88.19168834600764
 20
-114.5916273042514
 10
87.97395831133984
 20
-114.7502739513472
 10
87.8809407332381
 20
-114.82434350428
 10
87.83202037734756
 20
-114.9681762407892
 10
87.83202037734756
 20
-114.9681762407892
 10
88.61061195701402
 20
-114.9681762407892
 10
88.61061195701402
 20
-114.9681762407892
 10
88.61061195701402
 20
-114.9681762407892
 10
88.61061195701402
 20
-115.1733316769358
 10
88.61061195701402
 20
-115.1733316769358
 10
88.61061195701402
 20
-115.1733316769358
 10
87.58259546421547
 20
-115.1733316769358
 10
87.58259546421547
 20
-115.1733316769358
 10
87.61429034267977
 20
-114.8157307655669
 10
87.67974715689951
 20
-114.7375270980517
 10
88.06490883215044
 20
-114.4391818290291
 10
88.32087942670451
 20
-114.2403998195302
 10
88.38633624092425
 20
-114.172703693245
 10
88.38633624092425
 20
-114.0352443833836
 10
88.38633624092425
 20
-113.916733098691
 10
88.31433374528253
 20
-113.7856472154772
 10
88.11761879307477
 20
-113.7856472154772
 10
87.8575140839384
 20
-113.7856472154772
 10
87.8492458547738
 20
-114.0161241034404
 10
87.84476723064297
 20
-114.1325683308419
 10
87.84476723064297
 20
-114.1325683308419
 10
87.62049151455321
 20
-114.1325683308419
 10
87.62049151455321
 20
-114.1325683308419
 10
87.62910425326633
 20
-114.0056165622104
 10
87.63978404927062
 20
-113.8934787041655
 10
87.72005477407693
 20
-113.7749674194729
 10
87.8299533200564
 20
-113.614253715086
 10
88.01633298580842
 20
-113.5803195245563
 10
88.13243270366134
 20
-113.5803195245563
 10
88.40976289022396
 20
-113.5803195245563
 10
88.617157638436
 20
-113.7644598782429
 10
88.617157638436
 20
-114.0373114406747
 10
88.617157638436
 20
-114.2657212713468
 10
88.50071341103455
 20
-114.3652845308705
 10
88.19168834600764
 20
-114.5916273042514
 97
        0
 97
        0
 75
     2
 76
     1
 98
        0
  0
SPLINE
  5
C5
330
BF
100
AcDbEntity
  8
_U+30EC_U+30A4_U+30E4_U+30FC 1
370
     0
100
AcDbSpline
210
0.0
220
0.0
230
1.0
 70
    11
 71
     3
 72
    32
 73
    28
 74
     0
 42
0.0000000001
 43
0.0000000001
 12
1.0
 22
0.0
 32
0.0
 13
1.0
 23
0.0
 33
0.0
 40
0.0
 40
0.0
 40
0.0
 40
0.0
 40
1.0
 40
1.0
 40
1.0
 40
2.0
 40
2.0
 40
2.0
 40
3.0
 40
3.0
 40
3.0
 40
4.0
 40
4.0
 40
4.0
 40
5.0
 40
5.0
 40
5.0
 40
6.0
 40
6.0
 40
6.0
 40
7.0
 40
7.0
 40
7.0
 40
8.0
 40
8.0
 40
8.0
 40
9.0
 40
9.0
 40
9.0
 40
9.0
 10
89.23314071119866
 20
-115.2241468353433
 30
0.0
 10
89.0598524082906
 20
-115.2241468353433
 30
0.0
 10
88.81421710019228
 20
-115.1542113969927
 30
0.0
 10
88.77632104985453
 20
-114.8221041922146
 30
0.0
 10
88.77632104985453
 20
-114.8221041922146
 30
0.0
 10
88.98991696994003
 20
-114.8221041922146
 30
0.0
 10
88.98991696994003
 20
-114.8221041922146
 30
0.0
 10
89.0005967659443
 20
-114.8813598345609
 30
0.0
 10
89.0322916444086
 20
-115.0294989404267
 30
0.0
 10
89.23520776848981
 20
-115.0294989404267
 30
0.0
 10
89.527351865639
 20
-115.0294989404267
 30
0.0
 10
89.56524791597674
 20
-114.6994587929397
 30
0.0
 10
89.57799476927217
 20
-114.4943033567931
 30
0.0
 10
89.48704424846157
 20
-114.5745740815994
 30
0.0
 10
89.41952037695069
 20
-114.6317626666546
 30
0.0
 10
89.23761933532948
 20
-114.6317626666546
 30
0.0
 10
89.05778535099945
 20
-114.6317626666546
 30
0.0
 10
88.7553059673945
 20
-114.5259982352574
 30
0.0
 10
88.7553059673945
 20
-114.1198214775464
 30
0.0
 10
88.7553059673945
 20
-113.8002888712895
 30
0.0
 10
88.95408797689343
 20
-113.5803195245563
 30
0.0
 10
89.27138127108493
 20
-113.5803195245563
 30
0.0
 10
89.78538951748422
 20
-113.5803195245563
 30
0.0
 10
89.79606931348849
 20
-114.134635388133
 30
0.0
 10
89.79606931348849
 20
-114.3482313082185
 30
0.0
 10
89.79606931348849
 20
-114.578880450956
 30
0.0
 10
89.7767767787711
 20
-115.2241468353433
 30
0.0
 10
89.23314071119866
 20
-115.2241468353433
 30
0.0
  0
SPLINE
  5
C6
330
BF
100
AcDbEntity
  8
_U+30EC_U+30A4_U+30E4_U+30FC 1
370
     0
100
AcDbSpline
210
0.0
220
0.0
230
1.0
 70
    11
 71
     3
 72
    17
 73
    13
 74
     0
 42
0.0000000001
 43
0.0000000001
 12
1.0
 22
0.0
 32
0.0
 13
1.0
 23
0.0
 33
0.0
 40
0.0
 40
0.0
 40
0.0
 40
0.0
 40
1.0
 40
1.0
 40
1.0
 40
2.0
 40
2.0
 40
2.0
 40
3.0
 40
3.0
 40
3.0
 40
4.0
 40
4.0
 40
4.0
 40
4.0
 10
89.27344832837609
 20
-113.7729003621818
 30
0.0
 10
89.15493704368349
 20
-113.7729003621818
 30
0.0
 10
88.97923717393574
 20
-113.8299166924627
 30
0.0
 10
88.97923717393574
 20
-114.1155151081899
 30
0.0
 10
88.97923717393574
 20
-114.3418578815708
 30
0.0
 10
89.1191080506369
 20
-114.437114771738
 30
0.0
 10
89.25450030320721
 20
-114.437114771738
 30
0.0
 10
89.51667206963472
 20
-114.437114771738
 30
0.0
 10
89.554912629521
 20
-114.2276529662348
 30
0.0
 10
89.554912629521
 20
-114.1113809936076
 30
0.0
 10
89.554912629521
 20
-113.9356811238598
 30
0.0
 10
89.45948348457958
 20
-113.7729003621818
 30
0.0
 10
89.27344832837609
 20
-113.7729003621818
 30
0.0
  0
HATCH
  5
C7
330
BF
100
AcDbEntity
  8
_U+30EC_U+30A4_U+30E4_U+30FC 1
 62
     7
420
 16777215
100
AcDbHatch
 10
0.0
 20
0.0
 30
0.0
210
0.0
220
0.0
230
1.0
  2
SOLID
 70
     1
 71
     0
 91
        2
 92
        1
 93
        1
 72
     4
 94
        3
 73
     0
 74
     1
 95
       32
 96
       28
 40
0.0
 40
0.0
 40
0.0
 40
0.0
 40
1.0
 40
1.0
 40
1.0
 40
2.0
 40
2.0
 40
2.0
 40
3.0
 40
3.0
 40
3.0
 40
4.0
 40
4.0
 40
4.0
 40
5.0
 40
5.0
 40
5.0
 40
6.0
 40
6.0
 40
6.0
 40
7.0
 40
7.0
 40
7.0
 40
8.0
 40
8.0
 40
8.0
 40
9.0
 40
9.0
 40
9.0
 40
9.0
 10
89.23314071119866
 20
-115.2241468353433
 10
89.0598524082906
 20
-115.2241468353433
 10
88.81421710019228
 20
-115.1542113969927
 10
88.77632104985453
 20
-114.8221041922146
 10
88.77632104985453
 20
-114.8221041922146
 10
88.98991696994003
 20
-114.8221041922146
 10
88.98991696994003
 20
-114.8221041922146
 10
89.0005967659443
 20
-114.8813598345609
 10
89.0322916444086
 20
-115.0294989404267
 10
89.23520776848981
 20
-115.0294989404267
 10
89.527351865639
 20
-115.0294989404267
 10
89.56524791597674
 20
-114.6994587929397
 10
89.57799476927217
 20
-114.4943033567931
 10
89.48704424846157
 20
-114.5745740815994
 10
89.41952037695069
 20
-114.6317626666546
 10
89.23761933532948
 20
-114.6317626666546
 10
89.05778535099945
 20
-114.6317626666546
 10
88.7553059673945
 20
-114.5259982352574
 10
88.7553059673945
 20
-114.1198214775464
 10
88.7553059673945
 20
-113.8002888712895
 10
88.95408797689343
 20
-113.5803195245563
 10
89.27138127108493
 20
-113.5803195245563
 10
89.78538951748422
 20
-113.5803195245563
 10
89.79606931348849
 20
-114.134635388133
 10
89.79606931348849
 20
-114.3482313082185
 10
89.79606931348849
 20
-114.578880450956
 10
89.7767767787711
 20
-115.2241468353433
 10
89.23314071119866
 20
-115.2241468353433
 97
        0
 97
        0
 92
        1
 93
        1
 72
     4
 94
        3
 73
     0
 74
     1
 95
       17
 96
       13
 40
0.0
 40
0.0
 40
0.0
 40
0.0
 40
1.0
 40
1.0
 40
1.0
 40
2.0
 40
2.0
 40
2.0
 40
3.0
 40
3.0
 40
3.0
 40
4.0
 40
4.0
 40
4.0
 40
4.0
 10
89.27344832837609
 20
-113.7729003621818
 10
89.15493704368349
 20
-113.7729003621818
 10
88.97923717393574
 20
-113.8299166924627
 10
88.97923717393574
 20
-114.1155151081899
 10
88.97923717393574
 20
-114.3418578815708
 10
89.1191080506369
 20
-114.437114771738
 10
89.25450030320721
 20
-114.437114771738
 10
89.51667206963472
 20
-114.437114771738
 10
89.554912629521
 20
-114.2276529662348
 10
89.554912629521
 20
-114.1113809936076
 10
89.554912629521
 20
-113.9356811238598
 10
89.45948348457958
 20
-113.7729003621818
 10
89.27344832837609
 20
-113.7729003621818
 97
        0
 97
        0
 75
     2
 76
     1
 98
        0
  0
ENDBLK
  5
C2
330
BF
100
AcDbEntity
  8
0
100
AcDbBlockEnd
  0
BLOCK
  5
D6
330
D4
100
AcDbEntity
  8
0
100
AcDbBlockBegin
  2
block 6
 70
     0
 10
0.0
 20
0.0
 30
0.0
  3
block 6
  1

  0
SPLINE
  5
D8
330
D4
100
AcDbEntity
  8
_U+30EC_U+30A4_U+30E4_U+30FC 1
370
     0
100
AcDbSpline
210
0.0
220
0.0
230
1.0
 70
    11
 71
     3
 72
    32
 73
    28
 74
     0
 42
0.0000000001
 43
0.0000000001
 12
1.0
 22
0.0
 32
0.0
 13
1.0
 23
0.0
 33
0.0
 40
0.0
 40
0.0
 40
0.0
 40
0.0
 40
1.0
 40
1.0
 40
1.0
 40
2.0
 40
2.0
 40
2.0
 40
3.0
 40
3.0
 40
3.0
 40
4.0
 40
4.0
 40
4.0
 40
5.0
 40
5.0
 40
5.0
 40
6.0
 40
6.0
 40
6.0
 40
7.0
 40
7.0
 40
7.0
 40
8.0
 40
8.0
 40
8.0
 40
9.0
 40
9.0
 40
9.0
 40
9.0
 10
77.22302108529495
 20
-143.1175346864428
 30
0.0
 10
76.70677352683026
 20
-143.1175346864428
 30
0.0
 10
76.69833304289139
 20
-142.5635633324147
 30
0.0
 10
76.69833304289139
 20
-142.3496229027807
 30
0.0
 10
76.69833304289139
 20
-142.1191460148174
 30
0.0
 10
76.71745332283453
 20
-141.471812573139
 30
0.0
 10
77.26108939040695
 20
-141.471812573139
 30
0.0
 10
77.43454994808928
 20
-141.471812573139
 30
0.0
 10
77.67984074663907
 20
-141.5417480114896
 30
0.0
 10
77.71808130652535
 20
-141.8738552162677
 30
0.0
 10
77.71808130652535
 20
-141.8738552162677
 30
0.0
 10
77.5043131316656
 20
-141.8738552162677
 30
0.0
 10
77.5043131316656
 20
-141.8738552162677
 30
0.0
 10
77.49380559043558
 20
-141.8166666312125
 30
0.0
 10
77.46211071197128
 20
-141.6685275253468
 30
0.0
 10
77.25902233311581
 20
-141.6685275253468
 30
0.0
 10
76.96705049074087
 20
-141.6685275253468
 30
0.0
 10
76.92674287356346
 20
-141.9965006155425
 30
0.0
 10
76.9141682750423
 20
-142.2014837969149
 30
0.0
 10
77.00718585314404
 20
-142.1232801293997
 30
0.0
 10
77.0748819794292
 20
-142.0640244870534
 30
0.0
 10
77.2567830210504
 20
-142.0640244870534
 30
0.0
 10
77.43661700538043
 20
-142.0640244870534
 30
0.0
 10
77.73909638898537
 20
-142.1722004852903
 30
0.0
 10
77.73909638898537
 20
-142.5783772430013
 30
0.0
 10
77.73909638898537
 20
-142.8977375944839
 30
0.0
 10
77.54031437948645
 20
-143.1175346864428
 30
0.0
 10
77.22302108529495
 20
-143.1175346864428
 30
0.0
  0
SPLINE
  5
D9
330
D4
100
AcDbEntity
  8
_U+30EC_U+30A4_U+30E4_U+30FC 1
370
     0
100
AcDbSpline
210
0.0
220
0.0
230
1.0
 70
    11
 71
     3
 72
    17
 73
    13
 74
     0
 42
0.0000000001
 43
0.0000000001
 12
1.0
 22
0.0
 32
0.0
 13
1.0
 23
0.0
 33
0.0
 40
0.0
 40
0.0
 40
0.0
 40
0.0
 40
1.0
 40
1.0
 40
1.0
 40
2.0
 40
2.0
 40
2.0
 40
3.0
 40
3.0
 40
3.0
 40
4.0
 40
4.0
 40
4.0
 40
4.0
 10
77.23990205317267
 20
-142.2586723819701
 30
0.0
 10
76.97755803197089
 20
-142.2586723819701
 30
0.0
 10
76.93948972685888
 20
-142.4702012447644
 30
0.0
 10
76.93948972685888
 20
-142.5866454721659
 30
0.0
 10
76.93948972685888
 20
-142.7623453419136
 30
0.0
 10
77.03474661702604
 20
-142.9252983583659
 30
0.0
 10
77.21871471593838
 20
-142.9252983583659
 30
0.0
 10
77.33929305792212
 20
-142.9252983583659
 30
0.0
 10
77.51499292766987
 20
-142.8660427160196
 30
0.0
 10
77.51499292766987
 20
-142.5804443002924
 30
0.0
 10
77.51499292766987
 20
-142.3561685842026
 30
0.0
 10
77.37529430574298
 20
-142.2586723819701
 30
0.0
 10
77.23990205317267
 20
-142.2586723819701
 30
0.0
  0
HATCH
  5
DA
330
D4
100
AcDbEntity
  8
_U+30EC_U+30A4_U+30E4_U+30FC 1
 62
     7
420
 16777215
100
AcDbHatch
 10
0.0
 20
0.0
 30
0.0
210
0.0
220
0.0
230
1.0
  2
SOLID
 70
     1
 71
     0
 91
        2
 92
        1
 93
        1
 72
     4
 94
        3
 73
     0
 74
     1
 95
       32
 96
       28
 40
0.0
 40
0.0
 40
0.0
 40
0.0
 40
1.0
 40
1.0
 40
1.0
 40
2.0
 40
2.0
 40
2.0
 40
3.0
 40
3.0
 40
3.0
 40
4.0
 40
4.0
 40
4.0
 40
5.0
 40
5.0
 40
5.0
 40
6.0
 40
6.0
 40
6.0
 40
7.0
 40
7.0
 40
7.0
 40
8.0
 40
8.0
 40
8.0
 40
9.0
 40
9.0
 40
9.0
 40
9.0
 10
77.22302108529495
 20
-143.1175346864428
 10
76.70677352683026
 20
-143.1175346864428
 10
76.69833304289139
 20
-142.5635633324147
 10
76.69833304289139
 20
-142.3496229027807
 10
76.69833304289139
 20
-142.1191460148174
 10
76.71745332283453
 20
-141.471812573139
 10
77.26108939040695
 20
-141.471812573139
 10
77.43454994808928
 20
-141.471812573139
 10
77.67984074663907
 20
-141.5417480114896
 10
77.71808130652535
 20
-141.8738552162677
 10
77.71808130652535
 20
-141.8738552162677
 10
77.5043131316656
 20
-141.8738552162677
 10
77.5043131316656
 20
-141.8738552162677
 10
77.49380559043558
 20
-141.8166666312125
 10
77.46211071197128
 20
-141.6685275253468
 10
77.25902233311581
 20
-141.6685275253468
 10
76.96705049074087
 20
-141.6685275253468
 10
76.92674287356346
 20
-141.9965006155425
 10
76.9141682750423
 20
-142.2014837969149
 10
77.00718585314404
 20
-142.1232801293997
 10
77.0748819794292
 20
-142.0640244870534
 10
77.2567830210504
 20
-142.0640244870534
 10
77.43661700538043
 20
-142.0640244870534
 10
77.73909638898537
 20
-142.1722004852903
 10
77.73909638898537
 20
-142.5783772430013
 10
77.73909638898537
 20
-142.8977375944839
 10
77.54031437948645
 20
-143.1175346864428
 10
77.22302108529495
 20
-143.1175346864428
 97
        0
 97
        0
 92
        1
 93
        1
 72
     4
 94
        3
 73
     0
 74
     1
 95
       17
 96
       13
 40
0.0
 40
0.0
 40
0.0
 40
0.0
 40
1.0
 40
1.0
 40
1.0
 40
2.0
 40
2.0
 40
2.0
 40
3.0
 40
3.0
 40
3.0
 40
4.0
 40
4.0
 40
4.0
 40
4.0
 10
77.23990205317267
 20
-142.2586723819701
 10
76.97755803197089
 20
-142.2586723819701
 10
76.93948972685888
 20
-142.4702012447644
 10
76.93948972685888
 20
-142.5866454721659
 10
76.93948972685888
 20
-142.7623453419136
 10
77.03474661702604
 20
-142.9252983583659
 10
77.21871471593838
 20
-142.9252983583659
 10
77.33929305792212
 20
-142.9252983583659
 10
77.51499292766987
 20
-142.8660427160196
 10
77.51499292766987
 20
-142.5804443002924
 10
77.51499292766987
 20
-142.3561685842026
 10
77.37529430574298
 20
-142.2586723819701
 10
77.23990205317267
 20
-142.2586723819701
 97
        0
 97
        0
 75
     2
 76
     1
 98
        0
  0
ENDBLK
  5
D7
330
D4
100
AcDbEntity
  8
0
100
AcDbBlockEnd
  0
BLOCK
  5
EB
330
E9
100
AcDbEntity
  8
0
100
AcDbBlockBegin
  2
block 7
 70
     0
 10
0.0
 20
0.0
 30
0.0
  3
block 7
  1

  0
SPLINE
  5
ED
330
E9
100
AcDbEntity
  8
_U+30EC_U+30A4_U+30E4_U+30FC 1
370
     0
100
AcDbSpline
210
0.0
220
0.0
230
1.0
 70
    11
 71
     3
 72
    62
 73
    58
 74
     0
 42
0.0000000001
 43
0.0000000001
 12
1.0
 22
0.0
 32
0.0
 13
1.0
 23
0.0
 33
0.0
 40
0.0
 40
0.0
 40
0.0
 40
0.0
 40
1.0
 40
1.0
 40
1.0
 40
2.0
 40
2.0
 40
2.0
 40
3.0
 40
3.0
 40
3.0
 40
4.0
 40
4.0
 40
4.0
 40
5.0
 40
5.0
 40
5.0
 40
6.0
 40
6.0
 40
6.0
 40
7.0
 40
7.0
 40
7.0
 40
8.0
 40
8.0
 40
8.0
 40
9.0
 40
9.0
 40
9.0
 40
10.0
 40
10.0
 40
10.0
 40
11.0
 40
11.0
 40
11.0
 40
12.0
 40
12.0
 40
12.0
 40
13.0
 40
13.0
 40
13.0
 40
14.0
 40
14.0
 40
14.0
 40
15.0
 40
15.0
 40
15.0
 40
16.0
 40
16.0
 40
16.0
 40
17.0
 40
17.0
 40
17.0
 40
18.0
 40
18.0
 40
18.0
 40
19.0
 40
19.0
 40
19.0
 40
19.0
 10
105.5342990187553
 20
-137.8678981860191
 30
0.0
 10
105.5342990187553
 20
-137.9633273309606
 30
0.0
 10
105.5132839362953
 20
-138.1810573656284
 30
0.0
 10
105.3272487800918
 20
-138.3061143317429
 30
0.0
 10
105.2149386672727
 20
-138.3798393751273
 30
0.0
 10
105.1157199172975
 20
-138.3843179992581
 30
0.0
 10
105.0309705683603
 20
-138.3884521138404
 30
0.0
 10
105.0309705683603
 20
-138.3884521138404
 30
0.0
 10
105.0309705683603
 20
-138.1683105123329
 30
0.0
 10
105.0309705683603
 20
-138.1683105123329
 30
0.0
 10
105.1050401212932
 20
-138.1662434550418
 30
0.0
 10
105.3396511238387
 20
-138.155908168586
 30
0.0
 10
105.3396511238387
 20
-137.87237681015
 30
0.0
 10
105.3396511238387
 20
-137.7349175002885
 30
0.0
 10
105.2700601950367
 20
-137.5822997702919
 30
0.0
 10
105.0416503643646
 20
-137.5822997702919
 30
0.0
 10
104.9252061369632
 20
-137.5822997702919
 30
0.0
 10
104.8766302906211
 20
-137.6205403301782
 30
0.0
 10
104.8449354121568
 20
-137.6522352086425
 30
0.0
 10
104.770865859224
 20
-137.7263047615754
 30
0.0
 10
104.7581190059285
 20
-137.8427489889768
 30
0.0
 10
104.7581190059285
 20
-137.8975260071923
 30
0.0
 10
104.7581190059285
 20
-137.9168185419097
 30
0.0
 10
104.7601860632197
 20
-137.9526475349563
 30
0.0
 10
104.764320177802
 20
-137.9802082988383
 30
0.0
 10
104.764320177802
 20
-137.9802082988383
 30
0.0
 10
104.5696722828854
 20
-137.9802082988383
 30
0.0
 10
104.5696722828854
 20
-137.9802082988383
 30
0.0
 10
104.5762179643073
 20
-137.941967738952
 30
0.0
 10
104.5782850215985
 20
-137.899937574032
 30
0.0
 10
104.5782850215985
 20
-137.89339189261
 30
0.0
 10
104.5782850215985
 20
-137.8279350783903
 30
0.0
 10
104.5569254295899
 20
-137.6291530688913
 30
0.0
 10
104.3202473697533
 20
-137.6291530688913
 30
0.0
 10
104.1424804427144
 20
-137.6291530688913
 30
0.0
 10
104.0873589149504
 20
-137.7600666973308
 30
0.0
 10
104.0873589149504
 20
-137.8703097528588
 30
0.0
 10
104.0873589149504
 20
-138.1345485765775
 30
0.0
 10
104.3202473697533
 20
-138.1431613152906
 30
0.0
 10
104.3919053558465
 20
-138.1472954298729
 30
0.0
 10
104.3919053558465
 20
-138.1472954298729
 30
0.0
 10
104.3919053558465
 20
-138.3505560635026
 30
0.0
 10
104.3919053558465
 20
-138.3505560635026
 30
0.0
 10
104.2671928992804
 20
-138.3419433247895
 30
0.0
 10
103.8906439627426
 20
-138.3143825609075
 30
0.0
 10
103.8906439627426
 20
-137.8575628995634
 30
0.0
 10
103.8906439627426
 20
-137.6332871834736
 30
0.0
 10
104.0177679861483
 20
-137.3921304995062
 30
0.0
 10
104.3137016883313
 20
-137.3921304995062
 30
0.0
 10
104.5000813540833
 20
-137.3921304995062
 30
0.0
 10
104.5824191361808
 20
-137.487215134899
 30
0.0
 10
104.6437418358182
 20
-137.5867783944228
 30
0.0
 10
104.6713025997002
 20
-137.5254556947853
 30
0.0
 10
104.7515733245066
 20
-137.3435546531641
 30
0.0
 10
105.0289035110692
 20
-137.3435546531641
 30
0.0
 10
105.3672118877207
 20
-137.3435546531641
 30
0.0
 10
105.5342990187553
 20
-137.5909125090051
 30
0.0
 10
105.5342990187553
 20
-137.8678981860191
 30
0.0
  0
HATCH
  5
EE
330
E9
100
AcDbEntity
  8
_U+30EC_U+30A4_U+30E4_U+30FC 1
 62
     7
420
 16777215
100
AcDbHatch
 10
0.0
 20
0.0
 30
0.0
210
0.0
220
0.0
230
1.0
  2
SOLID
 70
     1
 71
     0
 91
        1
 92
        1
 93
        1
 72
     4
 94
        3
 73
     0
 74
     1
 95
       62
 96
       58
 40
0.0
 40
0.0
 40
0.0
 40
0.0
 40
1.0
 40
1.0
 40
1.0
 40
2.0
 40
2.0
 40
2.0
 40
3.0
 40
3.0
 40
3.0
 40
4.0
 40
4.0
 40
4.0
 40
5.0
 40
5.0
 40
5.0
 40
6.0
 40
6.0
 40
6.0
 40
7.0
 40
7.0
 40
7.0
 40
8.0
 40
8.0
 40
8.0
 40
9.0
 40
9.0
 40
9.0
 40
10.0
 40
10.0
 40
10.0
 40
11.0
 40
11.0
 40
11.0
 40
12.0
 40
12.0
 40
12.0
 40
13.0
 40
13.0
 40
13.0
 40
14.0
 40
14.0
 40
14.0
 40
15.0
 40
15.0
 40
15.0
 40
16.0
 40
16.0
 40
16.0
 40
17.0
 40
17.0
 40
17.0
 40
18.0
 40
18.0
 40
18.0
 40
19.0
 40
19.0
 40
19.0
 40
19.0
 10
105.5342990187553
 20
-137.8678981860191
 10
105.5342990187553
 20
-137.9633273309606
 10
105.5132839362953
 20
-138.1810573656284
 10
105.3272487800918
 20
-138.3061143317429
 10
105.2149386672727
 20
-138.3798393751273
 10
105.1157199172975
 20
-138.3843179992581
 10
105.0309705683603
 20
-138.3884521138404
 10
105.0309705683603
 20
-138.3884521138404
 10
105.0309705683603
 20
-138.1683105123329
 10
105.0309705683603
 20
-138.1683105123329
 10
105.1050401212932
 20
-138.1662434550418
 10
105.3396511238387
 20
-138.155908168586
 10
105.3396511238387
 20
-137.87237681015
 10
105.3396511238387
 20
-137.7349175002885
 10
105.2700601950367
 20
-137.5822997702919
 10
105.0416503643646
 20
-137.5822997702919
 10
104.9252061369632
 20
-137.5822997702919
 10
104.8766302906211
 20
-137.6205403301782
 10
104.8449354121568
 20
-137.6522352086425
 10
104.770865859224
 20
-137.7263047615754
 10
104.7581190059285
 20
-137.8427489889768
 10
104.7581190059285
 20
-137.8975260071923
 10
104.7581190059285
 20
-137.9168185419097
 10
104.7601860632197
 20
-137.9526475349563
 10
104.764320177802
 20
-137.9802082988383
 10
104.764320177802
 20
-137.9802082988383
 10
104.5696722828854
 20
-137.9802082988383
 10
104.5696722828854
 20
-137.9802082988383
 10
104.5762179643073
 20
-137.941967738952
 10
104.5782850215985
 20
-137.899937574032
 10
104.5782850215985
 20
-137.89339189261
 10
104.5782850215985
 20
-137.8279350783903
 10
104.5569254295899
 20
-137.6291530688913
 10
104.3202473697533
 20
-137.6291530688913
 10
104.1424804427144
 20
-137.6291530688913
 10
104.0873589149504
 20
-137.7600666973308
 10
104.0873589149504
 20
-137.8703097528588
 10
104.0873589149504
 20
-138.1345485765775
 10
104.3202473697533
 20
-138.1431613152906
 10
104.3919053558465
 20
-138.1472954298729
 10
104.3919053558465
 20
-138.1472954298729
 10
104.3919053558465
 20
-138.3505560635026
 10
104.3919053558465
 20
-138.3505560635026
 10
104.2671928992804
 20
-138.3419433247895
 10
103.8906439627426
 20
-138.3143825609075
 10
103.8906439627426
 20
-137.8575628995634
 10
103.8906439627426
 20
-137.6332871834736
 10
104.0177679861483
 20
-137.3921304995062
 10
104.3137016883313
 20
-137.3921304995062
 10
104.5000813540833
 20
-137.3921304995062
 10
104.5824191361808
 20
-137.487215134899
 10
104.6437418358182
 20
-137.5867783944228
 10
104.6713025997002
 20
-137.5254556947853
 10
104.7515733245066
 20
-137.3435546531641
 10
105.0289035110692
 20
-137.3435546531641
 10
105.3672118877207
 20
-137.3435546531641
 10
105.5342990187553
 20
-137.5909125090051
 10
105.5342990187553
 20
-137.8678981860191
 97
        0
 97
        0
 75
     2
 76
     1
 98
        0
  0
ENDBLK
  5
EC
330
E9
100
AcDbEntity
  8
0
100
AcDbBlockEnd
  0
BLOCK
  5
F5
330
F3
100
AcDbEntity
  8
0
100
AcDbBlockBegin
  2
block 8
 70
     0
 10
0.0
 20
0.0
 30
0.0
  3
block 8
  1

  0
SPLINE
  5
F7
330
F3
100
AcDbEntity
  8
_U+30EC_U+30A4_U+30E4_U+30FC 1
370
     0
100
AcDbSpline
210
0.0
220
0.0
230
1.0
 70
    11
 71
     3
 72
    26
 73
    22
 74
     0
 42
0.0000000001
 43
0.0000000001
 12
1.0
 22
0.0
 32
0.0
 13
1.0
 23
0.0
 33
0.0
 40
0.0
 40
0.0
 40
0.0
 40
0.0
 40
1.0
 40
1.0
 40
1.0
 40
2.0
 40
2.0
 40
2.0
 40
3.0
 40
3.0
 40
3.0
 40
4.0
 40
4.0
 40
4.0
 40
5.0
 40
5.0
 40
5.0
 40
6.0
 40
6.0
 40
6.0
 40
7.0
 40
7.0
 40
7.0
 40
7.0
 10
105.4836561151221
 20
-131.1413492510688
 30
0.0
 10
105.4836561151221
 20
-131.1413492510688
 30
0.0
 10
104.3795030120996
 20
-131.1413492510688
 30
0.0
 10
104.3795030120996
 20
-131.1413492510688
 30
0.0
 10
104.3795030120996
 20
-131.1413492510688
 30
0.0
 10
104.3795030120996
 20
-131.4713893985558
 30
0.0
 10
104.3795030120996
 20
-131.4713893985558
 30
0.0
 10
104.3795030120996
 20
-131.4713893985558
 30
0.0
 10
104.2313639062338
 20
-131.4713893985558
 30
0.0
 10
104.2313639062338
 20
-131.4713893985558
 30
0.0
 10
104.2165499956473
 20
-131.1392821937777
 30
0.0
 10
104.0535969791949
 20
-131.0927734047268
 30
0.0
 10
103.9392198090846
 20
-131.0631455835537
 30
0.0
 10
103.9392198090846
 20
-131.0631455835537
 30
0.0
 10
103.9392198090846
 20
-130.9170735349791
 30
0.0
 10
103.9392198090846
 20
-130.9170735349791
 30
0.0
 10
103.9392198090846
 20
-130.9170735349791
 30
0.0
 10
105.4836561151221
 20
-130.9170735349791
 30
0.0
 10
105.4836561151221
 20
-130.9170735349791
 30
0.0
 10
105.4836561151221
 20
-130.9170735349791
 30
0.0
 10
105.4836561151221
 20
-131.1413492510688
 30
0.0
 10
105.4836561151221
 20
-131.1413492510688
 30
0.0
  0
HATCH
  5
F8
330
F3
100
AcDbEntity
  8
_U+30EC_U+30A4_U+30E4_U+30FC 1
 62
     7
420
 16777215
100
AcDbHatch
 10
0.0
 20
0.0
 30
0.0
210
0.0
220
0.0
230
1.0
  2
SOLID
 70
     1
 71
     0
 91
        1
 92
        1
 93
        1
 72
     4
 94
        3
 73
     0
 74
     1
 95
       26
 96
       22
 40
0.0
 40
0.0
 40
0.0
 40
0.0
 40
1.0
 40
1.0
 40
1.0
 40
2.0
 40
2.0
 40
2.0
 40
3.0
 40
3.0
 40
3.0
 40
4.0
 40
4.0
 40
4.0
 40
5.0
 40
5.0
 40
5.0
 40
6.0
 40
6.0
 40
6.0
 40
7.0
 40
7.0
 40
7.0
 40
7.0
 10
105.4836561151221
 20
-131.1413492510688
 10
105.4836561151221
 20
-131.1413492510688
 10
104.3795030120996
 20
-131.1413492510688
 10
104.3795030120996
 20
-131.1413492510688
 10
104.3795030120996
 20
-131.1413492510688
 10
104.3795030120996
 20
-131.4713893985558
 10
104.3795030120996
 20
-131.4713893985558
 10
104.3795030120996
 20
-131.4713893985558
 10
104.2313639062338
 20
-131.4713893985558
 10
104.2313639062338
 20
-131.4713893985558
 10
104.2165499956473
 20
-131.1392821937777
 10
104.0535969791949
 20
-131.0927734047268
 10
103.9392198090846
 20
-131.0631455835537
 10
103.9392198090846
 20
-131.0631455835537
 10
103.9392198090846
 20
-130.9170735349791
 10
103.9392198090846
 20
-130.9170735349791
 10
103.9392198090846
 20
-130.9170735349791
 10
105.4836561151221
 20
-130.9170735349791
 10
105.4836561151221
 20
-130.9170735349791
 10
105.4836561151221
 20
-130.9170735349791
 10
105.4836561151221
 20
-131.1413492510688
 10
105.4836561151221
 20
-131.1413492510688
 97
        0
 97
        0
 75
     2
 76
     1
 98
        0
  0
SPLINE
  5
F9
330
F3
100
AcDbEntity
  8
_U+30EC_U+30A4_U+30E4_U+30FC 1
370
     0
100
AcDbSpline
210
0.0
220
0.0
230
1.0
 70
    11
 71
     3
 72
    53
 73
    49
 74
     0
 42
0.0000000001
 43
0.0000000001
 12
1.0
 22
0.0
 32
0.0
 13
1.0
 23
0.0
 33
0.0
 40
0.0
 40
0.0
 40
0.0
 40
0.0
 40
1.0
 40
1.0
 40
1.0
 40
2.0
 40
2.0
 40
2.0
 40
3.0
 40
3.0
 40
3.0
 40
4.0
 40
4.0
 40
4.0
 40
5.0
 40
5.0
 40
5.0
 40
6.0
 40
6.0
 40
6.0
 40
7.0
 40
7.0
 40
7.0
 40
8.0
 40
8.0
 40
8.0
 40
9.0
 40
9.0
 40
9.0
 40
10.0
 40
10.0
 40
10.0
 40
11.0
 40
11.0
 40
11.0
 40
12.0
 40
12.0
 40
12.0
 40
13.0
 40
13.0
 40
13.0
 40
14.0
 40
14.0
 40
14.0
 40
15.0
 40
15.0
 40
15.0
 40
16.0
 40
16.0
 40
16.0
 40
16.0
 10
105.5342990187553
 20
-129.9348768121343
 30
0.0
 10
105.5342990187553
 20
-130.0130804796495
 30
0.0
 10
105.5174180508776
 20
-130.1147107964644
 30
0.0
 10
105.454028293949
 20
-130.2163411132792
 30
0.0
 10
105.3441297479695
 20
-130.3896294161873
 30
0.0
 10
105.2128716099815
 20
-130.4109890081959
 30
0.0
 10
105.1050401212932
 20
-130.4299370333648
 30
0.0
 10
105.1050401212932
 20
-130.4299370333648
 30
0.0
 10
105.1050401212932
 20
-130.2077283745661
 30
0.0
 10
105.1050401212932
 20
-130.2077283745661
 30
0.0
 10
105.3038221307921
 20
-130.1529513563507
 30
0.0
 10
105.3334499519652
 20
-130.0258273329449
 30
0.0
 10
105.3334499519652
 20
-129.9328097548432
 30
0.0
 10
105.3334499519652
 20
-129.7932833876906
 30
0.0
 10
105.2338866924415
 20
-129.6410101672425
 30
0.0
 10
105.0013427471872
 20
-129.6410101672425
 30
0.0
 10
104.7453721526331
 20
-129.6410101672425
 30
0.0
 10
104.6754367142825
 20
-129.8208441515726
 30
0.0
 10
104.6754367142825
 20
-129.9414224935563
 30
0.0
 10
104.6754367142825
 20
-129.9731173720206
 30
0.0
 10
104.6754367142825
 20
-130.1147107964644
 30
0.0
 10
104.8046277949794
 20
-130.2035942599838
 30
0.0
 10
104.8046277949794
 20
-130.2035942599838
 30
0.0
 10
104.7856797698105
 20
-130.3792941297316
 30
0.0
 10
104.7856797698105
 20
-130.3792941297316
 30
0.0
 10
104.7856797698105
 20
-130.3792941297316
 30
0.0
 10
103.9392198090846
 20
-130.2587157877478
 30
0.0
 10
103.9392198090846
 20
-130.2587157877478
 30
0.0
 10
103.9392198090846
 20
-130.2587157877478
 30
0.0
 10
103.9392198090846
 20
-129.4801242080814
 30
0.0
 10
103.9392198090846
 20
-129.4801242080814
 30
0.0
 10
103.9392198090846
 20
-129.4801242080814
 30
0.0
 10
104.1338677040013
 20
-129.4801242080814
 30
0.0
 10
104.1338677040013
 20
-129.4801242080814
 30
0.0
 10
104.1338677040013
 20
-129.4801242080814
 30
0.0
 10
104.1338677040013
 20
-130.0957627712955
 30
0.0
 10
104.1338677040013
 20
-130.0957627712955
 30
0.0
 10
104.1338677040013
 20
-130.0957627712955
 30
0.0
 10
104.5569254295899
 20
-130.1612195855153
 30
0.0
 10
104.5569254295899
 20
-130.1612195855153
 30
0.0
 10
104.5231634938345
 20
-130.0998968858778
 30
0.0
 10
104.4828558766571
 20
-130.0175591037803
 30
0.0
 10
104.4828558766571
 20
-129.8990478190877
 30
0.0
 10
104.4828558766571
 20
-129.6451442818248
 30
0.0
 10
104.6692355424091
 20
-129.4081217124397
 30
0.0
 10
104.9823947220183
 20
-129.4081217124397
 30
0.0
 10
105.2996880162098
 20
-129.4081217124397
 30
0.0
 10
105.5342990187553
 20
-129.6323974285294
 30
0.0
 10
105.5342990187553
 20
-129.9348768121343
 30
0.0
  0
HATCH
  5
FA
330
F3
100
AcDbEntity
  8
_U+30EC_U+30A4_U+30E4_U+30FC 1
 62
     7
420
 16777215
100
AcDbHatch
 10
0.0
 20
0.0
 30
0.0
210
0.0
220
0.0
230
1.0
  2
SOLID
 70
     1
 71
     0
 91
        1
 92
        1
 93
        1
 72
     4
 94
        3
 73
     0
 74
     1
 95
       53
 96
       49
 40
0.0
 40
0.0
 40
0.0
 40
0.0
 40
1.0
 40
1.0
 40
1.0
 40
2.0
 40
2.0
 40
2.0
 40
3.0
 40
3.0
 40
3.0
 40
4.0
 40
4.0
 40
4.0
 40
5.0
 40
5.0
 40
5.0
 40
6.0
 40
6.0
 40
6.0
 40
7.0
 40
7.0
 40
7.0
 40
8.0
 40
8.0
 40
8.0
 40
9.0
 40
9.0
 40
9.0
 40
10.0
 40
10.0
 40
10.0
 40
11.0
 40
11.0
 40
11.0
 40
12.0
 40
12.0
 40
12.0
 40
13.0
 40
13.0
 40
13.0
 40
14.0
 40
14.0
 40
14.0
 40
15.0
 40
15.0
 40
15.0
 40
16.0
 40
16.0
 40
16.0
 40
16.0
 10
105.5342990187553
 20
-129.9348768121343
 10
105.5342990187553
 20
-130.0130804796495
 10
105.5174180508776
 20
-130.1147107964644
 10
105.454028293949
 20
-130.2163411132792
 10
105.3441297479695
 20
-130.3896294161873
 10
105.2128716099815
 20
-130.4109890081959
 10
105.1050401212932
 20
-130.4299370333648
 10
105.1050401212932
 20
-130.4299370333648
 10
105.1050401212932
 20
-130.2077283745661
 10
105.1050401212932
 20
-130.2077283745661
 10
105.3038221307921
 20
-130.1529513563507
 10
105.3334499519652
 20
-130.0258273329449
 10
105.3334499519652
 20
-129.9328097548432
 10
105.3334499519652
 20
-129.7932833876906
 10
105.2338866924415
 20
-129.6410101672425
 10
105.0013427471872
 20
-129.6410101672425
 10
104.7453721526331
 20
-129.6410101672425
 10
104.6754367142825
 20
-129.8208441515726
 10
104.6754367142825
 20
-129.9414224935563
 10
104.6754367142825
 20
-129.9731173720206
 10
104.6754367142825
 20
-130.1147107964644
 10
104.8046277949794
 20
-130.2035942599838
 10
104.8046277949794
 20
-130.2035942599838
 10
104.7856797698105
 20
-130.3792941297316
 10
104.7856797698105
 20
-130.3792941297316
 10
104.7856797698105
 20
-130.3792941297316
 10
103.9392198090846
 20
-130.2587157877478
 10
103.9392198090846
 20
-130.2587157877478
 10
103.9392198090846
 20
-130.2587157877478
 10
103.9392198090846
 20
-129.4801242080814
 10
103.9392198090846
 20
-129.4801242080814
 10
103.9392198090846
 20
-129.4801242080814
 10
104.1338677040013
 20
-129.4801242080814
 10
104.1338677040013
 20
-129.4801242080814
 10
104.1338677040013
 20
-129.4801242080814
 10
104.1338677040013
 20
-130.0957627712955
 10
104.1338677040013
 20
-130.0957627712955
 10
104.1338677040013
 20
-130.0957627712955
 10
104.5569254295899
 20
-130.1612195855153
 10
104.5569254295899
 20
-130.1612195855153
 10
104.5231634938345
 20
-130.0998968858778
 10
104.4828558766571
 20
-130.0175591037803
 10
104.4828558766571
 20
-129.8990478190877
 10
104.4828558766571
 20
-129.6451442818248
 10
104.6692355424091
 20
-129.4081217124397
 10
104.9823947220183
 20
-129.4081217124397
 10
105.2996880162098
 20
-129.4081217124397
 10
105.5342990187553
 20
-129.6323974285294
 10
105.5342990187553
 20
-129.9348768121343
 97
        0
 97
        0
 75
     2
 76
     1
 98
        0
  0
POLYLINE
  5
FB
330
F3
100
AcDbEntity
  8
_U+30EC_U+30A4_U+30E4_U+30FC 1
370
     0
100
AcDb2dPolyline
 66
     1
 10
0.0
 20
0.0
 30
0.0
  0
VERTEX
  5
FC
330
FB
100
AcDbEntity
  8
_U+30EC_U+30A4_U+30E4_U+30FC 1
370
     0
100
AcDbVertex
100
AcDb2dVertex
 10
105.4836561151221
 20
-129.1790228626705
 30
0.0
  0
VERTEX
  5
FD
330
FB
100
AcDbEntity
  8
_U+30EC_U+30A4_U+30E4_U+30FC 1
370
     0
100
AcDbVertex
100
AcDb2dVertex
 10
105.2318196351504
 20
-129.1790228626705
 30
0.0
  0
VERTEX
  5
FE
330
FB
100
AcDbEntity
  8
_U+30EC_U+30A4_U+30E4_U+30FC 1
370
     0
100
AcDbVertex
100
AcDb2dVertex
 10
105.2318196351504
 20
-128.9271863826988
 30
0.0
  0
VERTEX
  5
FF
330
FB
100
AcDbEntity
  8
_U+30EC_U+30A4_U+30E4_U+30FC 1
370
     0
100
AcDbVertex
100
AcDb2dVertex
 10
105.4836561151221
 20
-128.9271863826988
 30
0.0
  0
VERTEX
  5
100
330
FB
100
AcDbEntity
  8
_U+30EC_U+30A4_U+30E4_U+30FC 1
370
     0
100
AcDbVertex
100
AcDb2dVertex
 10
105.4836561151221
 20
-129.1790228626705
 30
0.0
  0
SEQEND
  5
101
330
FB
100
AcDbEntity
  8
_U+30EC_U+30A4_U+30E4_U+30FC 1
370
     0
  0
HATCH
  5
102
330
F3
100
AcDbEntity
  8
_U+30EC_U+30A4_U+30E4_U+30FC 1
 62
     7
420
 16777215
100
AcDbHatch
 10
0.0
 20
0.0
 30
0.0
210
0.0
220
0.0
230
1.0
  2
SOLID
 70
     1
 71
     0
 91
        1
 92
        1
 93
        4
 72
     1
 10
105.4836561151221
 20
-129.1790228626705
 11
105.2318196351504
 21
-129.1790228626705
 72
     1
 10
105.2318196351504
 20
-129.1790228626705
 11
105.2318196351504
 21
-128.9271863826988
 72
     1
 10
105.2318196351504
 20
-128.9271863826988
 11
105.4836561151221
 21
-128.9271863826988
 72
     1
 10
105.4836561151221
 20
-128.9271863826988
 11
105.4836561151221
 21
-129.1790228626705
 97
        0
 75
     2
 76
     1
 98
        0
  0
SPLINE
  5
103
330
F3
100
AcDbEntity
  8
_U+30EC_U+30A4_U+30E4_U+30FC 1
370
     0
100
AcDbSpline
210
0.0
220
0.0
230
1.0
 70
    11
 71
     3
 72
    53
 73
    49
 74
     0
 42
0.0000000001
 43
0.0000000001
 12
1.0
 22
0.0
 32
0.0
 13
1.0
 23
0.0
 33
0.0
 40
0.0
 40
0.0
 40
0.0
 40
0.0
 40
1.0
 40
1.0
 40
1.0
 40
2.0
 40
2.0
 40
2.0
 40
3.0
 40
3.0
 40
3.0
 40
4.0
 40
4.0
 40
4.0
 40
5.0
 40
5.0
 40
5.0
 40
6.0
 40
6.0
 40
6.0
 40
7.0
 40
7.0
 40
7.0
 40
8.0
 40
8.0
 40
8.0
 40
9.0
 40
9.0
 40
9.0
 40
10.0
 40
10.0
 40
10.0
 40
11.0
 40
11.0
 40
11.0
 40
12.0
 40
12.0
 40
12.0
 40
13.0
 40
13.0
 40
13.0
 40
14.0
 40
14.0
 40
14.0
 40
15.0
 40
15.0
 40
15.0
 40
16.0
 40
16.0
 40
16.0
 40
16.0
 10
105.5342990187553
 20
-128.2099175026698
 30
0.0
 10
105.5342990187553
 20
-128.2881211701849
 30
0.0
 10
105.5174180508776
 20
-128.3897514869998
 30
0.0
 10
105.454028293949
 20
-128.4913818038146
 30
0.0
 10
105.3441297479695
 20
-128.6646701067227
 30
0.0
 10
105.2128716099815
 20
-128.6860296987313
 30
0.0
 10
105.1050401212932
 20
-128.7049777239002
 30
0.0
 10
105.1050401212932
 20
-128.7049777239002
 30
0.0
 10
105.1050401212932
 20
-128.4827690651015
 30
0.0
 10
105.1050401212932
 20
-128.4827690651015
 30
0.0
 10
105.3038221307921
 20
-128.4279920468861
 30
0.0
 10
105.3334499519652
 20
-128.3008680234803
 30
0.0
 10
105.3334499519652
 20
-128.2078504453786
 30
0.0
 10
105.3334499519652
 20
-128.068324078226
 30
0.0
 10
105.2338866924415
 20
-127.9160508577779
 30
0.0
 10
105.0013427471872
 20
-127.9160508577779
 30
0.0
 10
104.7453721526331
 20
-127.9160508577779
 30
0.0
 10
104.6754367142825
 20
-128.095884842108
 30
0.0
 10
104.6754367142825
 20
-128.2164631840917
 30
0.0
 10
104.6754367142825
 20
-128.248158062556
 30
0.0
 10
104.6754367142825
 20
-128.3897514869998
 30
0.0
 10
104.8046277949794
 20
-128.4786349505192
 30
0.0
 10
104.8046277949794
 20
-128.4786349505192
 30
0.0
 10
104.7856797698105
 20
-128.654334820267
 30
0.0
 10
104.7856797698105
 20
-128.654334820267
 30
0.0
 10
104.7856797698105
 20
-128.654334820267
 30
0.0
 10
103.9392198090846
 20
-128.5337564782832
 30
0.0
 10
103.9392198090846
 20
-128.5337564782832
 30
0.0
 10
103.9392198090846
 20
-128.5337564782832
 30
0.0
 10
103.9392198090846
 20
-127.7551648986168
 30
0.0
 10
103.9392198090846
 20
-127.7551648986168
 30
0.0
 10
103.9392198090846
 20
-127.7551648986168
 30
0.0
 10
104.1338677040013
 20
-127.7551648986168
 30
0.0
 10
104.1338677040013
 20
-127.7551648986168
 30
0.0
 10
104.1338677040013
 20
-127.7551648986168
 30
0.0
 10
104.1338677040013
 20
-128.3708034618309
 30
0.0
 10
104.1338677040013
 20
-128.3708034618309
 30
0.0
 10
104.1338677040013
 20
-128.3708034618309
 30
0.0
 10
104.5569254295899
 20
-128.4362602760507
 30
0.0
 10
104.5569254295899
 20
-128.4362602760507
 30
0.0
 10
104.5231634938345
 20
-128.3749375764132
 30
0.0
 10
104.4828558766571
 20
-128.2925997943157
 30
0.0
 10
104.4828558766571
 20
-128.1740885096231
 30
0.0
 10
104.4828558766571
 20
-127.9201849723602
 30
0.0
 10
104.6692355424091
 20
-127.683162402975
 30
0.0
 10
104.9823947220183
 20
-127.683162402975
 30
0.0
 10
105.2996880162098
 20
-127.683162402975
 30
0.0
 10
105.5342990187553
 20
-127.9074381190648
 30
0.0
 10
105.5342990187553
 20
-128.2099175026698
 30
0.0
  0
HATCH
  5
104
330
F3
100
AcDbEntity
  8
_U+30EC_U+30A4_U+30E4_U+30FC 1
 62
     7
420
 16777215
100
AcDbHatch
 10
0.0
 20
0.0
 30
0.0
210
0.0
220
0.0
230
1.0
  2
SOLID
 70
     1
 71
     0
 91
        1
 92
        1
 93
        1
 72
     4
 94
        3
 73
     0
 74
     1
 95
       53
 96
       49
 40
0.0
 40
0.0
 40
0.0
 40
0.0
 40
1.0
 40
1.0
 40
1.0
 40
2.0
 40
2.0
 40
2.0
 40
3.0
 40
3.0
 40
3.0
 40
4.0
 40
4.0
 40
4.0
 40
5.0
 40
5.0
 40
5.0
 40
6.0
 40
6.0
 40
6.0
 40
7.0
 40
7.0
 40
7.0
 40
8.0
 40
8.0
 40
8.0
 40
9.0
 40
9.0
 40
9.0
 40
10.0
 40
10.0
 40
10.0
 40
11.0
 40
11.0
 40
11.0
 40
12.0
 40
12.0
 40
12.0
 40
13.0
 40
13.0
 40
13.0
 40
14.0
 40
14.0
 40
14.0
 40
15.0
 40
15.0
 40
15.0
 40
16.0
 40
16.0
 40
16.0
 40
16.0
 10
105.5342990187553
 20
-128.2099175026698
 10
105.5342990187553
 20
-128.2881211701849
 10
105.5174180508776
 20
-128.3897514869998
 10
105.454028293949
 20
-128.4913818038146
 10
105.3441297479695
 20
-128.6646701067227
 10
105.2128716099815
 20
-128.6860296987313
 10
105.1050401212932
 20
-128.7049777239002
 10
105.1050401212932
 20
-128.7049777239002
 10
105.1050401212932
 20
-128.4827690651015
 10
105.1050401212932
 20
-128.4827690651015
 10
105.3038221307921
 20
-128.4279920468861
 10
105.3334499519652
 20
-128.3008680234803
 10
105.3334499519652
 20
-128.2078504453786
 10
105.3334499519652
 20
-128.068324078226
 10
105.2338866924415
 20
-127.9160508577779
 10
105.0013427471872
 20
-127.9160508577779
 10
104.7453721526331
 20
-127.9160508577779
 10
104.6754367142825
 20
-128.095884842108
 10
104.6754367142825
 20
-128.2164631840917
 10
104.6754367142825
 20
-128.248158062556
 10
104.6754367142825
 20
-128.3897514869998
 10
104.8046277949794
 20
-128.4786349505192
 10
104.8046277949794
 20
-128.4786349505192
 10
104.7856797698105
 20
-128.654334820267
 10
104.7856797698105
 20
-128.654334820267
 10
104.7856797698105
 20
-128.654334820267
 10
103.9392198090846
 20
-128.5337564782832
 10
103.9392198090846
 20
-128.5337564782832
 10
103.9392198090846
 20
-128.5337564782832
 10
103.9392198090846
 20
-127.7551648986168
 10
103.9392198090846
 20
-127.7551648986168
 10
103.9392198090846
 20
-127.7551648986168
 10
104.1338677040013
 20
-127.7551648986168
 10
104.1338677040013
 20
-127.7551648986168
 10
104.1338677040013
 20
-127.7551648986168
 10
104.1338677040013
 20
-128.3708034618309
 10
104.1338677040013
 20
-128.3708034618309
 10
104.1338677040013
 20
-128.3708034618309
 10
104.5569254295899
 20
-128.4362602760507
 10
104.5569254295899
 20
-128.4362602760507
 10
104.5231634938345
 20
-128.3749375764132
 10
104.4828558766571
 20
-128.2925997943157
 10
104.4828558766571
 20
-128.1740885096231
 10
104.4828558766571
 20
-127.9201849723602
 10
104.6692355424091
 20
-127.683162402975
 10
104.9823947220183
 20
-127.683162402975
 10
105.2996880162098
 20
-127.683162402975
 10
105.5342990187553
 20
-127.9074381190648
 10
105.5342990187553
 20
-128.2099175026698
 97
        0
 97
        0
 75
     2
 76
     1
 98
        0
  0
ENDBLK
  5
F6
330
F3
100
AcDbEntity
  8
0
100
AcDbBlockEnd
  0
ENDSEC
  0
SECTION
  2
ENTITIES
  0
POLYLINE
  5
41
330
1F
100
AcDbEntity
  8
_U+30EC_U+30A4_U+30E4_U+30FC 1
 62
   253
420
 11711154
370
     9
100
AcDb2dPolyline
 66
     1
 10
0.0
 20
0.0
 30
0.0
  0
VERTEX
  5
42
330
41
100
AcDbEntity
  8
_U+30EC_U+30A4_U+30E4_U+30FC 1
 62
   253
420
 11711154
370
     9
100
AcDbVertex
100
AcDb2dVertex
 10
74.14912449718712
 20
-119.8512405255929
 30
0.0
  0
VERTEX
  5
43
330
41
100
AcDbEntity
  8
_U+30EC_U+30A4_U+30E4_U+30FC 1
 62
   253
420
 11711154
370
     9
100
AcDbVertex
100
AcDb2dVertex
 10
74.20768560680422
 20
-120.766275525364
 30
0.0
  0
VERTEX
  5
44
330
41
100
AcDbEntity
  8
_U+30EC_U+30A4_U+30E4_U+30FC 1
 62
   253
420
 11711154
370
     9
100
AcDbVertex
100
AcDb2dVertex
 10
80.10157906754958
 20
-120.766275525364
 30
0.0
  0
VERTEX
  5
45
330
41
100
AcDbEntity
  8
_U+30EC_U+30A4_U+30E4_U+30FC 1
 62
   253
420
 11711154
370
     9
100
AcDbVertex
100
AcDb2dVertex
 10
80.10157906754958
 20
-139.3954469095953
 30
0.0
  0
VERTEX
  5
46
330
41
100
AcDbEntity
  8
_U+30EC_U+30A4_U+30E4_U+30FC 1
 62
   253
420
 11711154
370
     9
100
AcDbVertex
100
AcDb2dVertex
 10
90.31350769591046
 20
-139.3954469095953
 30
0.0
  0
VERTEX
  5
47
330
41
100
AcDbEntity
  8
_U+30EC_U+30A4_U+30E4_U+30FC 1
 62
   253
420
 11711154
370
     9
100
AcDbVertex
100
AcDb2dVertex
 10
90.31350769591046
 20
-136.4313021881142
 30
0.0
  0
VERTEX
  5
48
330
41
100
AcDbEntity
  8
_U+30EC_U+30A4_U+30E4_U+30FC 1
 62
   253
420
 11711154
370
     9
100
AcDbVertex
100
AcDb2dVertex
 10
89.28826494428881
 20
-136.4313021881142
 30
0.0
  0
VERTEX
  5
49
330
41
100
AcDbEntity
  8
_U+30EC_U+30A4_U+30E4_U+30FC 1
 62
   253
420
 11711154
370
     9
100
AcDbVertex
100
AcDb2dVertex
 10
89.28826494428881
 20
-138.4439346876114
 30
0.0
  0
VERTEX
  5
4A
330
41
100
AcDbEntity
  8
_U+30EC_U+30A4_U+30E4_U+30FC 1
 62
   253
420
 11711154
370
     9
100
AcDbVertex
100
AcDb2dVertex
 10
81.12682181917124
 20
-138.4439346876114
 30
0.0
  0
VERTEX
  5
4B
330
41
100
AcDbEntity
  8
_U+30EC_U+30A4_U+30E4_U+30FC 1
 62
   253
420
 11711154
370
     9
100
AcDbVertex
100
AcDb2dVertex
 10
81.12682181917124
 20
-120.8027880253549
 30
0.0
  0
VERTEX
  5
4C
330
41
100
AcDbEntity
  8
_U+30EC_U+30A4_U+30E4_U+30FC 1
 62
   253
420
 11711154
370
     9
100
AcDbVertex
100
AcDb2dVertex
 10
103.3063481977688
 20
-120.8027880253549
 30
0.0
  0
VERTEX
  5
4D
330
41
100
AcDbEntity
  8
_U+30EC_U+30A4_U+30E4_U+30FC 1
 62
   253
420
 11711154
370
     9
100
AcDbVertex
100
AcDb2dVertex
 10
103.3063481977688
 20
-119.814728025602
 30
0.0
  0
VERTEX
  5
4E
330
41
100
AcDbEntity
  8
_U+30EC_U+30A4_U+30E4_U+30FC 1
 62
   253
420
 11711154
370
     9
100
AcDbVertex
100
AcDb2dVertex
 10
74.14912449718712
 20
-119.8512405255929
 30
0.0
  0
SEQEND
  5
50
330
41
100
AcDbEntity
  8
_U+30EC_U+30A4_U+30E4_U+30FC 1
 62
   253
420
 11711154
370
     9
  0
HATCH
  5
4F
330
1F
100
AcDbEntity
  8
_U+30EC_U+30A4_U+30E4_U+30FC 1
 62
   253
420
 11711154
100
AcDbHatch
 10
0.0
 20
0.0
 30
0.0
210
0.0
220
0.0
230
1.0
  2
SOLID
 70
     1
 71
     0
 91
        1
 92
        1
 93
       12
 72
     1
 10
74.14912449718712
 20
-119.8512405255929
 11
74.20768560680422
 21
-120.766275525364
 72
     1
 10
74.20768560680422
 20
-120.766275525364
 11
80.10157906754958
 21
-120.766275525364
 72
     1
 10
80.10157906754958
 20
-120.766275525364
 11
80.10157906754958
 21
-139.3954469095953
 72
     1
 10
80.10157906754958
 20
-139.3954469095953
 11
90.31350769591046
 21
-139.3954469095953
 72
     1
 10
90.31350769591046
 20
-139.3954469095953
 11
90.31350769591046
 21
-136.4313021881142
 72
     1
 10
90.31350769591046
 20
-136.4313021881142
 11
89.28826494428881
 21
-136.4313021881142
 72
     1
 10
89.28826494428881
 20
-136.4313021881142
 11
89.28826494428881
 21
-138.4439346876114
 72
     1
 10
89.28826494428881
 20
-138.4439346876114
 11
81.12682181917124
 21
-138.4439346876114
 72
     1
 10
81.12682181917124
 20
-138.4439346876114
 11
81.12682181917124
 21
-120.8027880253549
 72
     1
 10
81.12682181917124
 20
-120.8027880253549
 11
103.3063481977688
 21
-120.8027880253549
 72
     1
 10
103.3063481977688
 20
-120.8027880253549
 11
103.3063481977688
 21
-119.814728025602
 72
     1
 10
103.3063481977688
 20
-119.814728025602
 11
74.14912449718712
 21
-119.8512405255929
 97
        0
 75
     2
 76
     1
 98
        0
  0
POLYLINE
  5
51
330
1F
100
AcDbEntity
  8
_U+30EC_U+30A4_U+30E4_U+30FC 1
 62
     7
420
 16777215
370
    25
100
AcDb2dPolyline
 66
     1
 10
0.0
 20
0.0
 30
0.0
  0
VERTEX
  5
52
330
51
100
AcDbEntity
  8
_U+30EC_U+30A4_U+30E4_U+30FC 1
 62
     7
420
 16777215
370
    25
100
AcDbVertex
100
AcDb2dVertex
 10
74.21939782872764
 20
-119.8195610811561
 30
0.0
  0
VERTEX
  5
53
330
51
100
AcDbEntity
  8
_U+30EC_U+30A4_U+30E4_U+30FC 1
 62
     7
420
 16777215
370
    25
100
AcDbVertex
100
AcDb2dVertex
 10
103.218859311112
 20
-119.8195610811561
 30
0.0
  0
SEQEND
  5
54
330
51
100
AcDbEntity
  8
_U+30EC_U+30A4_U+30E4_U+30FC 1
 62
     7
420
 16777215
370
    25
  0
POLYLINE
  5
55
330
1F
100
AcDbEntity
  8
_U+30EC_U+30A4_U+30E4_U+30FC 1
 62
     7
420
 16777215
370
    25
100
AcDb2dPolyline
 66
     1
 10
0.0
 20
0.0
 30
0.0
  0
VERTEX
  5
56
330
55
100
AcDbEntity
  8
_U+30EC_U+30A4_U+30E4_U+30FC 1
 62
     7
420
 16777215
370
    25
100
AcDbVertex
100
AcDb2dVertex
 10
74.21872755096696
 20
-120.8193333031283
 30
0.0
  0
VERTEX
  5
57
330
55
100
AcDbEntity
  8
_U+30EC_U+30A4_U+30E4_U+30FC 1
 62
     7
420
 16777215
370
    25
100
AcDbVertex
100
AcDb2dVertex
 10
80.21870128678377
 20
-120.8193333031283
 30
0.0
  0
SEQEND
  5
58
330
55
100
AcDbEntity
  8
_U+30EC_U+30A4_U+30E4_U+30FC 1
 62
     7
420
 16777215
370
    25
  0
POLYLINE
  5
59
330
1F
100
AcDbEntity
  8
_U+30EC_U+30A4_U+30E4_U+30FC 1
 62
     7
420
 16777215
370
    25
100
AcDb2dPolyline
 66
     1
 10
0.0
 20
0.0
 30
0.0
  0
VERTEX
  5
5A
330
59
100
AcDbEntity
  8
_U+30EC_U+30A4_U+30E4_U+30FC 1
 62
     7
420
 16777215
370
    25
100
AcDbVertex
100
AcDb2dVertex
 10
103.2705412542379
 20
-120.8193333031283
 30
0.0
  0
VERTEX
  5
5B
330
59
100
AcDbEntity
  8
_U+30EC_U+30A4_U+30E4_U+30FC 1
 62
     7
420
 16777215
370
    25
100
AcDbVertex
100
AcDb2dVertex
 10
103.2705412542379
 20
-119.8195610811561
 30
0.0
  0
SEQEND
  5
5C
330
59
100
AcDbEntity
  8
_U+30EC_U+30A4_U+30E4_U+30FC 1
 62
     7
420
 16777215
370
    25
  0
POLYLINE
  5
5D
330
1F
100
AcDbEntity
  8
_U+30EC_U+30A4_U+30E4_U+30FC 1
 62
     7
420
 16777215
370
    25
100
AcDb2dPolyline
 66
     1
 10
0.0
 20
0.0
 30
0.0
  0
VERTEX
  5
5E
330
5D
100
AcDbEntity
  8
_U+30EC_U+30A4_U+30E4_U+30FC 1
 62
     7
420
 16777215
370
    25
100
AcDbVertex
100
AcDb2dVertex
 10
81.11923709714252
 20
-120.8193333031283
 30
0.0
  0
VERTEX
  5
5F
330
5D
100
AcDbEntity
  8
_U+30EC_U+30A4_U+30E4_U+30FC 1
 62
     7
420
 16777215
370
    25
100
AcDbVertex
100
AcDb2dVertex
 10
103.2705412542379
 20
-120.8193333031283
 30
0.0
  0
SEQEND
  5
60
330
5D
100
AcDbEntity
  8
_U+30EC_U+30A4_U+30E4_U+30FC 1
 62
     7
420
 16777215
370
    25
  0
POLYLINE
  5
61
330
1F
100
AcDbEntity
  8
_U+30EC_U+30A4_U+30E4_U+30FC 1
 62
     7
420
 16777215
370
    25
100
AcDb2dPolyline
 66
     1
 10
0.0
 20
0.0
 30
0.0
  0
VERTEX
  5
62
330
61
100
AcDbEntity
  8
_U+30EC_U+30A4_U+30E4_U+30FC 1
 62
     7
420
 16777215
370
    25
100
AcDbVertex
100
AcDb2dVertex
 10
74.16912699667682
 20
-120.8193333031283
 30
0.0
  0
VERTEX
  5
63
330
61
100
AcDbEntity
  8
_U+30EC_U+30A4_U+30E4_U+30FC 1
 62
     7
420
 16777215
370
    25
100
AcDbVertex
100
AcDb2dVertex
 10
74.16912699667682
 20
-119.8195610811561
 30
0.0
  0
SEQEND
  5
64
330
61
100
AcDbEntity
  8
_U+30EC_U+30A4_U+30E4_U+30FC 1
 62
     7
420
 16777215
370
    25
  0
POLYLINE
  5
65
330
1F
100
AcDbEntity
  8
_U+30EC_U+30A4_U+30E4_U+30FC 1
 62
     7
420
 16777215
370
    25
100
AcDb2dPolyline
 66
     1
 10
0.0
 20
0.0
 30
0.0
  0
VERTEX
  5
66
330
65
100
AcDbEntity
  8
_U+30EC_U+30A4_U+30E4_U+30FC 1
 62
     7
420
 16777215
370
    25
100
AcDbVertex
100
AcDb2dVertex
 10
80.21870128678377
 20
-139.4884744095725
 30
0.0
  0
VERTEX
  5
67
330
65
100
AcDbEntity
  8
_U+30EC_U+30A4_U+30E4_U+30FC 1
 62
     7
420
 16777215
370
    25
100
AcDbVertex
100
AcDb2dVertex
 10
80.21870128678377
 20
-120.8193333031283
 30
0.0
  0
SEQEND
  5
68
330
65
100
AcDbEntity
  8
_U+30EC_U+30A4_U+30E4_U+30FC 1
 62
     7
420
 16777215
370
    25
  0
POLYLINE
  5
69
330
1F
100
AcDbEntity
  8
_U+30EC_U+30A4_U+30E4_U+30FC 1
 62
     7
420
 16777215
370
    25
100
AcDb2dPolyline
 66
     1
 10
0.0
 20
0.0
 30
0.0
  0
VERTEX
  5
6A
330
69
100
AcDbEntity
  8
_U+30EC_U+30A4_U+30E4_U+30FC 1
 62
     7
420
 16777215
370
    25
100
AcDbVertex
100
AcDb2dVertex
 10
80.21870128678377
 20
-139.4884744095725
 30
0.0
  0
VERTEX
  5
6B
330
69
100
AcDbEntity
  8
_U+30EC_U+30A4_U+30E4_U+30FC 1
 62
     7
420
 16777215
370
    25
100
AcDbVertex
100
AcDb2dVertex
 10
90.21913964276244
 20
-139.4884744095725
 30
0.0
  0
SEQEND
  5
6C
330
69
100
AcDbEntity
  8
_U+30EC_U+30A4_U+30E4_U+30FC 1
 62
     7
420
 16777215
370
    25
  0
POLYLINE
  5
6D
330
1F
100
AcDbEntity
  8
_U+30EC_U+30A4_U+30E4_U+30FC 1
 62
     7
420
 16777215
370
    25
100
AcDb2dPolyline
 66
     1
 10
0.0
 20
0.0
 30
0.0
  0
VERTEX
  5
6E
330
6D
100
AcDbEntity
  8
_U+30EC_U+30A4_U+30E4_U+30FC 1
 62
     7
420
 16777215
370
    25
100
AcDbVertex
100
AcDb2dVertex
 10
81.11923709714252
 20
-138.4880319098226
 30
0.0
  0
VERTEX
  5
6F
330
6D
100
AcDbEntity
  8
_U+30EC_U+30A4_U+30E4_U+30FC 1
 62
     7
420
 16777215
370
    25
100
AcDbVertex
100
AcDb2dVertex
 10
89.30893772153918
 20
-138.4880319098226
 30
0.0
  0
SEQEND
  5
70
330
6D
100
AcDbEntity
  8
_U+30EC_U+30A4_U+30E4_U+30FC 1
 62
     7
420
 16777215
370
    25
  0
INSERT
  5
72
330
1F
100
AcDbEntity
  8
_U+30EC_U+30A4_U+30E4_U+30FC 1
100
AcDbBlockReference
  2
block 2
 10
0.0
 20
0.0
 30
0.0
  0
POLYLINE
  5
81
330
1F
100
AcDbEntity
  8
_U+30EC_U+30A4_U+30E4_U+30FC 1
 62
     7
420
 16777215
370
    25
100
AcDb2dPolyline
 66
     1
 10
0.0
 20
0.0
 30
0.0
  0
VERTEX
  5
82
330
81
100
AcDbEntity
  8
_U+30EC_U+30A4_U+30E4_U+30FC 1
 62
     7
420
 16777215
370
    25
100
AcDbVertex
100
AcDb2dVertex
 10
81.11923709714252
 20
-138.4880319098226
 30
0.0
  0
VERTEX
  5
83
330
81
100
AcDbEntity
  8
_U+30EC_U+30A4_U+30E4_U+30FC 1
 62
     7
420
 16777215
370
    25
100
AcDbVertex
100
AcDb2dVertex
 10
81.11923709714252
 20
-120.8193333031283
 30
0.0
  0
SEQEND
  5
84
330
81
100
AcDbEntity
  8
_U+30EC_U+30A4_U+30E4_U+30FC 1
 62
     7
420
 16777215
370
    25
  0
SPLINE
  5
85
330
1F
100
AcDbEntity
  8
_U+30EC_U+30A4_U+30E4_U+30FC 1
 62
     7
420
 16777215
370
     9
100
AcDbSpline
210
0.0
220
0.0
230
1.0
 70
    11
 71
     3
 72
    17
 73
    13
 74
     0
 42
0.0000000001
 43
0.0000000001
 12
1.0
 22
0.0
 32
0.0
 13
1.0
 23
0.0
 33
0.0
 40
0.0
 40
0.0
 40
0.0
 40
0.0
 40
1.0
 40
1.0
 40
1.0
 40
2.0
 40
2.0
 40
2.0
 40
3.0
 40
3.0
 40
3.0
 40
4.0
 40
4.0
 40
4.0
 40
4.0
 10
74.22560671745812
 20
-115.8199783043785
 30
0.0
 10
74.22560671745812
 20
-115.7648391377254
 30
0.0
 10
74.18083921860024
 20
-115.7200716377368
 30
0.0
 10
74.12570005334028
 20
-115.7200716377368
 30
0.0
 10
74.07059616585721
 20
-115.7200716377368
 30
0.0
 10
74.02579338922246
 20
-115.7648391377254
 30
0.0
 10
74.02579338922246
 20
-115.8199783043785
 30
0.0
 10
74.02579338922246
 20
-115.8750821932534
 30
0.0
 10
74.07059616585721
 20
-115.9198849710201
 30
0.0
 10
74.12570005334028
 20
-115.9198849710201
 30
0.0
 10
74.18083921860024
 20
-115.9198849710201
 30
0.0
 10
74.22560671745812
 20
-115.8750821932534
 30
0.0
 10
74.22560671745812
 20
-115.8199783043785
 30
0.0
  0
SPLINE
  5
86
330
1F
100
AcDbEntity
  8
_U+30EC_U+30A4_U+30E4_U+30FC 1
 62
     7
420
 16777215
370
     9
100
AcDbSpline
210
0.0
220
0.0
230
1.0
 70
    11
 71
     3
 72
    17
 73
    13
 74
     0
 42
0.0000000001
 43
0.0000000001
 12
1.0
 22
0.0
 32
0.0
 13
1.0
 23
0.0
 33
0.0
 40
0.0
 40
0.0
 40
0.0
 40
0.0
 40
1.0
 40
1.0
 40
1.0
 40
2.0
 40
2.0
 40
2.0
 40
3.0
 40
3.0
 40
3.0
 40
4.0
 40
4.0
 40
4.0
 40
4.0
 10
103.1871471964254
 20
-115.8199783043785
 30
0.0
 10
103.1871471964254
 20
-115.7648391377254
 30
0.0
 10
103.142377090841
 20
-115.7200716377368
 30
0.0
 10
103.087237925581
 20
-115.7200716377368
 30
0.0
 10
103.0321340380979
 20
-115.7200716377368
 30
0.0
 10
102.9873312614632
 20
-115.7648391377254
 30
0.0
 10
102.9873312614632
 20
-115.8199783043785
 30
0.0
 10
102.9873312614632
 20
-115.8750821932534
 30
0.0
 10
103.0321340380979
 20
-115.9198849710201
 30
0.0
 10
103.087237925581
 20
-115.9198849710201
 30
0.0
 10
103.142377090841
 20
-115.9198849710201
 30
0.0
 10
103.1871471964254
 20
-115.8750821932534
 30
0.0
 10
103.1871471964254
 20
-115.8199783043785
 30
0.0
  0
SPLINE
  5
87
330
1F
100
AcDbEntity
  8
_U+30EC_U+30A4_U+30E4_U+30FC 1
 62
     7
420
 16777215
370
     9
100
AcDbSpline
210
0.0
220
0.0
230
1.0
 70
    11
 71
     3
 72
    17
 73
    13
 74
     0
 42
0.0000000001
 43
0.0000000001
 12
1.0
 22
0.0
 32
0.0
 13
1.0
 23
0.0
 33
0.0
 40
0.0
 40
0.0
 40
0.0
 40
0.0
 40
1.0
 40
1.0
 40
1.0
 40
2.0
 40
2.0
 40
2.0
 40
3.0
 40
3.0
 40
3.0
 40
4.0
 40
4.0
 40
4.0
 40
4.0
 10
107.4060166398154
 20
-119.8195610811561
 30
0.0
 10
107.4060166398154
 20
-119.7644219145034
 30
0.0
 10
107.3612464276531
 20
-119.7196544145145
 30
0.0
 10
107.3061072623931
 20
-119.7196544145145
 30
0.0
 10
107.2510033749101
 20
-119.7196544145145
 30
0.0
 10
107.2062005982753
 20
-119.7644219145034
 30
0.0
 10
107.2062005982753
 20
-119.8195610811561
 30
0.0
 10
107.2062005982753
 20
-119.8746649700314
 30
0.0
 10
107.2510033749101
 20
-119.9194677477981
 30
0.0
 10
107.3061072623931
 20
-119.9194677477981
 30
0.0
 10
107.3612464276531
 20
-119.9194677477981
 30
0.0
 10
107.4060166398154
 20
-119.8746649700314
 30
0.0
 10
107.4060166398154
 20
-119.8195610811561
 30
0.0
  0
SPLINE
  5
88
330
1F
100
AcDbEntity
  8
_U+30EC_U+30A4_U+30E4_U+30FC 1
 62
     7
420
 16777215
370
     9
100
AcDbSpline
210
0.0
220
0.0
230
1.0
 70
    11
 71
     3
 72
    17
 73
    13
 74
     0
 42
0.0000000001
 43
0.0000000001
 12
1.0
 22
0.0
 32
0.0
 13
1.0
 23
0.0
 33
0.0
 40
0.0
 40
0.0
 40
0.0
 40
0.0
 40
1.0
 40
1.0
 40
1.0
 40
2.0
 40
2.0
 40
2.0
 40
3.0
 40
3.0
 40
3.0
 40
4.0
 40
4.0
 40
4.0
 40
4.0
 10
107.4060166398154
 20
-120.8193333031283
 30
0.0
 10
107.4060166398154
 20
-120.7641941364756
 30
0.0
 10
107.3612464276531
 20
-120.7194266364867
 30
0.0
 10
107.3061072623931
 20
-120.7194266364867
 30
0.0
 10
107.2510033749101
 20
-120.7194266364867
 30
0.0
 10
107.2062005982753
 20
-120.7641941364756
 30
0.0
 10
107.2062005982753
 20
-120.8193333031283
 30
0.0
 10
107.2062005982753
 20
-120.8751427475591
 30
0.0
 10
107.2510033749101
 20
-120.9199102475477
 30
0.0
 10
107.3061072623931
 20
-120.9199102475477
 30
0.0
 10
107.3612464276531
 20
-120.9199102475477
 30
0.0
 10
107.4060166398154
 20
-120.8751427475591
 30
0.0
 10
107.4060166398154
 20
-120.8193333031283
 30
0.0
  0
SPLINE
  5
89
330
1F
100
AcDbEntity
  8
_U+30EC_U+30A4_U+30E4_U+30FC 1
 62
     7
420
 16777215
370
     9
100
AcDbSpline
210
0.0
220
0.0
230
1.0
 70
    11
 71
     3
 72
    17
 73
    13
 74
     0
 42
0.0000000001
 43
0.0000000001
 12
1.0
 22
0.0
 32
0.0
 13
1.0
 23
0.0
 33
0.0
 40
0.0
 40
0.0
 40
0.0
 40
0.0
 40
1.0
 40
1.0
 40
1.0
 40
2.0
 40
2.0
 40
2.0
 40
3.0
 40
3.0
 40
3.0
 40
4.0
 40
4.0
 40
4.0
 40
4.0
 10
80.31931350643916
 20
-143.7135527418495
 30
0.0
 10
80.31931350643916
 20
-143.6584135751964
 30
0.0
 10
80.27451072980439
 20
-143.6136460752079
 30
0.0
 10
80.21870128678377
 20
-143.6136460752079
 30
0.0
 10
80.1635973993007
 20
-143.6136460752079
 30
0.0
 10
80.11879462266593
 20
-143.6584135751964
 30
0.0
 10
80.11879462266593
 20
-143.7135527418495
 30
0.0
 10
80.11879462266593
 20
-143.76936218628
 30
0.0
 10
80.1635973993007
 20
-143.8134594084912
 30
0.0
 10
80.21870128678377
 20
-143.8134594084912
 30
0.0
 10
80.27451072980439
 20
-143.8134594084912
 30
0.0
 10
80.31931350643916
 20
-143.76936218628
 30
0.0
 10
80.31931350643916
 20
-143.7135527418495
 30
0.0
  0
SPLINE
  5
8A
330
1F
100
AcDbEntity
  8
_U+30EC_U+30A4_U+30E4_U+30FC 1
 62
     7
420
 16777215
370
     9
100
AcDbSpline
210
0.0
220
0.0
230
1.0
 70
    11
 71
     3
 72
    17
 73
    13
 74
     0
 42
0.0000000001
 43
0.0000000001
 12
1.0
 22
0.0
 32
0.0
 13
1.0
 23
0.0
 33
0.0
 40
0.0
 40
0.0
 40
0.0
 40
0.0
 40
1.0
 40
1.0
 40
1.0
 40
2.0
 40
2.0
 40
2.0
 40
3.0
 40
3.0
 40
3.0
 40
4.0
 40
4.0
 40
4.0
 40
4.0
 10
90.46992935858648
 20
-143.7135527418495
 30
0.0
 10
90.46992935858648
 20
-143.6584135751964
 30
0.0
 10
90.42512658195172
 20
-143.6136460752079
 30
0.0
 10
90.37002497740762
 20
-143.6136460752079
 30
0.0
 10
90.3148835292087
 20
-143.6136460752079
 30
0.0
 10
90.2701160303508
 20
-143.6584135751964
 30
0.0
 10
90.2701160303508
 20
-143.7135527418495
 30
0.0
 10
90.2701160303508
 20
-143.76936218628
 30
0.0
 10
90.3148835292087
 20
-143.8134594084912
 30
0.0
 10
90.37002497740762
 20
-143.8134594084912
 30
0.0
 10
90.42512658195172
 20
-143.8134594084912
 30
0.0
 10
90.46992935858648
 20
-143.76936218628
 30
0.0
 10
90.46992935858648
 20
-143.7135527418495
 30
0.0
  0
SPLINE
  5
8B
330
1F
100
AcDbEntity
  8
_U+30EC_U+30A4_U+30E4_U+30FC 1
 62
     7
420
 16777215
370
     9
100
AcDbSpline
210
0.0
220
0.0
230
1.0
 70
    11
 71
     3
 72
    17
 73
    13
 74
     0
 42
0.0000000001
 43
0.0000000001
 12
1.0
 22
0.0
 32
0.0
 13
1.0
 23
0.0
 33
0.0
 40
0.0
 40
0.0
 40
0.0
 40
0.0
 40
1.0
 40
1.0
 40
1.0
 40
2.0
 40
2.0
 40
2.0
 40
3.0
 40
3.0
 40
3.0
 40
4.0
 40
4.0
 40
4.0
 40
4.0
 10
74.25315866119966
 20
-143.7135527418495
 30
0.0
 10
74.25315866119966
 20
-143.6584135751964
 30
0.0
 10
74.20839116234177
 20
-143.6136460752079
 30
0.0
 10
74.15325199708182
 20
-143.6136460752079
 30
0.0
 10
74.0981499814756
 20
-143.6136460752079
 30
0.0
 10
74.05334720370888
 20
-143.6584135751964
 30
0.0
 10
74.05334720370888
 20
-143.7135527418495
 30
0.0
 10
74.05334720370888
 20
-143.76936218628
 30
0.0
 10
74.0981499814756
 20
-143.8134594084912
 30
0.0
 10
74.15325199708182
 20
-143.8134594084912
 30
0.0
 10
74.20839116234177
 20
-143.8134594084912
 30
0.0
 10
74.25315866119966
 20
-143.76936218628
 30
0.0
 10
74.25315866119966
 20
-143.7135527418495
 30
0.0
  0
POLYLINE
  5
8C
330
1F
100
AcDbEntity
  8
_U+30EC_U+30A4_U+30E4_U+30FC 1
 62
     7
420
 16777215
370
     9
100
AcDb2dPolyline
 66
     1
 10
0.0
 20
0.0
 30
0.0
  0
VERTEX
  5
8D
330
8C
100
AcDbEntity
  8
_U+30EC_U+30A4_U+30E4_U+30FC 1
 62
     7
420
 16777215
370
     9
100
AcDbVertex
100
AcDb2dVertex
 10
80.21870128678377
 20
-143.7135527418495
 30
0.0
  0
VERTEX
  5
8E
330
8C
100
AcDbEntity
  8
_U+30EC_U+30A4_U+30E4_U+30FC 1
 62
     7
420
 16777215
370
     9
100
AcDbVertex
100
AcDb2dVertex
 10
90.21913964276244
 20
-143.7135527418495
 30
0.0
  0
SEQEND
  5
8F
330
8C
100
AcDbEntity
  8
_U+30EC_U+30A4_U+30E4_U+30FC 1
 62
     7
420
 16777215
370
     9
  0
POLYLINE
  5
90
330
1F
100
AcDbEntity
  8
_U+30EC_U+30A4_U+30E4_U+30FC 1
 62
     7
420
 16777215
370
     9
100
AcDb2dPolyline
 66
     1
 10
0.0
 20
0.0
 30
0.0
  0
VERTEX
  5
91
330
90
100
AcDbEntity
  8
_U+30EC_U+30A4_U+30E4_U+30FC 1
 62
     7
420
 16777215
370
     9
100
AcDbVertex
100
AcDb2dVertex
 10
90.37002497740762
 20
-142.2535113533258
 30
0.0
  0
VERTEX
  5
92
330
90
100
AcDbEntity
  8
_U+30EC_U+30A4_U+30E4_U+30FC 1
 62
     7
420
 16777215
370
     9
100
AcDbVertex
100
AcDb2dVertex
 10
90.37002497740762
 20
-144.7139952415994
 30
0.0
  0
SEQEND
  5
93
330
90
100
AcDbEntity
  8
_U+30EC_U+30A4_U+30E4_U+30FC 1
 62
     7
420
 16777215
370
     9
  0
INSERT
  5
95
330
1F
100
AcDbEntity
  8
_U+30EC_U+30A4_U+30E4_U+30FC 1
100
AcDbBlockReference
  2
block 3
 10
0.0
 20
0.0
 30
0.0
  0
POLYLINE
  5
9D
330
1F
100
AcDbEntity
  8
_U+30EC_U+30A4_U+30E4_U+30FC 1
 62
     7
420
 16777215
370
     9
100
AcDb2dPolyline
 66
     1
 10
0.0
 20
0.0
 30
0.0
  0
VERTEX
  5
9E
330
9D
100
AcDbEntity
  8
_U+30EC_U+30A4_U+30E4_U+30FC 1
 62
     7
420
 16777215
370
     9
100
AcDbVertex
100
AcDb2dVertex
 10
107.3061072623931
 20
-119.8195610811561
 30
0.0
  0
VERTEX
  5
9F
330
9D
100
AcDbEntity
  8
_U+30EC_U+30A4_U+30E4_U+30FC 1
 62
     7
420
 16777215
370
     9
100
AcDbVertex
100
AcDb2dVertex
 10
107.3061072623931
 20
-116.0494249709876
 30
0.0
  0
SEQEND
  5
A0
330
9D
100
AcDbEntity
  8
_U+30EC_U+30A4_U+30E4_U+30FC 1
 62
     7
420
 16777215
370
     9
  0
POLYLINE
  5
A1
330
1F
100
AcDbEntity
  8
_U+30EC_U+30A4_U+30E4_U+30FC 1
 62
     7
420
 16777215
370
     9
100
AcDb2dPolyline
 66
     1
 10
0.0
 20
0.0
 30
0.0
  0
VERTEX
  5
A2
330
A1
100
AcDbEntity
  8
_U+30EC_U+30A4_U+30E4_U+30FC 1
 62
     7
420
 16777215
370
     9
100
AcDbVertex
100
AcDb2dVertex
 10
107.3061072623931
 20
-119.8195610811561
 30
0.0
  0
VERTEX
  5
A3
330
A1
100
AcDbEntity
  8
_U+30EC_U+30A4_U+30E4_U+30FC 1
 62
     7
420
 16777215
370
     9
100
AcDbVertex
100
AcDb2dVertex
 10
107.3061072623931
 20
-120.8193333031283
 30
0.0
  0
SEQEND
  5
A4
330
A1
100
AcDbEntity
  8
_U+30EC_U+30A4_U+30E4_U+30FC 1
 62
     7
420
 16777215
370
     9
  0
POLYLINE
  5
A5
330
1F
100
AcDbEntity
  8
_U+30EC_U+30A4_U+30E4_U+30FC 1
 62
     7
420
 16777215
370
     9
100
AcDb2dPolyline
 66
     1
 10
0.0
 20
0.0
 30
0.0
  0
VERTEX
  5
A6
330
A5
100
AcDbEntity
  8
_U+30EC_U+30A4_U+30E4_U+30FC 1
 62
     7
420
 16777215
370
     9
100
AcDbVertex
100
AcDb2dVertex
 10
105.846065910753
 20
-119.8195610811561
 30
0.0
  0
VERTEX
  5
A7
330
A5
100
AcDbEntity
  8
_U+30EC_U+30A4_U+30E4_U+30FC 1
 62
     7
420
 16777215
370
     9
100
AcDbVertex
100
AcDb2dVertex
 10
108.305879459109
 20
-119.8195610811561
 30
0.0
  0
SEQEND
  5
A8
330
A5
100
AcDbEntity
  8
_U+30EC_U+30A4_U+30E4_U+30FC 1
 62
     7
420
 16777215
370
     9
  0
POLYLINE
  5
A9
330
1F
100
AcDbEntity
  8
_U+30EC_U+30A4_U+30E4_U+30FC 1
 62
     7
420
 16777215
370
     9
100
AcDb2dPolyline
 66
     1
 10
0.0
 20
0.0
 30
0.0
  0
VERTEX
  5
AA
330
A9
100
AcDbEntity
  8
_U+30EC_U+30A4_U+30E4_U+30FC 1
 62
     7
420
 16777215
370
     9
100
AcDbVertex
100
AcDb2dVertex
 10
105.846065910753
 20
-120.8193333031283
 30
0.0
  0
VERTEX
  5
AB
330
A9
100
AcDbEntity
  8
_U+30EC_U+30A4_U+30E4_U+30FC 1
 62
     7
420
 16777215
370
     9
100
AcDbVertex
100
AcDb2dVertex
 10
108.305879459109
 20
-120.8193333031283
 30
0.0
  0
SEQEND
  5
AC
330
A9
100
AcDbEntity
  8
_U+30EC_U+30A4_U+30E4_U+30FC 1
 62
     7
420
 16777215
370
     9
  0
INSERT
  5
AE
330
1F
100
AcDbEntity
  8
_U+30EC_U+30A4_U+30E4_U+30FC 1
100
AcDbBlockReference
  2
block 4
 10
0.0
 20
0.0
 30
0.0
  0
POLYLINE
  5
B3
330
1F
100
AcDbEntity
  8
_U+30EC_U+30A4_U+30E4_U+30FC 1
 62
     7
420
 16777215
370
     9
100
AcDb2dPolyline
 66
     1
 10
0.0
 20
0.0
 30
0.0
  0
VERTEX
  5
B4
330
B3
100
AcDbEntity
  8
_U+30EC_U+30A4_U+30E4_U+30FC 1
 62
     7
420
 16777215
370
     9
100
AcDbVertex
100
AcDb2dVertex
 10
74.1877183850914
 20
-115.8199783043785
 30
0.0
  0
VERTEX
  5
B5
330
B3
100
AcDbEntity
  8
_U+30EC_U+30A4_U+30E4_U+30FC 1
 62
     7
420
 16777215
370
     9
100
AcDbVertex
100
AcDb2dVertex
 10
103.1871471964254
 20
-115.8199783043785
 30
0.0
  0
SEQEND
  5
B6
330
B3
100
AcDbEntity
  8
_U+30EC_U+30A4_U+30E4_U+30FC 1
 62
     7
420
 16777215
370
     9
  0
POLYLINE
  5
B7
330
1F
100
AcDbEntity
  8
_U+30EC_U+30A4_U+30E4_U+30FC 1
 62
     7
420
 16777215
370
     9
100
AcDb2dPolyline
 66
     1
 10
0.0
 20
0.0
 30
0.0
  0
VERTEX
  5
B8
330
B7
100
AcDbEntity
  8
_U+30EC_U+30A4_U+30E4_U+30FC 1
 62
     7
420
 16777215
370
     9
100
AcDbVertex
100
AcDb2dVertex
 10
74.12570005334028
 20
-117.2798433040133
 30
0.0
  0
VERTEX
  5
B9
330
B7
100
AcDbEntity
  8
_U+30EC_U+30A4_U+30E4_U+30FC 1
 62
     7
420
 16777215
370
     9
100
AcDbVertex
100
AcDb2dVertex
 10
74.12570005334028
 20
-114.8195358046285
 30
0.0
  0
SEQEND
  5
BA
330
B7
100
AcDbEntity
  8
_U+30EC_U+30A4_U+30E4_U+30FC 1
 62
     7
420
 16777215
370
     9
  0
POLYLINE
  5
BB
330
1F
100
AcDbEntity
  8
_U+30EC_U+30A4_U+30E4_U+30FC 1
 62
     7
420
 16777215
370
     9
100
AcDb2dPolyline
 66
     1
 10
0.0
 20
0.0
 30
0.0
  0
VERTEX
  5
BC
330
BB
100
AcDbEntity
  8
_U+30EC_U+30A4_U+30E4_U+30FC 1
 62
     7
420
 16777215
370
     9
100
AcDbVertex
100
AcDb2dVertex
 10
103.087237925581
 20
-117.2798433040133
 30
0.0
  0
VERTEX
  5
BD
330
BB
100
AcDbEntity
  8
_U+30EC_U+30A4_U+30E4_U+30FC 1
 62
     7
420
 16777215
370
     9
100
AcDbVertex
100
AcDb2dVertex
 10
103.087237925581
 20
-114.8195358046285
 30
0.0
  0
SEQEND
  5
BE
330
BB
100
AcDbEntity
  8
_U+30EC_U+30A4_U+30E4_U+30FC 1
 62
     7
420
 16777215
370
     9
  0
INSERT
  5
C0
330
1F
100
AcDbEntity
  8
_U+30EC_U+30A4_U+30E4_U+30FC 1
100
AcDbBlockReference
  2
block 5
 10
0.0
 20
0.0
 30
0.0
  0
POLYLINE
  5
C8
330
1F
100
AcDbEntity
  8
_U+30EC_U+30A4_U+30E4_U+30FC 1
 62
     7
420
 16777215
370
     9
100
AcDb2dPolyline
 66
     1
 10
0.0
 20
0.0
 30
0.0
  0
VERTEX
  5
C9
330
C8
100
AcDbEntity
  8
_U+30EC_U+30A4_U+30E4_U+30FC 1
 62
     7
420
 16777215
370
     9
100
AcDbVertex
100
AcDb2dVertex
 10
74.21872755096696
 20
-143.7135527418495
 30
0.0
  0
VERTEX
  5
CA
330
C8
100
AcDbEntity
  8
_U+30EC_U+30A4_U+30E4_U+30FC 1
 62
     7
420
 16777215
370
     9
100
AcDbVertex
100
AcDb2dVertex
 10
80.21870128678377
 20
-143.7135527418495
 30
0.0
  0
SEQEND
  5
CB
330
C8
100
AcDbEntity
  8
_U+30EC_U+30A4_U+30E4_U+30FC 1
 62
     7
420
 16777215
370
     9
  0
POLYLINE
  5
CC
330
1F
100
AcDbEntity
  8
_U+30EC_U+30A4_U+30E4_U+30FC 1
 62
     7
420
 16777215
370
     9
100
AcDb2dPolyline
 66
     1
 10
0.0
 20
0.0
 30
0.0
  0
VERTEX
  5
CD
330
CC
100
AcDbEntity
  8
_U+30EC_U+30A4_U+30E4_U+30FC 1
 62
     7
420
 16777215
370
     9
100
AcDbVertex
100
AcDb2dVertex
 10
74.15325199708182
 20
-126.2536280239921
 30
0.0
  0
VERTEX
  5
CE
330
CC
100
AcDbEntity
  8
_U+30EC_U+30A4_U+30E4_U+30FC 1
 62
     7
420
 16777215
370
     9
100
AcDbVertex
100
AcDb2dVertex
 10
74.15325199708182
 20
-144.7139952415994
 30
0.0
  0
SEQEND
  5
CF
330
CC
100
AcDbEntity
  8
_U+30EC_U+30A4_U+30E4_U+30FC 1
 62
     7
420
 16777215
370
     9
  0
POLYLINE
  5
D0
330
1F
100
AcDbEntity
  8
_U+30EC_U+30A4_U+30E4_U+30FC 1
 62
     7
420
 16777215
370
     9
100
AcDb2dPolyline
 66
     1
 10
0.0
 20
0.0
 30
0.0
  0
VERTEX
  5
D1
330
D0
100
AcDbEntity
  8
_U+30EC_U+30A4_U+30E4_U+30FC 1
 62
     7
420
 16777215
370
     9
100
AcDbVertex
100
AcDb2dVertex
 10
80.21870128678377
 20
-142.2535113533258
 30
0.0
  0
VERTEX
  5
D2
330
D0
100
AcDbEntity
  8
_U+30EC_U+30A4_U+30E4_U+30FC 1
 62
     7
420
 16777215
370
     9
100
AcDbVertex
100
AcDb2dVertex
 10
80.21870128678377
 20
-144.7139952415994
 30
0.0
  0
SEQEND
  5
D3
330
D0
100
AcDbEntity
  8
_U+30EC_U+30A4_U+30E4_U+30FC 1
 62
     7
420
 16777215
370
     9
  0
INSERT
  5
D5
330
1F
100
AcDbEntity
  8
_U+30EC_U+30A4_U+30E4_U+30FC 1
100
AcDbBlockReference
  2
block 6
 10
0.0
 20
0.0
 30
0.0
  0
POLYLINE
  5
DB
330
1F
100
AcDbEntity
  8
_U+30EC_U+30A4_U+30E4_U+30FC 1
 62
     7
420
 16777215
370
     9
100
AcDb2dPolyline
 66
     1
 10
0.0
 20
0.0
 30
0.0
  0
VERTEX
  5
DC
330
DB
100
AcDbEntity
  8
_U+30EC_U+30A4_U+30E4_U+30FC 1
 62
     7
420
 16777215
370
     9
100
AcDbVertex
100
AcDb2dVertex
 10
107.3061072623931
 20
-136.3196832992533
 30
0.0
  0
VERTEX
  5
DD
330
DB
100
AcDbEntity
  8
_U+30EC_U+30A4_U+30E4_U+30FC 1
 62
     7
420
 16777215
370
     9
100
AcDbVertex
100
AcDb2dVertex
 10
107.3061072623931
 20
-120.8193333031283
 30
0.0
  0
SEQEND
  5
DE
330
DB
100
AcDbEntity
  8
_U+30EC_U+30A4_U+30E4_U+30FC 1
 62
     7
420
 16777215
370
     9
  0
SPLINE
  5
DF
330
1F
100
AcDbEntity
  8
_U+30EC_U+30A4_U+30E4_U+30FC 1
 62
     7
420
 16777215
370
     9
100
AcDbSpline
210
0.0
220
0.0
230
1.0
 70
    11
 71
     3
 72
    17
 73
    13
 74
     0
 42
0.0000000001
 43
0.0000000001
 12
1.0
 22
0.0
 32
0.0
 13
1.0
 23
0.0
 33
0.0
 40
0.0
 40
0.0
 40
0.0
 40
0.0
 40
1.0
 40
1.0
 40
1.0
 40
2.0
 40
2.0
 40
2.0
 40
3.0
 40
3.0
 40
3.0
 40
4.0
 40
4.0
 40
4.0
 40
4.0
 10
107.4060166398154
 20
-136.3596530214658
 30
0.0
 10
107.4060166398154
 20
-136.3045138548128
 30
0.0
 10
107.3612464276531
 20
-136.259711077046
 30
0.0
 10
107.3061072623931
 20
-136.259711077046
 30
0.0
 10
107.2510033749101
 20
-136.259711077046
 30
0.0
 10
107.2062005982753
 20
-136.3045138548128
 30
0.0
 10
107.2062005982753
 20
-136.3596530214658
 30
0.0
 10
107.2062005982753
 20
-136.4147569103408
 30
0.0
 10
107.2510033749101
 20
-136.4595596881075
 30
0.0
 10
107.3061072623931
 20
-136.4595596881075
 30
0.0
 10
107.3612464276531
 20
-136.4595596881075
 30
0.0
 10
107.4060166398154
 20
-136.4147569103408
 30
0.0
 10
107.4060166398154
 20
-136.3596530214658
 30
0.0
  0
SPLINE
  5
E0
330
1F
100
AcDbEntity
  8
_U+30EC_U+30A4_U+30E4_U+30FC 1
 62
     7
420
 16777215
370
     9
100
AcDbSpline
210
0.0
220
0.0
230
1.0
 70
    11
 71
     3
 72
    17
 73
    13
 74
     0
 42
0.0000000001
 43
0.0000000001
 12
1.0
 22
0.0
 32
0.0
 13
1.0
 23
0.0
 33
0.0
 40
0.0
 40
0.0
 40
0.0
 40
0.0
 40
1.0
 40
1.0
 40
1.0
 40
2.0
 40
2.0
 40
2.0
 40
3.0
 40
3.0
 40
3.0
 40
4.0
 40
4.0
 40
4.0
 40
4.0
 10
107.4060166398154
 20
-139.3596399651602
 30
0.0
 10
107.4060166398154
 20
-139.3045007985071
 30
0.0
 10
107.3612464276531
 20
-139.2597332985185
 30
0.0
 10
107.3061072623931
 20
-139.2597332985185
 30
0.0
 10
107.2510033749101
 20
-139.2597332985185
 30
0.0
 10
107.2062005982753
 20
-139.3045007985071
 30
0.0
 10
107.2062005982753
 20
-139.3596399651602
 30
0.0
 10
107.2062005982753
 20
-139.4147438540351
 30
0.0
 10
107.2510033749101
 20
-139.4595466318018
 30
0.0
 10
107.3061072623931
 20
-139.4595466318018
 30
0.0
 10
107.3612464276531
 20
-139.4595466318018
 30
0.0
 10
107.4060166398154
 20
-139.4147438540351
 30
0.0
 10
107.4060166398154
 20
-139.3596399651602
 30
0.0
  0
POLYLINE
  5
E1
330
1F
100
AcDbEntity
  8
_U+30EC_U+30A4_U+30E4_U+30FC 1
 62
     7
420
 16777215
370
     9
100
AcDb2dPolyline
 66
     1
 10
0.0
 20
0.0
 30
0.0
  0
VERTEX
  5
E2
330
E1
100
AcDbEntity
  8
_U+30EC_U+30A4_U+30E4_U+30FC 1
 62
     7
420
 16777215
370
     9
100
AcDbVertex
100
AcDb2dVertex
 10
107.3061072623931
 20
-139.3596399651602
 30
0.0
  0
VERTEX
  5
E3
330
E1
100
AcDbEntity
  8
_U+30EC_U+30A4_U+30E4_U+30FC 1
 62
     7
420
 16777215
370
     9
100
AcDbVertex
100
AcDb2dVertex
 10
107.3061072623931
 20
-136.3596530214658
 30
0.0
  0
SEQEND
  5
E4
330
E1
100
AcDbEntity
  8
_U+30EC_U+30A4_U+30E4_U+30FC 1
 62
     7
420
 16777215
370
     9
  0
POLYLINE
  5
E5
330
1F
100
AcDbEntity
  8
_U+30EC_U+30A4_U+30E4_U+30FC 1
 62
     7
420
 16777215
370
     9
100
AcDb2dPolyline
 66
     1
 10
0.0
 20
0.0
 30
0.0
  0
VERTEX
  5
E6
330
E5
100
AcDbEntity
  8
_U+30EC_U+30A4_U+30E4_U+30FC 1
 62
     7
420
 16777215
370
     9
100
AcDbVertex
100
AcDb2dVertex
 10
92.85326068667152
 20
-139.3596399651602
 30
0.0
  0
VERTEX
  5
E7
330
E5
100
AcDbEntity
  8
_U+30EC_U+30A4_U+30E4_U+30FC 1
 62
     7
420
 16777215
370
     9
100
AcDbVertex
100
AcDb2dVertex
 10
108.305879459109
 20
-139.3596399651602
 30
0.0
  0
SEQEND
  5
E8
330
E5
100
AcDbEntity
  8
_U+30EC_U+30A4_U+30E4_U+30FC 1
 62
     7
420
 16777215
370
     9
  0
INSERT
  5
EA
330
1F
100
AcDbEntity
  8
_U+30EC_U+30A4_U+30E4_U+30FC 1
100
AcDbBlockReference
  2
block 7
 10
0.0
 20
0.0
 30
0.0
  0
POLYLINE
  5
EF
330
1F
100
AcDbEntity
  8
_U+30EC_U+30A4_U+30E4_U+30FC 1
 62
     7
420
 16777215
370
     9
100
AcDb2dPolyline
 66
     1
 10
0.0
 20
0.0
 30
0.0
  0
VERTEX
  5
F0
330
EF
100
AcDbEntity
  8
_U+30EC_U+30A4_U+30E4_U+30FC 1
 62
     7
420
 16777215
370
     9
100
AcDbVertex
100
AcDb2dVertex
 10
92.85326068667152
 20
-136.3596530214658
 30
0.0
  0
VERTEX
  5
F1
330
EF
100
AcDbEntity
  8
_U+30EC_U+30A4_U+30E4_U+30FC 1
 62
     7
420
 16777215
370
     9
100
AcDbVertex
100
AcDb2dVertex
 10
108.305879459109
 20
-136.3596530214658
 30
0.0
  0
SEQEND
  5
F2
330
EF
100
AcDbEntity
  8
_U+30EC_U+30A4_U+30E4_U+30FC 1
 62
     7
420
 16777215
370
     9
  0
INSERT
  5
F4
330
1F
100
AcDbEntity
  8
_U+30EC_U+30A4_U+30E4_U+30FC 1
100
AcDbBlockReference
  2
block 8
 10
0.0
 20
0.0
 30
0.0
  0
ENDSEC
  0
SECTION
  2
OBJECTS
  0
DICTIONARY
  5
C
330
0
100
AcDbDictionary
281
     1
  3
ACAD_GROUP
350
D
  3
ACAD_LAYOUT
350
1A
  3
ACAD_MATERIAL
350
3B
  3
ACAD_MLEADERSTYLE
350
106
  3
ACAD_MLINESTYLE
350
17
  3
ACAD_PLOTSETTINGS
350
19
  3
ACAD_PLOTSTYLENAME
350
E
  3
ACAD_TABLESTYLE
350
105
  3
ACAD_VISUALSTYLE
350
2A
  0
SUN
  5
3F
330
29
100
AcDbSun
 90
        1
290
     0
 63
     7
421
 16777215
 40
1.0
291
     1
 91
  2455826
 92
 54000000
292
     0
 70
     2
 71
   256
280
     1
  0
DICTIONARY
  5
D
102
{ACAD_REACTORS
330
C
102
}
330
C
100
AcDbDictionary
281
     1
  0
DICTIONARY
  5
1A
102
{ACAD_REACTORS
330
C
102
}
330
C
100
AcDbDictionary
281
     1
  3
Layout1
350
1E
  3
Layout2
350
26
  3
Model
350
22
  0
DICTIONARY
  5
3B
102
{ACAD_REACTORS
330
C
102
}
330
C
100
AcDbDictionary
281
     1
  3
ByBlock
350
3D
  3
ByLayer
350
3C
  3
Global
350
3E
  0
DICTIONARY
  5
106
102
{ACAD_REACTORS
330
C
102
}
330
C
100
AcDbDictionary
281
     1
  0
DICTIONARY
  5
17
102
{ACAD_REACTORS
330
C
102
}
330
C
100
AcDbDictionary
281
     1
  3
Standard
350
18
  0
DICTIONARY
  5
19
102
{ACAD_REACTORS
330
C
102
}
330
C
100
AcDbDictionary
281
     1
  0
ACDBDICTIONARYWDFLT
  5
E
102
{ACAD_REACTORS
330
C
102
}
330
C
100
AcDbDictionary
281
     1
  3
Normal
350
F
100
AcDbDictionaryWithDefault
340
F
  0
DICTIONARY
  5
105
102
{ACAD_REACTORS
330
C
102
}
330
C
100
AcDbDictionary
281
     1
  0
DICTIONARY
  5
2A
102
{ACAD_REACTORS
330
C
102
}
330
C
100
AcDbDictionary
281
     1
  3
2dWireframe
350
2F
  3
3D Hidden
350
31
  3
3dWireframe
350
30
  3
Basic
350
32
  3
Brighten
350
36
  3
ColorChange
350
3A
  3
Conceptual
350
34
  3
Dim
350
35
  3
Facepattern
350
39
  3
Flat
350
2B
  3
FlatWithEdges
350
2C
  3
Gouraud
350
2D
  3
GouraudWithEdges
350
2E
  3
Linepattern
350
38
  3
Realistic
350
33
  3
Thicken
350
37
  0
LAYOUT
  5
1E
102
{ACAD_REACTORS
330
1A
102
}
330
1A
100
AcDbPlotSettings
  1

  2
none_device
  4

  6

 40
0.0
 41
0.0
 42
0.0
 43
0.0
 44
0.0
 45
0.0
 46
0.0
 47
0.0
 48
0.0
 49
0.0
140
0.0
141
0.0
142
1.0
143
1.0
 70
   688
 72
     0
 73
     0
 74
     5
  7

 75
    16
 76
     0
 77
     2
 78
   300
147
1.0
148
0.0
149
0.0
100
AcDbLayout
  1
Layout1
 70
     1
 71
     1
 10
0.0
 20
0.0
 11
12.0
 21
9.0
 12
0.0
 22
0.0
 32
0.0
 14
1.000000000000000E+20
 24
1.000000000000000E+20
 34
1.000000000000000E+20
 15
-1.000000000000000E+20
 25
-1.000000000000000E+20
 35
-1.000000000000000E+20
146
0.0
 13
0.0
 23
0.0
 33
0.0
 16
1.0
 26
0.0
 36
0.0
 17
0.0
 27
1.0
 37
0.0
 76
     0
330
1B
  0
LAYOUT
  5
26
102
{ACAD_REACTORS
330
1A
102
}
330
1A
100
AcDbPlotSettings
  1

  2
none_device
  4

  6

 40
0.0
 41
0.0
 42
0.0
 43
0.0
 44
0.0
 45
0.0
 46
0.0
 47
0.0
 48
0.0
 49
0.0
140
0.0
141
0.0
142
1.0
143
1.0
 70
   688
 72
     0
 73
     0
 74
     5
  7

 75
    16
 76
     0
 77
     2
 78
   300
147
1.0
148
0.0
149
0.0
100
AcDbLayout
  1
Layout2
 70
     1
 71
     2
 10
0.0
 20
0.0
 11
0.0
 21
0.0
 12
0.0
 22
0.0
 32
0.0
 14
0.0
 24
0.0
 34
0.0
 15
0.0
 25
0.0
 35
0.0
146
0.0
 13
0.0
 23
0.0
 33
0.0
 16
1.0
 26
0.0
 36
0.0
 17
0.0
 27
1.0
 37
0.0
 76
     0
330
23
  0
LAYOUT
  5
22
102
{ACAD_REACTORS
330
1A
102
}
330
1A
100
AcDbPlotSettings
  1

  2
none_device
  4

  6

 40
0.0
 41
0.0
 42
0.0
 43
0.0
 44
0.0
 45
0.0
 46
0.0
 47
0.0
 48
0.0
 49
0.0
140
0.0
141
0.0
142
1.0
143
1.0
 70
  1712
 72
     0
 73
     0
 74
     0
  7

 75
     0
 76
     0
 77
     2
 78
   300
147
1.0
148
0.0
149
0.0
100
AcDbLayout
  1
Model
 70
     1
 71
     0
 10
0.0
 20
0.0
 11
12.0
 21
9.0
 12
0.0
 22
0.0
 32
0.0
 14
1.000000000000000E+20
 24
1.000000000000000E+20
 34
1.000000000000000E+20
 15
-1.000000000000000E+20
 25
-1.000000000000000E+20
 35
-1.000000000000000E+20
146
0.0
 13
0.0
 23
0.0
 33
0.0
 16
1.0
 26
0.0
 36
0.0
 17
0.0
 27
1.0
 37
0.0
 76
     0
330
1F
331
29
  0
MATERIAL
  5
3D
102
{ACAD_REACTORS
330
3B
102
}
330
3B
100
AcDbMaterial
  1
ByBlock
 72
     1
 94
      127
  0
MATERIAL
  5
3C
102
{ACAD_REACTORS
330
3B
102
}
330
3B
100
AcDbMaterial
  1
ByLayer
 72
     1
 94
      127
  0
MATERIAL
  5
3E
102
{ACAD_REACTORS
330
3B
102
}
330
3B
100
AcDbMaterial
  1
Global
 72
     1
 94
      127
  0
MLINESTYLE
  5
18
102
{ACAD_REACTORS
330
17
102
}
330
17
100
AcDbMlineStyle
  2
Standard
 70
     0
  3

 62
   256
 51
90.0
 52
90.0
 71
     2
 49
0.5
 62
   256
  6
BYLAYER
 49
-0.5
 62
   256
  6
BYLAYER
  0
ACDBPLACEHOLDER
  5
F
102
{ACAD_REACTORS
330
E
102
}
330
E
  0
VISUALSTYLE
  5
2F
102
{ACAD_REACTORS
330
2A
102
}
330
2A
100
AcDbVisualStyle
  2
2dWireframe
 70
     4
177
     2
291
     0
 71
     0
176
     1
 72
     2
176
     1
 73
     0
176
     1
 90
        0
176
     1
 40
-0.6
176
     1
 41
-30.0
176
     1
 62
     5
 63
     7
421
 16777215
176
     1
 74
     1
176
     1
 91
        4
176
     1
 64
     7
176
     1
 65
   257
176
     1
 75
     1
176
     1
175
     1
176
     1
 42
1.0
176
     1
 92
        0
176
     1
 66
   257
176
     1
 43
1.0
176
     1
 76
     1
176
     1
 77
     6
176
     1
 78
     2
176
     1
 67
     7
176
     1
 79
     5
176
     1
170
     0
176
     1
171
     0
176
     1
290
     0
176
     1
 93
        1
176
     1
 44
0.0
176
     1
173
     0
176
     1
  0
VISUALSTYLE
  5
31
102
{ACAD_REACTORS
330
2A
102
}
330
2A
100
AcDbVisualStyle
  2
3D Hidden
 70
     6
177
     2
291
     0
 71
     1
176
     1
 72
     2
176
     1
 73
     2
176
     1
 90
        0
176
     1
 40
-0.6
176
     1
 41
-30.0
176
     1
 62
     5
 63
     7
421
 16777215
176
     1
 74
     2
176
     1
 91
        2
176
     1
 64
     7
176
     1
 65
   257
176
     1
 75
     2
176
     1
175
     1
176
     1
 42
40.0
176
     1
 92
        0
176
     1
 66
   257
176
     1
 43
1.0
176
     1
 76
     1
176
     1
 77
     6
176
     1
 78
     2
176
     1
 67
     7
176
     1
 79
     3
176
     1
170
     0
176
     1
171
     0
176
     1
290
     0
176
     1
 93
        1
176
     1
 44
0.0
176
     1
173
     0
176
     1
  0
VISUALSTYLE
  5
30
102
{ACAD_REACTORS
330
2A
102
}
330
2A
100
AcDbVisualStyle
  2
3dWireframe
 70
     5
177
     2
291
     0
 71
     0
176
     1
 72
     2
176
     1
 73
     0
176
     1
 90
        0
176
     1
 40
-0.6
176
     1
 41
-30.0
176
     1
 62
     5
 63
     7
421
 16777215
176
     1
 74
     1
176
     1
 91
        4
176
     1
 64
     7
176
     1
 65
   257
176
     1
 75
     1
176
     1
175
     1
176
     1
 42
1.0
176
     1
 92
        0
176
     1
 66
   257
176
     1
 43
1.0
176
     1
 76
     1
176
     1
 77
     6
176
     1
 78
     2
176
     1
 67
     7
176
     1
 79
     5
176
     1
170
     0
176
     1
171
     0
176
     1
290
     0
176
     1
 93
        1
176
     1
 44
0.0
176
     1
173
     0
176
     1
  0
VISUALSTYLE
  5
32
102
{ACAD_REACTORS
330
2A
102
}
330
2A
100
AcDbVisualStyle
  2
Basic
 70
     7
177
     2
291
     1
 71
     1
176
     1
 72
     0
176
     1
 73
     1
176
     1
 90
        0
176
     1
 40
-0.6
176
     1
 41
-30.0
176
     1
 62
     5
 63
     7
421
 16777215
176
     1
 74
     0
176
     1
 91
        4
176
     1
 64
     7
176
     1
 65
   257
176
     1
 75
     1
176
     1
175
     1
176
     1
 42
1.0
176
     1
 92
        8
176
     1
 66
     7
176
     1
 43
1.0
176
     1
 76
     1
176
     1
 77
     6
176
     1
 78
     2
176
     1
 67
     7
176
     1
 79
     5
176
     1
170
     0
176
     1
171
     0
176
     1
290
     0
176
     1
 93
        1
176
     1
 44
0.0
176
     1
173
     0
176
     1
  0
VISUALSTYLE
  5
36
102
{ACAD_REACTORS
330
2A
102
}
330
2A
100
AcDbVisualStyle
  2
Brighten
 70
    12
177
     2
291
     1
 71
     2
176
     1
 72
     2
176
     1
 73
     0
176
     1
 90
        0
176
     1
 40
-0.6
176
     1
 41
-30.0
176
     1
 62
     5
 63
     7
421
 16777215
176
     1
 74
     1
176
     1
 91
        4
176
     1
 64
     7
176
     1
 65
   257
176
     1
 75
     1
176
     1
175
     1
176
     1
 42
1.0
176
     1
 92
        8
176
     1
 66
     7
176
     1
 43
1.0
176
     1
 76
     1
176
     1
 77
     6
176
     1
 78
     2
176
     1
 67
     7
176
     1
 79
     5
176
     1
170
     0
176
     1
171
     0
176
     1
290
     0
176
     1
 93
        1
176
     1
 44
50.0
176
     1
173
     0
176
     1
  0
VISUALSTYLE
  5
3A
102
{ACAD_REACTORS
330
2A
102
}
330
2A
100
AcDbVisualStyle
  2
ColorChange
 70
    16
177
     2
291
     1
 71
     2
176
     1
 72
     2
176
     1
 73
     3
176
     1
 90
        0
176
     1
 40
-0.6
176
     1
 41
-30.0
176
     1
 62
     5
 63
     8
421
  8421504
176
     1
 74
     1
176
     1
 91
        4
176
     1
 64
     7
176
     1
 65
   257
176
     1
 75
     1
176
     1
175
     1
176
     1
 42
1.0
176
     1
 92
        8
176
     1
 66
     8
424
  8421504
176
     1
 43
1.0
176
     1
 76
     1
176
     1
 77
     6
176
     1
 78
     2
176
     1
 67
     7
176
     1
 79
     5
176
     1
170
     0
176
     1
171
     0
176
     1
290
     0
176
     1
 93
        1
176
     1
 44
0.0
176
     1
173
     0
176
     1
  0
VISUALSTYLE
  5
34
102
{ACAD_REACTORS
330
2A
102
}
330
2A
100
AcDbVisualStyle
  2
Conceptual
 70
     9
177
     2
291
     0
 71
     3
176
     1
 72
     2
176
     1
 73
     0
176
     1
 90
        0
176
     1
 40
-0.6
176
     1
 41
-30.0
176
     1
 62
     5
 63
     7
421
 16777215
176
     1
 74
     2
176
     1
 91
        2
176
     1
 64
     7
176
     1
 65
   257
176
     1
 75
     1
176
     1
175
     1
176
     1
 42
40.0
176
     1
 92
        8
176
     1
 66
     7
176
     1
 43
1.0
176
     1
 76
     1
176
     1
 77
     6
176
     1
 78
     2
176
     1
 67
     7
176
     1
 79
     3
176
     1
170
     0
176
     1
171
     0
176
     1
290
     0
176
     1
 93
        1
176
     1
 44
0.0
176
     1
173
     0
176
     1
  0
VISUALSTYLE
  5
35
102
{ACAD_REACTORS
330
2A
102
}
330
2A
100
AcDbVisualStyle
  2
Dim
 70
    11
177
     2
291
     1
 71
     2
176
     1
 72
     2
176
     1
 73
     0
176
     1
 90
        0
176
     1
 40
-0.6
176
     1
 41
-30.0
176
     1
 62
     5
 63
     7
421
 16777215
176
     1
 74
     1
176
     1
 91
        4
176
     1
 64
     7
176
     1
 65
   257
176
     1
 75
     1
176
     1
175
     1
176
     1
 42
1.0
176
     1
 92
        8
176
     1
 66
     7
176
     1
 43
1.0
176
     1
 76
     1
176
     1
 77
     6
176
     1
 78
     2
176
     1
 67
     7
176
     1
 79
     5
176
     1
170
     0
176
     1
171
     0
176
     1
290
     0
176
     1
 93
        1
176
     1
 44
-50.0
176
     1
173
     0
176
     1
  0
VISUALSTYLE
  5
39
102
{ACAD_REACTORS
330
2A
102
}
330
2A
100
AcDbVisualStyle
  2
Facepattern
 70
    15
177
     2
291
     1
 71
     2
176
     1
 72
     2
176
     1
 73
     0
176
     1
 90
        0
176
     1
 40
-0.6
176
     1
 41
-30.0
176
     1
 62
     5
 63
     7
421
 16777215
176
     1
 74
     1
176
     1
 91
        4
176
     1
 64
     7
176
     1
 65
   257
176
     1
 75
     1
176
     1
175
     1
176
     1
 42
1.0
176
     1
 92
        8
176
     1
 66
     7
176
     1
 43
1.0
176
     1
 76
     1
176
     1
 77
     6
176
     1
 78
     2
176
     1
 67
     7
176
     1
 79
     5
176
     1
170
     0
176
     1
171
     0
176
     1
290
     0
176
     1
 93
        1
176
     1
 44
0.0
176
     1
173
     0
176
     1
  0
VISUALSTYLE
  5
2B
102
{ACAD_REACTORS
330
2A
102
}
330
2A
100
AcDbVisualStyle
  2
Flat
 70
     0
177
     2
291
     1
 71
     2
176
     1
 72
     1
176
     1
 73
     1
176
     1
 90
        2
176
     1
 40
-0.6
176
     1
 41
30.0
176
     1
 62
     5
 63
     7
421
 16777215
176
     1
 74
     0
176
     1
 91
        4
176
     1
 64
     7
176
     1
 65
   257
176
     1
 75
     1
176
     1
175
     1
176
     1
 42
1.0
176
     1
 92
        8
176
     1
 66
     7
176
     1
 43
1.0
176
     1
 76
     1
176
     1
 77
     6
176
     1
 78
     2
176
     1
 67
     7
176
     1
 79
     5
176
     1
170
     0
176
     1
171
     0
176
     1
290
     0
176
     1
 93
       13
176
     1
 44
0.0
176
     1
173
     0
176
     1
  0
VISUALSTYLE
  5
2C
102
{ACAD_REACTORS
330
2A
102
}
330
2A
100
AcDbVisualStyle
  2
FlatWithEdges
 70
     1
177
     2
291
     1
 71
     2
176
     1
 72
     1
176
     1
 73
     1
176
     1
 90
        2
176
     1
 40
-0.6
176
     1
 41
30.0
176
     1
 62
     5
 63
     7
421
 16777215
176
     1
 74
     1
176
     1
 91
        4
176
     1
 64
     7
176
     1
 65
   257
176
     1
 75
     1
176
     1
175
     1
176
     1
 42
1.0
176
     1
 92
        0
176
     1
 66
   257
176
     1
 43
1.0
176
     1
 76
     1
176
     1
 77
     6
176
     1
 78
     2
176
     1
 67
     7
176
     1
 79
     5
176
     1
170
     0
176
     1
171
     0
176
     1
290
     0
176
     1
 93
       13
176
     1
 44
0.0
176
     1
173
     0
176
     1
  0
VISUALSTYLE
  5
2D
102
{ACAD_REACTORS
330
2A
102
}
330
2A
100
AcDbVisualStyle
  2
Gouraud
 70
     2
177
     2
291
     1
 71
     2
176
     1
 72
     2
176
     1
 73
     1
176
     1
 90
        2
176
     1
 40
-0.6
176
     1
 41
30.0
176
     1
 62
     5
 63
     7
421
 16777215
176
     1
 74
     0
176
     1
 91
        4
176
     1
 64
     7
176
     1
 65
   257
176
     1
 75
     1
176
     1
175
     1
176
     1
 42
1.0
176
     1
 92
        0
176
     1
 66
     7
176
     1
 43
1.0
176
     1
 76
     1
176
     1
 77
     6
176
     1
 78
     2
176
     1
 67
     7
176
     1
 79
     5
176
     1
170
     0
176
     1
171
     0
176
     1
290
     0
176
     1
 93
       13
176
     1
 44
0.0
176
     1
173
     0
176
     1
  0
VISUALSTYLE
  5
2E
102
{ACAD_REACTORS
330
2A
102
}
330
2A
100
AcDbVisualStyle
  2
GouraudWithEdges
 70
     3
177
     2
291
     1
 71
     2
176
     1
 72
     2
176
     1
 73
     1
176
     1
 90
        2
176
     1
 40
-0.6
176
     1
 41
30.0
176
     1
 62
     5
 63
     7
421
 16777215
176
     1
 74
     1
176
     1
 91
        4
176
     1
 64
     7
176
     1
 65
   257
176
     1
 75
     1
176
     1
175
     1
176
     1
 42
1.0
176
     1
 92
        0
176
     1
 66
   257
176
     1
 43
1.0
176
     1
 76
     1
176
     1
 77
     6
176
     1
 78
     2
176
     1
 67
     7
176
     1
 79
     5
176
     1
170
     0
176
     1
171
     0
176
     1
290
     0
176
     1
 93
       13
176
     1
 44
0.0
176
     1
173
     0
176
     1
  0
VISUALSTYLE
  5
38
102
{ACAD_REACTORS
330
2A
102
}
330
2A
100
AcDbVisualStyle
  2
Linepattern
 70
    14
177
     2
291
     1
 71
     2
176
     1
 72
     2
176
     1
 73
     0
176
     1
 90
        0
176
     1
 40
-0.6
176
     1
 41
-30.0
176
     1
 62
     5
 63
     7
421
 16777215
176
     1
 74
     1
176
     1
 91
        4
176
     1
 64
     7
176
     1
 65
   257
176
     1
 75
     7
176
     1
175
     7
176
     1
 42
1.0
176
     1
 92
        8
176
     1
 66
     7
176
     1
 43
1.0
176
     1
 76
     1
176
     1
 77
     6
176
     1
 78
     2
176
     1
 67
     7
176
     1
 79
     5
176
     1
170
     0
176
     1
171
     0
176
     1
290
     0
176
     1
 93
        1
176
     1
 44
0.0
176
     1
173
     0
176
     1
  0
VISUALSTYLE
  5
33
102
{ACAD_REACTORS
330
2A
102
}
330
2A
100
AcDbVisualStyle
  2
Realistic
 70
     8
177
     2
291
     0
 71
     2
176
     1
 72
     2
176
     1
 73
     0
176
     1
 90
        0
176
     1
 40
-0.6
176
     1
 41
-30.0
176
     1
 62
     5
 63
     7
421
 16777215
176
     1
 74
     1
176
     1
 91
        0
176
     1
 64
     7
176
     1
 65
   257
176
     1
 75
     1
176
     1
175
     1
176
     1
 42
1.0
176
     1
 92
        8
176
     1
 66
     8
424
  7895160
176
     1
 43
1.0
176
     1
 76
     1
176
     1
 77
     6
176
     1
 78
     2
176
     1
 67
     7
176
     1
 79
     5
176
     1
170
     0
176
     1
171
     0
176
     1
290
     0
176
     1
 93
       13
176
     1
 44
0.0
176
     1
173
     0
176
     1
  0
VISUALSTYLE
  5
37
102
{ACAD_REACTORS
330
2A
102
}
330
2A
100
AcDbVisualStyle
  2
Thicken
 70
    13
177
     2
291
     1
 71
     2
176
     1
 72
     2
176
     1
 73
     0
176
     1
 90
        0
176
     1
 40
-0.6
176
     1
 41
-30.0
176
     1
 62
     5
 63
     7
421
 16777215
176
     1
 74
     1
176
     1
 91
        4
176
     1
 64
     7
176
     1
 65
   257
176
     1
 75
     1
176
     1
175
     1
176
     1
 42
1.0
176
     1
 92
       12
176
     1
 66
     7
176
     1
 43
1.0
176
     1
 76
     1
176
     1
 77
     6
176
     1
 78
     2
176
     1
 67
     7
176
     1
 79
     5
176
     1
170
     0
176
     1
171
     0
176
     1
290
     0
176
     1
 93
        1
176
     1
 44
0.0
176
     1
173
     0
176
     1
  0
ENDSEC
  0
EOF
