  0
SECTION
  2
HEADER
  9
$ACADVER
  1
AC1024
  9
$ACADMAINTVER
 70
     6
  9
$DWGCODEPAGE
  3
UNDEFINED
  9
$INSBASE
 10
0.0
 20
0.0
 30
0.0
  9
$EXTMIN
 10
1.000000000000000E+20
 20
1.000000000000000E+20
 30
1.000000000000000E+20
  9
$EXTMAX
 10
-1.000000000000000E+20
 20
-1.000000000000000E+20
 30
-1.000000000000000E+20
  9
$LIMMIN
 10
0.0
 20
0.0
  9
$LIMMAX
 10
12.0
 20
9.0
  9
$ORTHOMODE
 70
     0
  9
$REGENMODE
 70
     1
  9
$FILLMODE
 70
     1
  9
$QTEXTMODE
 70
     0
  9
$MIRRTEXT
 70
     1
  9
$LTSCALE
 40
1.0
  9
$ATTMODE
 70
     1
  9
$TEXTSIZE
 40
0.2
  9
$TRACEWID
 40
0.05
  9
$TEXTSTYLE
  7
Standard
  9
$CLAYER
  8
0
  9
$CELTYPE
  6
ByLayer
  9
$CECOLOR
 62
   256
  9
$CELTSCALE
 40
1.0
  9
$DISPSILH
 70
     0
  9
$DIMSCALE
 40
1.0
  9
$DIMASZ
 40
0.18
  9
$DIMEXO
 40
0.0625
  9
$DIMDLI
 40
0.38
  9
$DIMRND
 40
0.0
  9
$DIMDLE
 40
0.0
  9
$DIMEXE
 40
0.18
  9
$DIMTP
 40
0.0
  9
$DIMTM
 40
0.0
  9
$DIMTXT
 40
0.18
  9
$DIMCEN
 40
0.09
  9
$DIMTSZ
 40
0.0
  9
$DIMTOL
 70
     0
  9
$DIMLIM
 70
     0
  9
$DIMTIH
 70
     1
  9
$DIMTOH
 70
     1
  9
$DIMSE1
 70
     0
  9
$DIMSE2
 70
     0
  9
$DIMTAD
 70
     0
  9
$DIMZIN
 70
     0
  9
$DIMBLK
  1

  9
$DIMASO
 70
     1
  9
$DIMSHO
 70
     1
  9
$DIMPOST
  1

  9
$DIMAPOST
  1

  9
$DIMALT
 70
     0
  9
$DIMALTD
 70
     2
  9
$DIMALTF
 40
25.4
  9
$DIMLFAC
 40
1.0
  9
$DIMTOFL
 70
     0
  9
$DIMTVP
 40
0.0
  9
$DIMTIX
 70
     0
  9
$DIMSOXD
 70
     0
  9
$DIMSAH
 70
     0
  9
$DIMBLK1
  1

  9
$DIMBLK2
  1

  9
$DIMSTYLE
  2
Standard
  9
$DIMCLRD
 70
     0
  9
$DIMCLRE
 70
     0
  9
$DIMCLRT
 70
     0
  9
$DIMTFAC
 40
1.0
  9
$DIMGAP
 40
0.09
  9
$DIMJUST
 70
     0
  9
$DIMSD1
 70
     0
  9
$DIMSD2
 70
     0
  9
$DIMTOLJ
 70
     1
  9
$DIMTZIN
 70
     0
  9
$DIMALTZ
 70
     0
  9
$DIMALTTZ
 70
     0
  9
$DIMUPT
 70
     0
  9
$DIMDEC
 70
     4
  9
$DIMTDEC
 70
     4
  9
$DIMALTU
 70
     2
  9
$DIMALTTD
 70
     2
  9
$DIMTXSTY
  7
Standard
  9
$DIMAUNIT
 70
     0
  9
$DIMADEC
 70
     0
  9
$DIMALTRND
 40
0.0
  9
$DIMAZIN
 70
     0
  9
$DIMDSEP
 70
    46
  9
$DIMATFIT
 70
     3
  9
$DIMFRAC
 70
     0
  9
$DIMLDRBLK
  1

  9
$DIMLUNIT
 70
     2
  9
$DIMLWD
 70
    -2
  9
$DIMLWE
 70
    -2
  9
$DIMTMOVE
 70
     0
  9
$DIMFXL
 40
1.0
  9
$DIMFXLON
 70
     0
  9
$DIMJOGANG
 40
0.7853981633974483
  9
$DIMTFILL
 70
     0
  9
$DIMTFILLCLR
 70
     0
  9
$DIMARCSYM
 70
     0
  9
$DIMLTYPE
  6

  9
$DIMLTEX1
  6

  9
$DIMLTEX2
  6

  9
$DIMTXTDIRECTION
 70
     0
  9
$LUNITS
 70
     2
  9
$LUPREC
 70
     4
  9
$SKETCHINC
 40
0.1
  9
$FILLETRAD
 40
0.5
  9
$AUNITS
 70
     0
  9
$AUPREC
 70
     0
  9
$MENU
  1
.
  9
$ELEVATION
 40
0.0
  9
$PELEVATION
 40
0.0
  9
$THICKNESS
 40
0.0
  9
$LIMCHECK
 70
     0
  9
$CHAMFERA
 40
0.5
  9
$CHAMFERB
 40
0.5
  9
$CHAMFERC
 40
1.0
  9
$CHAMFERD
 40
0.0
  9
$SKPOLY
 70
     0
  9
$TDCREATE
 40
2457917.613333322
  9
$TDUCREATE
 40
2457917.238333333
  9
$TDUPDATE
 40
2457917.613333322
  9
$TDUUPDATE
 40
2457917.238333333
  9
$TDINDWG
 40
0.0000000116
  9
$TDUSRTIMER
 40
0.0000000116
  9
$USRTIMER
 70
     1
  9
$ANGBASE
 50
0.0
  9
$ANGDIR
 70
     0
  9
$PDMODE
 70
     0
  9
$PDSIZE
 40
0.0
  9
$PLINEWID
 40
0.0
  9
$SPLFRAME
 70
     0
  9
$SPLINETYPE
 70
     6
  9
$SPLINESEGS
 70
     8
  9
$HANDSEED
  5
16E
  9
$SURFTAB1
 70
     6
  9
$SURFTAB2
 70
     6
  9
$SURFTYPE
 70
     6
  9
$SURFU
 70
     6
  9
$SURFV
 70
     6
  9
$UCSBASE
  2

  9
$UCSNAME
  2

  9
$UCSORG
 10
0.0
 20
0.0
 30
0.0
  9
$UCSXDIR
 10
1.0
 20
0.0
 30
0.0
  9
$UCSYDIR
 10
0.0
 20
1.0
 30
0.0
  9
$UCSORTHOREF
  2

  9
$UCSORTHOVIEW
 70
     0
  9
$UCSORGTOP
 10
0.0
 20
0.0
 30
0.0
  9
$UCSORGBOTTOM
 10
0.0
 20
0.0
 30
0.0
  9
$UCSORGLEFT
 10
0.0
 20
0.0
 30
0.0
  9
$UCSORGRIGHT
 10
0.0
 20
0.0
 30
0.0
  9
$UCSORGFRONT
 10
0.0
 20
0.0
 30
0.0
  9
$UCSORGBACK
 10
0.0
 20
0.0
 30
0.0
  9
$PUCSBASE
  2

  9
$PUCSNAME
  2

  9
$PUCSORG
 10
0.0
 20
0.0
 30
0.0
  9
$PUCSXDIR
 10
1.0
 20
0.0
 30
0.0
  9
$PUCSYDIR
 10
0.0
 20
1.0
 30
0.0
  9
$PUCSORTHOREF
  2

  9
$PUCSORTHOVIEW
 70
     0
  9
$PUCSORGTOP
 10
0.0
 20
0.0
 30
0.0
  9
$PUCSORGBOTTOM
 10
0.0
 20
0.0
 30
0.0
  9
$PUCSORGLEFT
 10
0.0
 20
0.0
 30
0.0
  9
$PUCSORGRIGHT
 10
0.0
 20
0.0
 30
0.0
  9
$PUCSORGFRONT
 10
0.0
 20
0.0
 30
0.0
  9
$PUCSORGBACK
 10
0.0
 20
0.0
 30
0.0
  9
$USERI1
 70
     0
  9
$USERI2
 70
     0
  9
$USERI3
 70
     0
  9
$USERI4
 70
     0
  9
$USERI5
 70
     0
  9
$USERR1
 40
0.0
  9
$USERR2
 40
0.0
  9
$USERR3
 40
0.0
  9
$USERR4
 40
0.0
  9
$USERR5
 40
0.0
  9
$WORLDVIEW
 70
     1
  9
$SHADEDGE
 70
     3
  9
$SHADEDIF
 70
    70
  9
$TILEMODE
 70
     1
  9
$MAXACTVP
 70
    64
  9
$PINSBASE
 10
0.0
 20
0.0
 30
0.0
  9
$PLIMCHECK
 70
     0
  9
$PEXTMIN
 10
1.000000000000000E+20
 20
1.000000000000000E+20
 30
1.000000000000000E+20
  9
$PEXTMAX
 10
-1.000000000000000E+20
 20
-1.000000000000000E+20
 30
-1.000000000000000E+20
  9
$PLIMMIN
 10
0.0
 20
0.0
  9
$PLIMMAX
 10
12.0
 20
9.0
  9
$UNITMODE
 70
     0
  9
$VISRETAIN
 70
     1
  9
$PLINEGEN
 70
     0
  9
$PSLTSCALE
 70
     1
  9
$TREEDEPTH
 70
  3020
  9
$CMLSTYLE
  2
Standard
  9
$CMLJUST
 70
     0
  9
$CMLSCALE
 40
1.0
  9
$PROXYGRAPHICS
 70
     1
  9
$MEASUREMENT
 70
     0
  9
$CELWEIGHT
370
    -1
  9
$ENDCAPS
280
     0
  9
$JOINSTYLE
280
     0
  9
$LWDISPLAY
290
     1
  9
$INSUNITS
 70
     1
  9
$HYPERLINKBASE
  1

  9
$STYLESHEET
  1

  9
$XEDIT
290
     1
  9
$CEPSNTYPE
380
     0
  9
$PSTYLEMODE
290
     1
  9
$FINGERPRINTGUID
  2
{073B5809-2024-017A-5DEE-F3316CD7E728}
  9
$VERSIONGUID
  2
{FAEB1C32-E019-11D5-929B-00C0DF256EC4}
  9
$EXTNAMES
290
     1
  9
$PSVPSCALE
 40
0.0
  9
$OLESTARTUP
290
     0
  9
$SORTENTS
280
   127
  9
$INDEXCTL
280
     0
  9
$HIDETEXT
280
     1
  9
$XCLIPFRAME
280
     2
  9
$HALOGAP
280
     0
  9
$OBSCOLOR
 70
   257
  9
$OBSLTYPE
280
     0
  9
$INTERSECTIONDISPLAY
280
     0
  9
$INTERSECTIONCOLOR
 70
   257
  9
$DIMASSOC
280
     2
  9
$PROJECTNAME
  1

  9
$CAMERADISPLAY
290
     0
  9
$LENSLENGTH
 40
50.0
  9
$CAMERAHEIGHT
 40
0.0
  9
$STEPSPERSEC
 40
2.0
  9
$STEPSIZE
 40
6.0
  9
$3DDWFPREC
 40
2.0
  9
$PSOLWIDTH
 40
0.25
  9
$PSOLHEIGHT
 40
4.0
  9
$LOFTANG1
 40
1.570796326794897
  9
$LOFTANG2
 40
1.570796326794897
  9
$LOFTMAG1
 40
0.0
  9
$LOFTMAG2
 40
0.0
  9
$LOFTPARAM
 70
     7
  9
$LOFTNORMALS
280
     1
  9
$LATITUDE
 40
37.795
  9
$LONGITUDE
 40
-122.394
  9
$NORTHDIRECTION
 40
0.0
  9
$TIMEZONE
 70
 -8000
  9
$LIGHTGLYPHDISPLAY
280
     1
  9
$TILEMODELIGHTSYNCH
280
     1
  9
$CMATERIAL
347
3C
  9
$SOLIDHIST
280
     1
  9
$SHOWHIST
280
     1
  9
$DWFFRAME
280
     2
  9
$DGNFRAME
280
     2
  9
$REALWORLDSCALE
290
     1
  9
$INTERFERECOLOR
 62
   256
  9
$CSHADOW
280
     0
  9
$SHADOWPLANELOCATION
 40
0.0
  0
ENDSEC
  0
SECTION
  2
CLASSES
  0
CLASS
  1
ACDBDICTIONARYWDFLT
  2
AcDbDictionaryWithDefault
  3
ObjectDBX Classes
 90
        0
 91
        4
280
     0
281
     0
  0
CLASS
  1
VISUALSTYLE
  2
AcDbVisualStyle
  3
ObjectDBX Classes
 90
     4095
 91
        4
280
     0
281
     0
  0
CLASS
  1
MATERIAL
  2
AcDbMaterial
  3
ObjectDBX Classes
 90
     1153
 91
        4
280
     0
281
     0
  0
CLASS
  1
SUN
  2
AcDbSun
  3
SCENEOE
 90
     1024
 91
        4
280
     0
281
     0
  0
ENDSEC
  0
SECTION
  2
TABLES
  0
TABLE
  2
VPORT
  5
8
330
0
100
AcDbSymbolTable
 70
     1
  0
VPORT
  5
29
330
8
100
AcDbSymbolTableRecord
100
AcDbViewportTableRecord
  2
*Active
 70
     0
 10
0.0
 20
0.0
 11
1.0
 21
1.0
 12
0.0
 22
0.0
 13
0.0
 23
0.0
 14
0.5
 24
0.5
 15
0.5
 25
0.5
 16
0.0
 26
0.0
 36
1.0
 17
91.00082462281999
 27
-128.4993055234307
 37
0.0
 40
256.9986110468615
 41
0.7081814508812795
 42
50.0
 43
0.0
 44
0.0
 50
0.0
 51
0.0
 71
     0
 72
   100
 73
     1
 74
     3
 75
     0
 76
     0
 77
     0
 78
     0
281
     0
 65
     1
110
0.0
120
0.0
130
0.0
111
1.0
121
0.0
131
0.0
112
0.0
122
1.0
132
0.0
 79
     0
146
0.0
 60
     3
 61
     5
292
     1
282
     1
141
0.0
142
0.0
 63
   250
361
3F
  0
ENDTAB
  0
TABLE
  2
LTYPE
  5
5
330
0
100
AcDbSymbolTable
 70
     1
  0
LTYPE
  5
14
330
5
100
AcDbSymbolTableRecord
100
AcDbLinetypeTableRecord
  2
ByBlock
 70
     0
  3

 72
    65
 73
     0
 40
0.0
  0
LTYPE
  5
15
330
5
100
AcDbSymbolTableRecord
100
AcDbLinetypeTableRecord
  2
ByLayer
 70
     0
  3

 72
    65
 73
     0
 40
0.0
  0
LTYPE
  5
16
330
5
100
AcDbSymbolTableRecord
100
AcDbLinetypeTableRecord
  2
Continuous
 70
     0
  3
Solid line
 72
    65
 73
     0
 40
0.0
  0
ENDTAB
  0
TABLE
  2
LAYER
  5
2
330
0
100
AcDbSymbolTable
 70
     2
  0
LAYER
  5
10
330
2
100
AcDbSymbolTableRecord
100
AcDbLayerTableRecord
  2
0
 70
     0
 62
     7
  6
Continuous
370
    -3
390
F
347
3E
  0
LAYER
  5
40
330
2
100
AcDbSymbolTableRecord
100
AcDbLayerTableRecord
  2
_U+30EC_U+30A4_U+30E4_U+30FC 1
 70
     0
 62
     7
  6
Continuous
370
    -3
390
F
347
3E
  0
ENDTAB
  0
TABLE
  2
STYLE
  5
3
330
0
100
AcDbSymbolTable
 70
     1
  0
STYLE
  5
11
330
3
100
AcDbSymbolTableRecord
100
AcDbTextStyleTableRecord
  2
Standard
 70
     0
 40
0.0
 41
1.0
 50
0.0
 71
     0
 42
0.2
  3
txt
  4

  0
ENDTAB
  0
TABLE
  2
VIEW
  5
6
330
0
100
AcDbSymbolTable
 70
     0
  0
ENDTAB
  0
TABLE
  2
UCS
  5
7
330
0
100
AcDbSymbolTable
 70
     0
  0
ENDTAB
  0
TABLE
  2
APPID
  5
9
330
0
100
AcDbSymbolTable
 70
     1
  0
APPID
  5
12
330
9
100
AcDbSymbolTableRecord
100
AcDbRegAppTableRecord
  2
ACAD
 70
     0
  0
ENDTAB
  0
TABLE
  2
DIMSTYLE
  5
A
330
0
100
AcDbSymbolTable
 70
     1
100
AcDbDimStyleTable
  0
DIMSTYLE
105
27
330
A
100
AcDbSymbolTableRecord
100
AcDbDimStyleTableRecord
  2
Standard
 70
     0
178
     0
340
11
  0
ENDTAB
  0
TABLE
  2
BLOCK_RECORD
  5
1
330
0
100
AcDbSymbolTable
 70
     7
  0
BLOCK_RECORD
  5
1F
330
1
100
AcDbSymbolTableRecord
100
AcDbBlockTableRecord
  2
*Model_Space
340
22
 70
     0
280
     1
281
     0
  0
BLOCK_RECORD
  5
1B
330
1
100
AcDbSymbolTableRecord
100
AcDbBlockTableRecord
  2
*Paper_Space
340
1E
 70
     0
280
     1
281
     0
  0
BLOCK_RECORD
  5
23
330
1
100
AcDbSymbolTableRecord
100
AcDbBlockTableRecord
  2
*Paper_Space0
340
26
 70
     0
280
     1
281
     0
  0
BLOCK_RECORD
  5
107
330
1
100
AcDbSymbolTableRecord
100
AcDbBlockTableRecord
  2
block 2
340
0
102
{BLKREFS
331
108
102
}
 70
     0
280
     1
281
     0
  0
BLOCK_RECORD
  5
115
330
1
100
AcDbSymbolTableRecord
100
AcDbBlockTableRecord
  2
block 3
340
0
102
{BLKREFS
331
116
102
}
 70
     0
280
     1
281
     0
  0
BLOCK_RECORD
  5
126
330
1
100
AcDbSymbolTableRecord
100
AcDbBlockTableRecord
  2
block 4
340
0
102
{BLKREFS
331
127
102
}
 70
     0
280
     1
281
     0
  0
BLOCK_RECORD
  5
138
330
1
100
AcDbSymbolTableRecord
100
AcDbBlockTableRecord
  2
block 5
340
0
102
{BLKREFS
331
139
102
}
 70
     0
280
     1
281
     0
  0
BLOCK_RECORD
  5
14D
330
1
100
AcDbSymbolTableRecord
100
AcDbBlockTableRecord
  2
block 6
340
0
102
{BLKREFS
331
14E
102
}
 70
     0
280
     1
281
     0
  0
BLOCK_RECORD
  5
15C
330
1
100
AcDbSymbolTableRecord
100
AcDbBlockTableRecord
  2
block 7
340
0
102
{BLKREFS
331
15D
102
}
 70
     0
280
     1
281
     0
  0
ENDTAB
  0
ENDSEC
  0
SECTION
  2
BLOCKS
  0
BLOCK
  5
20
330
1F
100
AcDbEntity
  8
0
100
AcDbBlockBegin
  2
*Model_Space
 70
     0
 10
0.0
 20
0.0
 30
0.0
  3
*Model_Space
  1

  0
ENDBLK
  5
21
330
1F
100
AcDbEntity
  8
0
100
AcDbBlockEnd
  0
BLOCK
  5
1C
330
1B
100
AcDbEntity
 67
     1
  8
0
100
AcDbBlockBegin
  2
*Paper_Space
 70
     0
 10
0.0
 20
0.0
 30
0.0
  3
*Paper_Space
  1

  0
ENDBLK
  5
1D
330
1B
100
AcDbEntity
 67
     1
  8
0
100
AcDbBlockEnd
  0
BLOCK
  5
24
330
23
100
AcDbEntity
  8
0
100
AcDbBlockBegin
  2
*Paper_Space0
 70
     0
 10
0.0
 20
0.0
 30
0.0
  3
*Paper_Space0
  1

  0
ENDBLK
  5
25
330
23
100
AcDbEntity
  8
0
100
AcDbBlockEnd
  0
BLOCK
  5
109
330
107
100
AcDbEntity
  8
0
100
AcDbBlockBegin
  2
block 2
 70
     0
 10
0.0
 20
0.0
 30
0.0
  3
block 2
  1

  0
SPLINE
  5
10B
330
107
100
AcDbEntity
  8
_U+30EC_U+30A4_U+30E4_U+30FC 1
370
     0
100
AcDbSpline
210
0.0
220
0.0
230
1.0
 70
    11
 71
     3
 72
    26
 73
    22
 74
     0
 42
0.0000000001
 43
0.0000000001
 12
1.0
 22
0.0
 32
0.0
 13
1.0
 23
0.0
 33
0.0
 40
0.0
 40
0.0
 40
0.0
 40
0.0
 40
1.0
 40
1.0
 40
1.0
 40
2.0
 40
2.0
 40
2.0
 40
3.0
 40
3.0
 40
3.0
 40
4.0
 40
4.0
 40
4.0
 40
5.0
 40
5.0
 40
5.0
 40
6.0
 40
6.0
 40
6.0
 40
7.0
 40
7.0
 40
7.0
 40
7.0
 10
105.8987901210947
 20
-125.5127522472677
 30
0.0
 10
105.8987901210947
 20
-125.5127522472677
 30
0.0
 10
104.7946370180722
 20
-125.5127522472677
 30
0.0
 10
104.7946370180722
 20
-125.5127522472677
 30
0.0
 10
104.7946370180722
 20
-125.5127522472677
 30
0.0
 10
104.7946370180722
 20
-125.8427923947546
 30
0.0
 10
104.7946370180722
 20
-125.8427923947546
 30
0.0
 10
104.7946370180722
 20
-125.8427923947546
 30
0.0
 10
104.6464979122064
 20
-125.8427923947546
 30
0.0
 10
104.6464979122064
 20
-125.8427923947546
 30
0.0
 10
104.6316840016199
 20
-125.5106851899765
 30
0.0
 10
104.4687309851675
 20
-125.4641764009256
 30
0.0
 10
104.3543538150573
 20
-125.4345485797525
 30
0.0
 10
104.3543538150573
 20
-125.4345485797525
 30
0.0
 10
104.3543538150573
 20
-125.2884765311779
 30
0.0
 10
104.3543538150573
 20
-125.2884765311779
 30
0.0
 10
104.3543538150573
 20
-125.2884765311779
 30
0.0
 10
105.8987901210947
 20
-125.2884765311779
 30
0.0
 10
105.8987901210947
 20
-125.2884765311779
 30
0.0
 10
105.8987901210947
 20
-125.2884765311779
 30
0.0
 10
105.8987901210947
 20
-125.5127522472677
 30
0.0
 10
105.8987901210947
 20
-125.5127522472677
 30
0.0
  0
HATCH
  5
10C
330
107
100
AcDbEntity
  8
_U+30EC_U+30A4_U+30E4_U+30FC 1
 62
     7
420
 16777215
100
AcDbHatch
 10
0.0
 20
0.0
 30
0.0
210
0.0
220
0.0
230
1.0
  2
SOLID
 70
     1
 71
     0
 91
        1
 92
        1
 93
        1
 72
     4
 94
        3
 73
     0
 74
     1
 95
       26
 96
       22
 40
0.0
 40
0.0
 40
0.0
 40
0.0
 40
1.0
 40
1.0
 40
1.0
 40
2.0
 40
2.0
 40
2.0
 40
3.0
 40
3.0
 40
3.0
 40
4.0
 40
4.0
 40
4.0
 40
5.0
 40
5.0
 40
5.0
 40
6.0
 40
6.0
 40
6.0
 40
7.0
 40
7.0
 40
7.0
 40
7.0
 10
105.8987901210947
 20
-125.5127522472677
 10
105.8987901210947
 20
-125.5127522472677
 10
104.7946370180722
 20
-125.5127522472677
 10
104.7946370180722
 20
-125.5127522472677
 10
104.7946370180722
 20
-125.5127522472677
 10
104.7946370180722
 20
-125.8427923947546
 10
104.7946370180722
 20
-125.8427923947546
 10
104.7946370180722
 20
-125.8427923947546
 10
104.6464979122064
 20
-125.8427923947546
 10
104.6464979122064
 20
-125.8427923947546
 10
104.6316840016199
 20
-125.5106851899765
 10
104.4687309851675
 20
-125.4641764009256
 10
104.3543538150573
 20
-125.4345485797525
 10
104.3543538150573
 20
-125.4345485797525
 10
104.3543538150573
 20
-125.2884765311779
 10
104.3543538150573
 20
-125.2884765311779
 10
104.3543538150573
 20
-125.2884765311779
 10
105.8987901210947
 20
-125.2884765311779
 10
105.8987901210947
 20
-125.2884765311779
 10
105.8987901210947
 20
-125.2884765311779
 10
105.8987901210947
 20
-125.5127522472677
 10
105.8987901210947
 20
-125.5127522472677
 97
        0
 97
        0
 75
     2
 76
     1
 98
        0
  0
ENDBLK
  5
10A
330
107
100
AcDbEntity
  8
0
100
AcDbBlockEnd
  0
BLOCK
  5
117
330
115
100
AcDbEntity
  8
0
100
AcDbBlockBegin
  2
block 3
 70
     0
 10
0.0
 20
0.0
 30
0.0
  3
block 3
  1

  0
SPLINE
  5
119
330
115
100
AcDbEntity
  8
_U+30EC_U+30A4_U+30E4_U+30FC 1
370
     0
100
AcDbSpline
210
0.0
220
0.0
230
1.0
 70
    11
 71
     3
 72
    26
 73
    22
 74
     0
 42
0.0000000001
 43
0.0000000001
 12
1.0
 22
0.0
 32
0.0
 13
1.0
 23
0.0
 33
0.0
 40
0.0
 40
0.0
 40
0.0
 40
0.0
 40
1.0
 40
1.0
 40
1.0
 40
2.0
 40
2.0
 40
2.0
 40
3.0
 40
3.0
 40
3.0
 40
4.0
 40
4.0
 40
4.0
 40
5.0
 40
5.0
 40
5.0
 40
6.0
 40
6.0
 40
6.0
 40
7.0
 40
7.0
 40
7.0
 40
7.0
 10
84.73126218584844
 20
-137.790383537601
 30
0.0
 10
84.73126218584844
 20
-137.790383537601
 30
0.0
 10
84.73126218584844
 20
-136.6858859250299
 30
0.0
 10
84.73126218584844
 20
-136.6858859250299
 30
0.0
 10
84.73126218584844
 20
-136.6858859250299
 30
0.0
 10
84.40122203836151
 20
-136.6858859250299
 30
0.0
 10
84.40122203836151
 20
-136.6858859250299
 30
0.0
 10
84.40122203836151
 20
-136.6858859250299
 30
0.0
 10
84.40122203836151
 20
-136.5380913287127
 30
0.0
 10
84.40122203836151
 20
-136.5380913287127
 30
0.0
 10
84.7333292431396
 20
-136.5232774181261
 30
0.0
 10
84.77983803219045
 20
-136.3603244016738
 30
0.0
 10
84.8094658533636
 20
-136.2459472315635
 30
0.0
 10
84.8094658533636
 20
-136.2459472315635
 30
0.0
 10
84.9555379019382
 20
-136.2459472315635
 30
0.0
 10
84.9555379019382
 20
-136.2459472315635
 30
0.0
 10
84.9555379019382
 20
-136.2459472315635
 30
0.0
 10
84.9555379019382
 20
-137.790383537601
 30
0.0
 10
84.9555379019382
 20
-137.790383537601
 30
0.0
 10
84.9555379019382
 20
-137.790383537601
 30
0.0
 10
84.73126218584844
 20
-137.790383537601
 30
0.0
 10
84.73126218584844
 20
-137.790383537601
 30
0.0
  0
HATCH
  5
11A
330
115
100
AcDbEntity
  8
_U+30EC_U+30A4_U+30E4_U+30FC 1
 62
     7
420
 16777215
100
AcDbHatch
 10
0.0
 20
0.0
 30
0.0
210
0.0
220
0.0
230
1.0
  2
SOLID
 70
     1
 71
     0
 91
        1
 92
        1
 93
        1
 72
     4
 94
        3
 73
     0
 74
     1
 95
       26
 96
       22
 40
0.0
 40
0.0
 40
0.0
 40
0.0
 40
1.0
 40
1.0
 40
1.0
 40
2.0
 40
2.0
 40
2.0
 40
3.0
 40
3.0
 40
3.0
 40
4.0
 40
4.0
 40
4.0
 40
5.0
 40
5.0
 40
5.0
 40
6.0
 40
6.0
 40
6.0
 40
7.0
 40
7.0
 40
7.0
 40
7.0
 10
84.73126218584844
 20
-137.790383537601
 10
84.73126218584844
 20
-137.790383537601
 10
84.73126218584844
 20
-136.6858859250299
 10
84.73126218584844
 20
-136.6858859250299
 10
84.73126218584844
 20
-136.6858859250299
 10
84.40122203836151
 20
-136.6858859250299
 10
84.40122203836151
 20
-136.6858859250299
 10
84.40122203836151
 20
-136.6858859250299
 10
84.40122203836151
 20
-136.5380913287127
 10
84.40122203836151
 20
-136.5380913287127
 10
84.7333292431396
 20
-136.5232774181261
 10
84.77983803219045
 20
-136.3603244016738
 10
84.8094658533636
 20
-136.2459472315635
 10
84.8094658533636
 20
-136.2459472315635
 10
84.9555379019382
 20
-136.2459472315635
 10
84.9555379019382
 20
-136.2459472315635
 10
84.9555379019382
 20
-136.2459472315635
 10
84.9555379019382
 20
-137.790383537601
 10
84.9555379019382
 20
-137.790383537601
 10
84.9555379019382
 20
-137.790383537601
 10
84.73126218584844
 20
-137.790383537601
 10
84.73126218584844
 20
-137.790383537601
 97
        0
 97
        0
 75
     2
 76
     1
 98
        0
  0
SPLINE
  5
11B
330
115
100
AcDbEntity
  8
_U+30EC_U+30A4_U+30E4_U+30FC 1
370
     0
100
AcDbSpline
210
0.0
220
0.0
230
1.0
 70
    11
 71
     3
 72
    29
 73
    25
 74
     0
 42
0.0000000001
 43
0.0000000001
 12
1.0
 22
0.0
 32
0.0
 13
1.0
 23
0.0
 33
0.0
 40
0.0
 40
0.0
 40
0.0
 40
0.0
 40
1.0
 40
1.0
 40
1.0
 40
2.0
 40
2.0
 40
2.0
 40
3.0
 40
3.0
 40
3.0
 40
4.0
 40
4.0
 40
4.0
 40
5.0
 40
5.0
 40
5.0
 40
6.0
 40
6.0
 40
6.0
 40
7.0
 40
7.0
 40
7.0
 40
8.0
 40
8.0
 40
8.0
 40
8.0
 10
86.3544189237239
 20
-137.6126166105621
 30
0.0
 10
86.24658743503558
 20
-137.8220784160653
 30
0.0
 10
86.07312687735325
 20
-137.8410264412342
 30
0.0
 10
85.9566826499518
 20
-137.8410264412342
 30
0.0
 10
85.7959689455649
 20
-137.8410264412342
 30
0.0
 10
85.65420326634687
 20
-137.7945176521833
 30
0.0
 10
85.5589463761797
 20
-137.6126166105621
 30
0.0
 10
85.45542125684796
 20
-137.4179687156455
 30
0.0
 10
85.43630097690482
 20
-137.1809461462603
 30
0.0
 10
85.43630097690482
 20
-137.017993129808
 30
0.0
 10
85.43630097690482
 20
-136.8743326480731
 30
0.0
 10
85.45318194478254
 20
-136.6224961681013
 30
0.0
 10
85.5589463761797
 20
-136.4237141586024
 30
0.0
 10
85.6669501196423
 20
-136.2204535249727
 30
0.0
 10
85.8276638240292
 20
-136.1973713852215
 30
0.0
 10
85.9566826499518
 20
-136.1973713852215
 30
0.0
 10
86.11532929704757
 20
-136.1973713852215
 30
0.0
 10
86.25916203355673
 20
-136.2418131169812
 30
0.0
 10
86.3544189237239
 20
-136.4237141586024
 30
0.0
 10
86.45380992847336
 20
-136.6162949962279
 30
0.0
 10
86.4770643229988
 20
-136.8447048268999
 30
0.0
 10
86.4770643229988
 20
-137.017993129808
 30
0.0
 10
86.4770643229988
 20
-137.1895588849735
 30
0.0
 10
86.45604924053877
 20
-137.4200357729367
 30
0.0
 10
86.3544189237239
 20
-137.6126166105621
 30
0.0
  0
SPLINE
  5
11C
330
115
100
AcDbEntity
  8
_U+30EC_U+30A4_U+30E4_U+30FC 1
370
     0
100
AcDbSpline
210
0.0
220
0.0
230
1.0
 70
    11
 71
     3
 72
    17
 73
    13
 74
     0
 42
0.0000000001
 43
0.0000000001
 12
1.0
 22
0.0
 32
0.0
 13
1.0
 23
0.0
 33
0.0
 40
0.0
 40
0.0
 40
0.0
 40
0.0
 40
1.0
 40
1.0
 40
1.0
 40
2.0
 40
2.0
 40
2.0
 40
3.0
 40
3.0
 40
3.0
 40
4.0
 40
4.0
 40
4.0
 40
4.0
 10
85.9566826499518
 20
-136.389952222847
 30
0.0
 10
85.70708548204546
 20
-136.389952222847
 30
0.0
 10
85.66057669299458
 20
-136.673483581283
 30
0.0
 10
85.66057669299458
 20
-137.017993129808
 30
0.0
 10
85.66057669299458
 20
-137.3376979908392
 30
0.0
 10
85.69657794081544
 20
-137.6463785463176
 30
0.0
 10
85.9566826499518
 20
-137.6463785463176
 30
0.0
 10
86.204212760567
 20
-137.6463785463176
 30
0.0
 10
86.25296086168329
 20
-137.3649142451727
 30
0.0
 10
86.25296086168329
 20
-137.017993129808
 30
0.0
 10
86.25296086168329
 20
-136.6986327783254
 30
0.0
 10
86.21472030179702
 20
-136.389952222847
 30
0.0
 10
85.9566826499518
 20
-136.389952222847
 30
0.0
  0
HATCH
  5
11D
330
115
100
AcDbEntity
  8
_U+30EC_U+30A4_U+30E4_U+30FC 1
 62
     7
420
 16777215
100
AcDbHatch
 10
0.0
 20
0.0
 30
0.0
210
0.0
220
0.0
230
1.0
  2
SOLID
 70
     1
 71
     0
 91
        2
 92
        1
 93
        1
 72
     4
 94
        3
 73
     0
 74
     1
 95
       29
 96
       25
 40
0.0
 40
0.0
 40
0.0
 40
0.0
 40
1.0
 40
1.0
 40
1.0
 40
2.0
 40
2.0
 40
2.0
 40
3.0
 40
3.0
 40
3.0
 40
4.0
 40
4.0
 40
4.0
 40
5.0
 40
5.0
 40
5.0
 40
6.0
 40
6.0
 40
6.0
 40
7.0
 40
7.0
 40
7.0
 40
8.0
 40
8.0
 40
8.0
 40
8.0
 10
86.3544189237239
 20
-137.6126166105621
 10
86.24658743503558
 20
-137.8220784160653
 10
86.07312687735325
 20
-137.8410264412342
 10
85.9566826499518
 20
-137.8410264412342
 10
85.7959689455649
 20
-137.8410264412342
 10
85.65420326634687
 20
-137.7945176521833
 10
85.5589463761797
 20
-137.6126166105621
 10
85.45542125684796
 20
-137.4179687156455
 10
85.43630097690482
 20
-137.1809461462603
 10
85.43630097690482
 20
-137.017993129808
 10
85.43630097690482
 20
-136.8743326480731
 10
85.45318194478254
 20
-136.6224961681013
 10
85.5589463761797
 20
-136.4237141586024
 10
85.6669501196423
 20
-136.2204535249727
 10
85.8276638240292
 20
-136.1973713852215
 10
85.9566826499518
 20
-136.1973713852215
 10
86.11532929704757
 20
-136.1973713852215
 10
86.25916203355673
 20
-136.2418131169812
 10
86.3544189237239
 20
-136.4237141586024
 10
86.45380992847336
 20
-136.6162949962279
 10
86.4770643229988
 20
-136.8447048268999
 10
86.4770643229988
 20
-137.017993129808
 10
86.4770643229988
 20
-137.1895588849735
 10
86.45604924053877
 20
-137.4200357729367
 10
86.3544189237239
 20
-137.6126166105621
 97
        0
 97
        0
 92
        1
 93
        1
 72
     4
 94
        3
 73
     0
 74
     1
 95
       17
 96
       13
 40
0.0
 40
0.0
 40
0.0
 40
0.0
 40
1.0
 40
1.0
 40
1.0
 40
2.0
 40
2.0
 40
2.0
 40
3.0
 40
3.0
 40
3.0
 40
4.0
 40
4.0
 40
4.0
 40
4.0
 10
85.9566826499518
 20
-136.389952222847
 10
85.70708548204546
 20
-136.389952222847
 10
85.66057669299458
 20
-136.673483581283
 10
85.66057669299458
 20
-137.017993129808
 10
85.66057669299458
 20
-137.3376979908392
 10
85.69657794081544
 20
-137.6463785463176
 10
85.9566826499518
 20
-137.6463785463176
 10
86.204212760567
 20
-137.6463785463176
 10
86.25296086168329
 20
-137.3649142451727
 10
86.25296086168329
 20
-137.017993129808
 10
86.25296086168329
 20
-136.6986327783254
 10
86.21472030179702
 20
-136.389952222847
 10
85.9566826499518
 20
-136.389952222847
 97
        0
 97
        0
 75
     2
 76
     1
 98
        0
  0
ENDBLK
  5
118
330
115
100
AcDbEntity
  8
0
100
AcDbBlockEnd
  0
BLOCK
  5
128
330
126
100
AcDbEntity
  8
0
100
AcDbBlockBegin
  2
block 4
 70
     0
 10
0.0
 20
0.0
 30
0.0
  3
block 4
  1

  0
SPLINE
  5
12A
330
126
100
AcDbEntity
  8
_U+30EC_U+30A4_U+30E4_U+30FC 1
370
     0
100
AcDbSpline
210
0.0
220
0.0
230
1.0
 70
    11
 71
     3
 72
    62
 73
    58
 74
     0
 42
0.0000000001
 43
0.0000000001
 12
1.0
 22
0.0
 32
0.0
 13
1.0
 23
0.0
 33
0.0
 40
0.0
 40
0.0
 40
0.0
 40
0.0
 40
1.0
 40
1.0
 40
1.0
 40
2.0
 40
2.0
 40
2.0
 40
3.0
 40
3.0
 40
3.0
 40
4.0
 40
4.0
 40
4.0
 40
5.0
 40
5.0
 40
5.0
 40
6.0
 40
6.0
 40
6.0
 40
7.0
 40
7.0
 40
7.0
 40
8.0
 40
8.0
 40
8.0
 40
9.0
 40
9.0
 40
9.0
 40
10.0
 40
10.0
 40
10.0
 40
11.0
 40
11.0
 40
11.0
 40
12.0
 40
12.0
 40
12.0
 40
13.0
 40
13.0
 40
13.0
 40
14.0
 40
14.0
 40
14.0
 40
15.0
 40
15.0
 40
15.0
 40
16.0
 40
16.0
 40
16.0
 40
17.0
 40
17.0
 40
17.0
 40
18.0
 40
18.0
 40
18.0
 40
19.0
 40
19.0
 40
19.0
 40
19.0
 10
105.9494330247279
 20
-132.9448567375971
 30
0.0
 10
105.9494330247279
 20
-133.0402858825385
 30
0.0
 10
105.9284179422679
 20
-133.2580159172063
 30
0.0
 10
105.7423827860644
 20
-133.3830728833209
 30
0.0
 10
105.6300726732453
 20
-133.4567979267053
 30
0.0
 10
105.5308539232701
 20
-133.4612765508361
 30
0.0
 10
105.4461045743329
 20
-133.4654106654184
 30
0.0
 10
105.4461045743329
 20
-133.4654106654184
 30
0.0
 10
105.4461045743329
 20
-133.2452690639109
 30
0.0
 10
105.4461045743329
 20
-133.2452690639109
 30
0.0
 10
105.5201741272658
 20
-133.2432020066198
 30
0.0
 10
105.7547851298113
 20
-133.232866720164
 30
0.0
 10
105.7547851298113
 20
-132.9493353617279
 30
0.0
 10
105.7547851298113
 20
-132.8118760518665
 30
0.0
 10
105.6851942010093
 20
-132.6592583218699
 30
0.0
 10
105.4567843703372
 20
-132.6592583218699
 30
0.0
 10
105.3403401429358
 20
-132.6592583218699
 30
0.0
 10
105.2917642965937
 20
-132.6974988817562
 30
0.0
 10
105.2600694181294
 20
-132.7291937602205
 30
0.0
 10
105.1859998651966
 20
-132.8032633131534
 30
0.0
 10
105.1732530119011
 20
-132.9197075405548
 30
0.0
 10
105.1732530119011
 20
-132.9744845587703
 30
0.0
 10
105.1732530119011
 20
-132.9937770934877
 30
0.0
 10
105.1753200691923
 20
-133.0296060865343
 30
0.0
 10
105.1794541837746
 20
-133.0571668504163
 30
0.0
 10
105.1794541837746
 20
-133.0571668504163
 30
0.0
 10
104.984806288858
 20
-133.0571668504163
 30
0.0
 10
104.984806288858
 20
-133.0571668504163
 30
0.0
 10
104.99135197028
 20
-133.01892629053
 30
0.0
 10
104.9934190275711
 20
-132.97689612561
 30
0.0
 10
104.9934190275711
 20
-132.970350444188
 30
0.0
 10
104.9934190275711
 20
-132.9048936299682
 30
0.0
 10
104.9720594355625
 20
-132.7061116204693
 30
0.0
 10
104.7353813757259
 20
-132.7061116204693
 30
0.0
 10
104.557614448687
 20
-132.7061116204693
 30
0.0
 10
104.502492920923
 20
-132.8370252489088
 30
0.0
 10
104.502492920923
 20
-132.9472683044368
 30
0.0
 10
104.502492920923
 20
-133.2115071281555
 30
0.0
 10
104.7353813757259
 20
-133.2201198668686
 30
0.0
 10
104.8070393618191
 20
-133.2242539814509
 30
0.0
 10
104.8070393618191
 20
-133.2242539814509
 30
0.0
 10
104.8070393618191
 20
-133.4275146150806
 30
0.0
 10
104.8070393618191
 20
-133.4275146150806
 30
0.0
 10
104.682326905253
 20
-133.4189018763675
 30
0.0
 10
104.3057779687152
 20
-133.3913411124855
 30
0.0
 10
104.3057779687152
 20
-132.9345214511414
 30
0.0
 10
104.3057779687152
 20
-132.7102457350516
 30
0.0
 10
104.4329019921209
 20
-132.4690890510841
 30
0.0
 10
104.7288356943039
 20
-132.4690890510841
 30
0.0
 10
104.9152153600559
 20
-132.4690890510841
 30
0.0
 10
104.9975531421534
 20
-132.564173686477
 30
0.0
 10
105.0588758417908
 20
-132.6637369460007
 30
0.0
 10
105.0864366056728
 20
-132.6024142463633
 30
0.0
 10
105.1667073304792
 20
-132.4205132047421
 30
0.0
 10
105.4440375170418
 20
-132.4205132047421
 30
0.0
 10
105.7823458936933
 20
-132.4205132047421
 30
0.0
 10
105.9494330247279
 20
-132.667871060583
 30
0.0
 10
105.9494330247279
 20
-132.9448567375971
 30
0.0
  0
HATCH
  5
12B
330
126
100
AcDbEntity
  8
_U+30EC_U+30A4_U+30E4_U+30FC 1
 62
     7
420
 16777215
100
AcDbHatch
 10
0.0
 20
0.0
 30
0.0
210
0.0
220
0.0
230
1.0
  2
SOLID
 70
     1
 71
     0
 91
        1
 92
        1
 93
        1
 72
     4
 94
        3
 73
     0
 74
     1
 95
       62
 96
       58
 40
0.0
 40
0.0
 40
0.0
 40
0.0
 40
1.0
 40
1.0
 40
1.0
 40
2.0
 40
2.0
 40
2.0
 40
3.0
 40
3.0
 40
3.0
 40
4.0
 40
4.0
 40
4.0
 40
5.0
 40
5.0
 40
5.0
 40
6.0
 40
6.0
 40
6.0
 40
7.0
 40
7.0
 40
7.0
 40
8.0
 40
8.0
 40
8.0
 40
9.0
 40
9.0
 40
9.0
 40
10.0
 40
10.0
 40
10.0
 40
11.0
 40
11.0
 40
11.0
 40
12.0
 40
12.0
 40
12.0
 40
13.0
 40
13.0
 40
13.0
 40
14.0
 40
14.0
 40
14.0
 40
15.0
 40
15.0
 40
15.0
 40
16.0
 40
16.0
 40
16.0
 40
17.0
 40
17.0
 40
17.0
 40
18.0
 40
18.0
 40
18.0
 40
19.0
 40
19.0
 40
19.0
 40
19.0
 10
105.9494330247279
 20
-132.9448567375971
 10
105.9494330247279
 20
-133.0402858825385
 10
105.9284179422679
 20
-133.2580159172063
 10
105.7423827860644
 20
-133.3830728833209
 10
105.6300726732453
 20
-133.4567979267053
 10
105.5308539232701
 20
-133.4612765508361
 10
105.4461045743329
 20
-133.4654106654184
 10
105.4461045743329
 20
-133.4654106654184
 10
105.4461045743329
 20
-133.2452690639109
 10
105.4461045743329
 20
-133.2452690639109
 10
105.5201741272658
 20
-133.2432020066198
 10
105.7547851298113
 20
-133.232866720164
 10
105.7547851298113
 20
-132.9493353617279
 10
105.7547851298113
 20
-132.8118760518665
 10
105.6851942010093
 20
-132.6592583218699
 10
105.4567843703372
 20
-132.6592583218699
 10
105.3403401429358
 20
-132.6592583218699
 10
105.2917642965937
 20
-132.6974988817562
 10
105.2600694181294
 20
-132.7291937602205
 10
105.1859998651966
 20
-132.8032633131534
 10
105.1732530119011
 20
-132.9197075405548
 10
105.1732530119011
 20
-132.9744845587703
 10
105.1732530119011
 20
-132.9937770934877
 10
105.1753200691923
 20
-133.0296060865343
 10
105.1794541837746
 20
-133.0571668504163
 10
105.1794541837746
 20
-133.0571668504163
 10
104.984806288858
 20
-133.0571668504163
 10
104.984806288858
 20
-133.0571668504163
 10
104.99135197028
 20
-133.01892629053
 10
104.9934190275711
 20
-132.97689612561
 10
104.9934190275711
 20
-132.970350444188
 10
104.9934190275711
 20
-132.9048936299682
 10
104.9720594355625
 20
-132.7061116204693
 10
104.7353813757259
 20
-132.7061116204693
 10
104.557614448687
 20
-132.7061116204693
 10
104.502492920923
 20
-132.8370252489088
 10
104.502492920923
 20
-132.9472683044368
 10
104.502492920923
 20
-133.2115071281555
 10
104.7353813757259
 20
-133.2201198668686
 10
104.8070393618191
 20
-133.2242539814509
 10
104.8070393618191
 20
-133.2242539814509
 10
104.8070393618191
 20
-133.4275146150806
 10
104.8070393618191
 20
-133.4275146150806
 10
104.682326905253
 20
-133.4189018763675
 10
104.3057779687152
 20
-133.3913411124855
 10
104.3057779687152
 20
-132.9345214511414
 10
104.3057779687152
 20
-132.7102457350516
 10
104.4329019921209
 20
-132.4690890510841
 10
104.7288356943039
 20
-132.4690890510841
 10
104.9152153600559
 20
-132.4690890510841
 10
104.9975531421534
 20
-132.564173686477
 10
105.0588758417908
 20
-132.6637369460007
 10
105.0864366056728
 20
-132.6024142463633
 10
105.1667073304792
 20
-132.4205132047421
 10
105.4440375170418
 20
-132.4205132047421
 10
105.7823458936933
 20
-132.4205132047421
 10
105.9494330247279
 20
-132.667871060583
 10
105.9494330247279
 20
-132.9448567375971
 97
        0
 97
        0
 75
     2
 76
     1
 98
        0
  0
ENDBLK
  5
129
330
126
100
AcDbEntity
  8
0
100
AcDbBlockEnd
  0
BLOCK
  5
13A
330
138
100
AcDbEntity
  8
0
100
AcDbBlockBegin
  2
block 5
 70
     0
 10
0.0
 20
0.0
 30
0.0
  3
block 5
  1

  0
SPLINE
  5
13C
330
138
100
AcDbEntity
  8
_U+30EC_U+30A4_U+30E4_U+30FC 1
370
     0
100
AcDbSpline
210
0.0
220
0.0
230
1.0
 70
    11
 71
     3
 72
    44
 73
    40
 74
     0
 42
0.0000000001
 43
0.0000000001
 12
1.0
 22
0.0
 32
0.0
 13
1.0
 23
0.0
 33
0.0
 40
0.0
 40
0.0
 40
0.0
 40
0.0
 40
1.0
 40
1.0
 40
1.0
 40
2.0
 40
2.0
 40
2.0
 40
3.0
 40
3.0
 40
3.0
 40
4.0
 40
4.0
 40
4.0
 40
5.0
 40
5.0
 40
5.0
 40
6.0
 40
6.0
 40
6.0
 40
7.0
 40
7.0
 40
7.0
 40
8.0
 40
8.0
 40
8.0
 40
9.0
 40
9.0
 40
9.0
 40
10.0
 40
10.0
 40
10.0
 40
11.0
 40
11.0
 40
11.0
 40
12.0
 40
12.0
 40
12.0
 40
13.0
 40
13.0
 40
13.0
 40
13.0
 10
88.37290036853177
 20
-119.708627628493
 30
0.0
 10
88.15499807908972
 20
-119.8672742755887
 30
0.0
 10
88.06180824621372
 20
-119.9413438285216
 30
0.0
 10
88.0132323998717
 20
-120.0851765650308
 30
0.0
 10
88.0132323998717
 20
-120.0851765650308
 30
0.0
 10
88.7916517247639
 20
-120.0851765650308
 30
0.0
 10
88.7916517247639
 20
-120.0851765650308
 30
0.0
 10
88.7916517247639
 20
-120.0851765650308
 30
0.0
 10
88.7916517247639
 20
-120.2903320011774
 30
0.0
 10
88.7916517247639
 20
-120.2903320011774
 30
0.0
 10
88.7916517247639
 20
-120.2903320011774
 30
0.0
 10
87.76363523196534
 20
-120.2903320011774
 30
0.0
 10
87.76363523196534
 20
-120.2903320011774
 30
0.0
 10
87.79533011042965
 20
-119.9327310898085
 30
0.0
 10
87.86078692464939
 20
-119.8545274222933
 30
0.0
 10
88.24594859990032
 20
-119.5561821532707
 30
0.0
 10
88.50191919445439
 20
-119.3574001437718
 30
0.0
 10
88.56737600867413
 20
-119.2897040174866
 30
0.0
 10
88.56737600867413
 20
-119.1522447076251
 30
0.0
 10
88.56737600867413
 20
-119.0337334229325
 30
0.0
 10
88.49554576780668
 20
-118.9026475397188
 30
0.0
 10
88.2988308155989
 20
-118.9026475397188
 30
0.0
 10
88.03855385168828
 20
-118.9026475397188
 30
0.0
 10
88.03011336774942
 20
-119.133124427682
 30
0.0
 10
88.02580699839285
 20
-119.2495686550835
 30
0.0
 10
88.02580699839285
 20
-119.2495686550835
 30
0.0
 10
87.80170353707736
 20
-119.2495686550835
 30
0.0
 10
87.80170353707736
 20
-119.2495686550835
 30
0.0
 10
87.81014402101621
 20
-119.122616886452
 30
0.0
 10
87.82065156224623
 20
-119.0104790284071
 30
0.0
 10
87.90109454182681
 20
-118.8919677437145
 30
0.0
 10
88.01099308780628
 20
-118.7312540393276
 30
0.0
 10
88.19720049878404
 20
-118.6973198487979
 30
0.0
 10
88.31364472618549
 20
-118.6973198487979
 30
0.0
 10
88.59080265797382
 20
-118.6973198487979
 30
0.0
 10
88.79802515141161
 20
-118.8814602024845
 30
0.0
 10
88.79802515141161
 20
-119.1543117649163
 30
0.0
 10
88.79802515141161
 20
-119.3827215955884
 30
0.0
 10
88.68175317878443
 20
-119.4822848551121
 30
0.0
 10
88.37290036853177
 20
-119.708627628493
 30
0.0
  0
HATCH
  5
13D
330
138
100
AcDbEntity
  8
_U+30EC_U+30A4_U+30E4_U+30FC 1
 62
     7
420
 16777215
100
AcDbHatch
 10
0.0
 20
0.0
 30
0.0
210
0.0
220
0.0
230
1.0
  2
SOLID
 70
     1
 71
     0
 91
        1
 92
        1
 93
        1
 72
     4
 94
        3
 73
     0
 74
     1
 95
       44
 96
       40
 40
0.0
 40
0.0
 40
0.0
 40
0.0
 40
1.0
 40
1.0
 40
1.0
 40
2.0
 40
2.0
 40
2.0
 40
3.0
 40
3.0
 40
3.0
 40
4.0
 40
4.0
 40
4.0
 40
5.0
 40
5.0
 40
5.0
 40
6.0
 40
6.0
 40
6.0
 40
7.0
 40
7.0
 40
7.0
 40
8.0
 40
8.0
 40
8.0
 40
9.0
 40
9.0
 40
9.0
 40
10.0
 40
10.0
 40
10.0
 40
11.0
 40
11.0
 40
11.0
 40
12.0
 40
12.0
 40
12.0
 40
13.0
 40
13.0
 40
13.0
 40
13.0
 10
88.37290036853177
 20
-119.708627628493
 10
88.15499807908972
 20
-119.8672742755887
 10
88.06180824621372
 20
-119.9413438285216
 10
88.0132323998717
 20
-120.0851765650308
 10
88.0132323998717
 20
-120.0851765650308
 10
88.7916517247639
 20
-120.0851765650308
 10
88.7916517247639
 20
-120.0851765650308
 10
88.7916517247639
 20
-120.0851765650308
 10
88.7916517247639
 20
-120.2903320011774
 10
88.7916517247639
 20
-120.2903320011774
 10
88.7916517247639
 20
-120.2903320011774
 10
87.76363523196534
 20
-120.2903320011774
 10
87.76363523196534
 20
-120.2903320011774
 10
87.79533011042965
 20
-119.9327310898085
 10
87.86078692464939
 20
-119.8545274222933
 10
88.24594859990032
 20
-119.5561821532707
 10
88.50191919445439
 20
-119.3574001437718
 10
88.56737600867413
 20
-119.2897040174866
 10
88.56737600867413
 20
-119.1522447076251
 10
88.56737600867413
 20
-119.0337334229325
 10
88.49554576780668
 20
-118.9026475397188
 10
88.2988308155989
 20
-118.9026475397188
 10
88.03855385168828
 20
-118.9026475397188
 10
88.03011336774942
 20
-119.133124427682
 10
88.02580699839285
 20
-119.2495686550835
 10
88.02580699839285
 20
-119.2495686550835
 10
87.80170353707736
 20
-119.2495686550835
 10
87.80170353707736
 20
-119.2495686550835
 10
87.81014402101621
 20
-119.122616886452
 10
87.82065156224623
 20
-119.0104790284071
 10
87.90109454182681
 20
-118.8919677437145
 10
88.01099308780628
 20
-118.7312540393276
 10
88.19720049878404
 20
-118.6973198487979
 10
88.31364472618549
 20
-118.6973198487979
 10
88.59080265797382
 20
-118.6973198487979
 10
88.79802515141161
 20
-118.8814602024845
 10
88.79802515141161
 20
-119.1543117649163
 10
88.79802515141161
 20
-119.3827215955884
 10
88.68175317878443
 20
-119.4822848551121
 10
88.37290036853177
 20
-119.708627628493
 97
        0
 97
        0
 75
     2
 76
     1
 98
        0
  0
SPLINE
  5
13E
330
138
100
AcDbEntity
  8
_U+30EC_U+30A4_U+30E4_U+30FC 1
370
     0
100
AcDbSpline
210
0.0
220
0.0
230
1.0
 70
    11
 71
     3
 72
    32
 73
    28
 74
     0
 42
0.0000000001
 43
0.0000000001
 12
1.0
 22
0.0
 32
0.0
 13
1.0
 23
0.0
 33
0.0
 40
0.0
 40
0.0
 40
0.0
 40
0.0
 40
1.0
 40
1.0
 40
1.0
 40
2.0
 40
2.0
 40
2.0
 40
3.0
 40
3.0
 40
3.0
 40
4.0
 40
4.0
 40
4.0
 40
5.0
 40
5.0
 40
5.0
 40
6.0
 40
6.0
 40
6.0
 40
7.0
 40
7.0
 40
7.0
 40
8.0
 40
8.0
 40
8.0
 40
9.0
 40
9.0
 40
9.0
 40
9.0
 10
89.41435273372281
 20
-120.3411471595849
 30
0.0
 10
89.24089217604048
 20
-120.3411471595849
 30
0.0
 10
88.99542912271643
 20
-120.2712117212343
 30
0.0
 10
88.95736081760441
 20
-119.9391045164562
 30
0.0
 10
88.95736081760441
 20
-119.9391045164562
 30
0.0
 10
89.1709567376899
 20
-119.9391045164562
 30
0.0
 10
89.1709567376899
 20
-119.9391045164562
 30
0.0
 10
89.18163653369417
 20
-119.9983601588025
 30
0.0
 10
89.21333141215848
 20
-120.1464992646682
 30
0.0
 10
89.41641979101395
 20
-120.1464992646682
 30
0.0
 10
89.70839163338889
 20
-120.1464992646682
 30
0.0
 10
89.74645993850089
 20
-119.8164591171813
 30
0.0
 10
89.75903453702205
 20
-119.6113036810347
 30
0.0
 10
89.66808401621145
 20
-119.691574405841
 30
0.0
 10
89.6003878899263
 20
-119.7487629908962
 30
0.0
 10
89.41848684830511
 20
-119.7487629908962
 30
0.0
 10
89.23865286397506
 20
-119.7487629908962
 30
0.0
 10
88.93617348037013
 20
-119.642998559499
 30
0.0
 10
88.93617348037013
 20
-119.236821801788
 30
0.0
 10
88.93617348037013
 20
-118.9172891955311
 30
0.0
 10
89.13495548986904
 20
-118.6973198487979
 30
0.0
 10
89.45242103883481
 20
-118.6973198487979
 30
0.0
 10
89.96642928523409
 20
-118.6973198487979
 30
0.0
 10
89.9769368264641
 20
-119.2516357123746
 30
0.0
 10
89.9769368264641
 20
-119.4652316324601
 30
0.0
 10
89.9769368264641
 20
-119.6958807751976
 30
0.0
 10
89.95798880129523
 20
-120.3411471595849
 30
0.0
 10
89.41435273372281
 20
-120.3411471595849
 30
0.0
  0
SPLINE
  5
13F
330
138
100
AcDbEntity
  8
_U+30EC_U+30A4_U+30E4_U+30FC 1
370
     0
100
AcDbSpline
210
0.0
220
0.0
230
1.0
 70
    11
 71
     3
 72
    17
 73
    13
 74
     0
 42
0.0000000001
 43
0.0000000001
 12
1.0
 22
0.0
 32
0.0
 13
1.0
 23
0.0
 33
0.0
 40
0.0
 40
0.0
 40
0.0
 40
0.0
 40
1.0
 40
1.0
 40
1.0
 40
2.0
 40
2.0
 40
2.0
 40
3.0
 40
3.0
 40
3.0
 40
4.0
 40
4.0
 40
4.0
 40
4.0
 10
89.45448809612597
 20
-118.8899006864234
 30
0.0
 10
89.33597681143337
 20
-118.8899006864234
 30
0.0
 10
89.1604491964599
 20
-118.9469170167042
 30
0.0
 10
89.1604491964599
 20
-119.2325154324315
 30
0.0
 10
89.1604491964599
 20
-119.4588582058124
 30
0.0
 10
89.2999755636125
 20
-119.5541150959795
 30
0.0
 10
89.43536781618283
 20
-119.5541150959795
 30
0.0
 10
89.6977118373846
 20
-119.5541150959795
 30
0.0
 10
89.73578014249661
 20
-119.3446532904763
 30
0.0
 10
89.73578014249661
 20
-119.2283813178492
 30
0.0
 10
89.73578014249661
 20
-119.0526814481014
 30
0.0
 10
89.64069550710371
 20
-118.8899006864234
 30
0.0
 10
89.45448809612597
 20
-118.8899006864234
 30
0.0
  0
HATCH
  5
140
330
138
100
AcDbEntity
  8
_U+30EC_U+30A4_U+30E4_U+30FC 1
 62
     7
420
 16777215
100
AcDbHatch
 10
0.0
 20
0.0
 30
0.0
210
0.0
220
0.0
230
1.0
  2
SOLID
 70
     1
 71
     0
 91
        2
 92
        1
 93
        1
 72
     4
 94
        3
 73
     0
 74
     1
 95
       32
 96
       28
 40
0.0
 40
0.0
 40
0.0
 40
0.0
 40
1.0
 40
1.0
 40
1.0
 40
2.0
 40
2.0
 40
2.0
 40
3.0
 40
3.0
 40
3.0
 40
4.0
 40
4.0
 40
4.0
 40
5.0
 40
5.0
 40
5.0
 40
6.0
 40
6.0
 40
6.0
 40
7.0
 40
7.0
 40
7.0
 40
8.0
 40
8.0
 40
8.0
 40
9.0
 40
9.0
 40
9.0
 40
9.0
 10
89.41435273372281
 20
-120.3411471595849
 10
89.24089217604048
 20
-120.3411471595849
 10
88.99542912271643
 20
-120.2712117212343
 10
88.95736081760441
 20
-119.9391045164562
 10
88.95736081760441
 20
-119.9391045164562
 10
89.1709567376899
 20
-119.9391045164562
 10
89.1709567376899
 20
-119.9391045164562
 10
89.18163653369417
 20
-119.9983601588025
 10
89.21333141215848
 20
-120.1464992646682
 10
89.41641979101395
 20
-120.1464992646682
 10
89.70839163338889
 20
-120.1464992646682
 10
89.74645993850089
 20
-119.8164591171813
 10
89.75903453702205
 20
-119.6113036810347
 10
89.66808401621145
 20
-119.691574405841
 10
89.6003878899263
 20
-119.7487629908962
 10
89.41848684830511
 20
-119.7487629908962
 10
89.23865286397506
 20
-119.7487629908962
 10
88.93617348037013
 20
-119.642998559499
 10
88.93617348037013
 20
-119.236821801788
 10
88.93617348037013
 20
-118.9172891955311
 10
89.13495548986904
 20
-118.6973198487979
 10
89.45242103883481
 20
-118.6973198487979
 10
89.96642928523409
 20
-118.6973198487979
 10
89.9769368264641
 20
-119.2516357123746
 10
89.9769368264641
 20
-119.4652316324601
 10
89.9769368264641
 20
-119.6958807751976
 10
89.95798880129523
 20
-120.3411471595849
 10
89.41435273372281
 20
-120.3411471595849
 97
        0
 97
        0
 92
        1
 93
        1
 72
     4
 94
        3
 73
     0
 74
     1
 95
       17
 96
       13
 40
0.0
 40
0.0
 40
0.0
 40
0.0
 40
1.0
 40
1.0
 40
1.0
 40
2.0
 40
2.0
 40
2.0
 40
3.0
 40
3.0
 40
3.0
 40
4.0
 40
4.0
 40
4.0
 40
4.0
 10
89.45448809612597
 20
-118.8899006864234
 10
89.33597681143337
 20
-118.8899006864234
 10
89.1604491964599
 20
-118.9469170167042
 10
89.1604491964599
 20
-119.2325154324315
 10
89.1604491964599
 20
-119.4588582058124
 10
89.2999755636125
 20
-119.5541150959795
 10
89.43536781618283
 20
-119.5541150959795
 10
89.6977118373846
 20
-119.5541150959795
 10
89.73578014249661
 20
-119.3446532904763
 10
89.73578014249661
 20
-119.2283813178492
 10
89.73578014249661
 20
-119.0526814481014
 10
89.64069550710371
 20
-118.8899006864234
 10
89.45448809612597
 20
-118.8899006864234
 97
        0
 97
        0
 75
     2
 76
     1
 98
        0
  0
ENDBLK
  5
13B
330
138
100
AcDbEntity
  8
0
100
AcDbBlockEnd
  0
BLOCK
  5
14F
330
14D
100
AcDbEntity
  8
0
100
AcDbBlockBegin
  2
block 6
 70
     0
 10
0.0
 20
0.0
 30
0.0
  3
block 6
  1

  0
SPLINE
  5
151
330
14D
100
AcDbEntity
  8
_U+30EC_U+30A4_U+30E4_U+30FC 1
370
     0
100
AcDbSpline
210
0.0
220
0.0
230
1.0
 70
    11
 71
     3
 72
    32
 73
    28
 74
     0
 42
0.0000000001
 43
0.0000000001
 12
1.0
 22
0.0
 32
0.0
 13
1.0
 23
0.0
 33
0.0
 40
0.0
 40
0.0
 40
0.0
 40
0.0
 40
1.0
 40
1.0
 40
1.0
 40
2.0
 40
2.0
 40
2.0
 40
3.0
 40
3.0
 40
3.0
 40
4.0
 40
4.0
 40
4.0
 40
5.0
 40
5.0
 40
5.0
 40
6.0
 40
6.0
 40
6.0
 40
7.0
 40
7.0
 40
7.0
 40
8.0
 40
8.0
 40
8.0
 40
9.0
 40
9.0
 40
9.0
 40
9.0
 10
77.37219371980626
 20
-137.8410264412342
 30
0.0
 10
76.85594616134158
 20
-137.8410264412342
 30
0.0
 10
76.84750567740271
 20
-137.2867105776575
 30
0.0
 10
76.84750567740271
 20
-137.073114657572
 30
0.0
 10
76.84750567740271
 20
-136.8426377696088
 30
0.0
 10
76.86662595734585
 20
-136.1953043279304
 30
0.0
 10
77.41026202491827
 20
-136.1953043279304
 30
0.0
 10
77.5837225826006
 20
-136.1953043279304
 30
0.0
 10
77.82901338115039
 20
-136.2648952567324
 30
0.0
 10
77.86725394103667
 20
-136.5970024615105
 30
0.0
 10
77.86725394103667
 20
-136.5970024615105
 30
0.0
 10
77.65348576617691
 20
-136.5970024615105
 30
0.0
 10
77.65348576617691
 20
-136.5970024615105
 30
0.0
 10
77.6429782249469
 20
-136.5401583860039
 30
0.0
 10
77.6112833464826
 20
-136.3920192801381
 30
0.0
 10
77.40819496762713
 20
-136.3920192801381
 30
0.0
 10
77.1162231252522
 20
-136.3920192801381
 30
0.0
 10
77.07591550807477
 20
-136.7199923703339
 30
0.0
 10
77.06334090955362
 20
-136.9249755517063
 30
0.0
 10
77.15635848765535
 20
-136.8467718841911
 30
0.0
 10
77.22405461394052
 20
-136.7875162418448
 30
0.0
 10
77.40595565556171
 20
-136.7875162418448
 30
0.0
 10
77.58578963989176
 20
-136.7875162418448
 30
0.0
 10
77.88826902349669
 20
-136.8953477305331
 30
0.0
 10
77.88826902349669
 20
-137.3015244882441
 30
0.0
 10
77.88826902349669
 20
-137.6212293492753
 30
0.0
 10
77.68948701399778
 20
-137.8410264412342
 30
0.0
 10
77.37219371980626
 20
-137.8410264412342
 30
0.0
  0
SPLINE
  5
152
330
14D
100
AcDbEntity
  8
_U+30EC_U+30A4_U+30E4_U+30FC 1
370
     0
100
AcDbSpline
210
0.0
220
0.0
230
1.0
 70
    11
 71
     3
 72
    17
 73
    13
 74
     0
 42
0.0000000001
 43
0.0000000001
 12
1.0
 22
0.0
 32
0.0
 13
1.0
 23
0.0
 33
0.0
 40
0.0
 40
0.0
 40
0.0
 40
0.0
 40
1.0
 40
1.0
 40
1.0
 40
2.0
 40
2.0
 40
2.0
 40
3.0
 40
3.0
 40
3.0
 40
4.0
 40
4.0
 40
4.0
 40
4.0
 10
77.38907468768399
 20
-136.9821641367614
 30
0.0
 10
77.1267306664822
 20
-136.9821641367614
 30
0.0
 10
77.0886623613702
 20
-137.1936929995557
 30
0.0
 10
77.0886623613702
 20
-137.3101372269572
 30
0.0
 10
77.0886623613702
 20
-137.4858370967049
 30
0.0
 10
77.18391925153736
 20
-137.6484456036087
 30
0.0
 10
77.36788735044969
 20
-137.6484456036087
 30
0.0
 10
77.48846569243344
 20
-137.6484456036087
 30
0.0
 10
77.66416556218118
 20
-137.5891899612624
 30
0.0
 10
77.66416556218118
 20
-137.3035915455352
 30
0.0
 10
77.66416556218118
 20
-137.079660338994
 30
0.0
 10
77.5244669402543
 20
-136.9821641367614
 30
0.0
 10
77.38907468768399
 20
-136.9821641367614
 30
0.0
  0
HATCH
  5
153
330
14D
100
AcDbEntity
  8
_U+30EC_U+30A4_U+30E4_U+30FC 1
 62
     7
420
 16777215
100
AcDbHatch
 10
0.0
 20
0.0
 30
0.0
210
0.0
220
0.0
230
1.0
  2
SOLID
 70
     1
 71
     0
 91
        2
 92
        1
 93
        1
 72
     4
 94
        3
 73
     0
 74
     1
 95
       32
 96
       28
 40
0.0
 40
0.0
 40
0.0
 40
0.0
 40
1.0
 40
1.0
 40
1.0
 40
2.0
 40
2.0
 40
2.0
 40
3.0
 40
3.0
 40
3.0
 40
4.0
 40
4.0
 40
4.0
 40
5.0
 40
5.0
 40
5.0
 40
6.0
 40
6.0
 40
6.0
 40
7.0
 40
7.0
 40
7.0
 40
8.0
 40
8.0
 40
8.0
 40
9.0
 40
9.0
 40
9.0
 40
9.0
 10
77.37219371980626
 20
-137.8410264412342
 10
76.85594616134158
 20
-137.8410264412342
 10
76.84750567740271
 20
-137.2867105776575
 10
76.84750567740271
 20
-137.073114657572
 10
76.84750567740271
 20
-136.8426377696088
 10
76.86662595734585
 20
-136.1953043279304
 10
77.41026202491827
 20
-136.1953043279304
 10
77.5837225826006
 20
-136.1953043279304
 10
77.82901338115039
 20
-136.2648952567324
 10
77.86725394103667
 20
-136.5970024615105
 10
77.86725394103667
 20
-136.5970024615105
 10
77.65348576617691
 20
-136.5970024615105
 10
77.65348576617691
 20
-136.5970024615105
 10
77.6429782249469
 20
-136.5401583860039
 10
77.6112833464826
 20
-136.3920192801381
 10
77.40819496762713
 20
-136.3920192801381
 10
77.1162231252522
 20
-136.3920192801381
 10
77.07591550807477
 20
-136.7199923703339
 10
77.06334090955362
 20
-136.9249755517063
 10
77.15635848765535
 20
-136.8467718841911
 10
77.22405461394052
 20
-136.7875162418448
 10
77.40595565556171
 20
-136.7875162418448
 10
77.58578963989176
 20
-136.7875162418448
 10
77.88826902349669
 20
-136.8953477305331
 10
77.88826902349669
 20
-137.3015244882441
 10
77.88826902349669
 20
-137.6212293492753
 10
77.68948701399778
 20
-137.8410264412342
 10
77.37219371980626
 20
-137.8410264412342
 97
        0
 97
        0
 92
        1
 93
        1
 72
     4
 94
        3
 73
     0
 74
     1
 95
       17
 96
       13
 40
0.0
 40
0.0
 40
0.0
 40
0.0
 40
1.0
 40
1.0
 40
1.0
 40
2.0
 40
2.0
 40
2.0
 40
3.0
 40
3.0
 40
3.0
 40
4.0
 40
4.0
 40
4.0
 40
4.0
 10
77.38907468768399
 20
-136.9821641367614
 10
77.1267306664822
 20
-136.9821641367614
 10
77.0886623613702
 20
-137.1936929995557
 10
77.0886623613702
 20
-137.3101372269572
 10
77.0886623613702
 20
-137.4858370967049
 10
77.18391925153736
 20
-137.6484456036087
 10
77.36788735044969
 20
-137.6484456036087
 10
77.48846569243344
 20
-137.6484456036087
 10
77.66416556218118
 20
-137.5891899612624
 10
77.66416556218118
 20
-137.3035915455352
 10
77.66416556218118
 20
-137.079660338994
 10
77.5244669402543
 20
-136.9821641367614
 10
77.38907468768399
 20
-136.9821641367614
 97
        0
 97
        0
 75
     2
 76
     1
 98
        0
  0
ENDBLK
  5
150
330
14D
100
AcDbEntity
  8
0
100
AcDbBlockEnd
  0
BLOCK
  5
15E
330
15C
100
AcDbEntity
  8
0
100
AcDbBlockBegin
  2
block 7
 70
     0
 10
0.0
 20
0.0
 30
0.0
  3
block 7
  1

  0
SPLINE
  5
160
330
15C
100
AcDbEntity
  8
_U+30EC_U+30A4_U+30E4_U+30FC 1
370
     0
100
AcDbSpline
210
0.0
220
0.0
230
1.0
 70
    11
 71
     3
 72
    53
 73
    49
 74
     0
 42
0.0000000001
 43
0.0000000001
 12
1.0
 22
0.0
 32
0.0
 13
1.0
 23
0.0
 33
0.0
 40
0.0
 40
0.0
 40
0.0
 40
0.0
 40
1.0
 40
1.0
 40
1.0
 40
2.0
 40
2.0
 40
2.0
 40
3.0
 40
3.0
 40
3.0
 40
4.0
 40
4.0
 40
4.0
 40
5.0
 40
5.0
 40
5.0
 40
6.0
 40
6.0
 40
6.0
 40
7.0
 40
7.0
 40
7.0
 40
8.0
 40
8.0
 40
8.0
 40
9.0
 40
9.0
 40
9.0
 40
10.0
 40
10.0
 40
10.0
 40
11.0
 40
11.0
 40
11.0
 40
12.0
 40
12.0
 40
12.0
 40
13.0
 40
13.0
 40
13.0
 40
14.0
 40
14.0
 40
14.0
 40
15.0
 40
15.0
 40
15.0
 40
16.0
 40
16.0
 40
16.0
 40
16.0
 10
105.9494330247279
 20
-129.5679741429552
 30
0.0
 10
105.9494330247279
 20
-129.6461778104704
 30
0.0
 10
105.9325520568502
 20
-129.7478081272853
 30
0.0
 10
105.8691622999216
 20
-129.8494384441001
 30
0.0
 10
105.7592637539421
 20
-130.0227267470082
 30
0.0
 10
105.6280056159541
 20
-130.0440863390168
 30
0.0
 10
105.5201741272658
 20
-130.0630343641856
 30
0.0
 10
105.5201741272658
 20
-130.0630343641856
 30
0.0
 10
105.5201741272658
 20
-129.840825705387
 30
0.0
 10
105.5201741272658
 20
-129.840825705387
 30
0.0
 10
105.7189561367647
 20
-129.7860486871716
 30
0.0
 10
105.7485839579379
 20
-129.6589246637658
 30
0.0
 10
105.7485839579379
 20
-129.5659070856641
 30
0.0
 10
105.7485839579379
 20
-129.4263807185115
 30
0.0
 10
105.6490206984141
 20
-129.2741074980634
 30
0.0
 10
105.4164767531598
 20
-129.2741074980634
 30
0.0
 10
105.1605061586057
 20
-129.2741074980634
 30
0.0
 10
105.0905707202551
 20
-129.4539414823935
 30
0.0
 10
105.0905707202551
 20
-129.5745198243772
 30
0.0
 10
105.0905707202551
 20
-129.6062147028415
 30
0.0
 10
105.0905707202551
 20
-129.7478081272853
 30
0.0
 10
105.219761800952
 20
-129.8366915908047
 30
0.0
 10
105.219761800952
 20
-129.8366915908047
 30
0.0
 10
105.2008137757831
 20
-130.0123914605525
 30
0.0
 10
105.2008137757831
 20
-130.0123914605525
 30
0.0
 10
105.2008137757831
 20
-130.0123914605525
 30
0.0
 10
104.3543538150573
 20
-129.8918131185687
 30
0.0
 10
104.3543538150573
 20
-129.8918131185687
 30
0.0
 10
104.3543538150573
 20
-129.8918131185687
 30
0.0
 10
104.3543538150573
 20
-129.1132215389023
 30
0.0
 10
104.3543538150573
 20
-129.1132215389023
 30
0.0
 10
104.3543538150573
 20
-129.1132215389023
 30
0.0
 10
104.5490017099739
 20
-129.1132215389023
 30
0.0
 10
104.5490017099739
 20
-129.1132215389023
 30
0.0
 10
104.5490017099739
 20
-129.1132215389023
 30
0.0
 10
104.5490017099739
 20
-129.7288601021164
 30
0.0
 10
104.5490017099739
 20
-129.7288601021164
 30
0.0
 10
104.5490017099739
 20
-129.7288601021164
 30
0.0
 10
104.9720594355625
 20
-129.7943169163362
 30
0.0
 10
104.9720594355625
 20
-129.7943169163362
 30
0.0
 10
104.9382974998071
 20
-129.7329942166987
 30
0.0
 10
104.8979898826297
 20
-129.6506564346012
 30
0.0
 10
104.8979898826297
 20
-129.5321451499086
 30
0.0
 10
104.8979898826297
 20
-129.2782416126457
 30
0.0
 10
105.0843695483817
 20
-129.0412190432605
 30
0.0
 10
105.3975287279909
 20
-129.0412190432605
 30
0.0
 10
105.7148220221824
 20
-129.0412190432605
 30
0.0
 10
105.9494330247279
 20
-129.2654947593503
 30
0.0
 10
105.9494330247279
 20
-129.5679741429552
 30
0.0
  0
HATCH
  5
161
330
15C
100
AcDbEntity
  8
_U+30EC_U+30A4_U+30E4_U+30FC 1
 62
     7
420
 16777215
100
AcDbHatch
 10
0.0
 20
0.0
 30
0.0
210
0.0
220
0.0
230
1.0
  2
SOLID
 70
     1
 71
     0
 91
        1
 92
        1
 93
        1
 72
     4
 94
        3
 73
     0
 74
     1
 95
       53
 96
       49
 40
0.0
 40
0.0
 40
0.0
 40
0.0
 40
1.0
 40
1.0
 40
1.0
 40
2.0
 40
2.0
 40
2.0
 40
3.0
 40
3.0
 40
3.0
 40
4.0
 40
4.0
 40
4.0
 40
5.0
 40
5.0
 40
5.0
 40
6.0
 40
6.0
 40
6.0
 40
7.0
 40
7.0
 40
7.0
 40
8.0
 40
8.0
 40
8.0
 40
9.0
 40
9.0
 40
9.0
 40
10.0
 40
10.0
 40
10.0
 40
11.0
 40
11.0
 40
11.0
 40
12.0
 40
12.0
 40
12.0
 40
13.0
 40
13.0
 40
13.0
 40
14.0
 40
14.0
 40
14.0
 40
15.0
 40
15.0
 40
15.0
 40
16.0
 40
16.0
 40
16.0
 40
16.0
 10
105.9494330247279
 20
-129.5679741429552
 10
105.9494330247279
 20
-129.6461778104704
 10
105.9325520568502
 20
-129.7478081272853
 10
105.8691622999216
 20
-129.8494384441001
 10
105.7592637539421
 20
-130.0227267470082
 10
105.6280056159541
 20
-130.0440863390168
 10
105.5201741272658
 20
-130.0630343641856
 10
105.5201741272658
 20
-130.0630343641856
 10
105.5201741272658
 20
-129.840825705387
 10
105.5201741272658
 20
-129.840825705387
 10
105.7189561367647
 20
-129.7860486871716
 10
105.7485839579379
 20
-129.6589246637658
 10
105.7485839579379
 20
-129.5659070856641
 10
105.7485839579379
 20
-129.4263807185115
 10
105.6490206984141
 20
-129.2741074980634
 10
105.4164767531598
 20
-129.2741074980634
 10
105.1605061586057
 20
-129.2741074980634
 10
105.0905707202551
 20
-129.4539414823935
 10
105.0905707202551
 20
-129.5745198243772
 10
105.0905707202551
 20
-129.6062147028415
 10
105.0905707202551
 20
-129.7478081272853
 10
105.219761800952
 20
-129.8366915908047
 10
105.219761800952
 20
-129.8366915908047
 10
105.2008137757831
 20
-130.0123914605525
 10
105.2008137757831
 20
-130.0123914605525
 10
105.2008137757831
 20
-130.0123914605525
 10
104.3543538150573
 20
-129.8918131185687
 10
104.3543538150573
 20
-129.8918131185687
 10
104.3543538150573
 20
-129.8918131185687
 10
104.3543538150573
 20
-129.1132215389023
 10
104.3543538150573
 20
-129.1132215389023
 10
104.3543538150573
 20
-129.1132215389023
 10
104.5490017099739
 20
-129.1132215389023
 10
104.5490017099739
 20
-129.1132215389023
 10
104.5490017099739
 20
-129.1132215389023
 10
104.5490017099739
 20
-129.7288601021164
 10
104.5490017099739
 20
-129.7288601021164
 10
104.5490017099739
 20
-129.7288601021164
 10
104.9720594355625
 20
-129.7943169163362
 10
104.9720594355625
 20
-129.7943169163362
 10
104.9382974998071
 20
-129.7329942166987
 10
104.8979898826297
 20
-129.6506564346012
 10
104.8979898826297
 20
-129.5321451499086
 10
104.8979898826297
 20
-129.2782416126457
 10
105.0843695483817
 20
-129.0412190432605
 10
105.3975287279909
 20
-129.0412190432605
 10
105.7148220221824
 20
-129.0412190432605
 10
105.9494330247279
 20
-129.2654947593503
 10
105.9494330247279
 20
-129.5679741429552
 97
        0
 97
        0
 75
     2
 76
     1
 98
        0
  0
POLYLINE
  5
162
330
15C
100
AcDbEntity
  8
_U+30EC_U+30A4_U+30E4_U+30FC 1
370
     0
100
AcDb2dPolyline
 66
     1
 10
0.0
 20
0.0
 30
0.0
  0
VERTEX
  5
163
330
162
100
AcDbEntity
  8
_U+30EC_U+30A4_U+30E4_U+30FC 1
370
     0
100
AcDbVertex
100
AcDb2dVertex
 10
105.8987901210947
 20
-128.8121201934914
 30
0.0
  0
VERTEX
  5
164
330
162
100
AcDbEntity
  8
_U+30EC_U+30A4_U+30E4_U+30FC 1
370
     0
100
AcDbVertex
100
AcDb2dVertex
 10
105.646953641123
 20
-128.8121201934914
 30
0.0
  0
VERTEX
  5
165
330
162
100
AcDbEntity
  8
_U+30EC_U+30A4_U+30E4_U+30FC 1
370
     0
100
AcDbVertex
100
AcDb2dVertex
 10
105.646953641123
 20
-128.5602837135197
 30
0.0
  0
VERTEX
  5
166
330
162
100
AcDbEntity
  8
_U+30EC_U+30A4_U+30E4_U+30FC 1
370
     0
100
AcDbVertex
100
AcDb2dVertex
 10
105.8987901210947
 20
-128.5602837135197
 30
0.0
  0
VERTEX
  5
167
330
162
100
AcDbEntity
  8
_U+30EC_U+30A4_U+30E4_U+30FC 1
370
     0
100
AcDbVertex
100
AcDb2dVertex
 10
105.8987901210947
 20
-128.8121201934914
 30
0.0
  0
SEQEND
  5
168
330
162
100
AcDbEntity
  8
_U+30EC_U+30A4_U+30E4_U+30FC 1
370
     0
  0
HATCH
  5
169
330
15C
100
AcDbEntity
  8
_U+30EC_U+30A4_U+30E4_U+30FC 1
 62
     7
420
 16777215
100
AcDbHatch
 10
0.0
 20
0.0
 30
0.0
210
0.0
220
0.0
230
1.0
  2
SOLID
 70
     1
 71
     0
 91
        1
 92
        1
 93
        4
 72
     1
 10
105.8987901210947
 20
-128.8121201934914
 11
105.646953641123
 21
-128.8121201934914
 72
     1
 10
105.646953641123
 20
-128.8121201934914
 11
105.646953641123
 21
-128.5602837135197
 72
     1
 10
105.646953641123
 20
-128.5602837135197
 11
105.8987901210947
 21
-128.5602837135197
 72
     1
 10
105.8987901210947
 20
-128.5602837135197
 11
105.8987901210947
 21
-128.8121201934914
 97
        0
 75
     2
 76
     1
 98
        0
  0
SPLINE
  5
16A
330
15C
100
AcDbEntity
  8
_U+30EC_U+30A4_U+30E4_U+30FC 1
370
     0
100
AcDbSpline
210
0.0
220
0.0
230
1.0
 70
    11
 71
     3
 72
    53
 73
    49
 74
     0
 42
0.0000000001
 43
0.0000000001
 12
1.0
 22
0.0
 32
0.0
 13
1.0
 23
0.0
 33
0.0
 40
0.0
 40
0.0
 40
0.0
 40
0.0
 40
1.0
 40
1.0
 40
1.0
 40
2.0
 40
2.0
 40
2.0
 40
3.0
 40
3.0
 40
3.0
 40
4.0
 40
4.0
 40
4.0
 40
5.0
 40
5.0
 40
5.0
 40
6.0
 40
6.0
 40
6.0
 40
7.0
 40
7.0
 40
7.0
 40
8.0
 40
8.0
 40
8.0
 40
9.0
 40
9.0
 40
9.0
 40
10.0
 40
10.0
 40
10.0
 40
11.0
 40
11.0
 40
11.0
 40
12.0
 40
12.0
 40
12.0
 40
13.0
 40
13.0
 40
13.0
 40
14.0
 40
14.0
 40
14.0
 40
15.0
 40
15.0
 40
15.0
 40
16.0
 40
16.0
 40
16.0
 40
16.0
 10
105.9494330247279
 20
-127.8430148334906
 30
0.0
 10
105.9494330247279
 20
-127.9212185010058
 30
0.0
 10
105.9325520568502
 20
-128.0228488178207
 30
0.0
 10
105.8691622999216
 20
-128.1244791346355
 30
0.0
 10
105.7592637539421
 20
-128.2977674375436
 30
0.0
 10
105.6280056159541
 20
-128.3191270295522
 30
0.0
 10
105.5201741272658
 20
-128.338075054721
 30
0.0
 10
105.5201741272658
 20
-128.338075054721
 30
0.0
 10
105.5201741272658
 20
-128.1158663959224
 30
0.0
 10
105.5201741272658
 20
-128.1158663959224
 30
0.0
 10
105.7189561367647
 20
-128.061089377707
 30
0.0
 10
105.7485839579379
 20
-127.9339653543012
 30
0.0
 10
105.7485839579379
 20
-127.8409477761995
 30
0.0
 10
105.7485839579379
 20
-127.7014214090469
 30
0.0
 10
105.6490206984141
 20
-127.5491481885988
 30
0.0
 10
105.4164767531598
 20
-127.5491481885988
 30
0.0
 10
105.1605061586057
 20
-127.5491481885988
 30
0.0
 10
105.0905707202551
 20
-127.7289821729289
 30
0.0
 10
105.0905707202551
 20
-127.8495605149126
 30
0.0
 10
105.0905707202551
 20
-127.8812553933769
 30
0.0
 10
105.0905707202551
 20
-128.0228488178207
 30
0.0
 10
105.219761800952
 20
-128.1117322813401
 30
0.0
 10
105.219761800952
 20
-128.1117322813401
 30
0.0
 10
105.2008137757831
 20
-128.2874321510879
 30
0.0
 10
105.2008137757831
 20
-128.2874321510879
 30
0.0
 10
105.2008137757831
 20
-128.2874321510879
 30
0.0
 10
104.3543538150573
 20
-128.1668538091041
 30
0.0
 10
104.3543538150573
 20
-128.1668538091041
 30
0.0
 10
104.3543538150573
 20
-128.1668538091041
 30
0.0
 10
104.3543538150573
 20
-127.3882622294377
 30
0.0
 10
104.3543538150573
 20
-127.3882622294377
 30
0.0
 10
104.3543538150573
 20
-127.3882622294377
 30
0.0
 10
104.5490017099739
 20
-127.3882622294377
 30
0.0
 10
104.5490017099739
 20
-127.3882622294377
 30
0.0
 10
104.5490017099739
 20
-127.3882622294377
 30
0.0
 10
104.5490017099739
 20
-128.0039007926518
 30
0.0
 10
104.5490017099739
 20
-128.0039007926518
 30
0.0
 10
104.5490017099739
 20
-128.0039007926518
 30
0.0
 10
104.9720594355625
 20
-128.0693576068716
 30
0.0
 10
104.9720594355625
 20
-128.0693576068716
 30
0.0
 10
104.9382974998071
 20
-128.0080349072341
 30
0.0
 10
104.8979898826297
 20
-127.9256971251366
 30
0.0
 10
104.8979898826297
 20
-127.807185840444
 30
0.0
 10
104.8979898826297
 20
-127.5532823031811
 30
0.0
 10
105.0843695483817
 20
-127.3162597337959
 30
0.0
 10
105.3975287279909
 20
-127.3162597337959
 30
0.0
 10
105.7148220221824
 20
-127.3162597337959
 30
0.0
 10
105.9494330247279
 20
-127.5405354498857
 30
0.0
 10
105.9494330247279
 20
-127.8430148334906
 30
0.0
  0
HATCH
  5
16B
330
15C
100
AcDbEntity
  8
_U+30EC_U+30A4_U+30E4_U+30FC 1
 62
     7
420
 16777215
100
AcDbHatch
 10
0.0
 20
0.0
 30
0.0
210
0.0
220
0.0
230
1.0
  2
SOLID
 70
     1
 71
     0
 91
        1
 92
        1
 93
        1
 72
     4
 94
        3
 73
     0
 74
     1
 95
       53
 96
       49
 40
0.0
 40
0.0
 40
0.0
 40
0.0
 40
1.0
 40
1.0
 40
1.0
 40
2.0
 40
2.0
 40
2.0
 40
3.0
 40
3.0
 40
3.0
 40
4.0
 40
4.0
 40
4.0
 40
5.0
 40
5.0
 40
5.0
 40
6.0
 40
6.0
 40
6.0
 40
7.0
 40
7.0
 40
7.0
 40
8.0
 40
8.0
 40
8.0
 40
9.0
 40
9.0
 40
9.0
 40
10.0
 40
10.0
 40
10.0
 40
11.0
 40
11.0
 40
11.0
 40
12.0
 40
12.0
 40
12.0
 40
13.0
 40
13.0
 40
13.0
 40
14.0
 40
14.0
 40
14.0
 40
15.0
 40
15.0
 40
15.0
 40
16.0
 40
16.0
 40
16.0
 40
16.0
 10
105.9494330247279
 20
-127.8430148334906
 10
105.9494330247279
 20
-127.9212185010058
 10
105.9325520568502
 20
-128.0228488178207
 10
105.8691622999216
 20
-128.1244791346355
 10
105.7592637539421
 20
-128.2977674375436
 10
105.6280056159541
 20
-128.3191270295522
 10
105.5201741272658
 20
-128.338075054721
 10
105.5201741272658
 20
-128.338075054721
 10
105.5201741272658
 20
-128.1158663959224
 10
105.5201741272658
 20
-128.1158663959224
 10
105.7189561367647
 20
-128.061089377707
 10
105.7485839579379
 20
-127.9339653543012
 10
105.7485839579379
 20
-127.8409477761995
 10
105.7485839579379
 20
-127.7014214090469
 10
105.6490206984141
 20
-127.5491481885988
 10
105.4164767531598
 20
-127.5491481885988
 10
105.1605061586057
 20
-127.5491481885988
 10
105.0905707202551
 20
-127.7289821729289
 10
105.0905707202551
 20
-127.8495605149126
 10
105.0905707202551
 20
-127.8812553933769
 10
105.0905707202551
 20
-128.0228488178207
 10
105.219761800952
 20
-128.1117322813401
 10
105.219761800952
 20
-128.1117322813401
 10
105.2008137757831
 20
-128.2874321510879
 10
105.2008137757831
 20
-128.2874321510879
 10
105.2008137757831
 20
-128.2874321510879
 10
104.3543538150573
 20
-128.1668538091041
 10
104.3543538150573
 20
-128.1668538091041
 10
104.3543538150573
 20
-128.1668538091041
 10
104.3543538150573
 20
-127.3882622294377
 10
104.3543538150573
 20
-127.3882622294377
 10
104.3543538150573
 20
-127.3882622294377
 10
104.5490017099739
 20
-127.3882622294377
 10
104.5490017099739
 20
-127.3882622294377
 10
104.5490017099739
 20
-127.3882622294377
 10
104.5490017099739
 20
-128.0039007926518
 10
104.5490017099739
 20
-128.0039007926518
 10
104.5490017099739
 20
-128.0039007926518
 10
104.9720594355625
 20
-128.0693576068716
 10
104.9720594355625
 20
-128.0693576068716
 10
104.9382974998071
 20
-128.0080349072341
 10
104.8979898826297
 20
-127.9256971251366
 10
104.8979898826297
 20
-127.807185840444
 10
104.8979898826297
 20
-127.5532823031811
 10
105.0843695483817
 20
-127.3162597337959
 10
105.3975287279909
 20
-127.3162597337959
 10
105.7148220221824
 20
-127.3162597337959
 10
105.9494330247279
 20
-127.5405354498857
 10
105.9494330247279
 20
-127.8430148334906
 97
        0
 97
        0
 75
     2
 76
     1
 98
        0
  0
ENDBLK
  5
15F
330
15C
100
AcDbEntity
  8
0
100
AcDbBlockEnd
  0
ENDSEC
  0
SECTION
  2
ENTITIES
  0
POLYLINE
  5
41
330
1F
100
AcDbEntity
  8
_U+30EC_U+30A4_U+30E4_U+30FC 1
370
     0
100
AcDb2dPolyline
 66
     1
 10
0.0
 20
0.0
 30
0.0
  0
VERTEX
  5
42
330
41
100
AcDbEntity
  8
_U+30EC_U+30A4_U+30E4_U+30FC 1
370
     0
100
AcDbVertex
100
AcDb2dVertex
 10
90.36762380564096
 20
-125.9361633018494
 30
0.0
  0
VERTEX
  5
43
330
41
100
AcDbEntity
  8
_U+30EC_U+30A4_U+30E4_U+30FC 1
370
     0
100
AcDbVertex
100
AcDb2dVertex
 10
90.95827962390541
 20
-125.4362771908631
 30
0.0
  0
VERTEX
  5
44
330
41
100
AcDbEntity
  8
_U+30EC_U+30A4_U+30E4_U+30FC 1
370
     0
100
AcDbVertex
100
AcDb2dVertex
 10
91.54928821993863
 20
-125.9361633018494
 30
0.0
  0
VERTEX
  5
45
330
41
100
AcDbEntity
  8
_U+30EC_U+30A4_U+30E4_U+30FC 1
370
     0
100
AcDbVertex
100
AcDb2dVertex
 10
92.13976764931869
 20
-125.4362771908631
 30
0.0
  0
VERTEX
  5
46
330
41
100
AcDbEntity
  8
_U+30EC_U+30A4_U+30E4_U+30FC 1
370
     0
100
AcDbVertex
100
AcDb2dVertex
 10
92.73130541200509
 20
-125.9361633018494
 30
0.0
  0
VERTEX
  5
47
330
41
100
AcDbEntity
  8
_U+30EC_U+30A4_U+30E4_U+30FC 1
370
     0
100
AcDbVertex
100
AcDb2dVertex
 10
93.32143206361637
 20
-125.4362771908631
 30
0.0
  0
VERTEX
  5
48
330
41
100
AcDbEntity
  8
_U+30EC_U+30A4_U+30E4_U+30FC 1
370
     0
100
AcDbVertex
100
AcDb2dVertex
 10
93.91328732629465
 20
-125.9361633018494
 30
0.0
  0
VERTEX
  5
49
330
41
100
AcDbEntity
  8
_U+30EC_U+30A4_U+30E4_U+30FC 1
370
     0
100
AcDbVertex
100
AcDb2dVertex
 10
94.50309647791404
 20
-125.4362771908631
 30
0.0
  0
VERTEX
  5
4A
330
41
100
AcDbEntity
  8
_U+30EC_U+30A4_U+30E4_U+30FC 1
370
     0
100
AcDbVertex
100
AcDb2dVertex
 10
95.09463424060043
 20
-125.9361633018494
 30
0.0
  0
VERTEX
  5
4B
330
41
100
AcDbEntity
  8
_U+30EC_U+30A4_U+30E4_U+30FC 1
370
     0
100
AcDbVertex
100
AcDb2dVertex
 10
95.6851136699805
 20
-125.4362771908631
 30
0.0
  0
VERTEX
  5
4C
330
41
100
AcDbEntity
  8
_U+30EC_U+30A4_U+30E4_U+30FC 1
370
     0
100
AcDbVertex
100
AcDb2dVertex
 10
96.27594587712933
 20
-125.9361633018494
 30
0.0
  0
VERTEX
  5
4D
330
41
100
AcDbEntity
  8
_U+30EC_U+30A4_U+30E4_U+30FC 1
370
     0
100
AcDbVertex
100
AcDb2dVertex
 10
96.86713330911681
 20
-125.4362771908631
 30
0.0
  0
VERTEX
  5
4E
330
41
100
AcDbEntity
  8
_U+30EC_U+30A4_U+30E4_U+30FC 1
370
     0
100
AcDbVertex
100
AcDb2dVertex
 10
97.457610291427
 20
-125.9361633018494
 30
0.0
  0
VERTEX
  5
4F
330
41
100
AcDbEntity
  8
_U+30EC_U+30A4_U+30E4_U+30FC 1
370
     0
100
AcDbVertex
100
AcDb2dVertex
 10
98.04914805411339
 20
-125.4362771908631
 30
0.0
  0
VERTEX
  5
50
330
41
100
AcDbEntity
  8
_U+30EC_U+30A4_U+30E4_U+30FC 1
370
     0
100
AcDbVertex
100
AcDb2dVertex
 10
98.63927470572467
 20
-125.9361633018494
 30
0.0
  0
VERTEX
  5
51
330
41
100
AcDbEntity
  8
_U+30EC_U+30A4_U+30E4_U+30FC 1
370
     0
100
AcDbVertex
100
AcDb2dVertex
 10
99.23081246841106
 20
-125.4362771908631
 30
0.0
  0
VERTEX
  5
52
330
41
100
AcDbEntity
  8
_U+30EC_U+30A4_U+30E4_U+30FC 1
370
     0
100
AcDbVertex
100
AcDb2dVertex
 10
99.82062162003045
 20
-125.9361633018494
 30
0.0
  0
VERTEX
  5
53
330
41
100
AcDbEntity
  8
_U+30EC_U+30A4_U+30E4_U+30FC 1
370
     0
100
AcDbVertex
100
AcDb2dVertex
 10
100.41212410494
 20
-125.4362771908631
 30
0.0
  0
VERTEX
  5
54
330
41
100
AcDbEntity
  8
_U+30EC_U+30A4_U+30E4_U+30FC 1
370
     0
100
AcDbVertex
100
AcDb2dVertex
 10
101.0022860343281
 20
-125.9361633018494
 30
0.0
  0
VERTEX
  5
55
330
41
100
AcDbEntity
  8
_U+30EC_U+30A4_U+30E4_U+30FC 1
370
     0
100
AcDbVertex
100
AcDb2dVertex
 10
101.5944940747752
 20
-125.4362771908631
 30
0.0
  0
VERTEX
  5
56
330
41
100
AcDbEntity
  8
_U+30EC_U+30A4_U+30E4_U+30FC 1
370
     0
100
AcDbVertex
100
AcDb2dVertex
 10
102.1849735041553
 20
-125.9361633018494
 30
0.0
  0
VERTEX
  5
57
330
41
100
AcDbEntity
  8
_U+30EC_U+30A4_U+30E4_U+30FC 1
370
     0
100
AcDbVertex
100
AcDb2dVertex
 10
102.7768287668335
 20
-125.4362771908631
 30
0.0
  0
VERTEX
  5
58
330
41
100
AcDbEntity
  8
_U+30EC_U+30A4_U+30E4_U+30FC 1
370
     0
100
AcDbVertex
100
AcDb2dVertex
 10
103.3683665295199
 20
-125.9361633018494
 30
0.0
  0
VERTEX
  5
59
330
41
100
AcDbEntity
  8
_U+30EC_U+30A4_U+30E4_U+30FC 1
370
     0
100
AcDbVertex
100
AcDb2dVertex
 10
103.3683665295199
 20
-124.9363910798772
 30
0.0
  0
VERTEX
  5
5A
330
41
100
AcDbEntity
  8
_U+30EC_U+30A4_U+30E4_U+30FC 1
370
     0
100
AcDbVertex
100
AcDb2dVertex
 10
74.39254115764372
 20
-124.9363910798772
 30
0.0
  0
VERTEX
  5
5B
330
41
100
AcDbEntity
  8
_U+30EC_U+30A4_U+30E4_U+30FC 1
370
     0
100
AcDbVertex
100
AcDb2dVertex
 10
74.39254115764372
 20
-125.9361633018494
 30
0.0
  0
VERTEX
  5
5C
330
41
100
AcDbEntity
  8
_U+30EC_U+30A4_U+30E4_U+30FC 1
370
     0
100
AcDbVertex
100
AcDb2dVertex
 10
80.36838489407613
 20
-125.9361633018494
 30
0.0
  0
VERTEX
  5
5D
330
41
100
AcDbEntity
  8
_U+30EC_U+30A4_U+30E4_U+30FC 1
370
     0
100
AcDbVertex
100
AcDb2dVertex
 10
80.36838489407613
 20
-134.435885244169
 30
0.0
  0
VERTEX
  5
5E
330
41
100
AcDbEntity
  8
_U+30EC_U+30A4_U+30E4_U+30FC 1
370
     0
100
AcDbVertex
100
AcDb2dVertex
 10
90.36864686117042
 20
-134.435885244169
 30
0.0
  0
VERTEX
  5
5F
330
41
100
AcDbEntity
  8
_U+30EC_U+30A4_U+30E4_U+30FC 1
370
     0
100
AcDbVertex
100
AcDb2dVertex
 10
90.36864686117042
 20
-131.4362510782518
 30
0.0
  0
VERTEX
  5
60
330
41
100
AcDbEntity
  8
_U+30EC_U+30A4_U+30E4_U+30FC 1
370
     0
100
AcDbVertex
100
AcDb2dVertex
 10
89.36887466445451
 20
-131.4362510782518
 30
0.0
  0
VERTEX
  5
61
330
41
100
AcDbEntity
  8
_U+30EC_U+30A4_U+30E4_U+30FC 1
370
     0
100
AcDbVertex
100
AcDb2dVertex
 10
89.36887466445451
 20
-133.4354427444191
 30
0.0
  0
VERTEX
  5
62
330
41
100
AcDbEntity
  8
_U+30EC_U+30A4_U+30E4_U+30FC 1
370
     0
100
AcDbVertex
100
AcDb2dVertex
 10
81.26860320444298
 20
-133.4354427444191
 30
0.0
  0
VERTEX
  5
63
330
41
100
AcDbEntity
  8
_U+30EC_U+30A4_U+30E4_U+30FC 1
370
     0
100
AcDbVertex
100
AcDb2dVertex
 10
81.26860320444298
 20
-125.9361633018494
 30
0.0
  0
SEQEND
  5
65
330
41
100
AcDbEntity
  8
_U+30EC_U+30A4_U+30E4_U+30FC 1
370
     0
  0
HATCH
  5
64
330
1F
100
AcDbEntity
  8
_U+30EC_U+30A4_U+30E4_U+30FC 1
 62
   253
420
 11711154
100
AcDbHatch
 10
0.0
 20
0.0
 30
0.0
210
0.0
220
0.0
230
1.0
  2
SOLID
 70
     1
 71
     0
 91
        1
 92
        1
 93
       34
 72
     1
 10
90.36762380564096
 20
-125.9361633018494
 11
90.95827962390541
 21
-125.4362771908631
 72
     1
 10
90.95827962390541
 20
-125.4362771908631
 11
91.54928821993863
 21
-125.9361633018494
 72
     1
 10
91.54928821993863
 20
-125.9361633018494
 11
92.13976764931869
 21
-125.4362771908631
 72
     1
 10
92.13976764931869
 20
-125.4362771908631
 11
92.73130541200507
 21
-125.9361633018494
 72
     1
 10
92.73130541200509
 20
-125.9361633018494
 11
93.32143206361637
 21
-125.4362771908631
 72
     1
 10
93.32143206361637
 20
-125.4362771908631
 11
93.91328732629466
 21
-125.9361633018494
 72
     1
 10
93.91328732629465
 20
-125.9361633018494
 11
94.50309647791403
 21
-125.4362771908631
 72
     1
 10
94.50309647791404
 20
-125.4362771908631
 11
95.09463424060043
 21
-125.9361633018494
 72
     1
 10
95.09463424060043
 20
-125.9361633018494
 11
95.68511366998048
 21
-125.4362771908631
 72
     1
 10
95.6851136699805
 20
-125.4362771908631
 11
96.27594587712933
 21
-125.9361633018494
 72
     1
 10
96.27594587712933
 20
-125.9361633018494
 11
96.86713330911682
 21
-125.4362771908631
 72
     1
 10
96.86713330911681
 20
-125.4362771908631
 11
97.45761029142699
 21
-125.9361633018494
 72
     1
 10
97.457610291427
 20
-125.9361633018494
 11
98.04914805411339
 21
-125.4362771908631
 72
     1
 10
98.04914805411339
 20
-125.4362771908631
 11
98.63927470572467
 21
-125.9361633018494
 72
     1
 10
98.63927470572467
 20
-125.9361633018494
 11
99.23081246841106
 21
-125.4362771908631
 72
     1
 10
99.23081246841106
 20
-125.4362771908631
 11
99.82062162003044
 21
-125.9361633018494
 72
     1
 10
99.82062162003045
 20
-125.9361633018494
 11
100.41212410494
 21
-125.4362771908631
 72
     1
 10
100.41212410494
 20
-125.4362771908631
 11
101.0022860343281
 21
-125.9361633018494
 72
     1
 10
101.0022860343281
 20
-125.9361633018494
 11
101.5944940747752
 21
-125.4362771908631
 72
     1
 10
101.5944940747752
 20
-125.4362771908631
 11
102.1849735041552
 21
-125.9361633018494
 72
     1
 10
102.1849735041553
 20
-125.9361633018494
 11
102.7768287668335
 21
-125.4362771908631
 72
     1
 10
102.7768287668335
 20
-125.4362771908631
 11
103.3683665295199
 21
-125.9361633018494
 72
     1
 10
103.3683665295199
 20
-125.9361633018494
 11
103.3683665295199
 21
-124.9363910798772
 72
     1
 10
103.3683665295199
 20
-124.9363910798772
 11
74.3925411576437
 21
-124.9363910798772
 72
     1
 10
74.39254115764372
 20
-124.9363910798772
 11
74.39254115764372
 21
-125.9361633018494
 72
     1
 10
74.39254115764372
 20
-125.9361633018494
 11
80.36838489407613
 21
-125.9361633018494
 72
     1
 10
80.36838489407613
 20
-125.9361633018494
 11
80.36838489407613
 21
-134.435885244169
 72
     1
 10
80.36838489407613
 20
-134.435885244169
 11
90.36864686117042
 21
-134.435885244169
 72
     1
 10
90.36864686117042
 20
-134.435885244169
 11
90.36864686117042
 21
-131.4362510782518
 72
     1
 10
90.36864686117042
 20
-131.4362510782518
 11
89.36887466445451
 21
-131.4362510782518
 72
     1
 10
89.36887466445451
 20
-131.4362510782518
 11
89.36887466445451
 21
-133.4354427444191
 72
     1
 10
89.36887466445451
 20
-133.4354427444191
 11
81.26860320444298
 21
-133.4354427444191
 72
     1
 10
81.26860320444298
 20
-133.4354427444191
 11
81.26860320444298
 21
-125.9361633018494
 72
     1
 10
81.26860320444298
 20
-125.9361633018494
 11
90.36762380564096
 21
-125.9361633018494
 97
        0
 75
     2
 76
     1
 98
        0
  0
POLYLINE
  5
66
330
1F
100
AcDbEntity
  8
_U+30EC_U+30A4_U+30E4_U+30FC 1
 62
     7
420
 16777215
370
    25
100
AcDb2dPolyline
 66
     1
 10
0.0
 20
0.0
 30
0.0
  0
VERTEX
  5
67
330
66
100
AcDbEntity
  8
_U+30EC_U+30A4_U+30E4_U+30FC 1
 62
     7
420
 16777215
370
    25
100
AcDbVertex
100
AcDb2dVertex
 10
80.36838489407613
 20
-134.435885244169
 30
0.0
  0
VERTEX
  5
68
330
66
100
AcDbEntity
  8
_U+30EC_U+30A4_U+30E4_U+30FC 1
 62
     7
420
 16777215
370
    25
100
AcDbVertex
100
AcDb2dVertex
 10
90.36864686117042
 20
-134.435885244169
 30
0.0
  0
SEQEND
  5
69
330
66
100
AcDbEntity
  8
_U+30EC_U+30A4_U+30E4_U+30FC 1
 62
     7
420
 16777215
370
    25
  0
POLYLINE
  5
6A
330
1F
100
AcDbEntity
  8
_U+30EC_U+30A4_U+30E4_U+30FC 1
 62
     7
420
 16777215
370
    25
100
AcDb2dPolyline
 66
     1
 10
0.0
 20
0.0
 30
0.0
  0
VERTEX
  5
6B
330
6A
100
AcDbEntity
  8
_U+30EC_U+30A4_U+30E4_U+30FC 1
 62
     7
420
 16777215
370
    25
100
AcDbVertex
100
AcDb2dVertex
 10
74.3687639360281
 20
-124.9363910798772
 30
0.0
  0
VERTEX
  5
6C
330
6A
100
AcDbEntity
  8
_U+30EC_U+30A4_U+30E4_U+30FC 1
 62
     7
420
 16777215
370
    25
100
AcDbVertex
100
AcDb2dVertex
 10
103.3683665295199
 20
-124.9363910798772
 30
0.0
  0
SEQEND
  5
6D
330
6A
100
AcDbEntity
  8
_U+30EC_U+30A4_U+30E4_U+30FC 1
 62
     7
420
 16777215
370
    25
  0
POLYLINE
  5
6E
330
1F
100
AcDbEntity
  8
_U+30EC_U+30A4_U+30E4_U+30FC 1
 62
     7
420
 16777215
370
    25
100
AcDb2dPolyline
 66
     1
 10
0.0
 20
0.0
 30
0.0
  0
VERTEX
  5
6F
330
6E
100
AcDbEntity
  8
_U+30EC_U+30A4_U+30E4_U+30FC 1
 62
     7
420
 16777215
370
    25
100
AcDbVertex
100
AcDb2dVertex
 10
89.36887466445451
 20
-131.4362510782518
 30
0.0
  0
VERTEX
  5
70
330
6E
100
AcDbEntity
  8
_U+30EC_U+30A4_U+30E4_U+30FC 1
 62
     7
420
 16777215
370
    25
100
AcDbVertex
100
AcDb2dVertex
 10
90.36864686117042
 20
-131.4362510782518
 30
0.0
  0
SEQEND
  5
71
330
6E
100
AcDbEntity
  8
_U+30EC_U+30A4_U+30E4_U+30FC 1
 62
     7
420
 16777215
370
    25
  0
POLYLINE
  5
72
330
1F
100
AcDbEntity
  8
_U+30EC_U+30A4_U+30E4_U+30FC 1
 62
     7
420
 16777215
370
    25
100
AcDb2dPolyline
 66
     1
 10
0.0
 20
0.0
 30
0.0
  0
VERTEX
  5
73
330
72
100
AcDbEntity
  8
_U+30EC_U+30A4_U+30E4_U+30FC 1
 62
     7
420
 16777215
370
    25
100
AcDbVertex
100
AcDb2dVertex
 10
90.36864686117042
 20
-134.435885244169
 30
0.0
  0
VERTEX
  5
74
330
72
100
AcDbEntity
  8
_U+30EC_U+30A4_U+30E4_U+30FC 1
 62
     7
420
 16777215
370
    25
100
AcDbVertex
100
AcDb2dVertex
 10
90.36864686117042
 20
-131.4362510782518
 30
0.0
  0
SEQEND
  5
75
330
72
100
AcDbEntity
  8
_U+30EC_U+30A4_U+30E4_U+30FC 1
 62
     7
420
 16777215
370
    25
  0
POLYLINE
  5
76
330
1F
100
AcDbEntity
  8
_U+30EC_U+30A4_U+30E4_U+30FC 1
 62
     7
420
 16777215
370
    25
100
AcDb2dPolyline
 66
     1
 10
0.0
 20
0.0
 30
0.0
  0
VERTEX
  5
77
330
76
100
AcDbEntity
  8
_U+30EC_U+30A4_U+30E4_U+30FC 1
 62
     7
420
 16777215
370
    25
100
AcDbVertex
100
AcDb2dVertex
 10
74.36565949166285
 20
-125.9361633018494
 30
0.0
  0
VERTEX
  5
78
330
76
100
AcDbEntity
  8
_U+30EC_U+30A4_U+30E4_U+30FC 1
 62
     7
420
 16777215
370
    25
100
AcDbVertex
100
AcDb2dVertex
 10
74.36565949166285
 20
-124.9363910798772
 30
0.0
  0
SEQEND
  5
79
330
76
100
AcDbEntity
  8
_U+30EC_U+30A4_U+30E4_U+30FC 1
 62
     7
420
 16777215
370
    25
  0
POLYLINE
  5
7A
330
1F
100
AcDbEntity
  8
_U+30EC_U+30A4_U+30E4_U+30FC 1
 62
     7
420
 16777215
370
    25
100
AcDb2dPolyline
 66
     1
 10
0.0
 20
0.0
 30
0.0
  0
VERTEX
  5
7B
330
7A
100
AcDbEntity
  8
_U+30EC_U+30A4_U+30E4_U+30FC 1
 62
     7
420
 16777215
370
    25
100
AcDbVertex
100
AcDb2dVertex
 10
74.36841115825932
 20
-125.9361633018494
 30
0.0
  0
VERTEX
  5
7C
330
7A
100
AcDbEntity
  8
_U+30EC_U+30A4_U+30E4_U+30FC 1
 62
     7
420
 16777215
370
    25
100
AcDbVertex
100
AcDb2dVertex
 10
80.36838489407613
 20
-125.9361633018494
 30
0.0
  0
SEQEND
  5
7D
330
7A
100
AcDbEntity
  8
_U+30EC_U+30A4_U+30E4_U+30FC 1
 62
     7
420
 16777215
370
    25
  0
POLYLINE
  5
7E
330
1F
100
AcDbEntity
  8
_U+30EC_U+30A4_U+30E4_U+30FC 1
 62
     7
420
 16777215
370
    25
100
AcDb2dPolyline
 66
     1
 10
0.0
 20
0.0
 30
0.0
  0
VERTEX
  5
7F
330
7E
100
AcDbEntity
  8
_U+30EC_U+30A4_U+30E4_U+30FC 1
 62
     7
420
 16777215
370
    25
100
AcDbVertex
100
AcDb2dVertex
 10
89.36887466445451
 20
-133.4354427444191
 30
0.0
  0
VERTEX
  5
80
330
7E
100
AcDbEntity
  8
_U+30EC_U+30A4_U+30E4_U+30FC 1
 62
     7
420
 16777215
370
    25
100
AcDbVertex
100
AcDb2dVertex
 10
89.36887466445451
 20
-131.4362510782518
 30
0.0
  0
SEQEND
  5
81
330
7E
100
AcDbEntity
  8
_U+30EC_U+30A4_U+30E4_U+30FC 1
 62
     7
420
 16777215
370
    25
  0
POLYLINE
  5
82
330
1F
100
AcDbEntity
  8
_U+30EC_U+30A4_U+30E4_U+30FC 1
 62
     7
420
 16777215
370
    25
100
AcDb2dPolyline
 66
     1
 10
0.0
 20
0.0
 30
0.0
  0
VERTEX
  5
83
330
82
100
AcDbEntity
  8
_U+30EC_U+30A4_U+30E4_U+30FC 1
 62
     7
420
 16777215
370
    25
100
AcDbVertex
100
AcDb2dVertex
 10
81.26860320444298
 20
-133.4354427444191
 30
0.0
  0
VERTEX
  5
84
330
82
100
AcDbEntity
  8
_U+30EC_U+30A4_U+30E4_U+30FC 1
 62
     7
420
 16777215
370
    25
100
AcDbVertex
100
AcDb2dVertex
 10
89.36887466445451
 20
-133.4354427444191
 30
0.0
  0
SEQEND
  5
85
330
82
100
AcDbEntity
  8
_U+30EC_U+30A4_U+30E4_U+30FC 1
 62
     7
420
 16777215
370
    25
  0
POLYLINE
  5
86
330
1F
100
AcDbEntity
  8
_U+30EC_U+30A4_U+30E4_U+30FC 1
 62
     7
420
 16777215
370
    25
100
AcDb2dPolyline
 66
     1
 10
0.0
 20
0.0
 30
0.0
  0
VERTEX
  5
87
330
86
100
AcDbEntity
  8
_U+30EC_U+30A4_U+30E4_U+30FC 1
 62
     7
420
 16777215
370
    25
100
AcDbVertex
100
AcDb2dVertex
 10
80.36838489407613
 20
-134.435885244169
 30
0.0
  0
VERTEX
  5
88
330
86
100
AcDbEntity
  8
_U+30EC_U+30A4_U+30E4_U+30FC 1
 62
     7
420
 16777215
370
    25
100
AcDbVertex
100
AcDb2dVertex
 10
80.36838489407613
 20
-125.9361633018494
 30
0.0
  0
SEQEND
  5
89
330
86
100
AcDbEntity
  8
_U+30EC_U+30A4_U+30E4_U+30FC 1
 62
     7
420
 16777215
370
    25
  0
POLYLINE
  5
8A
330
1F
100
AcDbEntity
  8
_U+30EC_U+30A4_U+30E4_U+30FC 1
 62
     7
420
 16777215
370
    25
100
AcDb2dPolyline
 66
     1
 10
0.0
 20
0.0
 30
0.0
  0
VERTEX
  5
8B
330
8A
100
AcDbEntity
  8
_U+30EC_U+30A4_U+30E4_U+30FC 1
 62
     7
420
 16777215
370
    25
100
AcDbVertex
100
AcDb2dVertex
 10
103.3683665295199
 20
-125.9361633018494
 30
0.0
  0
VERTEX
  5
8C
330
8A
100
AcDbEntity
  8
_U+30EC_U+30A4_U+30E4_U+30FC 1
 62
     7
420
 16777215
370
    25
100
AcDbVertex
100
AcDb2dVertex
 10
103.3683665295199
 20
-124.9363910798772
 30
0.0
  0
SEQEND
  5
8D
330
8A
100
AcDbEntity
  8
_U+30EC_U+30A4_U+30E4_U+30FC 1
 62
     7
420
 16777215
370
    25
  0
POLYLINE
  5
8E
330
1F
100
AcDbEntity
  8
_U+30EC_U+30A4_U+30E4_U+30FC 1
 62
     7
420
 16777215
370
    25
100
AcDb2dPolyline
 66
     1
 10
0.0
 20
0.0
 30
0.0
  0
VERTEX
  5
8F
330
8E
100
AcDbEntity
  8
_U+30EC_U+30A4_U+30E4_U+30FC 1
 62
     7
420
 16777215
370
    25
100
AcDbVertex
100
AcDb2dVertex
 10
81.26860320444298
 20
-125.9361633018494
 30
0.0
  0
VERTEX
  5
90
330
8E
100
AcDbEntity
  8
_U+30EC_U+30A4_U+30E4_U+30FC 1
 62
     7
420
 16777215
370
    25
100
AcDbVertex
100
AcDb2dVertex
 10
90.36762380564096
 20
-125.9361633018494
 30
0.0
  0
SEQEND
  5
91
330
8E
100
AcDbEntity
  8
_U+30EC_U+30A4_U+30E4_U+30FC 1
 62
     7
420
 16777215
370
    25
  0
POLYLINE
  5
92
330
1F
100
AcDbEntity
  8
_U+30EC_U+30A4_U+30E4_U+30FC 1
 62
     7
420
 16777215
370
    25
100
AcDb2dPolyline
 66
     1
 10
0.0
 20
0.0
 30
0.0
  0
VERTEX
  5
93
330
92
100
AcDbEntity
  8
_U+30EC_U+30A4_U+30E4_U+30FC 1
 62
     7
420
 16777215
370
    25
100
AcDbVertex
100
AcDb2dVertex
 10
102.1849735041553
 20
-125.9361633018494
 30
0.0
  0
VERTEX
  5
94
330
92
100
AcDbEntity
  8
_U+30EC_U+30A4_U+30E4_U+30FC 1
 62
     7
420
 16777215
370
    25
100
AcDbVertex
100
AcDb2dVertex
 10
102.7768287668335
 20
-125.4362771908631
 30
0.0
  0
SEQEND
  5
95
330
92
100
AcDbEntity
  8
_U+30EC_U+30A4_U+30E4_U+30FC 1
 62
     7
420
 16777215
370
    25
  0
POLYLINE
  5
96
330
1F
100
AcDbEntity
  8
_U+30EC_U+30A4_U+30E4_U+30FC 1
 62
     7
420
 16777215
370
    25
100
AcDb2dPolyline
 66
     1
 10
0.0
 20
0.0
 30
0.0
  0
VERTEX
  5
97
330
96
100
AcDbEntity
  8
_U+30EC_U+30A4_U+30E4_U+30FC 1
 62
     7
420
 16777215
370
    25
100
AcDbVertex
100
AcDb2dVertex
 10
102.7768287668335
 20
-125.4362771908631
 30
0.0
  0
VERTEX
  5
98
330
96
100
AcDbEntity
  8
_U+30EC_U+30A4_U+30E4_U+30FC 1
 62
     7
420
 16777215
370
    25
100
AcDbVertex
100
AcDb2dVertex
 10
103.3683665295199
 20
-125.9361633018494
 30
0.0
  0
SEQEND
  5
99
330
96
100
AcDbEntity
  8
_U+30EC_U+30A4_U+30E4_U+30FC 1
 62
     7
420
 16777215
370
    25
  0
POLYLINE
  5
9A
330
1F
100
AcDbEntity
  8
_U+30EC_U+30A4_U+30E4_U+30FC 1
 62
     7
420
 16777215
370
    25
100
AcDb2dPolyline
 66
     1
 10
0.0
 20
0.0
 30
0.0
  0
VERTEX
  5
9B
330
9A
100
AcDbEntity
  8
_U+30EC_U+30A4_U+30E4_U+30FC 1
 62
     7
420
 16777215
370
    25
100
AcDbVertex
100
AcDb2dVertex
 10
101.0022860343281
 20
-125.9361633018494
 30
0.0
  0
VERTEX
  5
9C
330
9A
100
AcDbEntity
  8
_U+30EC_U+30A4_U+30E4_U+30FC 1
 62
     7
420
 16777215
370
    25
100
AcDbVertex
100
AcDb2dVertex
 10
101.5944940747752
 20
-125.4362771908631
 30
0.0
  0
SEQEND
  5
9D
330
9A
100
AcDbEntity
  8
_U+30EC_U+30A4_U+30E4_U+30FC 1
 62
     7
420
 16777215
370
    25
  0
POLYLINE
  5
9E
330
1F
100
AcDbEntity
  8
_U+30EC_U+30A4_U+30E4_U+30FC 1
 62
     7
420
 16777215
370
    25
100
AcDb2dPolyline
 66
     1
 10
0.0
 20
0.0
 30
0.0
  0
VERTEX
  5
9F
330
9E
100
AcDbEntity
  8
_U+30EC_U+30A4_U+30E4_U+30FC 1
 62
     7
420
 16777215
370
    25
100
AcDbVertex
100
AcDb2dVertex
 10
101.5944940747752
 20
-125.4362771908631
 30
0.0
  0
VERTEX
  5
A0
330
9E
100
AcDbEntity
  8
_U+30EC_U+30A4_U+30E4_U+30FC 1
 62
     7
420
 16777215
370
    25
100
AcDbVertex
100
AcDb2dVertex
 10
102.1849735041553
 20
-125.9361633018494
 30
0.0
  0
SEQEND
  5
A1
330
9E
100
AcDbEntity
  8
_U+30EC_U+30A4_U+30E4_U+30FC 1
 62
     7
420
 16777215
370
    25
  0
POLYLINE
  5
A2
330
1F
100
AcDbEntity
  8
_U+30EC_U+30A4_U+30E4_U+30FC 1
 62
     7
420
 16777215
370
    25
100
AcDb2dPolyline
 66
     1
 10
0.0
 20
0.0
 30
0.0
  0
VERTEX
  5
A3
330
A2
100
AcDbEntity
  8
_U+30EC_U+30A4_U+30E4_U+30FC 1
 62
     7
420
 16777215
370
    25
100
AcDbVertex
100
AcDb2dVertex
 10
100.41212410494
 20
-125.4362771908631
 30
0.0
  0
VERTEX
  5
A4
330
A2
100
AcDbEntity
  8
_U+30EC_U+30A4_U+30E4_U+30FC 1
 62
     7
420
 16777215
370
    25
100
AcDbVertex
100
AcDb2dVertex
 10
101.0022860343281
 20
-125.9361633018494
 30
0.0
  0
SEQEND
  5
A5
330
A2
100
AcDbEntity
  8
_U+30EC_U+30A4_U+30E4_U+30FC 1
 62
     7
420
 16777215
370
    25
  0
POLYLINE
  5
A6
330
1F
100
AcDbEntity
  8
_U+30EC_U+30A4_U+30E4_U+30FC 1
 62
     7
420
 16777215
370
    25
100
AcDb2dPolyline
 66
     1
 10
0.0
 20
0.0
 30
0.0
  0
VERTEX
  5
A7
330
A6
100
AcDbEntity
  8
_U+30EC_U+30A4_U+30E4_U+30FC 1
 62
     7
420
 16777215
370
    25
100
AcDbVertex
100
AcDb2dVertex
 10
99.82062162003045
 20
-125.9361633018494
 30
0.0
  0
VERTEX
  5
A8
330
A6
100
AcDbEntity
  8
_U+30EC_U+30A4_U+30E4_U+30FC 1
 62
     7
420
 16777215
370
    25
100
AcDbVertex
100
AcDb2dVertex
 10
100.41212410494
 20
-125.4362771908631
 30
0.0
  0
SEQEND
  5
A9
330
A6
100
AcDbEntity
  8
_U+30EC_U+30A4_U+30E4_U+30FC 1
 62
     7
420
 16777215
370
    25
  0
POLYLINE
  5
AA
330
1F
100
AcDbEntity
  8
_U+30EC_U+30A4_U+30E4_U+30FC 1
 62
     7
420
 16777215
370
    25
100
AcDb2dPolyline
 66
     1
 10
0.0
 20
0.0
 30
0.0
  0
VERTEX
  5
AB
330
AA
100
AcDbEntity
  8
_U+30EC_U+30A4_U+30E4_U+30FC 1
 62
     7
420
 16777215
370
    25
100
AcDbVertex
100
AcDb2dVertex
 10
99.23081246841106
 20
-125.4362771908631
 30
0.0
  0
VERTEX
  5
AC
330
AA
100
AcDbEntity
  8
_U+30EC_U+30A4_U+30E4_U+30FC 1
 62
     7
420
 16777215
370
    25
100
AcDbVertex
100
AcDb2dVertex
 10
99.82062162003045
 20
-125.9361633018494
 30
0.0
  0
SEQEND
  5
AD
330
AA
100
AcDbEntity
  8
_U+30EC_U+30A4_U+30E4_U+30FC 1
 62
     7
420
 16777215
370
    25
  0
POLYLINE
  5
AE
330
1F
100
AcDbEntity
  8
_U+30EC_U+30A4_U+30E4_U+30FC 1
 62
     7
420
 16777215
370
    25
100
AcDb2dPolyline
 66
     1
 10
0.0
 20
0.0
 30
0.0
  0
VERTEX
  5
AF
330
AE
100
AcDbEntity
  8
_U+30EC_U+30A4_U+30E4_U+30FC 1
 62
     7
420
 16777215
370
    25
100
AcDbVertex
100
AcDb2dVertex
 10
98.63927470572467
 20
-125.9361633018494
 30
0.0
  0
VERTEX
  5
B0
330
AE
100
AcDbEntity
  8
_U+30EC_U+30A4_U+30E4_U+30FC 1
 62
     7
420
 16777215
370
    25
100
AcDbVertex
100
AcDb2dVertex
 10
99.23081246841106
 20
-125.4362771908631
 30
0.0
  0
SEQEND
  5
B1
330
AE
100
AcDbEntity
  8
_U+30EC_U+30A4_U+30E4_U+30FC 1
 62
     7
420
 16777215
370
    25
  0
POLYLINE
  5
B2
330
1F
100
AcDbEntity
  8
_U+30EC_U+30A4_U+30E4_U+30FC 1
 62
     7
420
 16777215
370
    25
100
AcDb2dPolyline
 66
     1
 10
0.0
 20
0.0
 30
0.0
  0
VERTEX
  5
B3
330
B2
100
AcDbEntity
  8
_U+30EC_U+30A4_U+30E4_U+30FC 1
 62
     7
420
 16777215
370
    25
100
AcDbVertex
100
AcDb2dVertex
 10
98.04914805411339
 20
-125.4362771908631
 30
0.0
  0
VERTEX
  5
B4
330
B2
100
AcDbEntity
  8
_U+30EC_U+30A4_U+30E4_U+30FC 1
 62
     7
420
 16777215
370
    25
100
AcDbVertex
100
AcDb2dVertex
 10
98.63927470572467
 20
-125.9361633018494
 30
0.0
  0
SEQEND
  5
B5
330
B2
100
AcDbEntity
  8
_U+30EC_U+30A4_U+30E4_U+30FC 1
 62
     7
420
 16777215
370
    25
  0
POLYLINE
  5
B6
330
1F
100
AcDbEntity
  8
_U+30EC_U+30A4_U+30E4_U+30FC 1
 62
     7
420
 16777215
370
    25
100
AcDb2dPolyline
 66
     1
 10
0.0
 20
0.0
 30
0.0
  0
VERTEX
  5
B7
330
B6
100
AcDbEntity
  8
_U+30EC_U+30A4_U+30E4_U+30FC 1
 62
     7
420
 16777215
370
    25
100
AcDbVertex
100
AcDb2dVertex
 10
97.457610291427
 20
-125.9361633018494
 30
0.0
  0
VERTEX
  5
B8
330
B6
100
AcDbEntity
  8
_U+30EC_U+30A4_U+30E4_U+30FC 1
 62
     7
420
 16777215
370
    25
100
AcDbVertex
100
AcDb2dVertex
 10
98.04914805411339
 20
-125.4362771908631
 30
0.0
  0
SEQEND
  5
B9
330
B6
100
AcDbEntity
  8
_U+30EC_U+30A4_U+30E4_U+30FC 1
 62
     7
420
 16777215
370
    25
  0
POLYLINE
  5
BA
330
1F
100
AcDbEntity
  8
_U+30EC_U+30A4_U+30E4_U+30FC 1
 62
     7
420
 16777215
370
    25
100
AcDb2dPolyline
 66
     1
 10
0.0
 20
0.0
 30
0.0
  0
VERTEX
  5
BB
330
BA
100
AcDbEntity
  8
_U+30EC_U+30A4_U+30E4_U+30FC 1
 62
     7
420
 16777215
370
    25
100
AcDbVertex
100
AcDb2dVertex
 10
96.86713330911681
 20
-125.4362771908631
 30
0.0
  0
VERTEX
  5
BC
330
BA
100
AcDbEntity
  8
_U+30EC_U+30A4_U+30E4_U+30FC 1
 62
     7
420
 16777215
370
    25
100
AcDbVertex
100
AcDb2dVertex
 10
97.457610291427
 20
-125.9361633018494
 30
0.0
  0
SEQEND
  5
BD
330
BA
100
AcDbEntity
  8
_U+30EC_U+30A4_U+30E4_U+30FC 1
 62
     7
420
 16777215
370
    25
  0
POLYLINE
  5
BE
330
1F
100
AcDbEntity
  8
_U+30EC_U+30A4_U+30E4_U+30FC 1
 62
     7
420
 16777215
370
    25
100
AcDb2dPolyline
 66
     1
 10
0.0
 20
0.0
 30
0.0
  0
VERTEX
  5
BF
330
BE
100
AcDbEntity
  8
_U+30EC_U+30A4_U+30E4_U+30FC 1
 62
     7
420
 16777215
370
    25
100
AcDbVertex
100
AcDb2dVertex
 10
96.27594587712933
 20
-125.9361633018494
 30
0.0
  0
VERTEX
  5
C0
330
BE
100
AcDbEntity
  8
_U+30EC_U+30A4_U+30E4_U+30FC 1
 62
     7
420
 16777215
370
    25
100
AcDbVertex
100
AcDb2dVertex
 10
96.86713330911681
 20
-125.4362771908631
 30
0.0
  0
SEQEND
  5
C1
330
BE
100
AcDbEntity
  8
_U+30EC_U+30A4_U+30E4_U+30FC 1
 62
     7
420
 16777215
370
    25
  0
POLYLINE
  5
C2
330
1F
100
AcDbEntity
  8
_U+30EC_U+30A4_U+30E4_U+30FC 1
 62
     7
420
 16777215
370
    25
100
AcDb2dPolyline
 66
     1
 10
0.0
 20
0.0
 30
0.0
  0
VERTEX
  5
C3
330
C2
100
AcDbEntity
  8
_U+30EC_U+30A4_U+30E4_U+30FC 1
 62
     7
420
 16777215
370
    25
100
AcDbVertex
100
AcDb2dVertex
 10
95.6851136699805
 20
-125.4362771908631
 30
0.0
  0
VERTEX
  5
C4
330
C2
100
AcDbEntity
  8
_U+30EC_U+30A4_U+30E4_U+30FC 1
 62
     7
420
 16777215
370
    25
100
AcDbVertex
100
AcDb2dVertex
 10
96.27594587712933
 20
-125.9361633018494
 30
0.0
  0
SEQEND
  5
C5
330
C2
100
AcDbEntity
  8
_U+30EC_U+30A4_U+30E4_U+30FC 1
 62
     7
420
 16777215
370
    25
  0
POLYLINE
  5
C6
330
1F
100
AcDbEntity
  8
_U+30EC_U+30A4_U+30E4_U+30FC 1
 62
     7
420
 16777215
370
    25
100
AcDb2dPolyline
 66
     1
 10
0.0
 20
0.0
 30
0.0
  0
VERTEX
  5
C7
330
C6
100
AcDbEntity
  8
_U+30EC_U+30A4_U+30E4_U+30FC 1
 62
     7
420
 16777215
370
    25
100
AcDbVertex
100
AcDb2dVertex
 10
95.09463424060043
 20
-125.9361633018494
 30
0.0
  0
VERTEX
  5
C8
330
C6
100
AcDbEntity
  8
_U+30EC_U+30A4_U+30E4_U+30FC 1
 62
     7
420
 16777215
370
    25
100
AcDbVertex
100
AcDb2dVertex
 10
95.6851136699805
 20
-125.4362771908631
 30
0.0
  0
SEQEND
  5
C9
330
C6
100
AcDbEntity
  8
_U+30EC_U+30A4_U+30E4_U+30FC 1
 62
     7
420
 16777215
370
    25
  0
POLYLINE
  5
CA
330
1F
100
AcDbEntity
  8
_U+30EC_U+30A4_U+30E4_U+30FC 1
 62
     7
420
 16777215
370
    25
100
AcDb2dPolyline
 66
     1
 10
0.0
 20
0.0
 30
0.0
  0
VERTEX
  5
CB
330
CA
100
AcDbEntity
  8
_U+30EC_U+30A4_U+30E4_U+30FC 1
 62
     7
420
 16777215
370
    25
100
AcDbVertex
100
AcDb2dVertex
 10
94.50309647791404
 20
-125.4362771908631
 30
0.0
  0
VERTEX
  5
CC
330
CA
100
AcDbEntity
  8
_U+30EC_U+30A4_U+30E4_U+30FC 1
 62
     7
420
 16777215
370
    25
100
AcDbVertex
100
AcDb2dVertex
 10
95.09463424060043
 20
-125.9361633018494
 30
0.0
  0
SEQEND
  5
CD
330
CA
100
AcDbEntity
  8
_U+30EC_U+30A4_U+30E4_U+30FC 1
 62
     7
420
 16777215
370
    25
  0
POLYLINE
  5
CE
330
1F
100
AcDbEntity
  8
_U+30EC_U+30A4_U+30E4_U+30FC 1
 62
     7
420
 16777215
370
    25
100
AcDb2dPolyline
 66
     1
 10
0.0
 20
0.0
 30
0.0
  0
VERTEX
  5
CF
330
CE
100
AcDbEntity
  8
_U+30EC_U+30A4_U+30E4_U+30FC 1
 62
     7
420
 16777215
370
    25
100
AcDbVertex
100
AcDb2dVertex
 10
93.91328732629465
 20
-125.9361633018494
 30
0.0
  0
VERTEX
  5
D0
330
CE
100
AcDbEntity
  8
_U+30EC_U+30A4_U+30E4_U+30FC 1
 62
     7
420
 16777215
370
    25
100
AcDbVertex
100
AcDb2dVertex
 10
94.50309647791404
 20
-125.4362771908631
 30
0.0
  0
SEQEND
  5
D1
330
CE
100
AcDbEntity
  8
_U+30EC_U+30A4_U+30E4_U+30FC 1
 62
     7
420
 16777215
370
    25
  0
POLYLINE
  5
D2
330
1F
100
AcDbEntity
  8
_U+30EC_U+30A4_U+30E4_U+30FC 1
 62
     7
420
 16777215
370
    25
100
AcDb2dPolyline
 66
     1
 10
0.0
 20
0.0
 30
0.0
  0
VERTEX
  5
D3
330
D2
100
AcDbEntity
  8
_U+30EC_U+30A4_U+30E4_U+30FC 1
 62
     7
420
 16777215
370
    25
100
AcDbVertex
100
AcDb2dVertex
 10
93.32143206361637
 20
-125.4362771908631
 30
0.0
  0
VERTEX
  5
D4
330
D2
100
AcDbEntity
  8
_U+30EC_U+30A4_U+30E4_U+30FC 1
 62
     7
420
 16777215
370
    25
100
AcDbVertex
100
AcDb2dVertex
 10
93.91328732629465
 20
-125.9361633018494
 30
0.0
  0
SEQEND
  5
D5
330
D2
100
AcDbEntity
  8
_U+30EC_U+30A4_U+30E4_U+30FC 1
 62
     7
420
 16777215
370
    25
  0
POLYLINE
  5
D6
330
1F
100
AcDbEntity
  8
_U+30EC_U+30A4_U+30E4_U+30FC 1
 62
     7
420
 16777215
370
    25
100
AcDb2dPolyline
 66
     1
 10
0.0
 20
0.0
 30
0.0
  0
VERTEX
  5
D7
330
D6
100
AcDbEntity
  8
_U+30EC_U+30A4_U+30E4_U+30FC 1
 62
     7
420
 16777215
370
    25
100
AcDbVertex
100
AcDb2dVertex
 10
92.73130541200509
 20
-125.9361633018494
 30
0.0
  0
VERTEX
  5
D8
330
D6
100
AcDbEntity
  8
_U+30EC_U+30A4_U+30E4_U+30FC 1
 62
     7
420
 16777215
370
    25
100
AcDbVertex
100
AcDb2dVertex
 10
93.32143206361637
 20
-125.4362771908631
 30
0.0
  0
SEQEND
  5
D9
330
D6
100
AcDbEntity
  8
_U+30EC_U+30A4_U+30E4_U+30FC 1
 62
     7
420
 16777215
370
    25
  0
POLYLINE
  5
DA
330
1F
100
AcDbEntity
  8
_U+30EC_U+30A4_U+30E4_U+30FC 1
 62
     7
420
 16777215
370
    25
100
AcDb2dPolyline
 66
     1
 10
0.0
 20
0.0
 30
0.0
  0
VERTEX
  5
DB
330
DA
100
AcDbEntity
  8
_U+30EC_U+30A4_U+30E4_U+30FC 1
 62
     7
420
 16777215
370
    25
100
AcDbVertex
100
AcDb2dVertex
 10
92.13976764931869
 20
-125.4362771908631
 30
0.0
  0
VERTEX
  5
DC
330
DA
100
AcDbEntity
  8
_U+30EC_U+30A4_U+30E4_U+30FC 1
 62
     7
420
 16777215
370
    25
100
AcDbVertex
100
AcDb2dVertex
 10
92.73130541200509
 20
-125.9361633018494
 30
0.0
  0
SEQEND
  5
DD
330
DA
100
AcDbEntity
  8
_U+30EC_U+30A4_U+30E4_U+30FC 1
 62
     7
420
 16777215
370
    25
  0
POLYLINE
  5
DE
330
1F
100
AcDbEntity
  8
_U+30EC_U+30A4_U+30E4_U+30FC 1
 62
     7
420
 16777215
370
    25
100
AcDb2dPolyline
 66
     1
 10
0.0
 20
0.0
 30
0.0
  0
VERTEX
  5
DF
330
DE
100
AcDbEntity
  8
_U+30EC_U+30A4_U+30E4_U+30FC 1
 62
     7
420
 16777215
370
    25
100
AcDbVertex
100
AcDb2dVertex
 10
91.54928821993863
 20
-125.9361633018494
 30
0.0
  0
VERTEX
  5
E0
330
DE
100
AcDbEntity
  8
_U+30EC_U+30A4_U+30E4_U+30FC 1
 62
     7
420
 16777215
370
    25
100
AcDbVertex
100
AcDb2dVertex
 10
92.13976764931869
 20
-125.4362771908631
 30
0.0
  0
SEQEND
  5
E1
330
DE
100
AcDbEntity
  8
_U+30EC_U+30A4_U+30E4_U+30FC 1
 62
     7
420
 16777215
370
    25
  0
POLYLINE
  5
E2
330
1F
100
AcDbEntity
  8
_U+30EC_U+30A4_U+30E4_U+30FC 1
 62
     7
420
 16777215
370
    25
100
AcDb2dPolyline
 66
     1
 10
0.0
 20
0.0
 30
0.0
  0
VERTEX
  5
E3
330
E2
100
AcDbEntity
  8
_U+30EC_U+30A4_U+30E4_U+30FC 1
 62
     7
420
 16777215
370
    25
100
AcDbVertex
100
AcDb2dVertex
 10
90.95827962390541
 20
-125.4362771908631
 30
0.0
  0
VERTEX
  5
E4
330
E2
100
AcDbEntity
  8
_U+30EC_U+30A4_U+30E4_U+30FC 1
 62
     7
420
 16777215
370
    25
100
AcDbVertex
100
AcDb2dVertex
 10
91.54928821993863
 20
-125.9361633018494
 30
0.0
  0
SEQEND
  5
E5
330
E2
100
AcDbEntity
  8
_U+30EC_U+30A4_U+30E4_U+30FC 1
 62
     7
420
 16777215
370
    25
  0
POLYLINE
  5
E6
330
1F
100
AcDbEntity
  8
_U+30EC_U+30A4_U+30E4_U+30FC 1
 62
     7
420
 16777215
370
    25
100
AcDb2dPolyline
 66
     1
 10
0.0
 20
0.0
 30
0.0
  0
VERTEX
  5
E7
330
E6
100
AcDbEntity
  8
_U+30EC_U+30A4_U+30E4_U+30FC 1
 62
     7
420
 16777215
370
    25
100
AcDbVertex
100
AcDb2dVertex
 10
90.36762380564096
 20
-125.9361633018494
 30
0.0
  0
VERTEX
  5
E8
330
E6
100
AcDbEntity
  8
_U+30EC_U+30A4_U+30E4_U+30FC 1
 62
     7
420
 16777215
370
    25
100
AcDbVertex
100
AcDb2dVertex
 10
90.95827962390541
 20
-125.4362771908631
 30
0.0
  0
SEQEND
  5
E9
330
E6
100
AcDbEntity
  8
_U+30EC_U+30A4_U+30E4_U+30FC 1
 62
     7
420
 16777215
370
    25
  0
POLYLINE
  5
EA
330
1F
100
AcDbEntity
  8
_U+30EC_U+30A4_U+30E4_U+30FC 1
 62
     7
420
 16777215
370
    25
100
AcDb2dPolyline
 66
     1
 10
0.0
 20
0.0
 30
0.0
  0
VERTEX
  5
EB
330
EA
100
AcDbEntity
  8
_U+30EC_U+30A4_U+30E4_U+30FC 1
 62
     7
420
 16777215
370
    25
100
AcDbVertex
100
AcDb2dVertex
 10
81.26860320444298
 20
-133.4354427444191
 30
0.0
  0
VERTEX
  5
EC
330
EA
100
AcDbEntity
  8
_U+30EC_U+30A4_U+30E4_U+30FC 1
 62
     7
420
 16777215
370
    25
100
AcDbVertex
100
AcDb2dVertex
 10
81.26860320444298
 20
-125.9361633018494
 30
0.0
  0
SEQEND
  5
ED
330
EA
100
AcDbEntity
  8
_U+30EC_U+30A4_U+30E4_U+30FC 1
 62
     7
420
 16777215
370
    25
  0
SPLINE
  5
EE
330
1F
100
AcDbEntity
  8
_U+30EC_U+30A4_U+30E4_U+30FC 1
 62
     7
420
 16777215
370
     9
100
AcDbSpline
210
0.0
220
0.0
230
1.0
 70
    11
 71
     3
 72
    17
 73
    13
 74
     0
 42
0.0000000001
 43
0.0000000001
 12
1.0
 22
0.0
 32
0.0
 13
1.0
 23
0.0
 33
0.0
 40
0.0
 40
0.0
 40
0.0
 40
0.0
 40
1.0
 40
1.0
 40
1.0
 40
2.0
 40
2.0
 40
2.0
 40
3.0
 40
3.0
 40
3.0
 40
4.0
 40
4.0
 40
4.0
 40
4.0
 10
80.46864433596274
 20
-138.4356444098353
 30
0.0
 10
80.46864433596274
 20
-138.3805405209604
 30
0.0
 10
80.42384155932798
 20
-138.3357377431936
 30
0.0
 10
80.36838489407613
 20
-138.3357377431936
 30
0.0
 10
80.31328100659306
 20
-138.3357377431936
 30
0.0
 10
80.26847822995829
 20
-138.3805405209604
 30
0.0
 10
80.26847822995829
 20
-138.4356444098353
 30
0.0
 10
80.26847822995829
 20
-138.4907835764884
 30
0.0
 10
80.31328100659306
 20
-138.5355510764769
 30
0.0
 10
80.36838489407613
 20
-138.5355510764769
 30
0.0
 10
80.42384155932798
 20
-138.5355510764769
 30
0.0
 10
80.46864433596274
 20
-138.4907835764884
 30
0.0
 10
80.46864433596274
 20
-138.4356444098353
 30
0.0
  0
SPLINE
  5
EF
330
1F
100
AcDbEntity
  8
_U+30EC_U+30A4_U+30E4_U+30FC 1
 62
     7
420
 16777215
370
     9
100
AcDbSpline
210
0.0
220
0.0
230
1.0
 70
    11
 71
     3
 72
    17
 73
    13
 74
     0
 42
0.0000000001
 43
0.0000000001
 12
1.0
 22
0.0
 32
0.0
 13
1.0
 23
0.0
 33
0.0
 40
0.0
 40
0.0
 40
0.0
 40
0.0
 40
1.0
 40
1.0
 40
1.0
 40
2.0
 40
2.0
 40
2.0
 40
3.0
 40
3.0
 40
3.0
 40
4.0
 40
4.0
 40
4.0
 40
4.0
 10
90.46855352528824
 20
-138.4356444098353
 30
0.0
 10
90.46855352528824
 20
-138.3805405209604
 30
0.0
 10
90.42375074865349
 20
-138.3357377431936
 30
0.0
 10
90.36864686117042
 20
-138.3357377431936
 30
0.0
 10
90.31350769591046
 20
-138.3357377431936
 30
0.0
 10
90.26874019705258
 20
-138.3805405209604
 30
0.0
 10
90.26874019705258
 20
-138.4356444098353
 30
0.0
 10
90.26874019705258
 20
-138.4907835764884
 30
0.0
 10
90.31350769591046
 20
-138.5355510764769
 30
0.0
 10
90.36864686117042
 20
-138.5355510764769
 30
0.0
 10
90.42375074865349
 20
-138.5355510764769
 30
0.0
 10
90.46855352528824
 20
-138.4907835764884
 30
0.0
 10
90.46855352528824
 20
-138.4356444098353
 30
0.0
  0
SPLINE
  5
F0
330
1F
100
AcDbEntity
  8
_U+30EC_U+30A4_U+30E4_U+30FC 1
 62
     7
420
 16777215
370
     9
100
AcDbSpline
210
0.0
220
0.0
230
1.0
 70
    11
 71
     3
 72
    17
 73
    13
 74
     0
 42
0.0000000001
 43
0.0000000001
 12
1.0
 22
0.0
 32
0.0
 13
1.0
 23
0.0
 33
0.0
 40
0.0
 40
0.0
 40
0.0
 40
0.0
 40
1.0
 40
1.0
 40
1.0
 40
2.0
 40
2.0
 40
2.0
 40
3.0
 40
3.0
 40
3.0
 40
4.0
 40
4.0
 40
4.0
 40
4.0
 10
107.4687025360228
 20
-134.435885244169
 30
0.0
 10
107.4687025360228
 20
-134.3804285775157
 30
0.0
 10
107.4239350371649
 20
-134.3356257997496
 30
0.0
 10
107.3687958719049
 20
-134.3356257997496
 30
0.0
 10
107.3136919844219
 20
-134.3356257997496
 30
0.0
 10
107.2688892077871
 20
-134.3804285775157
 30
0.0
 10
107.2688892077871
 20
-134.435885244169
 30
0.0
 10
107.2688892077871
 20
-134.4910244108215
 30
0.0
 10
107.3136919844219
 20
-134.5357919108107
 30
0.0
 10
107.3687958719049
 20
-134.5357919108107
 30
0.0
 10
107.4239350371649
 20
-134.5357919108107
 30
0.0
 10
107.4687025360228
 20
-134.4910244108215
 30
0.0
 10
107.4687025360228
 20
-134.435885244169
 30
0.0
  0
SPLINE
  5
F1
330
1F
100
AcDbEntity
  8
_U+30EC_U+30A4_U+30E4_U+30FC 1
 62
     7
420
 16777215
370
     9
100
AcDbSpline
210
0.0
220
0.0
230
1.0
 70
    11
 71
     3
 72
    17
 73
    13
 74
     0
 42
0.0000000001
 43
0.0000000001
 12
1.0
 22
0.0
 32
0.0
 13
1.0
 23
0.0
 33
0.0
 40
0.0
 40
0.0
 40
0.0
 40
0.0
 40
1.0
 40
1.0
 40
1.0
 40
2.0
 40
2.0
 40
2.0
 40
3.0
 40
3.0
 40
3.0
 40
4.0
 40
4.0
 40
4.0
 40
4.0
 10
107.4687025360228
 20
-131.4362510782518
 30
0.0
 10
107.4687025360228
 20
-131.3807944115991
 30
0.0
 10
107.4239350371649
 20
-131.3359916338324
 30
0.0
 10
107.3687958719049
 20
-131.3359916338324
 30
0.0
 10
107.3136919844219
 20
-131.3359916338324
 30
0.0
 10
107.2688892077871
 20
-131.3807944115991
 30
0.0
 10
107.2688892077871
 20
-131.4362510782518
 30
0.0
 10
107.2688892077871
 20
-131.4913549671274
 30
0.0
 10
107.3136919844219
 20
-131.5361577448934
 30
0.0
 10
107.3687958719049
 20
-131.5361577448934
 30
0.0
 10
107.4239350371649
 20
-131.5361577448934
 30
0.0
 10
107.4687025360228
 20
-131.4913549671274
 30
0.0
 10
107.4687025360228
 20
-131.4362510782518
 30
0.0
  0
SPLINE
  5
F2
330
1F
100
AcDbEntity
  8
_U+30EC_U+30A4_U+30E4_U+30FC 1
 62
     7
420
 16777215
370
     9
100
AcDbSpline
210
0.0
220
0.0
230
1.0
 70
    11
 71
     3
 72
    17
 73
    13
 74
     0
 42
0.0000000001
 43
0.0000000001
 12
1.0
 22
0.0
 32
0.0
 13
1.0
 23
0.0
 33
0.0
 40
0.0
 40
0.0
 40
0.0
 40
0.0
 40
1.0
 40
1.0
 40
1.0
 40
2.0
 40
2.0
 40
2.0
 40
3.0
 40
3.0
 40
3.0
 40
4.0
 40
4.0
 40
4.0
 40
4.0
 10
107.4687025360228
 20
-124.9363910798772
 30
0.0
 10
107.4687025360228
 20
-124.8809344132242
 30
0.0
 10
107.4239350371649
 20
-124.8361316354578
 30
0.0
 10
107.3687958719049
 20
-124.8361316354578
 30
0.0
 10
107.3136919844219
 20
-124.8361316354578
 30
0.0
 10
107.2688892077871
 20
-124.8809344132242
 30
0.0
 10
107.2688892077871
 20
-124.9363910798772
 30
0.0
 10
107.2688892077871
 20
-124.9914949687521
 30
0.0
 10
107.3136919844219
 20
-125.0362977465188
 30
0.0
 10
107.3687958719049
 20
-125.0362977465188
 30
0.0
 10
107.4239350371649
 20
-125.0362977465188
 30
0.0
 10
107.4687025360228
 20
-124.9914949687521
 30
0.0
 10
107.4687025360228
 20
-124.9363910798772
 30
0.0
  0
SPLINE
  5
F3
330
1F
100
AcDbEntity
  8
_U+30EC_U+30A4_U+30E4_U+30FC 1
 62
     7
420
 16777215
370
     9
100
AcDbSpline
210
0.0
220
0.0
230
1.0
 70
    11
 71
     3
 72
    17
 73
    13
 74
     0
 42
0.0000000001
 43
0.0000000001
 12
1.0
 22
0.0
 32
0.0
 13
1.0
 23
0.0
 33
0.0
 40
0.0
 40
0.0
 40
0.0
 40
0.0
 40
1.0
 40
1.0
 40
1.0
 40
2.0
 40
2.0
 40
2.0
 40
3.0
 40
3.0
 40
3.0
 40
4.0
 40
4.0
 40
4.0
 40
4.0
 10
103.4689787491753
 20
-120.9362791364325
 30
0.0
 10
103.4689787491753
 20
-120.8811752475576
 30
0.0
 10
103.4241759725406
 20
-120.8363724697909
 30
0.0
 10
103.3683665295199
 20
-120.8363724697909
 30
0.0
 10
103.31322736426
 20
-120.8363724697909
 30
0.0
 10
103.2684598654021
 20
-120.8811752475576
 30
0.0
 10
103.2684598654021
 20
-120.9362791364325
 30
0.0
 10
103.2684598654021
 20
-120.9914183030856
 30
0.0
 10
103.31322736426
 20
-121.0361858030742
 30
0.0
 10
103.3683665295199
 20
-121.0361858030742
 30
0.0
 10
103.4241759725406
 20
-121.0361858030742
 30
0.0
 10
103.4689787491753
 20
-120.9914183030856
 30
0.0
 10
103.4689787491753
 20
-120.9362791364325
 30
0.0
  0
SPLINE
  5
F4
330
1F
100
AcDbEntity
  8
_U+30EC_U+30A4_U+30E4_U+30FC 1
 62
     7
420
 16777215
370
     9
100
AcDbSpline
210
0.0
220
0.0
230
1.0
 70
    11
 71
     3
 72
    17
 73
    13
 74
     0
 42
0.0000000001
 43
0.0000000001
 12
1.0
 22
0.0
 32
0.0
 13
1.0
 23
0.0
 33
0.0
 40
0.0
 40
0.0
 40
0.0
 40
0.0
 40
1.0
 40
1.0
 40
1.0
 40
2.0
 40
2.0
 40
2.0
 40
3.0
 40
3.0
 40
3.0
 40
4.0
 40
4.0
 40
4.0
 40
4.0
 10
107.4687025360228
 20
-125.9361633018494
 30
0.0
 10
107.4687025360228
 20
-125.8810241351963
 30
0.0
 10
107.4239350371649
 20
-125.8362566352078
 30
0.0
 10
107.3687958719049
 20
-125.8362566352078
 30
0.0
 10
107.3136919844219
 20
-125.8362566352078
 30
0.0
 10
107.2688892077871
 20
-125.8810241351963
 30
0.0
 10
107.2688892077871
 20
-125.9361633018494
 30
0.0
 10
107.2688892077871
 20
-125.9916199685021
 30
0.0
 10
107.3136919844219
 20
-126.0364227462688
 30
0.0
 10
107.3687958719049
 20
-126.0364227462688
 30
0.0
 10
107.4239350371649
 20
-126.0364227462688
 30
0.0
 10
107.4687025360228
 20
-125.9916199685021
 30
0.0
 10
107.4687025360228
 20
-125.9361633018494
 30
0.0
  0
SPLINE
  5
F5
330
1F
100
AcDbEntity
  8
_U+30EC_U+30A4_U+30E4_U+30FC 1
 62
     7
420
 16777215
370
     9
100
AcDbSpline
210
0.0
220
0.0
230
1.0
 70
    11
 71
     3
 72
    17
 73
    13
 74
     0
 42
0.0000000001
 43
0.0000000001
 12
1.0
 22
0.0
 32
0.0
 13
1.0
 23
0.0
 33
0.0
 40
0.0
 40
0.0
 40
0.0
 40
0.0
 40
1.0
 40
1.0
 40
1.0
 40
2.0
 40
2.0
 40
2.0
 40
3.0
 40
3.0
 40
3.0
 40
4.0
 40
4.0
 40
4.0
 40
4.0
 10
74.39977498140004
 20
-138.4356444098353
 30
0.0
 10
74.39977498140004
 20
-138.3805405209604
 30
0.0
 10
74.35497220363364
 20
-138.3357377431936
 30
0.0
 10
74.29951366001704
 20
-138.3357377431936
 30
0.0
 10
74.2443744947571
 20
-138.3357377431936
 30
0.0
 10
74.1996069958992
 20
-138.3805405209604
 30
0.0
 10
74.1996069958992
 20
-138.4356444098353
 30
0.0
 10
74.1996069958992
 20
-138.4907835764884
 30
0.0
 10
74.2443744947571
 20
-138.5355510764769
 30
0.0
 10
74.29951366001704
 20
-138.5355510764769
 30
0.0
 10
74.35497220363364
 20
-138.5355510764769
 30
0.0
 10
74.39977498140004
 20
-138.4907835764884
 30
0.0
 10
74.39977498140004
 20
-138.4356444098353
 30
0.0
  0
SPLINE
  5
F6
330
1F
100
AcDbEntity
  8
_U+30EC_U+30A4_U+30E4_U+30FC 1
 62
     7
420
 16777215
370
     9
100
AcDbSpline
210
0.0
220
0.0
230
1.0
 70
    11
 71
     3
 72
    17
 73
    13
 74
     0
 42
0.0000000001
 43
0.0000000001
 12
1.0
 22
0.0
 32
0.0
 13
1.0
 23
0.0
 33
0.0
 40
0.0
 40
0.0
 40
0.0
 40
0.0
 40
1.0
 40
1.0
 40
1.0
 40
2.0
 40
2.0
 40
2.0
 40
3.0
 40
3.0
 40
3.0
 40
4.0
 40
4.0
 40
4.0
 40
4.0
 10
74.42182171245226
 20
-120.9362791364325
 30
0.0
 10
74.42182171245226
 20
-120.8811752475576
 30
0.0
 10
74.3770189358175
 20
-120.8363724697909
 30
0.0
 10
74.32156227056565
 20
-120.8363724697909
 30
0.0
 10
74.26642498143347
 20
-120.8363724697909
 30
0.0
 10
74.22165560644781
 20
-120.8811752475576
 30
0.0
 10
74.22165560644781
 20
-120.9362791364325
 30
0.0
 10
74.22165560644781
 20
-120.9914183030856
 30
0.0
 10
74.26642498143347
 20
-121.0361858030742
 30
0.0
 10
74.32156227056565
 20
-121.0361858030742
 30
0.0
 10
74.3770189358175
 20
-121.0361858030742
 30
0.0
 10
74.42182171245226
 20
-120.9914183030856
 30
0.0
 10
74.42182171245226
 20
-120.9362791364325
 30
0.0
  0
POLYLINE
  5
F7
330
1F
100
AcDbEntity
  8
_U+30EC_U+30A4_U+30E4_U+30FC 1
 62
     7
420
 16777215
370
     9
100
AcDb2dPolyline
 66
     1
 10
0.0
 20
0.0
 30
0.0
  0
VERTEX
  5
F8
330
F7
100
AcDbEntity
  8
_U+30EC_U+30A4_U+30E4_U+30FC 1
 62
     7
420
 16777215
370
     9
100
AcDbVertex
100
AcDb2dVertex
 10
107.3687958719049
 20
-124.9363910798772
 30
0.0
  0
VERTEX
  5
F9
330
F7
100
AcDbEntity
  8
_U+30EC_U+30A4_U+30E4_U+30FC 1
 62
     7
420
 16777215
370
     9
100
AcDbVertex
100
AcDb2dVertex
 10
107.3687958719049
 20
-121.1660785808198
 30
0.0
  0
SEQEND
  5
FA
330
F7
100
AcDbEntity
  8
_U+30EC_U+30A4_U+30E4_U+30FC 1
 62
     7
420
 16777215
370
     9
  0
POLYLINE
  5
FB
330
1F
100
AcDbEntity
  8
_U+30EC_U+30A4_U+30E4_U+30FC 1
 62
     7
420
 16777215
370
     9
100
AcDb2dPolyline
 66
     1
 10
0.0
 20
0.0
 30
0.0
  0
VERTEX
  5
FC
330
FB
100
AcDbEntity
  8
_U+30EC_U+30A4_U+30E4_U+30FC 1
 62
     7
420
 16777215
370
     9
100
AcDbVertex
100
AcDb2dVertex
 10
107.3687958719049
 20
-124.9363910798772
 30
0.0
  0
VERTEX
  5
FD
330
FB
100
AcDbEntity
  8
_U+30EC_U+30A4_U+30E4_U+30FC 1
 62
     7
420
 16777215
370
     9
100
AcDbVertex
100
AcDb2dVertex
 10
107.3687958719049
 20
-125.9361633018494
 30
0.0
  0
SEQEND
  5
FE
330
FB
100
AcDbEntity
  8
_U+30EC_U+30A4_U+30E4_U+30FC 1
 62
     7
420
 16777215
370
     9
  0
POLYLINE
  5
FF
330
1F
100
AcDbEntity
  8
_U+30EC_U+30A4_U+30E4_U+30FC 1
 62
     7
420
 16777215
370
     9
100
AcDb2dPolyline
 66
     1
 10
0.0
 20
0.0
 30
0.0
  0
VERTEX
  5
100
330
FF
100
AcDbEntity
  8
_U+30EC_U+30A4_U+30E4_U+30FC 1
 62
     7
420
 16777215
370
     9
100
AcDbVertex
100
AcDb2dVertex
 10
105.9087897980417
 20
-124.9363910798772
 30
0.0
  0
VERTEX
  5
101
330
FF
100
AcDbEntity
  8
_U+30EC_U+30A4_U+30E4_U+30FC 1
 62
     7
420
 16777215
370
     9
100
AcDbVertex
100
AcDb2dVertex
 10
108.3685680686208
 20
-124.9363910798772
 30
0.0
  0
SEQEND
  5
102
330
FF
100
AcDbEntity
  8
_U+30EC_U+30A4_U+30E4_U+30FC 1
 62
     7
420
 16777215
370
     9
  0
POLYLINE
  5
103
330
1F
100
AcDbEntity
  8
_U+30EC_U+30A4_U+30E4_U+30FC 1
 62
     7
420
 16777215
370
     9
100
AcDb2dPolyline
 66
     1
 10
0.0
 20
0.0
 30
0.0
  0
VERTEX
  5
104
330
103
100
AcDbEntity
  8
_U+30EC_U+30A4_U+30E4_U+30FC 1
 62
     7
420
 16777215
370
     9
100
AcDbVertex
100
AcDb2dVertex
 10
105.9087897980417
 20
-125.9361633018494
 30
0.0
  0
VERTEX
  5
105
330
103
100
AcDbEntity
  8
_U+30EC_U+30A4_U+30E4_U+30FC 1
 62
     7
420
 16777215
370
     9
100
AcDbVertex
100
AcDb2dVertex
 10
108.3685680686208
 20
-125.9361633018494
 30
0.0
  0
SEQEND
  5
106
330
103
100
AcDbEntity
  8
_U+30EC_U+30A4_U+30E4_U+30FC 1
 62
     7
420
 16777215
370
     9
  0
INSERT
  5
108
330
1F
100
AcDbEntity
  8
_U+30EC_U+30A4_U+30E4_U+30FC 1
100
AcDbBlockReference
  2
block 2
 10
0.0
 20
0.0
 30
0.0
  0
POLYLINE
  5
10D
330
1F
100
AcDbEntity
  8
_U+30EC_U+30A4_U+30E4_U+30FC 1
 62
     7
420
 16777215
370
     9
100
AcDb2dPolyline
 66
     1
 10
0.0
 20
0.0
 30
0.0
  0
VERTEX
  5
10E
330
10D
100
AcDbEntity
  8
_U+30EC_U+30A4_U+30E4_U+30FC 1
 62
     7
420
 16777215
370
     9
100
AcDbVertex
100
AcDb2dVertex
 10
80.36838489407613
 20
-138.4356444098353
 30
0.0
  0
VERTEX
  5
10F
330
10D
100
AcDbEntity
  8
_U+30EC_U+30A4_U+30E4_U+30FC 1
 62
     7
420
 16777215
370
     9
100
AcDbVertex
100
AcDb2dVertex
 10
90.36864686117042
 20
-138.4356444098353
 30
0.0
  0
SEQEND
  5
110
330
10D
100
AcDbEntity
  8
_U+30EC_U+30A4_U+30E4_U+30FC 1
 62
     7
420
 16777215
370
     9
  0
POLYLINE
  5
111
330
1F
100
AcDbEntity
  8
_U+30EC_U+30A4_U+30E4_U+30FC 1
 62
     7
420
 16777215
370
     9
100
AcDb2dPolyline
 66
     1
 10
0.0
 20
0.0
 30
0.0
  0
VERTEX
  5
112
330
111
100
AcDbEntity
  8
_U+30EC_U+30A4_U+30E4_U+30FC 1
 62
     7
420
 16777215
370
     9
100
AcDbVertex
100
AcDb2dVertex
 10
90.36864686117042
 20
-136.975285521312
 30
0.0
  0
VERTEX
  5
113
330
111
100
AcDbEntity
  8
_U+30EC_U+30A4_U+30E4_U+30FC 1
 62
     7
420
 16777215
370
     9
100
AcDbVertex
100
AcDb2dVertex
 10
90.36864686117042
 20
-139.4361221873633
 30
0.0
  0
SEQEND
  5
114
330
111
100
AcDbEntity
  8
_U+30EC_U+30A4_U+30E4_U+30FC 1
 62
     7
420
 16777215
370
     9
  0
INSERT
  5
116
330
1F
100
AcDbEntity
  8
_U+30EC_U+30A4_U+30E4_U+30FC 1
100
AcDbBlockReference
  2
block 3
 10
0.0
 20
0.0
 30
0.0
  0
POLYLINE
  5
11E
330
1F
100
AcDbEntity
  8
_U+30EC_U+30A4_U+30E4_U+30FC 1
 62
     7
420
 16777215
370
     9
100
AcDb2dPolyline
 66
     1
 10
0.0
 20
0.0
 30
0.0
  0
VERTEX
  5
11F
330
11E
100
AcDbEntity
  8
_U+30EC_U+30A4_U+30E4_U+30FC 1
 62
     7
420
 16777215
370
     9
100
AcDbVertex
100
AcDb2dVertex
 10
107.3687958719049
 20
-134.435885244169
 30
0.0
  0
VERTEX
  5
120
330
11E
100
AcDbEntity
  8
_U+30EC_U+30A4_U+30E4_U+30FC 1
 62
     7
420
 16777215
370
     9
100
AcDbVertex
100
AcDb2dVertex
 10
107.3687958719049
 20
-131.4362510782518
 30
0.0
  0
SEQEND
  5
121
330
11E
100
AcDbEntity
  8
_U+30EC_U+30A4_U+30E4_U+30FC 1
 62
     7
420
 16777215
370
     9
  0
POLYLINE
  5
122
330
1F
100
AcDbEntity
  8
_U+30EC_U+30A4_U+30E4_U+30FC 1
 62
     7
420
 16777215
370
     9
100
AcDb2dPolyline
 66
     1
 10
0.0
 20
0.0
 30
0.0
  0
VERTEX
  5
123
330
122
100
AcDbEntity
  8
_U+30EC_U+30A4_U+30E4_U+30FC 1
 62
     7
420
 16777215
370
     9
100
AcDbVertex
100
AcDb2dVertex
 10
92.90836457415459
 20
-134.435885244169
 30
0.0
  0
VERTEX
  5
124
330
122
100
AcDbEntity
  8
_U+30EC_U+30A4_U+30E4_U+30FC 1
 62
     7
420
 16777215
370
     9
100
AcDbVertex
100
AcDb2dVertex
 10
108.3685680686208
 20
-134.435885244169
 30
0.0
  0
SEQEND
  5
125
330
122
100
AcDbEntity
  8
_U+30EC_U+30A4_U+30E4_U+30FC 1
 62
     7
420
 16777215
370
     9
  0
INSERT
  5
127
330
1F
100
AcDbEntity
  8
_U+30EC_U+30A4_U+30E4_U+30FC 1
100
AcDbBlockReference
  2
block 4
 10
0.0
 20
0.0
 30
0.0
  0
POLYLINE
  5
12C
330
1F
100
AcDbEntity
  8
_U+30EC_U+30A4_U+30E4_U+30FC 1
 62
     7
420
 16777215
370
     9
100
AcDb2dPolyline
 66
     1
 10
0.0
 20
0.0
 30
0.0
  0
VERTEX
  5
12D
330
12C
100
AcDbEntity
  8
_U+30EC_U+30A4_U+30E4_U+30FC 1
 62
     7
420
 16777215
370
     9
100
AcDbVertex
100
AcDb2dVertex
 10
74.3687639360281
 20
-120.9362791364325
 30
0.0
  0
VERTEX
  5
12E
330
12C
100
AcDbEntity
  8
_U+30EC_U+30A4_U+30E4_U+30FC 1
 62
     7
420
 16777215
370
     9
100
AcDbVertex
100
AcDb2dVertex
 10
103.3683665295199
 20
-120.9362791364325
 30
0.0
  0
SEQEND
  5
12F
330
12C
100
AcDbEntity
  8
_U+30EC_U+30A4_U+30E4_U+30FC 1
 62
     7
420
 16777215
370
     9
  0
POLYLINE
  5
130
330
1F
100
AcDbEntity
  8
_U+30EC_U+30A4_U+30E4_U+30FC 1
 62
     7
420
 16777215
370
     9
100
AcDb2dPolyline
 66
     1
 10
0.0
 20
0.0
 30
0.0
  0
VERTEX
  5
131
330
130
100
AcDbEntity
  8
_U+30EC_U+30A4_U+30E4_U+30FC 1
 62
     7
420
 16777215
370
     9
100
AcDbVertex
100
AcDb2dVertex
 10
74.32156227056565
 20
-122.3963205249566
 30
0.0
  0
VERTEX
  5
132
330
130
100
AcDbEntity
  8
_U+30EC_U+30A4_U+30E4_U+30FC 1
 62
     7
420
 16777215
370
     9
100
AcDbVertex
100
AcDb2dVertex
 10
74.32156227056565
 20
-119.9361894144604
 30
0.0
  0
SEQEND
  5
133
330
130
100
AcDbEntity
  8
_U+30EC_U+30A4_U+30E4_U+30FC 1
 62
     7
420
 16777215
370
     9
  0
POLYLINE
  5
134
330
1F
100
AcDbEntity
  8
_U+30EC_U+30A4_U+30E4_U+30FC 1
 62
     7
420
 16777215
370
     9
100
AcDb2dPolyline
 66
     1
 10
0.0
 20
0.0
 30
0.0
  0
VERTEX
  5
135
330
134
100
AcDbEntity
  8
_U+30EC_U+30A4_U+30E4_U+30FC 1
 62
     7
420
 16777215
370
     9
100
AcDbVertex
100
AcDb2dVertex
 10
103.3683665295199
 20
-122.3963205249566
 30
0.0
  0
VERTEX
  5
136
330
134
100
AcDbEntity
  8
_U+30EC_U+30A4_U+30E4_U+30FC 1
 62
     7
420
 16777215
370
     9
100
AcDbVertex
100
AcDb2dVertex
 10
103.3683665295199
 20
-119.9361894144604
 30
0.0
  0
SEQEND
  5
137
330
134
100
AcDbEntity
  8
_U+30EC_U+30A4_U+30E4_U+30FC 1
 62
     7
420
 16777215
370
     9
  0
INSERT
  5
139
330
1F
100
AcDbEntity
  8
_U+30EC_U+30A4_U+30E4_U+30FC 1
100
AcDbBlockReference
  2
block 5
 10
0.0
 20
0.0
 30
0.0
  0
POLYLINE
  5
141
330
1F
100
AcDbEntity
  8
_U+30EC_U+30A4_U+30E4_U+30FC 1
 62
     7
420
 16777215
370
     9
100
AcDb2dPolyline
 66
     1
 10
0.0
 20
0.0
 30
0.0
  0
VERTEX
  5
142
330
141
100
AcDbEntity
  8
_U+30EC_U+30A4_U+30E4_U+30FC 1
 62
     7
420
 16777215
370
     9
100
AcDbVertex
100
AcDb2dVertex
 10
74.36841115825932
 20
-138.4356444098353
 30
0.0
  0
VERTEX
  5
143
330
141
100
AcDbEntity
  8
_U+30EC_U+30A4_U+30E4_U+30FC 1
 62
     7
420
 16777215
370
     9
100
AcDbVertex
100
AcDb2dVertex
 10
80.36838489407613
 20
-138.4356444098353
 30
0.0
  0
SEQEND
  5
144
330
141
100
AcDbEntity
  8
_U+30EC_U+30A4_U+30E4_U+30FC 1
 62
     7
420
 16777215
370
     9
  0
POLYLINE
  5
145
330
1F
100
AcDbEntity
  8
_U+30EC_U+30A4_U+30E4_U+30FC 1
 62
     7
420
 16777215
370
     9
100
AcDb2dPolyline
 66
     1
 10
0.0
 20
0.0
 30
0.0
  0
VERTEX
  5
146
330
145
100
AcDbEntity
  8
_U+30EC_U+30A4_U+30E4_U+30FC 1
 62
     7
420
 16777215
370
     9
100
AcDbVertex
100
AcDb2dVertex
 10
74.29951366001704
 20
-128.47623385677
 30
0.0
  0
VERTEX
  5
147
330
145
100
AcDbEntity
  8
_U+30EC_U+30A4_U+30E4_U+30FC 1
 62
     7
420
 16777215
370
     9
100
AcDbVertex
100
AcDb2dVertex
 10
74.29951366001704
 20
-139.4361221873633
 30
0.0
  0
SEQEND
  5
148
330
145
100
AcDbEntity
  8
_U+30EC_U+30A4_U+30E4_U+30FC 1
 62
     7
420
 16777215
370
     9
  0
POLYLINE
  5
149
330
1F
100
AcDbEntity
  8
_U+30EC_U+30A4_U+30E4_U+30FC 1
 62
     7
420
 16777215
370
     9
100
AcDb2dPolyline
 66
     1
 10
0.0
 20
0.0
 30
0.0
  0
VERTEX
  5
14A
330
149
100
AcDbEntity
  8
_U+30EC_U+30A4_U+30E4_U+30FC 1
 62
     7
420
 16777215
370
     9
100
AcDbVertex
100
AcDb2dVertex
 10
80.36838489407613
 20
-136.975285521312
 30
0.0
  0
VERTEX
  5
14B
330
149
100
AcDbEntity
  8
_U+30EC_U+30A4_U+30E4_U+30FC 1
 62
     7
420
 16777215
370
     9
100
AcDbVertex
100
AcDb2dVertex
 10
80.36838489407613
 20
-139.4361221873633
 30
0.0
  0
SEQEND
  5
14C
330
149
100
AcDbEntity
  8
_U+30EC_U+30A4_U+30E4_U+30FC 1
 62
     7
420
 16777215
370
     9
  0
INSERT
  5
14E
330
1F
100
AcDbEntity
  8
_U+30EC_U+30A4_U+30E4_U+30FC 1
100
AcDbBlockReference
  2
block 6
 10
0.0
 20
0.0
 30
0.0
  0
POLYLINE
  5
154
330
1F
100
AcDbEntity
  8
_U+30EC_U+30A4_U+30E4_U+30FC 1
 62
     7
420
 16777215
370
     9
100
AcDb2dPolyline
 66
     1
 10
0.0
 20
0.0
 30
0.0
  0
VERTEX
  5
155
330
154
100
AcDbEntity
  8
_U+30EC_U+30A4_U+30E4_U+30FC 1
 62
     7
420
 16777215
370
     9
100
AcDbVertex
100
AcDb2dVertex
 10
107.3687958719049
 20
-131.4362510782518
 30
0.0
  0
VERTEX
  5
156
330
154
100
AcDbEntity
  8
_U+30EC_U+30A4_U+30E4_U+30FC 1
 62
     7
420
 16777215
370
     9
100
AcDbVertex
100
AcDb2dVertex
 10
107.3687958719049
 20
-125.9361633018494
 30
0.0
  0
SEQEND
  5
157
330
154
100
AcDbEntity
  8
_U+30EC_U+30A4_U+30E4_U+30FC 1
 62
     7
420
 16777215
370
     9
  0
POLYLINE
  5
158
330
1F
100
AcDbEntity
  8
_U+30EC_U+30A4_U+30E4_U+30FC 1
 62
     7
420
 16777215
370
     9
100
AcDb2dPolyline
 66
     1
 10
0.0
 20
0.0
 30
0.0
  0
VERTEX
  5
159
330
158
100
AcDbEntity
  8
_U+30EC_U+30A4_U+30E4_U+30FC 1
 62
     7
420
 16777215
370
     9
100
AcDbVertex
100
AcDb2dVertex
 10
92.90836457415459
 20
-131.4362510782518
 30
0.0
  0
VERTEX
  5
15A
330
158
100
AcDbEntity
  8
_U+30EC_U+30A4_U+30E4_U+30FC 1
 62
     7
420
 16777215
370
     9
100
AcDbVertex
100
AcDb2dVertex
 10
108.3685680686208
 20
-131.4362510782518
 30
0.0
  0
SEQEND
  5
15B
330
158
100
AcDbEntity
  8
_U+30EC_U+30A4_U+30E4_U+30FC 1
 62
     7
420
 16777215
370
     9
  0
INSERT
  5
15D
330
1F
100
AcDbEntity
  8
_U+30EC_U+30A4_U+30E4_U+30FC 1
100
AcDbBlockReference
  2
block 7
 10
0.0
 20
0.0
 30
0.0
  0
ENDSEC
  0
SECTION
  2
OBJECTS
  0
DICTIONARY
  5
C
330
0
100
AcDbDictionary
281
     1
  3
ACAD_GROUP
350
D
  3
ACAD_LAYOUT
350
1A
  3
ACAD_MATERIAL
350
3B
  3
ACAD_MLEADERSTYLE
350
16D
  3
ACAD_MLINESTYLE
350
17
  3
ACAD_PLOTSETTINGS
350
19
  3
ACAD_PLOTSTYLENAME
350
E
  3
ACAD_TABLESTYLE
350
16C
  3
ACAD_VISUALSTYLE
350
2A
  0
SUN
  5
3F
330
29
100
AcDbSun
 90
        1
290
     0
 63
     7
421
 16777215
 40
1.0
291
     1
 91
  2455826
 92
 54000000
292
     0
 70
     2
 71
   256
280
     1
  0
DICTIONARY
  5
D
102
{ACAD_REACTORS
330
C
102
}
330
C
100
AcDbDictionary
281
     1
  0
DICTIONARY
  5
1A
102
{ACAD_REACTORS
330
C
102
}
330
C
100
AcDbDictionary
281
     1
  3
Layout1
350
1E
  3
Layout2
350
26
  3
Model
350
22
  0
DICTIONARY
  5
3B
102
{ACAD_REACTORS
330
C
102
}
330
C
100
AcDbDictionary
281
     1
  3
ByBlock
350
3D
  3
ByLayer
350
3C
  3
Global
350
3E
  0
DICTIONARY
  5
16D
102
{ACAD_REACTORS
330
C
102
}
330
C
100
AcDbDictionary
281
     1
  0
DICTIONARY
  5
17
102
{ACAD_REACTORS
330
C
102
}
330
C
100
AcDbDictionary
281
     1
  3
Standard
350
18
  0
DICTIONARY
  5
19
102
{ACAD_REACTORS
330
C
102
}
330
C
100
AcDbDictionary
281
     1
  0
ACDBDICTIONARYWDFLT
  5
E
102
{ACAD_REACTORS
330
C
102
}
330
C
100
AcDbDictionary
281
     1
  3
Normal
350
F
100
AcDbDictionaryWithDefault
340
F
  0
DICTIONARY
  5
16C
102
{ACAD_REACTORS
330
C
102
}
330
C
100
AcDbDictionary
281
     1
  0
DICTIONARY
  5
2A
102
{ACAD_REACTORS
330
C
102
}
330
C
100
AcDbDictionary
281
     1
  3
2dWireframe
350
2F
  3
3D Hidden
350
31
  3
3dWireframe
350
30
  3
Basic
350
32
  3
Brighten
350
36
  3
ColorChange
350
3A
  3
Conceptual
350
34
  3
Dim
350
35
  3
Facepattern
350
39
  3
Flat
350
2B
  3
FlatWithEdges
350
2C
  3
Gouraud
350
2D
  3
GouraudWithEdges
350
2E
  3
Linepattern
350
38
  3
Realistic
350
33
  3
Thicken
350
37
  0
LAYOUT
  5
1E
102
{ACAD_REACTORS
330
1A
102
}
330
1A
100
AcDbPlotSettings
  1

  2
none_device
  4

  6

 40
0.0
 41
0.0
 42
0.0
 43
0.0
 44
0.0
 45
0.0
 46
0.0
 47
0.0
 48
0.0
 49
0.0
140
0.0
141
0.0
142
1.0
143
1.0
 70
   688
 72
     0
 73
     0
 74
     5
  7

 75
    16
 76
     0
 77
     2
 78
   300
147
1.0
148
0.0
149
0.0
100
AcDbLayout
  1
Layout1
 70
     1
 71
     1
 10
0.0
 20
0.0
 11
12.0
 21
9.0
 12
0.0
 22
0.0
 32
0.0
 14
1.000000000000000E+20
 24
1.000000000000000E+20
 34
1.000000000000000E+20
 15
-1.000000000000000E+20
 25
-1.000000000000000E+20
 35
-1.000000000000000E+20
146
0.0
 13
0.0
 23
0.0
 33
0.0
 16
1.0
 26
0.0
 36
0.0
 17
0.0
 27
1.0
 37
0.0
 76
     0
330
1B
  0
LAYOUT
  5
26
102
{ACAD_REACTORS
330
1A
102
}
330
1A
100
AcDbPlotSettings
  1

  2
none_device
  4

  6

 40
0.0
 41
0.0
 42
0.0
 43
0.0
 44
0.0
 45
0.0
 46
0.0
 47
0.0
 48
0.0
 49
0.0
140
0.0
141
0.0
142
1.0
143
1.0
 70
   688
 72
     0
 73
     0
 74
     5
  7

 75
    16
 76
     0
 77
     2
 78
   300
147
1.0
148
0.0
149
0.0
100
AcDbLayout
  1
Layout2
 70
     1
 71
     2
 10
0.0
 20
0.0
 11
0.0
 21
0.0
 12
0.0
 22
0.0
 32
0.0
 14
0.0
 24
0.0
 34
0.0
 15
0.0
 25
0.0
 35
0.0
146
0.0
 13
0.0
 23
0.0
 33
0.0
 16
1.0
 26
0.0
 36
0.0
 17
0.0
 27
1.0
 37
0.0
 76
     0
330
23
  0
LAYOUT
  5
22
102
{ACAD_REACTORS
330
1A
102
}
330
1A
100
AcDbPlotSettings
  1

  2
none_device
  4

  6

 40
0.0
 41
0.0
 42
0.0
 43
0.0
 44
0.0
 45
0.0
 46
0.0
 47
0.0
 48
0.0
 49
0.0
140
0.0
141
0.0
142
1.0
143
1.0
 70
  1712
 72
     0
 73
     0
 74
     0
  7

 75
     0
 76
     0
 77
     2
 78
   300
147
1.0
148
0.0
149
0.0
100
AcDbLayout
  1
Model
 70
     1
 71
     0
 10
0.0
 20
0.0
 11
12.0
 21
9.0
 12
0.0
 22
0.0
 32
0.0
 14
1.000000000000000E+20
 24
1.000000000000000E+20
 34
1.000000000000000E+20
 15
-1.000000000000000E+20
 25
-1.000000000000000E+20
 35
-1.000000000000000E+20
146
0.0
 13
0.0
 23
0.0
 33
0.0
 16
1.0
 26
0.0
 36
0.0
 17
0.0
 27
1.0
 37
0.0
 76
     0
330
1F
331
29
  0
MATERIAL
  5
3D
102
{ACAD_REACTORS
330
3B
102
}
330
3B
100
AcDbMaterial
  1
ByBlock
 72
     1
 94
      127
  0
MATERIAL
  5
3C
102
{ACAD_REACTORS
330
3B
102
}
330
3B
100
AcDbMaterial
  1
ByLayer
 72
     1
 94
      127
  0
MATERIAL
  5
3E
102
{ACAD_REACTORS
330
3B
102
}
330
3B
100
AcDbMaterial
  1
Global
 72
     1
 94
      127
  0
MLINESTYLE
  5
18
102
{ACAD_REACTORS
330
17
102
}
330
17
100
AcDbMlineStyle
  2
Standard
 70
     0
  3

 62
   256
 51
90.0
 52
90.0
 71
     2
 49
0.5
 62
   256
  6
BYLAYER
 49
-0.5
 62
   256
  6
BYLAYER
  0
ACDBPLACEHOLDER
  5
F
102
{ACAD_REACTORS
330
E
102
}
330
E
  0
VISUALSTYLE
  5
2F
102
{ACAD_REACTORS
330
2A
102
}
330
2A
100
AcDbVisualStyle
  2
2dWireframe
 70
     4
177
     2
291
     0
 71
     0
176
     1
 72
     2
176
     1
 73
     0
176
     1
 90
        0
176
     1
 40
-0.6
176
     1
 41
-30.0
176
     1
 62
     5
 63
     7
421
 16777215
176
     1
 74
     1
176
     1
 91
        4
176
     1
 64
     7
176
     1
 65
   257
176
     1
 75
     1
176
     1
175
     1
176
     1
 42
1.0
176
     1
 92
        0
176
     1
 66
   257
176
     1
 43
1.0
176
     1
 76
     1
176
     1
 77
     6
176
     1
 78
     2
176
     1
 67
     7
176
     1
 79
     5
176
     1
170
     0
176
     1
171
     0
176
     1
290
     0
176
     1
 93
        1
176
     1
 44
0.0
176
     1
173
     0
176
     1
  0
VISUALSTYLE
  5
31
102
{ACAD_REACTORS
330
2A
102
}
330
2A
100
AcDbVisualStyle
  2
3D Hidden
 70
     6
177
     2
291
     0
 71
     1
176
     1
 72
     2
176
     1
 73
     2
176
     1
 90
        0
176
     1
 40
-0.6
176
     1
 41
-30.0
176
     1
 62
     5
 63
     7
421
 16777215
176
     1
 74
     2
176
     1
 91
        2
176
     1
 64
     7
176
     1
 65
   257
176
     1
 75
     2
176
     1
175
     1
176
     1
 42
40.0
176
     1
 92
        0
176
     1
 66
   257
176
     1
 43
1.0
176
     1
 76
     1
176
     1
 77
     6
176
     1
 78
     2
176
     1
 67
     7
176
     1
 79
     3
176
     1
170
     0
176
     1
171
     0
176
     1
290
     0
176
     1
 93
        1
176
     1
 44
0.0
176
     1
173
     0
176
     1
  0
VISUALSTYLE
  5
30
102
{ACAD_REACTORS
330
2A
102
}
330
2A
100
AcDbVisualStyle
  2
3dWireframe
 70
     5
177
     2
291
     0
 71
     0
176
     1
 72
     2
176
     1
 73
     0
176
     1
 90
        0
176
     1
 40
-0.6
176
     1
 41
-30.0
176
     1
 62
     5
 63
     7
421
 16777215
176
     1
 74
     1
176
     1
 91
        4
176
     1
 64
     7
176
     1
 65
   257
176
     1
 75
     1
176
     1
175
     1
176
     1
 42
1.0
176
     1
 92
        0
176
     1
 66
   257
176
     1
 43
1.0
176
     1
 76
     1
176
     1
 77
     6
176
     1
 78
     2
176
     1
 67
     7
176
     1
 79
     5
176
     1
170
     0
176
     1
171
     0
176
     1
290
     0
176
     1
 93
        1
176
     1
 44
0.0
176
     1
173
     0
176
     1
  0
VISUALSTYLE
  5
32
102
{ACAD_REACTORS
330
2A
102
}
330
2A
100
AcDbVisualStyle
  2
Basic
 70
     7
177
     2
291
     1
 71
     1
176
     1
 72
     0
176
     1
 73
     1
176
     1
 90
        0
176
     1
 40
-0.6
176
     1
 41
-30.0
176
     1
 62
     5
 63
     7
421
 16777215
176
     1
 74
     0
176
     1
 91
        4
176
     1
 64
     7
176
     1
 65
   257
176
     1
 75
     1
176
     1
175
     1
176
     1
 42
1.0
176
     1
 92
        8
176
     1
 66
     7
176
     1
 43
1.0
176
     1
 76
     1
176
     1
 77
     6
176
     1
 78
     2
176
     1
 67
     7
176
     1
 79
     5
176
     1
170
     0
176
     1
171
     0
176
     1
290
     0
176
     1
 93
        1
176
     1
 44
0.0
176
     1
173
     0
176
     1
  0
VISUALSTYLE
  5
36
102
{ACAD_REACTORS
330
2A
102
}
330
2A
100
AcDbVisualStyle
  2
Brighten
 70
    12
177
     2
291
     1
 71
     2
176
     1
 72
     2
176
     1
 73
     0
176
     1
 90
        0
176
     1
 40
-0.6
176
     1
 41
-30.0
176
     1
 62
     5
 63
     7
421
 16777215
176
     1
 74
     1
176
     1
 91
        4
176
     1
 64
     7
176
     1
 65
   257
176
     1
 75
     1
176
     1
175
     1
176
     1
 42
1.0
176
     1
 92
        8
176
     1
 66
     7
176
     1
 43
1.0
176
     1
 76
     1
176
     1
 77
     6
176
     1
 78
     2
176
     1
 67
     7
176
     1
 79
     5
176
     1
170
     0
176
     1
171
     0
176
     1
290
     0
176
     1
 93
        1
176
     1
 44
50.0
176
     1
173
     0
176
     1
  0
VISUALSTYLE
  5
3A
102
{ACAD_REACTORS
330
2A
102
}
330
2A
100
AcDbVisualStyle
  2
ColorChange
 70
    16
177
     2
291
     1
 71
     2
176
     1
 72
     2
176
     1
 73
     3
176
     1
 90
        0
176
     1
 40
-0.6
176
     1
 41
-30.0
176
     1
 62
     5
 63
     8
421
  8421504
176
     1
 74
     1
176
     1
 91
        4
176
     1
 64
     7
176
     1
 65
   257
176
     1
 75
     1
176
     1
175
     1
176
     1
 42
1.0
176
     1
 92
        8
176
     1
 66
     8
424
  8421504
176
     1
 43
1.0
176
     1
 76
     1
176
     1
 77
     6
176
     1
 78
     2
176
     1
 67
     7
176
     1
 79
     5
176
     1
170
     0
176
     1
171
     0
176
     1
290
     0
176
     1
 93
        1
176
     1
 44
0.0
176
     1
173
     0
176
     1
  0
VISUALSTYLE
  5
34
102
{ACAD_REACTORS
330
2A
102
}
330
2A
100
AcDbVisualStyle
  2
Conceptual
 70
     9
177
     2
291
     0
 71
     3
176
     1
 72
     2
176
     1
 73
     0
176
     1
 90
        0
176
     1
 40
-0.6
176
     1
 41
-30.0
176
     1
 62
     5
 63
     7
421
 16777215
176
     1
 74
     2
176
     1
 91
        2
176
     1
 64
     7
176
     1
 65
   257
176
     1
 75
     1
176
     1
175
     1
176
     1
 42
40.0
176
     1
 92
        8
176
     1
 66
     7
176
     1
 43
1.0
176
     1
 76
     1
176
     1
 77
     6
176
     1
 78
     2
176
     1
 67
     7
176
     1
 79
     3
176
     1
170
     0
176
     1
171
     0
176
     1
290
     0
176
     1
 93
        1
176
     1
 44
0.0
176
     1
173
     0
176
     1
  0
VISUALSTYLE
  5
35
102
{ACAD_REACTORS
330
2A
102
}
330
2A
100
AcDbVisualStyle
  2
Dim
 70
    11
177
     2
291
     1
 71
     2
176
     1
 72
     2
176
     1
 73
     0
176
     1
 90
        0
176
     1
 40
-0.6
176
     1
 41
-30.0
176
     1
 62
     5
 63
     7
421
 16777215
176
     1
 74
     1
176
     1
 91
        4
176
     1
 64
     7
176
     1
 65
   257
176
     1
 75
     1
176
     1
175
     1
176
     1
 42
1.0
176
     1
 92
        8
176
     1
 66
     7
176
     1
 43
1.0
176
     1
 76
     1
176
     1
 77
     6
176
     1
 78
     2
176
     1
 67
     7
176
     1
 79
     5
176
     1
170
     0
176
     1
171
     0
176
     1
290
     0
176
     1
 93
        1
176
     1
 44
-50.0
176
     1
173
     0
176
     1
  0
VISUALSTYLE
  5
39
102
{ACAD_REACTORS
330
2A
102
}
330
2A
100
AcDbVisualStyle
  2
Facepattern
 70
    15
177
     2
291
     1
 71
     2
176
     1
 72
     2
176
     1
 73
     0
176
     1
 90
        0
176
     1
 40
-0.6
176
     1
 41
-30.0
176
     1
 62
     5
 63
     7
421
 16777215
176
     1
 74
     1
176
     1
 91
        4
176
     1
 64
     7
176
     1
 65
   257
176
     1
 75
     1
176
     1
175
     1
176
     1
 42
1.0
176
     1
 92
        8
176
     1
 66
     7
176
     1
 43
1.0
176
     1
 76
     1
176
     1
 77
     6
176
     1
 78
     2
176
     1
 67
     7
176
     1
 79
     5
176
     1
170
     0
176
     1
171
     0
176
     1
290
     0
176
     1
 93
        1
176
     1
 44
0.0
176
     1
173
     0
176
     1
  0
VISUALSTYLE
  5
2B
102
{ACAD_REACTORS
330
2A
102
}
330
2A
100
AcDbVisualStyle
  2
Flat
 70
     0
177
     2
291
     1
 71
     2
176
     1
 72
     1
176
     1
 73
     1
176
     1
 90
        2
176
     1
 40
-0.6
176
     1
 41
30.0
176
     1
 62
     5
 63
     7
421
 16777215
176
     1
 74
     0
176
     1
 91
        4
176
     1
 64
     7
176
     1
 65
   257
176
     1
 75
     1
176
     1
175
     1
176
     1
 42
1.0
176
     1
 92
        8
176
     1
 66
     7
176
     1
 43
1.0
176
     1
 76
     1
176
     1
 77
     6
176
     1
 78
     2
176
     1
 67
     7
176
     1
 79
     5
176
     1
170
     0
176
     1
171
     0
176
     1
290
     0
176
     1
 93
       13
176
     1
 44
0.0
176
     1
173
     0
176
     1
  0
VISUALSTYLE
  5
2C
102
{ACAD_REACTORS
330
2A
102
}
330
2A
100
AcDbVisualStyle
  2
FlatWithEdges
 70
     1
177
     2
291
     1
 71
     2
176
     1
 72
     1
176
     1
 73
     1
176
     1
 90
        2
176
     1
 40
-0.6
176
     1
 41
30.0
176
     1
 62
     5
 63
     7
421
 16777215
176
     1
 74
     1
176
     1
 91
        4
176
     1
 64
     7
176
     1
 65
   257
176
     1
 75
     1
176
     1
175
     1
176
     1
 42
1.0
176
     1
 92
        0
176
     1
 66
   257
176
     1
 43
1.0
176
     1
 76
     1
176
     1
 77
     6
176
     1
 78
     2
176
     1
 67
     7
176
     1
 79
     5
176
     1
170
     0
176
     1
171
     0
176
     1
290
     0
176
     1
 93
       13
176
     1
 44
0.0
176
     1
173
     0
176
     1
  0
VISUALSTYLE
  5
2D
102
{ACAD_REACTORS
330
2A
102
}
330
2A
100
AcDbVisualStyle
  2
Gouraud
 70
     2
177
     2
291
     1
 71
     2
176
     1
 72
     2
176
     1
 73
     1
176
     1
 90
        2
176
     1
 40
-0.6
176
     1
 41
30.0
176
     1
 62
     5
 63
     7
421
 16777215
176
     1
 74
     0
176
     1
 91
        4
176
     1
 64
     7
176
     1
 65
   257
176
     1
 75
     1
176
     1
175
     1
176
     1
 42
1.0
176
     1
 92
        0
176
     1
 66
     7
176
     1
 43
1.0
176
     1
 76
     1
176
     1
 77
     6
176
     1
 78
     2
176
     1
 67
     7
176
     1
 79
     5
176
     1
170
     0
176
     1
171
     0
176
     1
290
     0
176
     1
 93
       13
176
     1
 44
0.0
176
     1
173
     0
176
     1
  0
VISUALSTYLE
  5
2E
102
{ACAD_REACTORS
330
2A
102
}
330
2A
100
AcDbVisualStyle
  2
GouraudWithEdges
 70
     3
177
     2
291
     1
 71
     2
176
     1
 72
     2
176
     1
 73
     1
176
     1
 90
        2
176
     1
 40
-0.6
176
     1
 41
30.0
176
     1
 62
     5
 63
     7
421
 16777215
176
     1
 74
     1
176
     1
 91
        4
176
     1
 64
     7
176
     1
 65
   257
176
     1
 75
     1
176
     1
175
     1
176
     1
 42
1.0
176
     1
 92
        0
176
     1
 66
   257
176
     1
 43
1.0
176
     1
 76
     1
176
     1
 77
     6
176
     1
 78
     2
176
     1
 67
     7
176
     1
 79
     5
176
     1
170
     0
176
     1
171
     0
176
     1
290
     0
176
     1
 93
       13
176
     1
 44
0.0
176
     1
173
     0
176
     1
  0
VISUALSTYLE
  5
38
102
{ACAD_REACTORS
330
2A
102
}
330
2A
100
AcDbVisualStyle
  2
Linepattern
 70
    14
177
     2
291
     1
 71
     2
176
     1
 72
     2
176
     1
 73
     0
176
     1
 90
        0
176
     1
 40
-0.6
176
     1
 41
-30.0
176
     1
 62
     5
 63
     7
421
 16777215
176
     1
 74
     1
176
     1
 91
        4
176
     1
 64
     7
176
     1
 65
   257
176
     1
 75
     7
176
     1
175
     7
176
     1
 42
1.0
176
     1
 92
        8
176
     1
 66
     7
176
     1
 43
1.0
176
     1
 76
     1
176
     1
 77
     6
176
     1
 78
     2
176
     1
 67
     7
176
     1
 79
     5
176
     1
170
     0
176
     1
171
     0
176
     1
290
     0
176
     1
 93
        1
176
     1
 44
0.0
176
     1
173
     0
176
     1
  0
VISUALSTYLE
  5
33
102
{ACAD_REACTORS
330
2A
102
}
330
2A
100
AcDbVisualStyle
  2
Realistic
 70
     8
177
     2
291
     0
 71
     2
176
     1
 72
     2
176
     1
 73
     0
176
     1
 90
        0
176
     1
 40
-0.6
176
     1
 41
-30.0
176
     1
 62
     5
 63
     7
421
 16777215
176
     1
 74
     1
176
     1
 91
        0
176
     1
 64
     7
176
     1
 65
   257
176
     1
 75
     1
176
     1
175
     1
176
     1
 42
1.0
176
     1
 92
        8
176
     1
 66
     8
424
  7895160
176
     1
 43
1.0
176
     1
 76
     1
176
     1
 77
     6
176
     1
 78
     2
176
     1
 67
     7
176
     1
 79
     5
176
     1
170
     0
176
     1
171
     0
176
     1
290
     0
176
     1
 93
       13
176
     1
 44
0.0
176
     1
173
     0
176
     1
  0
VISUALSTYLE
  5
37
102
{ACAD_REACTORS
330
2A
102
}
330
2A
100
AcDbVisualStyle
  2
Thicken
 70
    13
177
     2
291
     1
 71
     2
176
     1
 72
     2
176
     1
 73
     0
176
     1
 90
        0
176
     1
 40
-0.6
176
     1
 41
-30.0
176
     1
 62
     5
 63
     7
421
 16777215
176
     1
 74
     1
176
     1
 91
        4
176
     1
 64
     7
176
     1
 65
   257
176
     1
 75
     1
176
     1
175
     1
176
     1
 42
1.0
176
     1
 92
       12
176
     1
 66
     7
176
     1
 43
1.0
176
     1
 76
     1
176
     1
 77
     6
176
     1
 78
     2
176
     1
 67
     7
176
     1
 79
     5
176
     1
170
     0
176
     1
171
     0
176
     1
290
     0
176
     1
 93
        1
176
     1
 44
0.0
176
     1
173
     0
176
     1
  0
ENDSEC
  0
EOF
