  0
SECTION
  2
HEADER
  9
$ACADVER
  1
AC1024
  9
$ACADMAINTVER
 70
     6
  9
$DWGCODEPAGE
  3
UNDEFINED
  9
$INSBASE
 10
0.0
 20
0.0
 30
0.0
  9
$EXTMIN
 10
1.000000000000000E+20
 20
1.000000000000000E+20
 30
1.000000000000000E+20
  9
$EXTMAX
 10
-1.000000000000000E+20
 20
-1.000000000000000E+20
 30
-1.000000000000000E+20
  9
$LIMMIN
 10
0.0
 20
0.0
  9
$LIMMAX
 10
12.0
 20
9.0
  9
$ORTHOMODE
 70
     0
  9
$REGENMODE
 70
     1
  9
$FILLMODE
 70
     1
  9
$QTEXTMODE
 70
     0
  9
$MIRRTEXT
 70
     1
  9
$LTSCALE
 40
1.0
  9
$ATTMODE
 70
     1
  9
$TEXTSIZE
 40
0.2
  9
$TRACEWID
 40
0.05
  9
$TEXTSTYLE
  7
Standard
  9
$CLAYER
  8
0
  9
$CELTYPE
  6
ByLayer
  9
$CECOLOR
 62
   256
  9
$CELTSCALE
 40
1.0
  9
$DISPSILH
 70
     0
  9
$DIMSCALE
 40
1.0
  9
$DIMASZ
 40
0.18
  9
$DIMEXO
 40
0.0625
  9
$DIMDLI
 40
0.38
  9
$DIMRND
 40
0.0
  9
$DIMDLE
 40
0.0
  9
$DIMEXE
 40
0.18
  9
$DIMTP
 40
0.0
  9
$DIMTM
 40
0.0
  9
$DIMTXT
 40
0.18
  9
$DIMCEN
 40
0.09
  9
$DIMTSZ
 40
0.0
  9
$DIMTOL
 70
     0
  9
$DIMLIM
 70
     0
  9
$DIMTIH
 70
     1
  9
$DIMTOH
 70
     1
  9
$DIMSE1
 70
     0
  9
$DIMSE2
 70
     0
  9
$DIMTAD
 70
     0
  9
$DIMZIN
 70
     0
  9
$DIMBLK
  1

  9
$DIMASO
 70
     1
  9
$DIMSHO
 70
     1
  9
$DIMPOST
  1

  9
$DIMAPOST
  1

  9
$DIMALT
 70
     0
  9
$DIMALTD
 70
     2
  9
$DIMALTF
 40
25.4
  9
$DIMLFAC
 40
1.0
  9
$DIMTOFL
 70
     0
  9
$DIMTVP
 40
0.0
  9
$DIMTIX
 70
     0
  9
$DIMSOXD
 70
     0
  9
$DIMSAH
 70
     0
  9
$DIMBLK1
  1

  9
$DIMBLK2
  1

  9
$DIMSTYLE
  2
Standard
  9
$DIMCLRD
 70
     0
  9
$DIMCLRE
 70
     0
  9
$DIMCLRT
 70
     0
  9
$DIMTFAC
 40
1.0
  9
$DIMGAP
 40
0.09
  9
$DIMJUST
 70
     0
  9
$DIMSD1
 70
     0
  9
$DIMSD2
 70
     0
  9
$DIMTOLJ
 70
     1
  9
$DIMTZIN
 70
     0
  9
$DIMALTZ
 70
     0
  9
$DIMALTTZ
 70
     0
  9
$DIMUPT
 70
     0
  9
$DIMDEC
 70
     4
  9
$DIMTDEC
 70
     4
  9
$DIMALTU
 70
     2
  9
$DIMALTTD
 70
     2
  9
$DIMTXSTY
  7
Standard
  9
$DIMAUNIT
 70
     0
  9
$DIMADEC
 70
     0
  9
$DIMALTRND
 40
0.0
  9
$DIMAZIN
 70
     0
  9
$DIMDSEP
 70
    46
  9
$DIMATFIT
 70
     3
  9
$DIMFRAC
 70
     0
  9
$DIMLDRBLK
  1

  9
$DIMLUNIT
 70
     2
  9
$DIMLWD
 70
    -2
  9
$DIMLWE
 70
    -2
  9
$DIMTMOVE
 70
     0
  9
$DIMFXL
 40
1.0
  9
$DIMFXLON
 70
     0
  9
$DIMJOGANG
 40
0.7853981633974483
  9
$DIMTFILL
 70
     0
  9
$DIMTFILLCLR
 70
     0
  9
$DIMARCSYM
 70
     0
  9
$DIMLTYPE
  6

  9
$DIMLTEX1
  6

  9
$DIMLTEX2
  6

  9
$DIMTXTDIRECTION
 70
     0
  9
$LUNITS
 70
     2
  9
$LUPREC
 70
     4
  9
$SKETCHINC
 40
0.1
  9
$FILLETRAD
 40
0.5
  9
$AUNITS
 70
     0
  9
$AUPREC
 70
     0
  9
$MENU
  1
.
  9
$ELEVATION
 40
0.0
  9
$PELEVATION
 40
0.0
  9
$THICKNESS
 40
0.0
  9
$LIMCHECK
 70
     0
  9
$CHAMFERA
 40
0.5
  9
$CHAMFERB
 40
0.5
  9
$CHAMFERC
 40
1.0
  9
$CHAMFERD
 40
0.0
  9
$SKPOLY
 70
     0
  9
$TDCREATE
 40
2457917.613240729
  9
$TDUCREATE
 40
2457917.238240741
  9
$TDUPDATE
 40
2457917.613240729
  9
$TDUUPDATE
 40
2457917.238240741
  9
$TDINDWG
 40
0.0000000116
  9
$TDUSRTIMER
 40
0.0000000116
  9
$USRTIMER
 70
     1
  9
$ANGBASE
 50
0.0
  9
$ANGDIR
 70
     0
  9
$PDMODE
 70
     0
  9
$PDSIZE
 40
0.0
  9
$PLINEWID
 40
0.0
  9
$SPLFRAME
 70
     0
  9
$SPLINETYPE
 70
     6
  9
$SPLINESEGS
 70
     8
  9
$HANDSEED
  5
F9
  9
$SURFTAB1
 70
     6
  9
$SURFTAB2
 70
     6
  9
$SURFTYPE
 70
     6
  9
$SURFU
 70
     6
  9
$SURFV
 70
     6
  9
$UCSBASE
  2

  9
$UCSNAME
  2

  9
$UCSORG
 10
0.0
 20
0.0
 30
0.0
  9
$UCSXDIR
 10
1.0
 20
0.0
 30
0.0
  9
$UCSYDIR
 10
0.0
 20
1.0
 30
0.0
  9
$UCSORTHOREF
  2

  9
$UCSORTHOVIEW
 70
     0
  9
$UCSORGTOP
 10
0.0
 20
0.0
 30
0.0
  9
$UCSORGBOTTOM
 10
0.0
 20
0.0
 30
0.0
  9
$UCSORGLEFT
 10
0.0
 20
0.0
 30
0.0
  9
$UCSORGRIGHT
 10
0.0
 20
0.0
 30
0.0
  9
$UCSORGFRONT
 10
0.0
 20
0.0
 30
0.0
  9
$UCSORGBACK
 10
0.0
 20
0.0
 30
0.0
  9
$PUCSBASE
  2

  9
$PUCSNAME
  2

  9
$PUCSORG
 10
0.0
 20
0.0
 30
0.0
  9
$PUCSXDIR
 10
1.0
 20
0.0
 30
0.0
  9
$PUCSYDIR
 10
0.0
 20
1.0
 30
0.0
  9
$PUCSORTHOREF
  2

  9
$PUCSORTHOVIEW
 70
     0
  9
$PUCSORGTOP
 10
0.0
 20
0.0
 30
0.0
  9
$PUCSORGBOTTOM
 10
0.0
 20
0.0
 30
0.0
  9
$PUCSORGLEFT
 10
0.0
 20
0.0
 30
0.0
  9
$PUCSORGRIGHT
 10
0.0
 20
0.0
 30
0.0
  9
$PUCSORGFRONT
 10
0.0
 20
0.0
 30
0.0
  9
$PUCSORGBACK
 10
0.0
 20
0.0
 30
0.0
  9
$USERI1
 70
     0
  9
$USERI2
 70
     0
  9
$USERI3
 70
     0
  9
$USERI4
 70
     0
  9
$USERI5
 70
     0
  9
$USERR1
 40
0.0
  9
$USERR2
 40
0.0
  9
$USERR3
 40
0.0
  9
$USERR4
 40
0.0
  9
$USERR5
 40
0.0
  9
$WORLDVIEW
 70
     1
  9
$SHADEDGE
 70
     3
  9
$SHADEDIF
 70
    70
  9
$TILEMODE
 70
     1
  9
$MAXACTVP
 70
    64
  9
$PINSBASE
 10
0.0
 20
0.0
 30
0.0
  9
$PLIMCHECK
 70
     0
  9
$PEXTMIN
 10
1.000000000000000E+20
 20
1.000000000000000E+20
 30
1.000000000000000E+20
  9
$PEXTMAX
 10
-1.000000000000000E+20
 20
-1.000000000000000E+20
 30
-1.000000000000000E+20
  9
$PLIMMIN
 10
0.0
 20
0.0
  9
$PLIMMAX
 10
12.0
 20
9.0
  9
$UNITMODE
 70
     0
  9
$VISRETAIN
 70
     1
  9
$PLINEGEN
 70
     0
  9
$PSLTSCALE
 70
     1
  9
$TREEDEPTH
 70
  3020
  9
$CMLSTYLE
  2
Standard
  9
$CMLJUST
 70
     0
  9
$CMLSCALE
 40
1.0
  9
$PROXYGRAPHICS
 70
     1
  9
$MEASUREMENT
 70
     0
  9
$CELWEIGHT
370
    -1
  9
$ENDCAPS
280
     0
  9
$JOINSTYLE
280
     0
  9
$LWDISPLAY
290
     1
  9
$INSUNITS
 70
     1
  9
$HYPERLINKBASE
  1

  9
$STYLESHEET
  1

  9
$XEDIT
290
     1
  9
$CEPSNTYPE
380
     0
  9
$PSTYLEMODE
290
     1
  9
$FINGERPRINTGUID
  2
{B041A48A-AD0A-7518-737E-C4E7F2406A12}
  9
$VERSIONGUID
  2
{FAEB1C32-E019-11D5-929B-00C0DF256EC4}
  9
$EXTNAMES
290
     1
  9
$PSVPSCALE
 40
0.0
  9
$OLESTARTUP
290
     0
  9
$SORTENTS
280
   127
  9
$INDEXCTL
280
     0
  9
$HIDETEXT
280
     1
  9
$XCLIPFRAME
280
     2
  9
$HALOGAP
280
     0
  9
$OBSCOLOR
 70
   257
  9
$OBSLTYPE
280
     0
  9
$INTERSECTIONDISPLAY
280
     0
  9
$INTERSECTIONCOLOR
 70
   257
  9
$DIMASSOC
280
     2
  9
$PROJECTNAME
  1

  9
$CAMERADISPLAY
290
     0
  9
$LENSLENGTH
 40
50.0
  9
$CAMERAHEIGHT
 40
0.0
  9
$STEPSPERSEC
 40
2.0
  9
$STEPSIZE
 40
6.0
  9
$3DDWFPREC
 40
2.0
  9
$PSOLWIDTH
 40
0.25
  9
$PSOLHEIGHT
 40
4.0
  9
$LOFTANG1
 40
1.570796326794897
  9
$LOFTANG2
 40
1.570796326794897
  9
$LOFTMAG1
 40
0.0
  9
$LOFTMAG2
 40
0.0
  9
$LOFTPARAM
 70
     7
  9
$LOFTNORMALS
280
     1
  9
$LATITUDE
 40
37.795
  9
$LONGITUDE
 40
-122.394
  9
$NORTHDIRECTION
 40
0.0
  9
$TIMEZONE
 70
 -8000
  9
$LIGHTGLYPHDISPLAY
280
     1
  9
$TILEMODELIGHTSYNCH
280
     1
  9
$CMATERIAL
347
3C
  9
$SOLIDHIST
280
     1
  9
$SHOWHIST
280
     1
  9
$DWFFRAME
280
     2
  9
$DGNFRAME
280
     2
  9
$REALWORLDSCALE
290
     1
  9
$INTERFERECOLOR
 62
   256
  9
$CSHADOW
280
     0
  9
$SHADOWPLANELOCATION
 40
0.0
  0
ENDSEC
  0
SECTION
  2
CLASSES
  0
CLASS
  1
ACDBDICTIONARYWDFLT
  2
AcDbDictionaryWithDefault
  3
ObjectDBX Classes
 90
        0
 91
        4
280
     0
281
     0
  0
CLASS
  1
VISUALSTYLE
  2
AcDbVisualStyle
  3
ObjectDBX Classes
 90
     4095
 91
        4
280
     0
281
     0
  0
CLASS
  1
MATERIAL
  2
AcDbMaterial
  3
ObjectDBX Classes
 90
     1153
 91
        4
280
     0
281
     0
  0
CLASS
  1
SUN
  2
AcDbSun
  3
SCENEOE
 90
     1024
 91
        4
280
     0
281
     0
  0
ENDSEC
  0
SECTION
  2
TABLES
  0
TABLE
  2
VPORT
  5
8
330
0
100
AcDbSymbolTable
 70
     1
  0
VPORT
  5
29
330
8
100
AcDbSymbolTableRecord
100
AcDbViewportTableRecord
  2
*Active
 70
     0
 10
0.0
 20
0.0
 11
1.0
 21
1.0
 12
0.0
 22
0.0
 13
0.0
 23
0.0
 14
0.5
 24
0.5
 15
0.5
 25
0.5
 16
0.0
 26
0.0
 36
1.0
 17
91.00082462281999
 27
-128.4993055234307
 37
0.0
 40
256.9986110468615
 41
0.7081814508812795
 42
50.0
 43
0.0
 44
0.0
 50
0.0
 51
0.0
 71
     0
 72
   100
 73
     1
 74
     3
 75
     0
 76
     0
 77
     0
 78
     0
281
     0
 65
     1
110
0.0
120
0.0
130
0.0
111
1.0
121
0.0
131
0.0
112
0.0
122
1.0
132
0.0
 79
     0
146
0.0
 60
     3
 61
     5
292
     1
282
     1
141
0.0
142
0.0
 63
   250
361
3F
  0
ENDTAB
  0
TABLE
  2
LTYPE
  5
5
330
0
100
AcDbSymbolTable
 70
     1
  0
LTYPE
  5
14
330
5
100
AcDbSymbolTableRecord
100
AcDbLinetypeTableRecord
  2
ByBlock
 70
     0
  3

 72
    65
 73
     0
 40
0.0
  0
LTYPE
  5
15
330
5
100
AcDbSymbolTableRecord
100
AcDbLinetypeTableRecord
  2
ByLayer
 70
     0
  3

 72
    65
 73
     0
 40
0.0
  0
LTYPE
  5
16
330
5
100
AcDbSymbolTableRecord
100
AcDbLinetypeTableRecord
  2
Continuous
 70
     0
  3
Solid line
 72
    65
 73
     0
 40
0.0
  0
ENDTAB
  0
TABLE
  2
LAYER
  5
2
330
0
100
AcDbSymbolTable
 70
     2
  0
LAYER
  5
10
330
2
100
AcDbSymbolTableRecord
100
AcDbLayerTableRecord
  2
0
 70
     0
 62
     7
  6
Continuous
370
    -3
390
F
347
3E
  0
LAYER
  5
40
330
2
100
AcDbSymbolTableRecord
100
AcDbLayerTableRecord
  2
_U+30EC_U+30A4_U+30E4_U+30FC 1
 70
     0
 62
     7
  6
Continuous
370
    -3
390
F
347
3E
  0
ENDTAB
  0
TABLE
  2
STYLE
  5
3
330
0
100
AcDbSymbolTable
 70
     1
  0
STYLE
  5
11
330
3
100
AcDbSymbolTableRecord
100
AcDbTextStyleTableRecord
  2
Standard
 70
     0
 40
0.0
 41
1.0
 50
0.0
 71
     0
 42
0.2
  3
txt
  4

  0
ENDTAB
  0
TABLE
  2
VIEW
  5
6
330
0
100
AcDbSymbolTable
 70
     0
  0
ENDTAB
  0
TABLE
  2
UCS
  5
7
330
0
100
AcDbSymbolTable
 70
     0
  0
ENDTAB
  0
TABLE
  2
APPID
  5
9
330
0
100
AcDbSymbolTable
 70
     1
  0
APPID
  5
12
330
9
100
AcDbSymbolTableRecord
100
AcDbRegAppTableRecord
  2
ACAD
 70
     0
  0
ENDTAB
  0
TABLE
  2
DIMSTYLE
  5
A
330
0
100
AcDbSymbolTable
 70
     1
100
AcDbDimStyleTable
  0
DIMSTYLE
105
27
330
A
100
AcDbSymbolTableRecord
100
AcDbDimStyleTableRecord
  2
Standard
 70
     0
178
     0
340
11
  0
ENDTAB
  0
TABLE
  2
BLOCK_RECORD
  5
1
330
0
100
AcDbSymbolTable
 70
     7
  0
BLOCK_RECORD
  5
1F
330
1
100
AcDbSymbolTableRecord
100
AcDbBlockTableRecord
  2
*Model_Space
340
22
 70
     0
280
     1
281
     0
  0
BLOCK_RECORD
  5
1B
330
1
100
AcDbSymbolTableRecord
100
AcDbBlockTableRecord
  2
*Paper_Space
340
1E
 70
     0
280
     1
281
     0
  0
BLOCK_RECORD
  5
23
330
1
100
AcDbSymbolTableRecord
100
AcDbBlockTableRecord
  2
*Paper_Space0
340
26
 70
     0
280
     1
281
     0
  0
BLOCK_RECORD
  5
96
330
1
100
AcDbSymbolTableRecord
100
AcDbBlockTableRecord
  2
block 2
340
0
102
{BLKREFS
331
97
102
}
 70
     0
280
     1
281
     0
  0
BLOCK_RECORD
  5
A5
330
1
100
AcDbSymbolTableRecord
100
AcDbBlockTableRecord
  2
block 3
340
0
102
{BLKREFS
331
A6
102
}
 70
     0
280
     1
281
     0
  0
BLOCK_RECORD
  5
BE
330
1
100
AcDbSymbolTableRecord
100
AcDbBlockTableRecord
  2
block 4
340
0
102
{BLKREFS
331
BF
102
}
 70
     0
280
     1
281
     0
  0
BLOCK_RECORD
  5
CC
330
1
100
AcDbSymbolTableRecord
100
AcDbBlockTableRecord
  2
block 5
340
0
102
{BLKREFS
331
CD
102
}
 70
     0
280
     1
281
     0
  0
BLOCK_RECORD
  5
DE
330
1
100
AcDbSymbolTableRecord
100
AcDbBlockTableRecord
  2
block 6
340
0
102
{BLKREFS
331
DF
102
}
 70
     0
280
     1
281
     0
  0
BLOCK_RECORD
  5
EF
330
1
100
AcDbSymbolTableRecord
100
AcDbBlockTableRecord
  2
block 7
340
0
102
{BLKREFS
331
F0
102
}
 70
     0
280
     1
281
     0
  0
ENDTAB
  0
ENDSEC
  0
SECTION
  2
BLOCKS
  0
BLOCK
  5
20
330
1F
100
AcDbEntity
  8
0
100
AcDbBlockBegin
  2
*Model_Space
 70
     0
 10
0.0
 20
0.0
 30
0.0
  3
*Model_Space
  1

  0
ENDBLK
  5
21
330
1F
100
AcDbEntity
  8
0
100
AcDbBlockEnd
  0
BLOCK
  5
1C
330
1B
100
AcDbEntity
 67
     1
  8
0
100
AcDbBlockBegin
  2
*Paper_Space
 70
     0
 10
0.0
 20
0.0
 30
0.0
  3
*Paper_Space
  1

  0
ENDBLK
  5
1D
330
1B
100
AcDbEntity
 67
     1
  8
0
100
AcDbBlockEnd
  0
BLOCK
  5
24
330
23
100
AcDbEntity
  8
0
100
AcDbBlockBegin
  2
*Paper_Space0
 70
     0
 10
0.0
 20
0.0
 30
0.0
  3
*Paper_Space0
  1

  0
ENDBLK
  5
25
330
23
100
AcDbEntity
  8
0
100
AcDbBlockEnd
  0
BLOCK
  5
98
330
96
100
AcDbEntity
  8
0
100
AcDbBlockBegin
  2
block 2
 70
     0
 10
0.0
 20
0.0
 30
0.0
  3
block 2
  1

  0
SPLINE
  5
9A
330
96
100
AcDbEntity
  8
_U+30EC_U+30A4_U+30E4_U+30FC 1
370
     0
100
AcDbSpline
210
0.0
220
0.0
230
1.0
 70
    11
 71
     3
 72
    32
 73
    28
 74
     0
 42
0.0000000001
 43
0.0000000001
 12
1.0
 22
0.0
 32
0.0
 13
1.0
 23
0.0
 33
0.0
 40
0.0
 40
0.0
 40
0.0
 40
0.0
 40
1.0
 40
1.0
 40
1.0
 40
2.0
 40
2.0
 40
2.0
 40
3.0
 40
3.0
 40
3.0
 40
4.0
 40
4.0
 40
4.0
 40
5.0
 40
5.0
 40
5.0
 40
6.0
 40
6.0
 40
6.0
 40
7.0
 40
7.0
 40
7.0
 40
8.0
 40
8.0
 40
8.0
 40
9.0
 40
9.0
 40
9.0
 40
9.0
 10
73.43083222990619
 20
-141.7078016138786
 30
0.0
 10
72.87927244271769
 20
-141.7078016138786
 30
0.0
 10
72.87014293968177
 20
-141.1538302598505
 30
0.0
 10
72.87014293968177
 20
-140.9398898302164
 30
0.0
 10
72.87014293968177
 20
-140.7094129422532
 30
0.0
 10
72.89046900304474
 20
-140.0620795005748
 30
0.0
 10
73.47148435663213
 20
-140.0620795005748
 30
0.0
 10
73.65683049373857
 20
-140.0620795005748
 30
0.0
 10
73.91917451494035
 20
-140.1320149389253
 30
0.0
 10
73.9598266416663
 20
-140.4641221437034
 30
0.0
 10
73.9598266416663
 20
-140.4641221437034
 30
0.0
 10
73.73158906576849
 20
-140.4641221437034
 30
0.0
 10
73.73158906576849
 20
-140.4641221437034
 30
0.0
 10
73.72022025066717
 20
-140.4069335586483
 30
0.0
 10
73.68628606013746
 20
-140.2587944527825
 30
0.0
 10
73.46924504456672
 20
-140.2587944527825
 30
0.0
 10
73.15729164837735
 20
-140.2587944527825
 30
0.0
 10
73.11422795481172
 20
-140.5867675429783
 30
0.0
 10
73.10079208241925
 20
-140.7917507243507
 30
0.0
 10
73.20018308716871
 20
-140.7135470568355
 30
0.0
 10
73.27253009235895
 20
-140.6542914144892
 30
0.0
 10
73.4670057325013
 20
-140.6542914144892
 30
0.0
 10
73.65924206057825
 20
-140.6542914144892
 30
0.0
 10
73.98239201709468
 20
-140.7624674127261
 30
0.0
 10
73.98239201709468
 20
-141.168644170437
 30
0.0
 10
73.98239201709468
 20
-141.4880045219197
 30
0.0
 10
73.77000188042904
 20
-141.7078016138786
 30
0.0
 10
73.43083222990619
 20
-141.7078016138786
 30
0.0
  0
SPLINE
  5
9B
330
96
100
AcDbEntity
  8
_U+30EC_U+30A4_U+30E4_U+30FC 1
370
     0
100
AcDbSpline
210
0.0
220
0.0
230
1.0
 70
    11
 71
     3
 72
    17
 73
    13
 74
     0
 42
0.0000000001
 43
0.0000000001
 12
1.0
 22
0.0
 32
0.0
 13
1.0
 23
0.0
 33
0.0
 40
0.0
 40
0.0
 40
0.0
 40
0.0
 40
1.0
 40
1.0
 40
1.0
 40
2.0
 40
2.0
 40
2.0
 40
3.0
 40
3.0
 40
3.0
 40
4.0
 40
4.0
 40
4.0
 40
4.0
 10
73.44891898120375
 20
-140.8489393094058
 30
0.0
 10
73.16866046347867
 20
-140.8489393094058
 30
0.0
 10
73.12783608197846
 20
-141.0604681722002
 30
0.0
 10
73.12783608197846
 20
-141.1769123996016
 30
0.0
 10
73.12783608197846
 20
-141.3526122693494
 30
0.0
 10
73.22963865356759
 20
-141.5155652858017
 30
0.0
 10
73.42635360577536
 20
-141.5155652858017
 30
0.0
 10
73.5552001769237
 20
-141.5155652858017
 30
0.0
 10
73.74278562609555
 20
-141.4563096434554
 30
0.0
 10
73.74278562609555
 20
-141.1707112277282
 30
0.0
 10
73.74278562609555
 20
-140.9464355116384
 30
0.0
 10
73.59361299158424
 20
-140.8489393094058
 30
0.0
 10
73.44891898120375
 20
-140.8489393094058
 30
0.0
  0
HATCH
  5
9C
330
96
100
AcDbEntity
  8
_U+30EC_U+30A4_U+30E4_U+30FC 1
 62
   179
420
  2234388
100
AcDbHatch
 10
0.0
 20
0.0
 30
0.0
210
0.0
220
0.0
230
1.0
  2
SOLID
 70
     1
 71
     0
 91
        2
 92
        1
 93
        1
 72
     4
 94
        3
 73
     0
 74
     1
 95
       32
 96
       28
 40
0.0
 40
0.0
 40
0.0
 40
0.0
 40
1.0
 40
1.0
 40
1.0
 40
2.0
 40
2.0
 40
2.0
 40
3.0
 40
3.0
 40
3.0
 40
4.0
 40
4.0
 40
4.0
 40
5.0
 40
5.0
 40
5.0
 40
6.0
 40
6.0
 40
6.0
 40
7.0
 40
7.0
 40
7.0
 40
8.0
 40
8.0
 40
8.0
 40
9.0
 40
9.0
 40
9.0
 40
9.0
 10
73.43083222990619
 20
-141.7078016138786
 10
72.87927244271769
 20
-141.7078016138786
 10
72.87014293968177
 20
-141.1538302598505
 10
72.87014293968177
 20
-140.9398898302164
 10
72.87014293968177
 20
-140.7094129422532
 10
72.89046900304474
 20
-140.0620795005748
 10
73.47148435663213
 20
-140.0620795005748
 10
73.65683049373857
 20
-140.0620795005748
 10
73.91917451494035
 20
-140.1320149389253
 10
73.9598266416663
 20
-140.4641221437034
 10
73.9598266416663
 20
-140.4641221437034
 10
73.73158906576849
 20
-140.4641221437034
 10
73.73158906576849
 20
-140.4641221437034
 10
73.72022025066717
 20
-140.4069335586483
 10
73.68628606013746
 20
-140.2587944527825
 10
73.46924504456672
 20
-140.2587944527825
 10
73.15729164837735
 20
-140.2587944527825
 10
73.11422795481172
 20
-140.5867675429783
 10
73.10079208241925
 20
-140.7917507243507
 10
73.20018308716871
 20
-140.7135470568355
 10
73.27253009235895
 20
-140.6542914144892
 10
73.4670057325013
 20
-140.6542914144892
 10
73.65924206057825
 20
-140.6542914144892
 10
73.98239201709468
 20
-140.7624674127261
 10
73.98239201709468
 20
-141.168644170437
 10
73.98239201709468
 20
-141.4880045219197
 10
73.77000188042904
 20
-141.7078016138786
 10
73.43083222990619
 20
-141.7078016138786
 97
        0
 97
        0
 92
        1
 93
        1
 72
     4
 94
        3
 73
     0
 74
     1
 95
       17
 96
       13
 40
0.0
 40
0.0
 40
0.0
 40
0.0
 40
1.0
 40
1.0
 40
1.0
 40
2.0
 40
2.0
 40
2.0
 40
3.0
 40
3.0
 40
3.0
 40
4.0
 40
4.0
 40
4.0
 40
4.0
 10
73.44891898120375
 20
-140.8489393094058
 10
73.16866046347867
 20
-140.8489393094058
 10
73.12783608197846
 20
-141.0604681722002
 10
73.12783608197846
 20
-141.1769123996016
 10
73.12783608197846
 20
-141.3526122693494
 10
73.22963865356759
 20
-141.5155652858017
 10
73.42635360577536
 20
-141.5155652858017
 10
73.5552001769237
 20
-141.5155652858017
 10
73.74278562609555
 20
-141.4563096434554
 10
73.74278562609555
 20
-141.1707112277282
 10
73.74278562609555
 20
-140.9464355116384
 10
73.59361299158424
 20
-140.8489393094058
 10
73.44891898120375
 20
-140.8489393094058
 97
        0
 97
        0
 75
     2
 76
     1
 98
        0
  0
ENDBLK
  5
99
330
96
100
AcDbEntity
  8
0
100
AcDbBlockEnd
  0
BLOCK
  5
A7
330
A5
100
AcDbEntity
  8
0
100
AcDbBlockBegin
  2
block 3
 70
     0
 10
0.0
 20
0.0
 30
0.0
  3
block 3
  1

  0
SPLINE
  5
A9
330
A5
100
AcDbEntity
  8
_U+30EC_U+30A4_U+30E4_U+30FC 1
370
     0
100
AcDbSpline
210
0.0
220
0.0
230
1.0
 70
    11
 71
     3
 72
    26
 73
    22
 74
     0
 42
0.0000000001
 43
0.0000000001
 12
1.0
 22
0.0
 32
0.0
 13
1.0
 23
0.0
 33
0.0
 40
0.0
 40
0.0
 40
0.0
 40
0.0
 40
1.0
 40
1.0
 40
1.0
 40
2.0
 40
2.0
 40
2.0
 40
3.0
 40
3.0
 40
3.0
 40
4.0
 40
4.0
 40
4.0
 40
5.0
 40
5.0
 40
5.0
 40
6.0
 40
6.0
 40
6.0
 40
7.0
 40
7.0
 40
7.0
 40
7.0
 10
80.74528670941437
 20
-141.6571587102454
 30
0.0
 10
80.74528670941437
 20
-141.6571587102454
 30
0.0
 10
80.74528670941437
 20
-140.5530056072229
 30
0.0
 10
80.74528670941437
 20
-140.5530056072229
 30
0.0
 10
80.74528670941437
 20
-140.5530056072229
 30
0.0
 10
80.39250893172479
 20
-140.5530056072229
 30
0.0
 10
80.39250893172479
 20
-140.5530056072229
 30
0.0
 10
80.39250893172479
 20
-140.5530056072229
 30
0.0
 10
80.39250893172479
 20
-140.4048665013571
 30
0.0
 10
80.39250893172479
 20
-140.4048665013571
 30
0.0
 10
80.74752602147979
 20
-140.3900525907706
 30
0.0
 10
80.79730765124165
 20
-140.2270995743182
 30
0.0
 10
80.82883027493169
 20
-140.1127224042079
 30
0.0
 10
80.82883027493169
 20
-140.1127224042079
 30
0.0
 10
80.9848931004135
 20
-140.1127224042079
 30
0.0
 10
80.9848931004135
 20
-140.1127224042079
 30
0.0
 10
80.9848931004135
 20
-140.1127224042079
 30
0.0
 10
80.9848931004135
 20
-141.6571587102454
 30
0.0
 10
80.9848931004135
 20
-141.6571587102454
 30
0.0
 10
80.9848931004135
 20
-141.6571587102454
 30
0.0
 10
80.74528670941437
 20
-141.6571587102454
 30
0.0
 10
80.74528670941437
 20
-141.6571587102454
 30
0.0
  0
HATCH
  5
AA
330
A5
100
AcDbEntity
  8
_U+30EC_U+30A4_U+30E4_U+30FC 1
 62
   179
420
  2234388
100
AcDbHatch
 10
0.0
 20
0.0
 30
0.0
210
0.0
220
0.0
230
1.0
  2
SOLID
 70
     1
 71
     0
 91
        1
 92
        1
 93
        1
 72
     4
 94
        3
 73
     0
 74
     1
 95
       26
 96
       22
 40
0.0
 40
0.0
 40
0.0
 40
0.0
 40
1.0
 40
1.0
 40
1.0
 40
2.0
 40
2.0
 40
2.0
 40
3.0
 40
3.0
 40
3.0
 40
4.0
 40
4.0
 40
4.0
 40
5.0
 40
5.0
 40
5.0
 40
6.0
 40
6.0
 40
6.0
 40
7.0
 40
7.0
 40
7.0
 40
7.0
 10
80.74528670941437
 20
-141.6571587102454
 10
80.74528670941437
 20
-141.6571587102454
 10
80.74528670941437
 20
-140.5530056072229
 10
80.74528670941437
 20
-140.5530056072229
 10
80.74528670941437
 20
-140.5530056072229
 10
80.39250893172479
 20
-140.5530056072229
 10
80.39250893172479
 20
-140.5530056072229
 10
80.39250893172479
 20
-140.5530056072229
 10
80.39250893172479
 20
-140.4048665013571
 10
80.39250893172479
 20
-140.4048665013571
 10
80.74752602147979
 20
-140.3900525907706
 10
80.79730765124165
 20
-140.2270995743182
 10
80.82883027493169
 20
-140.1127224042079
 10
80.82883027493169
 20
-140.1127224042079
 10
80.9848931004135
 20
-140.1127224042079
 10
80.9848931004135
 20
-140.1127224042079
 10
80.9848931004135
 20
-140.1127224042079
 10
80.9848931004135
 20
-141.6571587102454
 10
80.9848931004135
 20
-141.6571587102454
 10
80.9848931004135
 20
-141.6571587102454
 10
80.74528670941437
 20
-141.6571587102454
 10
80.74528670941437
 20
-141.6571587102454
 97
        0
 97
        0
 75
     2
 76
     1
 98
        0
  0
SPLINE
  5
AB
330
A5
100
AcDbEntity
  8
_U+30EC_U+30A4_U+30E4_U+30FC 1
370
     0
100
AcDbSpline
210
0.0
220
0.0
230
1.0
 70
    11
 71
     3
 72
    29
 73
    25
 74
     0
 42
0.0000000001
 43
0.0000000001
 12
1.0
 22
0.0
 32
0.0
 13
1.0
 23
0.0
 33
0.0
 40
0.0
 40
0.0
 40
0.0
 40
0.0
 40
1.0
 40
1.0
 40
1.0
 40
2.0
 40
2.0
 40
2.0
 40
3.0
 40
3.0
 40
3.0
 40
4.0
 40
4.0
 40
4.0
 40
5.0
 40
5.0
 40
5.0
 40
6.0
 40
6.0
 40
6.0
 40
7.0
 40
7.0
 40
7.0
 40
8.0
 40
8.0
 40
8.0
 40
8.0
 10
82.48006454101193
 20
-141.4793917832066
 30
0.0
 10
82.36482609703033
 20
-141.6888535887097
 30
0.0
 10
82.17947995992388
 20
-141.7078016138786
 30
0.0
 10
82.05511201290636
 20
-141.7078016138786
 30
0.0
 10
81.88320174819239
 20
-141.7078016138786
 30
0.0
 10
81.73178980161566
 20
-141.6612928248277
 30
0.0
 10
81.62998723002653
 20
-141.4793917832066
 30
0.0
 10
81.51922741017576
 20
-141.2847438882899
 30
0.0
 10
81.49890134681277
 20
-141.0480658284533
 30
0.0
 10
81.49890134681277
 20
-140.885112812001
 30
0.0
 10
81.49890134681277
 20
-140.7411078207175
 30
0.0
 10
81.51698809811035
 20
-140.4892713407457
 30
0.0
 10
81.62998723002653
 20
-140.2904893312468
 30
0.0
 10
81.74539792878241
 20
-140.0875732071656
 30
0.0
 10
81.91713593872211
 20
-140.0641465578659
 30
0.0
 10
82.05511201290636
 20
-140.0641465578659
 30
0.0
 10
82.22461071078065
 20
-140.0641465578659
 30
0.0
 10
82.37843422419706
 20
-140.1085882896256
 30
0.0
 10
82.48006454101193
 20
-140.2904893312468
 30
0.0
 10
82.58634573673189
 20
-140.4830701688723
 30
0.0
 10
82.61132267899995
 20
-140.7114799995444
 30
0.0
 10
82.61132267899995
 20
-140.885112812001
 30
0.0
 10
82.61132267899995
 20
-141.0563340576179
 30
0.0
 10
82.5885850487973
 20
-141.2868109455811
 30
0.0
 10
82.48006454101193
 20
-141.4793917832066
 30
0.0
  0
SPLINE
  5
AC
330
A5
100
AcDbEntity
  8
_U+30EC_U+30A4_U+30E4_U+30FC 1
370
     0
100
AcDbSpline
210
0.0
220
0.0
230
1.0
 70
    11
 71
     3
 72
    17
 73
    13
 74
     0
 42
0.0000000001
 43
0.0000000001
 12
1.0
 22
0.0
 32
0.0
 13
1.0
 23
0.0
 33
0.0
 40
0.0
 40
0.0
 40
0.0
 40
0.0
 40
1.0
 40
1.0
 40
1.0
 40
2.0
 40
2.0
 40
2.0
 40
3.0
 40
3.0
 40
3.0
 40
4.0
 40
4.0
 40
4.0
 40
4.0
 10
82.05511201290636
 20
-140.2567273954914
 30
0.0
 10
81.78828936757377
 20
-140.2567273954914
 30
0.0
 10
81.7385077378119
 20
-140.5402587539274
 30
0.0
 10
81.7385077378119
 20
-140.885112812001
 30
0.0
 10
81.7385077378119
 20
-141.2044731634836
 30
0.0
 10
81.77692055247245
 20
-141.513153718962
 30
0.0
 10
82.05511201290636
 20
-141.513153718962
 30
0.0
 10
82.31952309139929
 20
-141.513153718962
 30
0.0
 10
82.37154403322656
 20
-141.2320339273656
 30
0.0
 10
82.37154403322656
 20
-140.885112812001
 30
0.0
 10
82.37154403322656
 20
-140.5654079509698
 30
0.0
 10
82.33089190650061
 20
-140.2567273954914
 30
0.0
 10
82.05511201290636
 20
-140.2567273954914
 30
0.0
  0
HATCH
  5
AD
330
A5
100
AcDbEntity
  8
_U+30EC_U+30A4_U+30E4_U+30FC 1
 62
   179
420
  2234388
100
AcDbHatch
 10
0.0
 20
0.0
 30
0.0
210
0.0
220
0.0
230
1.0
  2
SOLID
 70
     1
 71
     0
 91
        2
 92
        1
 93
        1
 72
     4
 94
        3
 73
     0
 74
     1
 95
       29
 96
       25
 40
0.0
 40
0.0
 40
0.0
 40
0.0
 40
1.0
 40
1.0
 40
1.0
 40
2.0
 40
2.0
 40
2.0
 40
3.0
 40
3.0
 40
3.0
 40
4.0
 40
4.0
 40
4.0
 40
5.0
 40
5.0
 40
5.0
 40
6.0
 40
6.0
 40
6.0
 40
7.0
 40
7.0
 40
7.0
 40
8.0
 40
8.0
 40
8.0
 40
8.0
 10
82.48006454101193
 20
-141.4793917832066
 10
82.36482609703033
 20
-141.6888535887097
 10
82.17947995992388
 20
-141.7078016138786
 10
82.05511201290636
 20
-141.7078016138786
 10
81.88320174819239
 20
-141.7078016138786
 10
81.73178980161566
 20
-141.6612928248277
 10
81.62998723002653
 20
-141.4793917832066
 10
81.51922741017576
 20
-141.2847438882899
 10
81.49890134681277
 20
-141.0480658284533
 10
81.49890134681277
 20
-140.885112812001
 10
81.49890134681277
 20
-140.7411078207175
 10
81.51698809811035
 20
-140.4892713407457
 10
81.62998723002653
 20
-140.2904893312468
 10
81.74539792878241
 20
-140.0875732071656
 10
81.91713593872211
 20
-140.0641465578659
 10
82.05511201290636
 20
-140.0641465578659
 10
82.22461071078065
 20
-140.0641465578659
 10
82.37843422419706
 20
-140.1085882896256
 10
82.48006454101193
 20
-140.2904893312468
 10
82.58634573673189
 20
-140.4830701688723
 10
82.61132267899995
 20
-140.7114799995444
 10
82.61132267899995
 20
-140.885112812001
 10
82.61132267899995
 20
-141.0563340576179
 10
82.5885850487973
 20
-141.2868109455811
 10
82.48006454101193
 20
-141.4793917832066
 97
        0
 97
        0
 92
        1
 93
        1
 72
     4
 94
        3
 73
     0
 74
     1
 95
       17
 96
       13
 40
0.0
 40
0.0
 40
0.0
 40
0.0
 40
1.0
 40
1.0
 40
1.0
 40
2.0
 40
2.0
 40
2.0
 40
3.0
 40
3.0
 40
3.0
 40
4.0
 40
4.0
 40
4.0
 40
4.0
 10
82.05511201290636
 20
-140.2567273954914
 10
81.78828936757377
 20
-140.2567273954914
 10
81.7385077378119
 20
-140.5402587539274
 10
81.7385077378119
 20
-140.885112812001
 10
81.7385077378119
 20
-141.2044731634836
 10
81.77692055247245
 20
-141.513153718962
 10
82.05511201290636
 20
-141.513153718962
 10
82.31952309139929
 20
-141.513153718962
 10
82.37154403322656
 20
-141.2320339273656
 10
82.37154403322656
 20
-140.885112812001
 10
82.37154403322656
 20
-140.5654079509698
 10
82.33089190650061
 20
-140.2567273954914
 10
82.05511201290636
 20
-140.2567273954914
 97
        0
 97
        0
 75
     2
 76
     1
 98
        0
  0
ENDBLK
  5
A8
330
A5
100
AcDbEntity
  8
0
100
AcDbBlockEnd
  0
BLOCK
  5
C0
330
BE
100
AcDbEntity
  8
0
100
AcDbBlockBegin
  2
block 4
 70
     0
 10
0.0
 20
0.0
 30
0.0
  3
block 4
  1

  0
SPLINE
  5
C2
330
BE
100
AcDbEntity
  8
_U+30EC_U+30A4_U+30E4_U+30FC 1
370
     0
100
AcDbSpline
210
0.0
220
0.0
230
1.0
 70
    11
 71
     3
 72
    26
 73
    22
 74
     0
 42
0.0000000001
 43
0.0000000001
 12
1.0
 22
0.0
 32
0.0
 13
1.0
 23
0.0
 33
0.0
 40
0.0
 40
0.0
 40
0.0
 40
0.0
 40
1.0
 40
1.0
 40
1.0
 40
2.0
 40
2.0
 40
2.0
 40
3.0
 40
3.0
 40
3.0
 40
4.0
 40
4.0
 40
4.0
 40
5.0
 40
5.0
 40
5.0
 40
6.0
 40
6.0
 40
6.0
 40
7.0
 40
7.0
 40
7.0
 40
7.0
 10
108.6634792480077
 20
-122.000821909604
 30
0.0
 10
108.6634792480077
 20
-122.000821909604
 30
0.0
 10
107.5593261449852
 20
-122.000821909604
 30
0.0
 10
107.5593261449852
 20
-122.000821909604
 30
0.0
 10
107.5593261449852
 20
-122.000821909604
 30
0.0
 10
107.5593261449852
 20
-122.353255177745
 30
0.0
 10
107.5593261449852
 20
-122.353255177745
 30
0.0
 10
107.5593261449852
 20
-122.353255177745
 30
0.0
 10
107.4111870391194
 20
-122.353255177745
 30
0.0
 10
107.4111870391194
 20
-122.353255177745
 30
0.0
 10
107.3963731285329
 20
-121.9984103427643
 30
0.0
 10
107.2334201120805
 20
-121.9488009677767
 30
0.0
 10
107.1190429419702
 20
-121.9171060893124
 30
0.0
 10
107.1190429419702
 20
-121.9171060893124
 30
0.0
 10
107.1190429419702
 20
-121.7610432638306
 30
0.0
 10
107.1190429419702
 20
-121.7610432638306
 30
0.0
 10
107.1190429419702
 20
-121.7610432638306
 30
0.0
 10
108.6634792480077
 20
-121.7610432638306
 30
0.0
 10
108.6634792480077
 20
-121.7610432638306
 30
0.0
 10
108.6634792480077
 20
-121.7610432638306
 30
0.0
 10
108.6634792480077
 20
-122.000821909604
 30
0.0
 10
108.6634792480077
 20
-122.000821909604
 30
0.0
  0
HATCH
  5
C3
330
BE
100
AcDbEntity
  8
_U+30EC_U+30A4_U+30E4_U+30FC 1
 62
   179
420
  2234388
100
AcDbHatch
 10
0.0
 20
0.0
 30
0.0
210
0.0
220
0.0
230
1.0
  2
SOLID
 70
     1
 71
     0
 91
        1
 92
        1
 93
        1
 72
     4
 94
        3
 73
     0
 74
     1
 95
       26
 96
       22
 40
0.0
 40
0.0
 40
0.0
 40
0.0
 40
1.0
 40
1.0
 40
1.0
 40
2.0
 40
2.0
 40
2.0
 40
3.0
 40
3.0
 40
3.0
 40
4.0
 40
4.0
 40
4.0
 40
5.0
 40
5.0
 40
5.0
 40
6.0
 40
6.0
 40
6.0
 40
7.0
 40
7.0
 40
7.0
 40
7.0
 10
108.6634792480077
 20
-122.000821909604
 10
108.6634792480077
 20
-122.000821909604
 10
107.5593261449852
 20
-122.000821909604
 10
107.5593261449852
 20
-122.000821909604
 10
107.5593261449852
 20
-122.000821909604
 10
107.5593261449852
 20
-122.353255177745
 10
107.5593261449852
 20
-122.353255177745
 10
107.5593261449852
 20
-122.353255177745
 10
107.4111870391194
 20
-122.353255177745
 10
107.4111870391194
 20
-122.353255177745
 10
107.3963731285329
 20
-121.9984103427643
 10
107.2334201120805
 20
-121.9488009677767
 10
107.1190429419702
 20
-121.9171060893124
 10
107.1190429419702
 20
-121.9171060893124
 10
107.1190429419702
 20
-121.7610432638306
 10
107.1190429419702
 20
-121.7610432638306
 10
107.1190429419702
 20
-121.7610432638306
 10
108.6634792480077
 20
-121.7610432638306
 10
108.6634792480077
 20
-121.7610432638306
 10
108.6634792480077
 20
-121.7610432638306
 10
108.6634792480077
 20
-122.000821909604
 10
108.6634792480077
 20
-122.000821909604
 97
        0
 97
        0
 75
     2
 76
     1
 98
        0
  0
ENDBLK
  5
C1
330
BE
100
AcDbEntity
  8
0
100
AcDbBlockEnd
  0
BLOCK
  5
CE
330
CC
100
AcDbEntity
  8
0
100
AcDbBlockBegin
  2
block 5
 70
     0
 10
0.0
 20
0.0
 30
0.0
  3
block 5
  1

  0
SPLINE
  5
D0
330
CC
100
AcDbEntity
  8
_U+30EC_U+30A4_U+30E4_U+30FC 1
370
     0
100
AcDbSpline
210
0.0
220
0.0
230
1.0
 70
    11
 71
     3
 72
    62
 73
    58
 74
     0
 42
0.0000000001
 43
0.0000000001
 12
1.0
 22
0.0
 32
0.0
 13
1.0
 23
0.0
 33
0.0
 40
0.0
 40
0.0
 40
0.0
 40
0.0
 40
1.0
 40
1.0
 40
1.0
 40
2.0
 40
2.0
 40
2.0
 40
3.0
 40
3.0
 40
3.0
 40
4.0
 40
4.0
 40
4.0
 40
5.0
 40
5.0
 40
5.0
 40
6.0
 40
6.0
 40
6.0
 40
7.0
 40
7.0
 40
7.0
 40
8.0
 40
8.0
 40
8.0
 40
9.0
 40
9.0
 40
9.0
 40
10.0
 40
10.0
 40
10.0
 40
11.0
 40
11.0
 40
11.0
 40
12.0
 40
12.0
 40
12.0
 40
13.0
 40
13.0
 40
13.0
 40
14.0
 40
14.0
 40
14.0
 40
15.0
 40
15.0
 40
15.0
 40
16.0
 40
16.0
 40
16.0
 40
17.0
 40
17.0
 40
17.0
 40
18.0
 40
18.0
 40
18.0
 40
19.0
 40
19.0
 40
19.0
 40
19.0
 10
108.7141221516409
 20
-136.8130099484356
 30
0.0
 10
108.7141221516409
 20
-136.9146402652505
 30
0.0
 10
108.6931070691809
 20
-137.1475287200534
 30
0.0
 10
108.5070719129774
 20
-137.2808539153326
 30
0.0
 10
108.3947618001583
 20
-137.3600911114933
 30
0.0
 10
108.2955430501831
 20
-137.3645697356241
 30
0.0
 10
108.2107937012459
 20
-137.369048359755
 30
0.0
 10
108.2107937012459
 20
-137.369048359755
 30
0.0
 10
108.2107937012459
 20
-137.1340928476609
 30
0.0
 10
108.2107937012459
 20
-137.1340928476609
 30
0.0
 10
108.2848632541788
 20
-137.1316812808213
 30
0.0
 10
108.5194742567243
 20
-137.1203124657199
 30
0.0
 10
108.5194742567243
 20
-136.8174885725665
 30
0.0
 10
108.5194742567243
 20
-136.6703829953463
 30
0.0
 10
108.4498833279223
 20
-136.5077744884425
 30
0.0
 10
108.2214734972502
 20
-136.5077744884425
 30
0.0
 10
108.1050292698487
 20
-136.5077744884425
 30
0.0
 10
108.0564534235067
 20
-136.5484266151685
 30
0.0
 10
108.0247585450424
 20
-136.5821885509239
 30
0.0
 10
107.9506889921095
 20
-136.6614257470846
 30
0.0
 10
107.9379421388141
 20
-136.7857936941022
 30
0.0
 10
107.9379421388141
 20
-136.8447048268999
 30
0.0
 10
107.9379421388141
 20
-136.8650308902629
 30
0.0
 10
107.9400091961053
 20
-136.9032714501492
 30
0.0
 10
107.9441433106876
 20
-136.9328992713223
 30
0.0
 10
107.9441433106876
 20
-136.9328992713223
 30
0.0
 10
107.749495415771
 20
-136.9328992713223
 30
0.0
 10
107.749495415771
 20
-136.9328992713223
 30
0.0
 10
107.7560410971929
 20
-136.8922471445964
 30
0.0
 10
107.7581081544841
 20
-136.8467718841911
 30
0.0
 10
107.7581081544841
 20
-136.8402262027691
 30
0.0
 10
107.7581081544841
 20
-136.76994625487
 30
0.0
 10
107.7367485624755
 20
-136.5573838634301
 30
0.0
 10
107.5000705026389
 20
-136.5573838634301
 30
0.0
 10
107.3223035756
 20
-136.5573838634301
 30
0.0
 10
107.267182047836
 20
-136.6975992496798
 30
0.0
 10
107.267182047836
 20
-136.8150770057268
 30
0.0
 10
107.267182047836
 20
-137.0979193450658
 30
0.0
 10
107.5000705026389
 20
-137.1068765933275
 30
0.0
 10
107.5717284887321
 20
-137.1113552174583
 30
0.0
 10
107.5717284887321
 20
-137.1113552174583
 30
0.0
 10
107.5717284887321
 20
-137.328396233029
 30
0.0
 10
107.5717284887321
 20
-137.328396233029
 30
0.0
 10
107.447016032166
 20
-137.3194389847674
 30
0.0
 10
107.0704670956282
 20
-137.2901556731427
 30
0.0
 10
107.0704670956282
 20
-136.8016411333343
 30
0.0
 10
107.0704670956282
 20
-136.5618624875609
 30
0.0
 10
107.1975911190339
 20
-136.3041693452642
 30
0.0
 10
107.4935248212169
 20
-136.3041693452642
 30
0.0
 10
107.6799044869689
 20
-136.3041693452642
 30
0.0
 10
107.7622422690664
 20
-136.4061441716276
 30
0.0
 10
107.8235649687038
 20
-136.5122531125733
 30
0.0
 10
107.8511257325858
 20
-136.4467962983536
 30
0.0
 10
107.9313964573922
 20
-136.252148403437
 30
0.0
 10
108.2087266439548
 20
-136.252148403437
 30
0.0
 10
108.5470350206063
 20
-136.252148403437
 30
0.0
 10
108.7141221516409
 20
-136.5167317367041
 30
0.0
 10
108.7141221516409
 20
-136.8130099484356
 30
0.0
  0
HATCH
  5
D1
330
CC
100
AcDbEntity
  8
_U+30EC_U+30A4_U+30E4_U+30FC 1
 62
   179
420
  2234388
100
AcDbHatch
 10
0.0
 20
0.0
 30
0.0
210
0.0
220
0.0
230
1.0
  2
SOLID
 70
     1
 71
     0
 91
        1
 92
        1
 93
        1
 72
     4
 94
        3
 73
     0
 74
     1
 95
       62
 96
       58
 40
0.0
 40
0.0
 40
0.0
 40
0.0
 40
1.0
 40
1.0
 40
1.0
 40
2.0
 40
2.0
 40
2.0
 40
3.0
 40
3.0
 40
3.0
 40
4.0
 40
4.0
 40
4.0
 40
5.0
 40
5.0
 40
5.0
 40
6.0
 40
6.0
 40
6.0
 40
7.0
 40
7.0
 40
7.0
 40
8.0
 40
8.0
 40
8.0
 40
9.0
 40
9.0
 40
9.0
 40
10.0
 40
10.0
 40
10.0
 40
11.0
 40
11.0
 40
11.0
 40
12.0
 40
12.0
 40
12.0
 40
13.0
 40
13.0
 40
13.0
 40
14.0
 40
14.0
 40
14.0
 40
15.0
 40
15.0
 40
15.0
 40
16.0
 40
16.0
 40
16.0
 40
17.0
 40
17.0
 40
17.0
 40
18.0
 40
18.0
 40
18.0
 40
19.0
 40
19.0
 40
19.0
 40
19.0
 10
108.7141221516409
 20
-136.8130099484356
 10
108.7141221516409
 20
-136.9146402652505
 10
108.6931070691809
 20
-137.1475287200534
 10
108.5070719129774
 20
-137.2808539153326
 10
108.3947618001583
 20
-137.3600911114933
 10
108.2955430501831
 20
-137.3645697356241
 10
108.2107937012459
 20
-137.369048359755
 10
108.2107937012459
 20
-137.369048359755
 10
108.2107937012459
 20
-137.1340928476609
 10
108.2107937012459
 20
-137.1340928476609
 10
108.2848632541788
 20
-137.1316812808213
 10
108.5194742567243
 20
-137.1203124657199
 10
108.5194742567243
 20
-136.8174885725665
 10
108.5194742567243
 20
-136.6703829953463
 10
108.4498833279223
 20
-136.5077744884425
 10
108.2214734972502
 20
-136.5077744884425
 10
108.1050292698487
 20
-136.5077744884425
 10
108.0564534235067
 20
-136.5484266151685
 10
108.0247585450424
 20
-136.5821885509239
 10
107.9506889921095
 20
-136.6614257470846
 10
107.9379421388141
 20
-136.7857936941022
 10
107.9379421388141
 20
-136.8447048268999
 10
107.9379421388141
 20
-136.8650308902629
 10
107.9400091961053
 20
-136.9032714501492
 10
107.9441433106876
 20
-136.9328992713223
 10
107.9441433106876
 20
-136.9328992713223
 10
107.749495415771
 20
-136.9328992713223
 10
107.749495415771
 20
-136.9328992713223
 10
107.7560410971929
 20
-136.8922471445964
 10
107.7581081544841
 20
-136.8467718841911
 10
107.7581081544841
 20
-136.8402262027691
 10
107.7581081544841
 20
-136.76994625487
 10
107.7367485624755
 20
-136.5573838634301
 10
107.5000705026389
 20
-136.5573838634301
 10
107.3223035756
 20
-136.5573838634301
 10
107.267182047836
 20
-136.6975992496798
 10
107.267182047836
 20
-136.8150770057268
 10
107.267182047836
 20
-137.0979193450658
 10
107.5000705026389
 20
-137.1068765933275
 10
107.5717284887321
 20
-137.1113552174583
 10
107.5717284887321
 20
-137.1113552174583
 10
107.5717284887321
 20
-137.328396233029
 10
107.5717284887321
 20
-137.328396233029
 10
107.447016032166
 20
-137.3194389847674
 10
107.0704670956282
 20
-137.2901556731427
 10
107.0704670956282
 20
-136.8016411333343
 10
107.0704670956282
 20
-136.5618624875609
 10
107.1975911190339
 20
-136.3041693452642
 10
107.4935248212169
 20
-136.3041693452642
 10
107.6799044869689
 20
-136.3041693452642
 10
107.7622422690664
 20
-136.4061441716276
 10
107.8235649687038
 20
-136.5122531125733
 10
107.8511257325858
 20
-136.4467962983536
 10
107.9313964573922
 20
-136.252148403437
 10
108.2087266439548
 20
-136.252148403437
 10
108.5470350206063
 20
-136.252148403437
 10
108.7141221516409
 20
-136.5167317367041
 10
108.7141221516409
 20
-136.8130099484356
 97
        0
 97
        0
 75
     2
 76
     1
 98
        0
  0
ENDBLK
  5
CF
330
CC
100
AcDbEntity
  8
0
100
AcDbBlockEnd
  0
BLOCK
  5
E0
330
DE
100
AcDbEntity
  8
0
100
AcDbBlockBegin
  2
block 6
 70
     0
 10
0.0
 20
0.0
 30
0.0
  3
block 6
  1

  0
SPLINE
  5
E2
330
DE
100
AcDbEntity
  8
_U+30EC_U+30A4_U+30E4_U+30FC 1
370
     0
100
AcDbSpline
210
0.0
220
0.0
230
1.0
 70
    11
 71
     3
 72
    62
 73
    58
 74
     0
 42
0.0000000001
 43
0.0000000001
 12
1.0
 22
0.0
 32
0.0
 13
1.0
 23
0.0
 33
0.0
 40
0.0
 40
0.0
 40
0.0
 40
0.0
 40
1.0
 40
1.0
 40
1.0
 40
2.0
 40
2.0
 40
2.0
 40
3.0
 40
3.0
 40
3.0
 40
4.0
 40
4.0
 40
4.0
 40
5.0
 40
5.0
 40
5.0
 40
6.0
 40
6.0
 40
6.0
 40
7.0
 40
7.0
 40
7.0
 40
8.0
 40
8.0
 40
8.0
 40
9.0
 40
9.0
 40
9.0
 40
10.0
 40
10.0
 40
10.0
 40
11.0
 40
11.0
 40
11.0
 40
12.0
 40
12.0
 40
12.0
 40
13.0
 40
13.0
 40
13.0
 40
14.0
 40
14.0
 40
14.0
 40
15.0
 40
15.0
 40
15.0
 40
16.0
 40
16.0
 40
16.0
 40
17.0
 40
17.0
 40
17.0
 40
18.0
 40
18.0
 40
18.0
 40
19.0
 40
19.0
 40
19.0
 40
19.0
 10
87.78826766468488
 20
-116.7079494608404
 30
0.0
 10
87.68663734787002
 20
-116.7079494608404
 30
0.0
 10
87.45374889306713
 20
-116.6867621236061
 30
0.0
 10
87.32042369778796
 20
-116.5005547126283
 30
0.0
 10
87.24118650162721
 20
-116.3884168545835
 30
0.0
 10
87.23670787749639
 20
-116.289025849834
 30
0.0
 10
87.23222925336556
 20
-116.2044487556711
 30
0.0
 10
87.23222925336556
 20
-116.2044487556711
 30
0.0
 10
87.46718476545959
 20
-116.2044487556711
 30
0.0
 10
87.46718476545959
 20
-116.2044487556711
 30
0.0
 10
87.46959633229928
 20
-116.278518308604
 30
0.0
 10
87.4809651474006
 20
-116.5133015659238
 30
0.0
 10
87.78378904055405
 20
-116.5133015659238
 30
0.0
 10
87.93089461777423
 20
-116.5133015659238
 30
0.0
 10
88.09350312467802
 20
-116.4435383823475
 30
0.0
 10
88.09350312467802
 20
-116.2149562969011
 30
0.0
 10
88.09350312467802
 20
-116.0986843242739
 30
0.0
 10
88.05285099795206
 20
-116.0499362231577
 30
0.0
 10
88.0187445526481
 20
-116.0182413446934
 30
0.0
 10
87.93985186603588
 20
-115.9441717917605
 30
0.0
 10
87.81548391901836
 20
-115.9315971932393
 30
0.0
 10
87.75657278622059
 20
-115.9315971932393
 30
0.0
 10
87.73624672285762
 20
-115.9315971932393
 30
0.0
 10
87.69800616297134
 20
-115.9336642505305
 30
0.0
 10
87.66837834179819
 20
-115.9377983651128
 30
0.0
 10
87.66837834179819
 20
-115.9377983651128
 30
0.0
 10
87.66837834179819
 20
-115.7431504701962
 30
0.0
 10
87.66837834179819
 20
-115.7431504701962
 30
0.0
 10
87.70903046852413
 20
-115.7495238968439
 30
0.0
 10
87.75450572892943
 20
-115.7517632089093
 30
0.0
 10
87.76105141035141
 20
-115.7517632089093
 30
0.0
 10
87.83133135825051
 20
-115.7517632089093
 30
0.0
 10
88.04389374969043
 20
-115.730575871675
 30
0.0
 10
88.04389374969043
 20
-115.4935533022898
 30
0.0
 10
88.04389374969043
 20
-115.3159586300252
 30
0.0
 10
87.90367836344075
 20
-115.2608371022612
 30
0.0
 10
87.78620060739374
 20
-115.2608371022612
 30
0.0
 10
87.50335826805473
 20
-115.2608371022612
 30
0.0
 10
87.49440101979307
 20
-115.4935533022898
 30
0.0
 10
87.48992239566225
 20
-115.5655557979315
 30
0.0
 10
87.48992239566225
 20
-115.5655557979315
 30
0.0
 10
87.2728813800915
 20
-115.5655557979315
 30
0.0
 10
87.2728813800915
 20
-115.5655557979315
 30
0.0
 10
87.28183862835316
 20
-115.4406710865912
 30
0.0
 10
87.31112193997778
 20
-115.0641221500534
 30
0.0
 10
87.7996364797862
 20
-115.0641221500534
 30
0.0
 10
88.0394151255596
 20
-115.0641221500534
 30
0.0
 10
88.29710826785629
 20
-115.1910739186849
 30
0.0
 10
88.29710826785629
 20
-115.4871798756421
 30
0.0
 10
88.29710826785629
 20
-115.6733872866199
 30
0.0
 10
88.19513344149289
 20
-115.7558973234916
 30
0.0
 10
88.0890245005472
 20
-115.817220023129
 30
0.0
 10
88.15448131476694
 20
-115.844780787011
 30
0.0
 10
88.34912920968355
 20
-115.9252237665916
 30
0.0
 10
88.34912920968355
 20
-116.20238169838
 30
0.0
 10
88.34912920968355
 20
-116.5408623298058
 30
0.0
 10
88.08454587641637
 20
-116.7079494608404
 30
0.0
 10
87.78826766468488
 20
-116.7079494608404
 30
0.0
  0
HATCH
  5
E3
330
DE
100
AcDbEntity
  8
_U+30EC_U+30A4_U+30E4_U+30FC 1
 62
   179
420
  2234388
100
AcDbHatch
 10
0.0
 20
0.0
 30
0.0
210
0.0
220
0.0
230
1.0
  2
SOLID
 70
     1
 71
     0
 91
        1
 92
        1
 93
        1
 72
     4
 94
        3
 73
     0
 74
     1
 95
       62
 96
       58
 40
0.0
 40
0.0
 40
0.0
 40
0.0
 40
1.0
 40
1.0
 40
1.0
 40
2.0
 40
2.0
 40
2.0
 40
3.0
 40
3.0
 40
3.0
 40
4.0
 40
4.0
 40
4.0
 40
5.0
 40
5.0
 40
5.0
 40
6.0
 40
6.0
 40
6.0
 40
7.0
 40
7.0
 40
7.0
 40
8.0
 40
8.0
 40
8.0
 40
9.0
 40
9.0
 40
9.0
 40
10.0
 40
10.0
 40
10.0
 40
11.0
 40
11.0
 40
11.0
 40
12.0
 40
12.0
 40
12.0
 40
13.0
 40
13.0
 40
13.0
 40
14.0
 40
14.0
 40
14.0
 40
15.0
 40
15.0
 40
15.0
 40
16.0
 40
16.0
 40
16.0
 40
17.0
 40
17.0
 40
17.0
 40
18.0
 40
18.0
 40
18.0
 40
19.0
 40
19.0
 40
19.0
 40
19.0
 10
87.78826766468488
 20
-116.7079494608404
 10
87.68663734787002
 20
-116.7079494608404
 10
87.45374889306713
 20
-116.6867621236061
 10
87.32042369778796
 20
-116.5005547126283
 10
87.24118650162721
 20
-116.3884168545835
 10
87.23670787749639
 20
-116.289025849834
 10
87.23222925336556
 20
-116.2044487556711
 10
87.23222925336556
 20
-116.2044487556711
 10
87.46718476545959
 20
-116.2044487556711
 10
87.46718476545959
 20
-116.2044487556711
 10
87.46959633229928
 20
-116.278518308604
 10
87.4809651474006
 20
-116.5133015659238
 10
87.78378904055405
 20
-116.5133015659238
 10
87.93089461777423
 20
-116.5133015659238
 10
88.09350312467802
 20
-116.4435383823475
 10
88.09350312467802
 20
-116.2149562969011
 10
88.09350312467802
 20
-116.0986843242739
 10
88.05285099795206
 20
-116.0499362231577
 10
88.0187445526481
 20
-116.0182413446934
 10
87.93985186603588
 20
-115.9441717917605
 10
87.81548391901836
 20
-115.9315971932393
 10
87.75657278622059
 20
-115.9315971932393
 10
87.73624672285762
 20
-115.9315971932393
 10
87.69800616297134
 20
-115.9336642505305
 10
87.66837834179819
 20
-115.9377983651128
 10
87.66837834179819
 20
-115.9377983651128
 10
87.66837834179819
 20
-115.7431504701962
 10
87.66837834179819
 20
-115.7431504701962
 10
87.70903046852413
 20
-115.7495238968439
 10
87.75450572892943
 20
-115.7517632089093
 10
87.76105141035141
 20
-115.7517632089093
 10
87.83133135825051
 20
-115.7517632089093
 10
88.04389374969043
 20
-115.730575871675
 10
88.04389374969043
 20
-115.4935533022898
 10
88.04389374969043
 20
-115.3159586300252
 10
87.90367836344075
 20
-115.2608371022612
 10
87.78620060739374
 20
-115.2608371022612
 10
87.50335826805473
 20
-115.2608371022612
 10
87.49440101979307
 20
-115.4935533022898
 10
87.48992239566225
 20
-115.5655557979315
 10
87.48992239566225
 20
-115.5655557979315
 10
87.2728813800915
 20
-115.5655557979315
 10
87.2728813800915
 20
-115.5655557979315
 10
87.28183862835316
 20
-115.4406710865912
 10
87.31112193997778
 20
-115.0641221500534
 10
87.7996364797862
 20
-115.0641221500534
 10
88.0394151255596
 20
-115.0641221500534
 10
88.29710826785629
 20
-115.1910739186849
 10
88.29710826785629
 20
-115.4871798756421
 10
88.29710826785629
 20
-115.6733872866199
 10
88.19513344149289
 20
-115.7558973234916
 10
88.0890245005472
 20
-115.817220023129
 10
88.15448131476694
 20
-115.844780787011
 10
88.34912920968355
 20
-115.9252237665916
 10
88.34912920968355
 20
-116.20238169838
 10
88.34912920968355
 20
-116.5408623298058
 10
88.08454587641637
 20
-116.7079494608404
 10
87.78826766468488
 20
-116.7079494608404
 97
        0
 97
        0
 75
     2
 76
     1
 98
        0
  0
SPLINE
  5
E4
330
DE
100
AcDbEntity
  8
_U+30EC_U+30A4_U+30E4_U+30FC 1
370
     0
100
AcDbSpline
210
0.0
220
0.0
230
1.0
 70
    11
 71
     3
 72
    32
 73
    28
 74
     0
 42
0.0000000001
 43
0.0000000001
 12
1.0
 22
0.0
 32
0.0
 13
1.0
 23
0.0
 33
0.0
 40
0.0
 40
0.0
 40
0.0
 40
0.0
 40
1.0
 40
1.0
 40
1.0
 40
2.0
 40
2.0
 40
2.0
 40
3.0
 40
3.0
 40
3.0
 40
4.0
 40
4.0
 40
4.0
 40
5.0
 40
5.0
 40
5.0
 40
6.0
 40
6.0
 40
6.0
 40
7.0
 40
7.0
 40
7.0
 40
8.0
 40
8.0
 40
8.0
 40
9.0
 40
9.0
 40
9.0
 40
9.0
 10
89.0598524082906
 20
-116.7079494608404
 30
0.0
 10
88.50794811155357
 20
-116.7079494608404
 30
0.0
 10
88.49899086329192
 20
-116.1536335972637
 30
0.0
 10
88.49899086329192
 20
-115.9400376771782
 30
0.0
 10
88.49899086329192
 20
-115.7093885344407
 30
0.0
 10
88.5193169266549
 20
-115.0620550927623
 30
0.0
 10
89.10050453501654
 20
-115.0620550927623
 30
0.0
 10
89.28585067212299
 20
-115.0620550927623
 30
0.0
 10
89.5480224385505
 20
-115.1318182763386
 30
0.0
 10
89.58867456527645
 20
-115.4639254811167
 30
0.0
 10
89.58867456527645
 20
-115.4639254811167
 30
0.0
 10
89.36026473460439
 20
-115.4639254811167
 30
0.0
 10
89.36026473460439
 20
-115.4639254811167
 30
0.0
 10
89.34924042905158
 20
-115.4069091508358
 30
0.0
 10
89.31513398374761
 20
-115.25877004497
 30
0.0
 10
89.09809296817687
 20
-115.25877004497
 30
0.0
 10
88.78596731721323
 20
-115.25877004497
 30
0.0
 10
88.74324813319613
 20
-115.5867431351658
 30
0.0
 10
88.72946775125514
 20
-115.7918985713124
 30
0.0
 10
88.82903101077886
 20
-115.7136949037973
 30
0.0
 10
88.9013780159691
 20
-115.654439261451
 30
0.0
 10
89.09568140133719
 20
-115.654439261451
 30
0.0
 10
89.28791772941413
 20
-115.654439261451
 30
0.0
 10
89.61141219547909
 20
-115.7622707501393
 30
0.0
 10
89.61141219547909
 20
-116.1684475078503
 30
0.0
 10
89.61141219547909
 20
-116.4879801141072
 30
0.0
 10
89.39884980403919
 20
-116.7079494608404
 30
0.0
 10
89.0598524082906
 20
-116.7079494608404
 30
0.0
  0
SPLINE
  5
E5
330
DE
100
AcDbEntity
  8
_U+30EC_U+30A4_U+30E4_U+30FC 1
370
     0
100
AcDbSpline
210
0.0
220
0.0
230
1.0
 70
    11
 71
     3
 72
    17
 73
    13
 74
     0
 42
0.0000000001
 43
0.0000000001
 12
1.0
 22
0.0
 32
0.0
 13
1.0
 23
0.0
 33
0.0
 40
0.0
 40
0.0
 40
0.0
 40
0.0
 40
1.0
 40
1.0
 40
1.0
 40
2.0
 40
2.0
 40
2.0
 40
3.0
 40
3.0
 40
3.0
 40
4.0
 40
4.0
 40
4.0
 40
4.0
 10
89.0777669048139
 20
-115.8490871563676
 30
0.0
 10
88.79733613231456
 20
-115.8490871563676
 30
0.0
 10
88.75668400558861
 20
-116.0606160191619
 30
0.0
 10
88.75668400558861
 20
-116.1768879917891
 30
0.0
 10
88.75668400558861
 20
-116.3525878615369
 30
0.0
 10
88.85831432240349
 20
-116.5153686232149
 30
0.0
 10
89.05502927461124
 20
-116.5153686232149
 30
0.0
 10
89.18387584575959
 20
-116.5153686232149
 30
0.0
 10
89.3716335497057
 20
-116.4561129808686
 30
0.0
 10
89.3716335497057
 20
-116.1705145651414
 30
0.0
 10
89.3716335497057
 20
-115.9464111038259
 30
0.0
 10
89.22246091519439
 20
-115.8490871563676
 30
0.0
 10
89.0777669048139
 20
-115.8490871563676
 30
0.0
  0
HATCH
  5
E6
330
DE
100
AcDbEntity
  8
_U+30EC_U+30A4_U+30E4_U+30FC 1
 62
   179
420
  2234388
100
AcDbHatch
 10
0.0
 20
0.0
 30
0.0
210
0.0
220
0.0
230
1.0
  2
SOLID
 70
     1
 71
     0
 91
        2
 92
        1
 93
        1
 72
     4
 94
        3
 73
     0
 74
     1
 95
       32
 96
       28
 40
0.0
 40
0.0
 40
0.0
 40
0.0
 40
1.0
 40
1.0
 40
1.0
 40
2.0
 40
2.0
 40
2.0
 40
3.0
 40
3.0
 40
3.0
 40
4.0
 40
4.0
 40
4.0
 40
5.0
 40
5.0
 40
5.0
 40
6.0
 40
6.0
 40
6.0
 40
7.0
 40
7.0
 40
7.0
 40
8.0
 40
8.0
 40
8.0
 40
9.0
 40
9.0
 40
9.0
 40
9.0
 10
89.0598524082906
 20
-116.7079494608404
 10
88.50794811155357
 20
-116.7079494608404
 10
88.49899086329192
 20
-116.1536335972637
 10
88.49899086329192
 20
-115.9400376771782
 10
88.49899086329192
 20
-115.7093885344407
 10
88.5193169266549
 20
-115.0620550927623
 10
89.10050453501654
 20
-115.0620550927623
 10
89.28585067212299
 20
-115.0620550927623
 10
89.5480224385505
 20
-115.1318182763386
 10
89.58867456527645
 20
-115.4639254811167
 10
89.58867456527645
 20
-115.4639254811167
 10
89.36026473460439
 20
-115.4639254811167
 10
89.36026473460439
 20
-115.4639254811167
 10
89.34924042905158
 20
-115.4069091508358
 10
89.31513398374761
 20
-115.25877004497
 10
89.09809296817687
 20
-115.25877004497
 10
88.78596731721323
 20
-115.25877004497
 10
88.74324813319613
 20
-115.5867431351658
 10
88.72946775125514
 20
-115.7918985713124
 10
88.82903101077886
 20
-115.7136949037973
 10
88.9013780159691
 20
-115.654439261451
 10
89.09568140133719
 20
-115.654439261451
 10
89.28791772941413
 20
-115.654439261451
 10
89.61141219547909
 20
-115.7622707501393
 10
89.61141219547909
 20
-116.1684475078503
 10
89.61141219547909
 20
-116.4879801141072
 10
89.39884980403919
 20
-116.7079494608404
 10
89.0598524082906
 20
-116.7079494608404
 97
        0
 97
        0
 92
        1
 93
        1
 72
     4
 94
        3
 73
     0
 74
     1
 95
       17
 96
       13
 40
0.0
 40
0.0
 40
0.0
 40
0.0
 40
1.0
 40
1.0
 40
1.0
 40
2.0
 40
2.0
 40
2.0
 40
3.0
 40
3.0
 40
3.0
 40
4.0
 40
4.0
 40
4.0
 40
4.0
 10
89.0777669048139
 20
-115.8490871563676
 10
88.79733613231456
 20
-115.8490871563676
 10
88.75668400558861
 20
-116.0606160191619
 10
88.75668400558861
 20
-116.1768879917891
 10
88.75668400558861
 20
-116.3525878615369
 10
88.85831432240349
 20
-116.5153686232149
 10
89.05502927461124
 20
-116.5153686232149
 10
89.18387584575959
 20
-116.5153686232149
 10
89.3716335497057
 20
-116.4561129808686
 10
89.3716335497057
 20
-116.1705145651414
 10
89.3716335497057
 20
-115.9464111038259
 10
89.22246091519439
 20
-115.8490871563676
 10
89.0777669048139
 20
-115.8490871563676
 97
        0
 97
        0
 75
     2
 76
     1
 98
        0
  0
ENDBLK
  5
E1
330
DE
100
AcDbEntity
  8
0
100
AcDbBlockEnd
  0
BLOCK
  5
F1
330
EF
100
AcDbEntity
  8
0
100
AcDbBlockBegin
  2
block 7
 70
     0
 10
0.0
 20
0.0
 30
0.0
  3
block 7
  1

  0
SPLINE
  5
F3
330
EF
100
AcDbEntity
  8
_U+30EC_U+30A4_U+30E4_U+30FC 1
370
     0
100
AcDbSpline
210
0.0
220
0.0
230
1.0
 70
    11
 71
     3
 72
    26
 73
    22
 74
     0
 42
0.0000000001
 43
0.0000000001
 12
1.0
 22
0.0
 32
0.0
 13
1.0
 23
0.0
 33
0.0
 40
0.0
 40
0.0
 40
0.0
 40
0.0
 40
1.0
 40
1.0
 40
1.0
 40
2.0
 40
2.0
 40
2.0
 40
3.0
 40
3.0
 40
3.0
 40
4.0
 40
4.0
 40
4.0
 40
5.0
 40
5.0
 40
5.0
 40
6.0
 40
6.0
 40
6.0
 40
7.0
 40
7.0
 40
7.0
 40
7.0
 10
108.6634792480077
 20
-129.4849473417607
 30
0.0
 10
108.6634792480077
 20
-129.4849473417607
 30
0.0
 10
107.5593261449852
 20
-129.4849473417607
 30
0.0
 10
107.5593261449852
 20
-129.4849473417607
 30
0.0
 10
107.5593261449852
 20
-129.4849473417607
 30
0.0
 10
107.5593261449852
 20
-129.8373806099018
 30
0.0
 10
107.5593261449852
 20
-129.8373806099018
 30
0.0
 10
107.5593261449852
 20
-129.8373806099018
 30
0.0
 10
107.4111870391194
 20
-129.8373806099018
 30
0.0
 10
107.4111870391194
 20
-129.8373806099018
 30
0.0
 10
107.3963731285329
 20
-129.482535774921
 30
0.0
 10
107.2334201120805
 20
-129.4329263999335
 30
0.0
 10
107.1190429419702
 20
-129.4012315214691
 30
0.0
 10
107.1190429419702
 20
-129.4012315214691
 30
0.0
 10
107.1190429419702
 20
-129.2451686959873
 30
0.0
 10
107.1190429419702
 20
-129.2451686959873
 30
0.0
 10
107.1190429419702
 20
-129.2451686959873
 30
0.0
 10
108.6634792480077
 20
-129.2451686959873
 30
0.0
 10
108.6634792480077
 20
-129.2451686959873
 30
0.0
 10
108.6634792480077
 20
-129.2451686959873
 30
0.0
 10
108.6634792480077
 20
-129.4849473417607
 30
0.0
 10
108.6634792480077
 20
-129.4849473417607
 30
0.0
  0
HATCH
  5
F4
330
EF
100
AcDbEntity
  8
_U+30EC_U+30A4_U+30E4_U+30FC 1
 62
   179
420
  2234388
100
AcDbHatch
 10
0.0
 20
0.0
 30
0.0
210
0.0
220
0.0
230
1.0
  2
SOLID
 70
     1
 71
     0
 91
        1
 92
        1
 93
        1
 72
     4
 94
        3
 73
     0
 74
     1
 95
       26
 96
       22
 40
0.0
 40
0.0
 40
0.0
 40
0.0
 40
1.0
 40
1.0
 40
1.0
 40
2.0
 40
2.0
 40
2.0
 40
3.0
 40
3.0
 40
3.0
 40
4.0
 40
4.0
 40
4.0
 40
5.0
 40
5.0
 40
5.0
 40
6.0
 40
6.0
 40
6.0
 40
7.0
 40
7.0
 40
7.0
 40
7.0
 10
108.6634792480077
 20
-129.4849473417607
 10
108.6634792480077
 20
-129.4849473417607
 10
107.5593261449852
 20
-129.4849473417607
 10
107.5593261449852
 20
-129.4849473417607
 10
107.5593261449852
 20
-129.4849473417607
 10
107.5593261449852
 20
-129.8373806099018
 10
107.5593261449852
 20
-129.8373806099018
 10
107.5593261449852
 20
-129.8373806099018
 10
107.4111870391194
 20
-129.8373806099018
 10
107.4111870391194
 20
-129.8373806099018
 10
107.3963731285329
 20
-129.482535774921
 10
107.2334201120805
 20
-129.4329263999335
 10
107.1190429419702
 20
-129.4012315214691
 10
107.1190429419702
 20
-129.4012315214691
 10
107.1190429419702
 20
-129.2451686959873
 10
107.1190429419702
 20
-129.2451686959873
 10
107.1190429419702
 20
-129.2451686959873
 10
108.6634792480077
 20
-129.2451686959873
 10
108.6634792480077
 20
-129.2451686959873
 10
108.6634792480077
 20
-129.2451686959873
 10
108.6634792480077
 20
-129.4849473417607
 10
108.6634792480077
 20
-129.4849473417607
 97
        0
 97
        0
 75
     2
 76
     1
 98
        0
  0
SPLINE
  5
F5
330
EF
100
AcDbEntity
  8
_U+30EC_U+30A4_U+30E4_U+30FC 1
370
     0
100
AcDbSpline
210
0.0
220
0.0
230
1.0
 70
    11
 71
     3
 72
    62
 73
    58
 74
     0
 42
0.0000000001
 43
0.0000000001
 12
1.0
 22
0.0
 32
0.0
 13
1.0
 23
0.0
 33
0.0
 40
0.0
 40
0.0
 40
0.0
 40
0.0
 40
1.0
 40
1.0
 40
1.0
 40
2.0
 40
2.0
 40
2.0
 40
3.0
 40
3.0
 40
3.0
 40
4.0
 40
4.0
 40
4.0
 40
5.0
 40
5.0
 40
5.0
 40
6.0
 40
6.0
 40
6.0
 40
7.0
 40
7.0
 40
7.0
 40
8.0
 40
8.0
 40
8.0
 40
9.0
 40
9.0
 40
9.0
 40
10.0
 40
10.0
 40
10.0
 40
11.0
 40
11.0
 40
11.0
 40
12.0
 40
12.0
 40
12.0
 40
13.0
 40
13.0
 40
13.0
 40
14.0
 40
14.0
 40
14.0
 40
15.0
 40
15.0
 40
15.0
 40
16.0
 40
16.0
 40
16.0
 40
17.0
 40
17.0
 40
17.0
 40
18.0
 40
18.0
 40
18.0
 40
19.0
 40
19.0
 40
19.0
 40
19.0
 10
108.7141221516409
 20
-128.1840792865304
 30
0.0
 10
108.7141221516409
 20
-128.2857096033453
 30
0.0
 10
108.6931070691809
 20
-128.5185980581481
 30
0.0
 10
108.5070719129774
 20
-128.6519232534273
 30
0.0
 10
108.3947618001583
 20
-128.7311604495881
 30
0.0
 10
108.2955430501831
 20
-128.7356390737189
 30
0.0
 10
108.2107937012459
 20
-128.7401176978497
 30
0.0
 10
108.2107937012459
 20
-128.7401176978497
 30
0.0
 10
108.2107937012459
 20
-128.5051621857557
 30
0.0
 10
108.2107937012459
 20
-128.5051621857557
 30
0.0
 10
108.2848632541788
 20
-128.502750618916
 30
0.0
 10
108.5194742567243
 20
-128.4913818038146
 30
0.0
 10
108.5194742567243
 20
-128.1885579106612
 30
0.0
 10
108.5194742567243
 20
-128.041452333441
 30
0.0
 10
108.4498833279223
 20
-127.8788438265372
 30
0.0
 10
108.2214734972502
 20
-127.8788438265372
 30
0.0
 10
108.1050292698487
 20
-127.8788438265372
 30
0.0
 10
108.0564534235067
 20
-127.9194959532632
 30
0.0
 10
108.0247585450424
 20
-127.9536023985672
 30
0.0
 10
107.9506889921095
 20
-128.0324950851794
 30
0.0
 10
107.9379421388141
 20
-128.1568630321969
 30
0.0
 10
107.9379421388141
 20
-128.2157741649947
 30
0.0
 10
107.9379421388141
 20
-128.2361002283577
 30
0.0
 10
107.9400091961053
 20
-128.2743407882439
 30
0.0
 10
107.9441433106876
 20
-128.3039686094171
 30
0.0
 10
107.9441433106876
 20
-128.3039686094171
 30
0.0
 10
107.749495415771
 20
-128.3039686094171
 30
0.0
 10
107.749495415771
 20
-128.3039686094171
 30
0.0
 10
107.7560410971929
 20
-128.2633164826911
 30
0.0
 10
107.7581081544841
 20
-128.2178412222858
 30
0.0
 10
107.7581081544841
 20
-128.2112955408639
 30
0.0
 10
107.7581081544841
 20
-128.1410155929647
 30
0.0
 10
107.7367485624755
 20
-127.9284532015248
 30
0.0
 10
107.5000705026389
 20
-127.9284532015248
 30
0.0
 10
107.3223035756
 20
-127.9284532015248
 30
0.0
 10
107.267182047836
 20
-128.0686685877745
 30
0.0
 10
107.267182047836
 20
-128.1861463438215
 30
0.0
 10
107.267182047836
 20
-128.4689886831605
 30
0.0
 10
107.5000705026389
 20
-128.4779459314222
 30
0.0
 10
107.5717284887321
 20
-128.482424555553
 30
0.0
 10
107.5717284887321
 20
-128.482424555553
 30
0.0
 10
107.5717284887321
 20
-128.6994655711237
 30
0.0
 10
107.5717284887321
 20
-128.6994655711237
 30
0.0
 10
107.447016032166
 20
-128.6905083228621
 30
0.0
 10
107.0704670956282
 20
-128.6612250112375
 30
0.0
 10
107.0704670956282
 20
-128.172710471429
 30
0.0
 10
107.0704670956282
 20
-127.9329318256557
 30
0.0
 10
107.1975911190339
 20
-127.675238683359
 30
0.0
 10
107.4935248212169
 20
-127.675238683359
 30
0.0
 10
107.6799044869689
 20
-127.675238683359
 30
0.0
 10
107.7622422690664
 20
-127.7772135097224
 30
0.0
 10
107.8235649687038
 20
-127.8833224506681
 30
0.0
 10
107.8511257325858
 20
-127.8178656364483
 30
0.0
 10
107.9313964573922
 20
-127.6232177415317
 30
0.0
 10
108.2087266439548
 20
-127.6232177415317
 30
0.0
 10
108.5470350206063
 20
-127.6232177415317
 30
0.0
 10
108.7141221516409
 20
-127.8878010747989
 30
0.0
 10
108.7141221516409
 20
-128.1840792865304
 30
0.0
  0
HATCH
  5
F6
330
EF
100
AcDbEntity
  8
_U+30EC_U+30A4_U+30E4_U+30FC 1
 62
   179
420
  2234388
100
AcDbHatch
 10
0.0
 20
0.0
 30
0.0
210
0.0
220
0.0
230
1.0
  2
SOLID
 70
     1
 71
     0
 91
        1
 92
        1
 93
        1
 72
     4
 94
        3
 73
     0
 74
     1
 95
       62
 96
       58
 40
0.0
 40
0.0
 40
0.0
 40
0.0
 40
1.0
 40
1.0
 40
1.0
 40
2.0
 40
2.0
 40
2.0
 40
3.0
 40
3.0
 40
3.0
 40
4.0
 40
4.0
 40
4.0
 40
5.0
 40
5.0
 40
5.0
 40
6.0
 40
6.0
 40
6.0
 40
7.0
 40
7.0
 40
7.0
 40
8.0
 40
8.0
 40
8.0
 40
9.0
 40
9.0
 40
9.0
 40
10.0
 40
10.0
 40
10.0
 40
11.0
 40
11.0
 40
11.0
 40
12.0
 40
12.0
 40
12.0
 40
13.0
 40
13.0
 40
13.0
 40
14.0
 40
14.0
 40
14.0
 40
15.0
 40
15.0
 40
15.0
 40
16.0
 40
16.0
 40
16.0
 40
17.0
 40
17.0
 40
17.0
 40
18.0
 40
18.0
 40
18.0
 40
19.0
 40
19.0
 40
19.0
 40
19.0
 10
108.7141221516409
 20
-128.1840792865304
 10
108.7141221516409
 20
-128.2857096033453
 10
108.6931070691809
 20
-128.5185980581481
 10
108.5070719129774
 20
-128.6519232534273
 10
108.3947618001583
 20
-128.7311604495881
 10
108.2955430501831
 20
-128.7356390737189
 10
108.2107937012459
 20
-128.7401176978497
 10
108.2107937012459
 20
-128.7401176978497
 10
108.2107937012459
 20
-128.5051621857557
 10
108.2107937012459
 20
-128.5051621857557
 10
108.2848632541788
 20
-128.502750618916
 10
108.5194742567243
 20
-128.4913818038146
 10
108.5194742567243
 20
-128.1885579106612
 10
108.5194742567243
 20
-128.041452333441
 10
108.4498833279223
 20
-127.8788438265372
 10
108.2214734972502
 20
-127.8788438265372
 10
108.1050292698487
 20
-127.8788438265372
 10
108.0564534235067
 20
-127.9194959532632
 10
108.0247585450424
 20
-127.9536023985672
 10
107.9506889921095
 20
-128.0324950851794
 10
107.9379421388141
 20
-128.1568630321969
 10
107.9379421388141
 20
-128.2157741649947
 10
107.9379421388141
 20
-128.2361002283577
 10
107.9400091961053
 20
-128.2743407882439
 10
107.9441433106876
 20
-128.3039686094171
 10
107.9441433106876
 20
-128.3039686094171
 10
107.749495415771
 20
-128.3039686094171
 10
107.749495415771
 20
-128.3039686094171
 10
107.7560410971929
 20
-128.2633164826911
 10
107.7581081544841
 20
-128.2178412222858
 10
107.7581081544841
 20
-128.2112955408639
 10
107.7581081544841
 20
-128.1410155929647
 10
107.7367485624755
 20
-127.9284532015248
 10
107.5000705026389
 20
-127.9284532015248
 10
107.3223035756
 20
-127.9284532015248
 10
107.267182047836
 20
-128.0686685877745
 10
107.267182047836
 20
-128.1861463438215
 10
107.267182047836
 20
-128.4689886831605
 10
107.5000705026389
 20
-128.4779459314222
 10
107.5717284887321
 20
-128.482424555553
 10
107.5717284887321
 20
-128.482424555553
 10
107.5717284887321
 20
-128.6994655711237
 10
107.5717284887321
 20
-128.6994655711237
 10
107.447016032166
 20
-128.6905083228621
 10
107.0704670956282
 20
-128.6612250112375
 10
107.0704670956282
 20
-128.172710471429
 10
107.0704670956282
 20
-127.9329318256557
 10
107.1975911190339
 20
-127.675238683359
 10
107.4935248212169
 20
-127.675238683359
 10
107.6799044869689
 20
-127.675238683359
 10
107.7622422690664
 20
-127.7772135097224
 10
107.8235649687038
 20
-127.8833224506681
 10
107.8511257325858
 20
-127.8178656364483
 10
107.9313964573922
 20
-127.6232177415317
 10
108.2087266439548
 20
-127.6232177415317
 10
108.5470350206063
 20
-127.6232177415317
 10
108.7141221516409
 20
-127.8878010747989
 10
108.7141221516409
 20
-128.1840792865304
 97
        0
 97
        0
 75
     2
 76
     1
 98
        0
  0
ENDBLK
  5
F2
330
EF
100
AcDbEntity
  8
0
100
AcDbBlockEnd
  0
ENDSEC
  0
SECTION
  2
ENTITIES
  0
POLYLINE
  5
41
330
1F
100
AcDbEntity
  8
_U+30EC_U+30A4_U+30E4_U+30FC 1
370
     0
100
AcDb2dPolyline
 66
     1
 10
0.0
 20
0.0
 30
0.0
  0
VERTEX
  5
42
330
41
100
AcDbEntity
  8
_U+30EC_U+30A4_U+30E4_U+30FC 1
370
     0
100
AcDbVertex
100
AcDb2dVertex
 10
70.42583736995387
 20
-122.3020935805357
 30
0.0
  0
VERTEX
  5
43
330
41
100
AcDbEntity
  8
_U+30EC_U+30A4_U+30E4_U+30FC 1
370
     0
100
AcDbVertex
100
AcDb2dVertex
 10
76.42581110577068
 20
-122.3020935805357
 30
0.0
  0
VERTEX
  5
44
330
41
100
AcDbEntity
  8
_U+30EC_U+30A4_U+30E4_U+30FC 1
370
     0
100
AcDbVertex
100
AcDb2dVertex
 10
76.42581110577068
 20
-138.3026824654243
 30
0.0
  0
VERTEX
  5
45
330
41
100
AcDbEntity
  8
_U+30EC_U+30A4_U+30E4_U+30FC 1
370
     0
100
AcDbVertex
100
AcDb2dVertex
 10
86.42624946174935
 20
-138.3026824654243
 30
0.0
  0
VERTEX
  5
46
330
41
100
AcDbEntity
  8
_U+30EC_U+30A4_U+30E4_U+30FC 1
370
     0
100
AcDbVertex
100
AcDb2dVertex
 10
86.42624946174935
 20
-135.30269552173
 30
0.0
  0
VERTEX
  5
47
330
41
100
AcDbEntity
  8
_U+30EC_U+30A4_U+30E4_U+30FC 1
370
     0
100
AcDbVertex
100
AcDb2dVertex
 10
85.42647726503344
 20
-135.30269552173
 30
0.0
  0
VERTEX
  5
48
330
41
100
AcDbEntity
  8
_U+30EC_U+30A4_U+30E4_U+30FC 1
370
     0
100
AcDbVertex
100
AcDb2dVertex
 10
85.42647726503344
 20
-137.3029102434518
 30
0.0
  0
VERTEX
  5
49
330
41
100
AcDbEntity
  8
_U+30EC_U+30A4_U+30E4_U+30FC 1
370
     0
100
AcDbVertex
100
AcDb2dVertex
 10
77.3263821939063
 20
-137.3029102434518
 30
0.0
  0
VERTEX
  5
4A
330
41
100
AcDbEntity
  8
_U+30EC_U+30A4_U+30E4_U+30FC 1
370
     0
100
AcDbVertex
100
AcDb2dVertex
 10
77.3263821939063
 20
-122.3020935805357
 30
0.0
  0
VERTEX
  5
4B
330
41
100
AcDbEntity
  8
_U+30EC_U+30A4_U+30E4_U+30FC 1
370
     0
100
AcDbVertex
100
AcDb2dVertex
 10
106.4265617292767
 20
-122.3020935805357
 30
0.0
  0
VERTEX
  5
4C
330
41
100
AcDbEntity
  8
_U+30EC_U+30A4_U+30E4_U+30FC 1
370
     0
100
AcDbVertex
100
AcDb2dVertex
 10
106.4265617292767
 20
-121.3023213585634
 30
0.0
  0
VERTEX
  5
4D
330
41
100
AcDbEntity
  8
_U+30EC_U+30A4_U+30E4_U+30FC 1
370
     0
100
AcDbVertex
100
AcDb2dVertex
 10
70.42583736995387
 20
-121.3023213585634
 30
0.0
  0
VERTEX
  5
4E
330
41
100
AcDbEntity
  8
_U+30EC_U+30A4_U+30E4_U+30FC 1
370
     0
100
AcDbVertex
100
AcDb2dVertex
 10
70.42583736995387
 20
-122.3020935805357
 30
0.0
  0
SEQEND
  5
50
330
41
100
AcDbEntity
  8
_U+30EC_U+30A4_U+30E4_U+30FC 1
370
     0
  0
HATCH
  5
4F
330
1F
100
AcDbEntity
  8
_U+30EC_U+30A4_U+30E4_U+30FC 1
 62
   253
420
 11711154
100
AcDbHatch
 10
0.0
 20
0.0
 30
0.0
210
0.0
220
0.0
230
1.0
  2
SOLID
 70
     1
 71
     0
 91
        1
 92
        1
 93
       12
 72
     1
 10
70.42583736995387
 20
-122.3020935805357
 11
76.42581110577068
 21
-122.3020935805357
 72
     1
 10
76.42581110577068
 20
-122.3020935805357
 11
76.42581110577068
 21
-138.3026824654243
 72
     1
 10
76.42581110577068
 20
-138.3026824654243
 11
86.42624946174935
 21
-138.3026824654243
 72
     1
 10
86.42624946174935
 20
-138.3026824654243
 11
86.42624946174935
 21
-135.30269552173
 72
     1
 10
86.42624946174935
 20
-135.30269552173
 11
85.42647726503344
 21
-135.30269552173
 72
     1
 10
85.42647726503344
 20
-135.30269552173
 11
85.42647726503344
 21
-137.3029102434518
 72
     1
 10
85.42647726503344
 20
-137.3029102434518
 11
77.3263821939063
 21
-137.3029102434518
 72
     1
 10
77.3263821939063
 20
-137.3029102434518
 11
77.3263821939063
 21
-122.3020935805357
 72
     1
 10
77.3263821939063
 20
-122.3020935805357
 11
106.4265617292767
 21
-122.3020935805357
 72
     1
 10
106.4265617292767
 20
-122.3020935805357
 11
106.4265617292767
 21
-121.3023213585634
 72
     1
 10
106.4265617292767
 20
-121.3023213585634
 11
70.42583736995387
 21
-121.3023213585634
 72
     1
 10
70.42583736995387
 20
-121.3023213585634
 11
70.42583736995387
 21
-122.3020935805357
 97
        0
 75
     2
 76
     1
 98
        0
  0
POLYLINE
  5
51
330
1F
100
AcDbEntity
  8
_U+30EC_U+30A4_U+30E4_U+30FC 1
 62
   179
420
  2234388
370
    25
100
AcDb2dPolyline
 66
     1
 10
0.0
 20
0.0
 30
0.0
  0
VERTEX
  5
52
330
51
100
AcDbEntity
  8
_U+30EC_U+30A4_U+30E4_U+30FC 1
 62
   179
420
  2234388
370
    25
100
AcDbVertex
100
AcDb2dVertex
 10
70.42654292549142
 20
-121.3023213585634
 30
0.0
  0
VERTEX
  5
53
330
51
100
AcDbEntity
  8
_U+30EC_U+30A4_U+30E4_U+30FC 1
 62
   179
420
  2234388
370
    25
100
AcDbVertex
100
AcDb2dVertex
 10
70.42654292549142
 20
-122.3020935805357
 30
0.0
  0
SEQEND
  5
54
330
51
100
AcDbEntity
  8
_U+30EC_U+30A4_U+30E4_U+30FC 1
 62
   179
420
  2234388
370
    25
  0
POLYLINE
  5
55
330
1F
100
AcDbEntity
  8
_U+30EC_U+30A4_U+30E4_U+30FC 1
 62
   179
420
  2234388
370
    25
100
AcDb2dPolyline
 66
     1
 10
0.0
 20
0.0
 30
0.0
  0
VERTEX
  5
56
330
55
100
AcDbEntity
  8
_U+30EC_U+30A4_U+30E4_U+30FC 1
 62
   179
420
  2234388
370
    25
100
AcDbVertex
100
AcDb2dVertex
 10
106.4265617292767
 20
-121.3023213585634
 30
0.0
  0
VERTEX
  5
57
330
55
100
AcDbEntity
  8
_U+30EC_U+30A4_U+30E4_U+30FC 1
 62
   179
420
  2234388
370
    25
100
AcDbVertex
100
AcDb2dVertex
 10
106.4265617292767
 20
-122.3020935805357
 30
0.0
  0
SEQEND
  5
58
330
55
100
AcDbEntity
  8
_U+30EC_U+30A4_U+30E4_U+30FC 1
 62
   179
420
  2234388
370
    25
  0
POLYLINE
  5
59
330
1F
100
AcDbEntity
  8
_U+30EC_U+30A4_U+30E4_U+30FC 1
 62
   179
420
  2234388
370
    25
100
AcDb2dPolyline
 66
     1
 10
0.0
 20
0.0
 30
0.0
  0
VERTEX
  5
5A
330
59
100
AcDbEntity
  8
_U+30EC_U+30A4_U+30E4_U+30FC 1
 62
   179
420
  2234388
370
    25
100
AcDbVertex
100
AcDb2dVertex
 10
70.42654292549142
 20
-121.3023213585634
 30
0.0
  0
VERTEX
  5
5B
330
59
100
AcDbEntity
  8
_U+30EC_U+30A4_U+30E4_U+30FC 1
 62
   179
420
  2234388
370
    25
100
AcDbVertex
100
AcDb2dVertex
 10
106.4265617292767
 20
-121.3023213585634
 30
0.0
  0
SEQEND
  5
5C
330
59
100
AcDbEntity
  8
_U+30EC_U+30A4_U+30E4_U+30FC 1
 62
   179
420
  2234388
370
    25
  0
POLYLINE
  5
5D
330
1F
100
AcDbEntity
  8
_U+30EC_U+30A4_U+30E4_U+30FC 1
 62
   179
420
  2234388
370
    25
100
AcDb2dPolyline
 66
     1
 10
0.0
 20
0.0
 30
0.0
  0
VERTEX
  5
5E
330
5D
100
AcDbEntity
  8
_U+30EC_U+30A4_U+30E4_U+30FC 1
 62
   179
420
  2234388
370
    25
100
AcDbVertex
100
AcDb2dVertex
 10
70.42654292549142
 20
-122.3020935805357
 30
0.0
  0
VERTEX
  5
5F
330
5D
100
AcDbEntity
  8
_U+30EC_U+30A4_U+30E4_U+30FC 1
 62
   179
420
  2234388
370
    25
100
AcDbVertex
100
AcDb2dVertex
 10
76.42651666130823
 20
-122.3020935805357
 30
0.0
  0
SEQEND
  5
60
330
5D
100
AcDbEntity
  8
_U+30EC_U+30A4_U+30E4_U+30FC 1
 62
   179
420
  2234388
370
    25
  0
POLYLINE
  5
61
330
1F
100
AcDbEntity
  8
_U+30EC_U+30A4_U+30E4_U+30FC 1
 62
   179
420
  2234388
370
    25
100
AcDb2dPolyline
 66
     1
 10
0.0
 20
0.0
 30
0.0
  0
VERTEX
  5
62
330
61
100
AcDbEntity
  8
_U+30EC_U+30A4_U+30E4_U+30FC 1
 62
   179
420
  2234388
370
    25
100
AcDbVertex
100
AcDb2dVertex
 10
76.42651666130823
 20
-122.3020935805357
 30
0.0
  0
VERTEX
  5
63
330
61
100
AcDbEntity
  8
_U+30EC_U+30A4_U+30E4_U+30FC 1
 62
   179
420
  2234388
370
    25
100
AcDbVertex
100
AcDb2dVertex
 10
76.42651666130823
 20
-138.3026824654243
 30
0.0
  0
SEQEND
  5
64
330
61
100
AcDbEntity
  8
_U+30EC_U+30A4_U+30E4_U+30FC 1
 62
   179
420
  2234388
370
    25
  0
POLYLINE
  5
65
330
1F
100
AcDbEntity
  8
_U+30EC_U+30A4_U+30E4_U+30FC 1
 62
   179
420
  2234388
370
    25
100
AcDb2dPolyline
 66
     1
 10
0.0
 20
0.0
 30
0.0
  0
VERTEX
  5
66
330
65
100
AcDbEntity
  8
_U+30EC_U+30A4_U+30E4_U+30FC 1
 62
   179
420
  2234388
370
    25
100
AcDbVertex
100
AcDb2dVertex
 10
86.42624946174935
 20
-135.30269552173
 30
0.0
  0
VERTEX
  5
67
330
65
100
AcDbEntity
  8
_U+30EC_U+30A4_U+30E4_U+30FC 1
 62
   179
420
  2234388
370
    25
100
AcDbVertex
100
AcDb2dVertex
 10
86.42624946174935
 20
-138.3026824654243
 30
0.0
  0
SEQEND
  5
68
330
65
100
AcDbEntity
  8
_U+30EC_U+30A4_U+30E4_U+30FC 1
 62
   179
420
  2234388
370
    25
  0
POLYLINE
  5
69
330
1F
100
AcDbEntity
  8
_U+30EC_U+30A4_U+30E4_U+30FC 1
 62
   179
420
  2234388
370
    25
100
AcDb2dPolyline
 66
     1
 10
0.0
 20
0.0
 30
0.0
  0
VERTEX
  5
6A
330
69
100
AcDbEntity
  8
_U+30EC_U+30A4_U+30E4_U+30FC 1
 62
   179
420
  2234388
370
    25
100
AcDbVertex
100
AcDb2dVertex
 10
85.42647726503344
 20
-135.30269552173
 30
0.0
  0
VERTEX
  5
6B
330
69
100
AcDbEntity
  8
_U+30EC_U+30A4_U+30E4_U+30FC 1
 62
   179
420
  2234388
370
    25
100
AcDbVertex
100
AcDb2dVertex
 10
86.42624946174935
 20
-135.30269552173
 30
0.0
  0
SEQEND
  5
6C
330
69
100
AcDbEntity
  8
_U+30EC_U+30A4_U+30E4_U+30FC 1
 62
   179
420
  2234388
370
    25
  0
POLYLINE
  5
6D
330
1F
100
AcDbEntity
  8
_U+30EC_U+30A4_U+30E4_U+30FC 1
 62
   179
420
  2234388
370
    25
100
AcDb2dPolyline
 66
     1
 10
0.0
 20
0.0
 30
0.0
  0
VERTEX
  5
6E
330
6D
100
AcDbEntity
  8
_U+30EC_U+30A4_U+30E4_U+30FC 1
 62
   179
420
  2234388
370
    25
100
AcDbVertex
100
AcDb2dVertex
 10
76.42651666130823
 20
-138.3026824654243
 30
0.0
  0
VERTEX
  5
6F
330
6D
100
AcDbEntity
  8
_U+30EC_U+30A4_U+30E4_U+30FC 1
 62
   179
420
  2234388
370
    25
100
AcDbVertex
100
AcDb2dVertex
 10
86.42624946174935
 20
-138.3026824654243
 30
0.0
  0
SEQEND
  5
70
330
6D
100
AcDbEntity
  8
_U+30EC_U+30A4_U+30E4_U+30FC 1
 62
   179
420
  2234388
370
    25
  0
POLYLINE
  5
71
330
1F
100
AcDbEntity
  8
_U+30EC_U+30A4_U+30E4_U+30FC 1
 62
   179
420
  2234388
370
    25
100
AcDb2dPolyline
 66
     1
 10
0.0
 20
0.0
 30
0.0
  0
VERTEX
  5
72
330
71
100
AcDbEntity
  8
_U+30EC_U+30A4_U+30E4_U+30FC 1
 62
   179
420
  2234388
370
    25
100
AcDbVertex
100
AcDb2dVertex
 10
85.42647726503344
 20
-135.30269552173
 30
0.0
  0
VERTEX
  5
73
330
71
100
AcDbEntity
  8
_U+30EC_U+30A4_U+30E4_U+30FC 1
 62
   179
420
  2234388
370
    25
100
AcDbVertex
100
AcDb2dVertex
 10
85.42647726503344
 20
-137.3029102434518
 30
0.0
  0
SEQEND
  5
74
330
71
100
AcDbEntity
  8
_U+30EC_U+30A4_U+30E4_U+30FC 1
 62
   179
420
  2234388
370
    25
  0
POLYLINE
  5
75
330
1F
100
AcDbEntity
  8
_U+30EC_U+30A4_U+30E4_U+30FC 1
 62
   179
420
  2234388
370
    25
100
AcDb2dPolyline
 66
     1
 10
0.0
 20
0.0
 30
0.0
  0
VERTEX
  5
76
330
75
100
AcDbEntity
  8
_U+30EC_U+30A4_U+30E4_U+30FC 1
 62
   179
420
  2234388
370
    25
100
AcDbVertex
100
AcDb2dVertex
 10
77.3263821939063
 20
-137.3029102434518
 30
0.0
  0
VERTEX
  5
77
330
75
100
AcDbEntity
  8
_U+30EC_U+30A4_U+30E4_U+30FC 1
 62
   179
420
  2234388
370
    25
100
AcDbVertex
100
AcDb2dVertex
 10
85.42647726503344
 20
-137.3029102434518
 30
0.0
  0
SEQEND
  5
78
330
75
100
AcDbEntity
  8
_U+30EC_U+30A4_U+30E4_U+30FC 1
 62
   179
420
  2234388
370
    25
  0
POLYLINE
  5
79
330
1F
100
AcDbEntity
  8
_U+30EC_U+30A4_U+30E4_U+30FC 1
 62
   179
420
  2234388
370
    25
100
AcDb2dPolyline
 66
     1
 10
0.0
 20
0.0
 30
0.0
  0
VERTEX
  5
7A
330
79
100
AcDbEntity
  8
_U+30EC_U+30A4_U+30E4_U+30FC 1
 62
   179
420
  2234388
370
    25
100
AcDbVertex
100
AcDb2dVertex
 10
77.3263821939063
 20
-122.3020935805357
 30
0.0
  0
VERTEX
  5
7B
330
79
100
AcDbEntity
  8
_U+30EC_U+30A4_U+30E4_U+30FC 1
 62
   179
420
  2234388
370
    25
100
AcDbVertex
100
AcDb2dVertex
 10
106.4265617292767
 20
-122.3020935805357
 30
0.0
  0
SEQEND
  5
7C
330
79
100
AcDbEntity
  8
_U+30EC_U+30A4_U+30E4_U+30FC 1
 62
   179
420
  2234388
370
    25
  0
POLYLINE
  5
7D
330
1F
100
AcDbEntity
  8
_U+30EC_U+30A4_U+30E4_U+30FC 1
 62
   179
420
  2234388
370
    25
100
AcDb2dPolyline
 66
     1
 10
0.0
 20
0.0
 30
0.0
  0
VERTEX
  5
7E
330
7D
100
AcDbEntity
  8
_U+30EC_U+30A4_U+30E4_U+30FC 1
 62
   179
420
  2234388
370
    25
100
AcDbVertex
100
AcDb2dVertex
 10
77.3263821939063
 20
-122.3020935805357
 30
0.0
  0
VERTEX
  5
7F
330
7D
100
AcDbEntity
  8
_U+30EC_U+30A4_U+30E4_U+30FC 1
 62
   179
420
  2234388
370
    25
100
AcDbVertex
100
AcDb2dVertex
 10
77.3263821939063
 20
-137.3029102434518
 30
0.0
  0
SEQEND
  5
80
330
7D
100
AcDbEntity
  8
_U+30EC_U+30A4_U+30E4_U+30FC 1
 62
   179
420
  2234388
370
    25
  0
SPLINE
  5
81
330
1F
100
AcDbEntity
  8
_U+30EC_U+30A4_U+30E4_U+30FC 1
 62
   179
420
  2234388
370
     9
100
AcDbSpline
210
0.0
220
0.0
230
1.0
 70
    11
 71
     3
 72
    17
 73
    13
 74
     0
 42
0.0000000001
 43
0.0000000001
 12
1.0
 22
0.0
 32
0.0
 13
1.0
 23
0.0
 33
0.0
 40
0.0
 40
0.0
 40
0.0
 40
0.0
 40
1.0
 40
1.0
 40
1.0
 40
2.0
 40
2.0
 40
2.0
 40
3.0
 40
3.0
 40
3.0
 40
4.0
 40
4.0
 40
4.0
 40
4.0
 10
70.52644958960926
 20
-142.3024416310912
 30
0.0
 10
70.52644958960926
 20
-142.2473024644381
 30
0.0
 10
70.4816468129745
 20
-142.2025349644496
 30
0.0
 10
70.42654292549142
 20
-142.2025349644496
 30
0.0
 10
70.37140553796273
 20
-142.2025349644496
 30
0.0
 10
70.3266362613736
 20
-142.2473024644381
 30
0.0
 10
70.3266362613736
 20
-142.3024416310912
 30
0.0
 10
70.3266362613736
 20
-142.3582510755217
 30
0.0
 10
70.37140553796273
 20
-142.4030185755102
 30
0.0
 10
70.42654292549142
 20
-142.4030185755102
 30
0.0
 10
70.4816468129745
 20
-142.4030185755102
 30
0.0
 10
70.52644958960926
 20
-142.3582510755217
 30
0.0
 10
70.52644958960926
 20
-142.3024416310912
 30
0.0
  0
SPLINE
  5
82
330
1F
100
AcDbEntity
  8
_U+30EC_U+30A4_U+30E4_U+30FC 1
 62
   179
420
  2234388
370
     9
100
AcDbSpline
210
0.0
220
0.0
230
1.0
 70
    11
 71
     3
 72
    17
 73
    13
 74
     0
 42
0.0000000001
 43
0.0000000001
 12
1.0
 22
0.0
 32
0.0
 13
1.0
 23
0.0
 33
0.0
 40
0.0
 40
0.0
 40
0.0
 40
0.0
 40
1.0
 40
1.0
 40
1.0
 40
2.0
 40
2.0
 40
2.0
 40
3.0
 40
3.0
 40
3.0
 40
4.0
 40
4.0
 40
4.0
 40
4.0
 10
76.52642332542607
 20
-142.3024416310912
 30
0.0
 10
76.52642332542607
 20
-142.2473024644381
 30
0.0
 10
76.4816205487913
 20
-142.2025349644496
 30
0.0
 10
76.42651666130823
 20
-142.2025349644496
 30
0.0
 10
76.37137749604828
 20
-142.2025349644496
 30
0.0
 10
76.3266099971904
 20
-142.2473024644381
 30
0.0
 10
76.3266099971904
 20
-142.3024416310912
 30
0.0
 10
76.3266099971904
 20
-142.3582510755217
 30
0.0
 10
76.37137749604828
 20
-142.4030185755102
 30
0.0
 10
76.42651666130823
 20
-142.4030185755102
 30
0.0
 10
76.4816205487913
 20
-142.4030185755102
 30
0.0
 10
76.52642332542607
 20
-142.3582510755217
 30
0.0
 10
76.52642332542607
 20
-142.3024416310912
 30
0.0
  0
SPLINE
  5
83
330
1F
100
AcDbEntity
  8
_U+30EC_U+30A4_U+30E4_U+30FC 1
 62
   179
420
  2234388
370
     9
100
AcDbSpline
210
0.0
220
0.0
230
1.0
 70
    11
 71
     3
 72
    17
 73
    13
 74
     0
 42
0.0000000001
 43
0.0000000001
 12
1.0
 22
0.0
 32
0.0
 13
1.0
 23
0.0
 33
0.0
 40
0.0
 40
0.0
 40
0.0
 40
0.0
 40
1.0
 40
1.0
 40
1.0
 40
2.0
 40
2.0
 40
2.0
 40
3.0
 40
3.0
 40
3.0
 40
4.0
 40
4.0
 40
4.0
 40
4.0
 10
86.52682640362787
 20
-142.3024416310912
 30
0.0
 10
86.52682640362787
 20
-142.2473024644381
 30
0.0
 10
86.4820610894905
 20
-142.2025349644496
 30
0.0
 10
86.42624946174935
 20
-142.2025349644496
 30
0.0
 10
86.3711102964894
 20
-142.2025349644496
 30
0.0
 10
86.32634279763151
 20
-142.2473024644381
 30
0.0
 10
86.32634279763151
 20
-142.3024416310912
 30
0.0
 10
86.32634279763151
 20
-142.3582510755217
 30
0.0
 10
86.3711102964894
 20
-142.4030185755102
 30
0.0
 10
86.42624946174935
 20
-142.4030185755102
 30
0.0
 10
86.4820610894905
 20
-142.4030185755102
 30
0.0
 10
86.52682640362787
 20
-142.3582510755217
 30
0.0
 10
86.52682640362787
 20
-142.3024416310912
 30
0.0
  0
SPLINE
  5
84
330
1F
100
AcDbEntity
  8
_U+30EC_U+30A4_U+30E4_U+30FC 1
 62
   179
420
  2234388
370
     9
100
AcDbSpline
210
0.0
220
0.0
230
1.0
 70
    11
 71
     3
 72
    17
 73
    13
 74
     0
 42
0.0000000001
 43
0.0000000001
 12
1.0
 22
0.0
 32
0.0
 13
1.0
 23
0.0
 33
0.0
 40
0.0
 40
0.0
 40
0.0
 40
0.0
 40
1.0
 40
1.0
 40
1.0
 40
2.0
 40
2.0
 40
2.0
 40
3.0
 40
3.0
 40
3.0
 40
4.0
 40
4.0
 40
4.0
 40
4.0
 10
110.5269330135564
 20
-138.3026824654243
 30
0.0
 10
110.5269330135564
 20
-138.2475432987712
 30
0.0
 10
110.4821302369216
 20
-138.2027757987827
 30
0.0
 10
110.4270263494385
 20
-138.2027757987827
 30
0.0
 10
110.3712169064179
 20
-138.2027757987827
 30
0.0
 10
110.3264141297831
 20
-138.2475432987712
 30
0.0
 10
110.3264141297831
 20
-138.3026824654243
 30
0.0
 10
110.3264141297831
 20
-138.3577863542992
 30
0.0
 10
110.3712169064179
 20
-138.402589132066
 30
0.0
 10
110.4270263494385
 20
-138.402589132066
 30
0.0
 10
110.4821302369216
 20
-138.402589132066
 30
0.0
 10
110.5269330135564
 20
-138.3577863542992
 30
0.0
 10
110.5269330135564
 20
-138.3026824654243
 30
0.0
  0
SPLINE
  5
85
330
1F
100
AcDbEntity
  8
_U+30EC_U+30A4_U+30E4_U+30FC 1
 62
   179
420
  2234388
370
     9
100
AcDbSpline
210
0.0
220
0.0
230
1.0
 70
    11
 71
     3
 72
    17
 73
    13
 74
     0
 42
0.0000000001
 43
0.0000000001
 12
1.0
 22
0.0
 32
0.0
 13
1.0
 23
0.0
 33
0.0
 40
0.0
 40
0.0
 40
0.0
 40
0.0
 40
1.0
 40
1.0
 40
1.0
 40
2.0
 40
2.0
 40
2.0
 40
3.0
 40
3.0
 40
3.0
 40
4.0
 40
4.0
 40
4.0
 40
4.0
 10
110.5269330135564
 20
-135.30269552173
 30
0.0
 10
110.5269330135564
 20
-135.2475563550769
 30
0.0
 10
110.4821302369216
 20
-135.2027888550883
 30
0.0
 10
110.4270263494385
 20
-135.2027888550883
 30
0.0
 10
110.3712169064179
 20
-135.2027888550883
 30
0.0
 10
110.3264141297831
 20
-135.2475563550769
 30
0.0
 10
110.3264141297831
 20
-135.30269552173
 30
0.0
 10
110.3264141297831
 20
-135.3577994106049
 30
0.0
 10
110.3712169064179
 20
-135.4026021883716
 30
0.0
 10
110.4270263494385
 20
-135.4026021883716
 30
0.0
 10
110.4821302369216
 20
-135.4026021883716
 30
0.0
 10
110.5269330135564
 20
-135.3577994106049
 30
0.0
 10
110.5269330135564
 20
-135.30269552173
 30
0.0
  0
SPLINE
  5
86
330
1F
100
AcDbEntity
  8
_U+30EC_U+30A4_U+30E4_U+30FC 1
 62
   179
420
  2234388
370
     9
100
AcDbSpline
210
0.0
220
0.0
230
1.0
 70
    11
 71
     3
 72
    17
 73
    13
 74
     0
 42
0.0000000001
 43
0.0000000001
 12
1.0
 22
0.0
 32
0.0
 13
1.0
 23
0.0
 33
0.0
 40
0.0
 40
0.0
 40
0.0
 40
0.0
 40
1.0
 40
1.0
 40
1.0
 40
2.0
 40
2.0
 40
2.0
 40
3.0
 40
3.0
 40
3.0
 40
4.0
 40
4.0
 40
4.0
 40
4.0
 10
110.5269330135564
 20
-122.3020935805357
 30
0.0
 10
110.5269330135564
 20
-122.2469896916604
 30
0.0
 10
110.4821302369216
 20
-122.202186913894
 30
0.0
 10
110.4270263494385
 20
-122.202186913894
 30
0.0
 10
110.3712169064179
 20
-122.202186913894
 30
0.0
 10
110.3264141297831
 20
-122.2469896916604
 30
0.0
 10
110.3264141297831
 20
-122.3020935805357
 30
0.0
 10
110.3264141297831
 20
-122.3579030249661
 30
0.0
 10
110.3712169064179
 20
-122.4027058027328
 30
0.0
 10
110.4270263494385
 20
-122.4027058027328
 30
0.0
 10
110.4821302369216
 20
-122.4027058027328
 30
0.0
 10
110.5269330135564
 20
-122.3579030249661
 30
0.0
 10
110.5269330135564
 20
-122.3020935805357
 30
0.0
  0
SPLINE
  5
87
330
1F
100
AcDbEntity
  8
_U+30EC_U+30A4_U+30E4_U+30FC 1
 62
   179
420
  2234388
370
     9
100
AcDbSpline
210
0.0
220
0.0
230
1.0
 70
    11
 71
     3
 72
    17
 73
    13
 74
     0
 42
0.0000000001
 43
0.0000000001
 12
1.0
 22
0.0
 32
0.0
 13
1.0
 23
0.0
 33
0.0
 40
0.0
 40
0.0
 40
0.0
 40
0.0
 40
1.0
 40
1.0
 40
1.0
 40
2.0
 40
2.0
 40
2.0
 40
3.0
 40
3.0
 40
3.0
 40
4.0
 40
4.0
 40
4.0
 40
4.0
 10
110.5269330135564
 20
-121.3023213585634
 30
0.0
 10
110.5269330135564
 20
-121.2472174696882
 30
0.0
 10
110.4821302369216
 20
-121.2024146919215
 30
0.0
 10
110.4270263494385
 20
-121.2024146919215
 30
0.0
 10
110.3712169064179
 20
-121.2024146919215
 30
0.0
 10
110.3264141297831
 20
-121.2472174696882
 30
0.0
 10
110.3264141297831
 20
-121.3023213585634
 30
0.0
 10
110.3264141297831
 20
-121.3574605252162
 30
0.0
 10
110.3712169064179
 20
-121.4022280252051
 30
0.0
 10
110.4270263494385
 20
-121.4022280252051
 30
0.0
 10
110.4821302369216
 20
-121.4022280252051
 30
0.0
 10
110.5269330135564
 20
-121.3574605252162
 30
0.0
 10
110.5269330135564
 20
-121.3023213585634
 30
0.0
  0
SPLINE
  5
88
330
1F
100
AcDbEntity
  8
_U+30EC_U+30A4_U+30E4_U+30FC 1
 62
   179
420
  2234388
370
     9
100
AcDbSpline
210
0.0
220
0.0
230
1.0
 70
    11
 71
     3
 72
    17
 73
    13
 74
     0
 42
0.0000000001
 43
0.0000000001
 12
1.0
 22
0.0
 32
0.0
 13
1.0
 23
0.0
 33
0.0
 40
0.0
 40
0.0
 40
0.0
 40
0.0
 40
1.0
 40
1.0
 40
1.0
 40
2.0
 40
2.0
 40
2.0
 40
3.0
 40
3.0
 40
3.0
 40
4.0
 40
4.0
 40
4.0
 40
4.0
 10
106.5264683933945
 20
-117.3027385817854
 30
0.0
 10
106.5264683933945
 20
-117.2476346929102
 30
0.0
 10
106.4817008945366
 20
-117.2028319151438
 30
0.0
 10
106.4265617292767
 20
-117.2028319151438
 30
0.0
 10
106.3714578417936
 20
-117.2028319151438
 30
0.0
 10
106.3266550651588
 20
-117.2476346929102
 30
0.0
 10
106.3266550651588
 20
-117.3027385817854
 30
0.0
 10
106.3266550651588
 20
-117.3578777484382
 30
0.0
 10
106.3714578417936
 20
-117.4026452484271
 30
0.0
 10
106.4265617292767
 20
-117.4026452484271
 30
0.0
 10
106.4817008945366
 20
-117.4026452484271
 30
0.0
 10
106.5264683933945
 20
-117.3578777484382
 30
0.0
 10
106.5264683933945
 20
-117.3027385817854
 30
0.0
  0
SPLINE
  5
89
330
1F
100
AcDbEntity
  8
_U+30EC_U+30A4_U+30E4_U+30FC 1
 62
   179
420
  2234388
370
     9
100
AcDbSpline
210
0.0
220
0.0
230
1.0
 70
    11
 71
     3
 72
    17
 73
    13
 74
     0
 42
0.0000000001
 43
0.0000000001
 12
1.0
 22
0.0
 32
0.0
 13
1.0
 23
0.0
 33
0.0
 40
0.0
 40
0.0
 40
0.0
 40
0.0
 40
1.0
 40
1.0
 40
1.0
 40
2.0
 40
2.0
 40
2.0
 40
3.0
 40
3.0
 40
3.0
 40
4.0
 40
4.0
 40
4.0
 40
4.0
 10
70.52644958960926
 20
-117.3027385817854
 30
0.0
 10
70.52644958960926
 20
-117.2476346929102
 30
0.0
 10
70.4816468129745
 20
-117.2028319151438
 30
0.0
 10
70.42654292549142
 20
-117.2028319151438
 30
0.0
 10
70.37140553796273
 20
-117.2028319151438
 30
0.0
 10
70.3266362613736
 20
-117.2476346929102
 30
0.0
 10
70.3266362613736
 20
-117.3027385817854
 30
0.0
 10
70.3266362613736
 20
-117.3578777484382
 30
0.0
 10
70.37140553796273
 20
-117.4026452484271
 30
0.0
 10
70.42654292549142
 20
-117.4026452484271
 30
0.0
 10
70.4816468129745
 20
-117.4026452484271
 30
0.0
 10
70.52644958960926
 20
-117.3578777484382
 30
0.0
 10
70.52644958960926
 20
-117.3027385817854
 30
0.0
  0
POLYLINE
  5
8A
330
1F
100
AcDbEntity
  8
_U+30EC_U+30A4_U+30E4_U+30FC 1
 62
   179
420
  2234388
370
     9
100
AcDb2dPolyline
 66
     1
 10
0.0
 20
0.0
 30
0.0
  0
VERTEX
  5
8B
330
8A
100
AcDbEntity
  8
_U+30EC_U+30A4_U+30E4_U+30FC 1
 62
   179
420
  2234388
370
     9
100
AcDbVertex
100
AcDb2dVertex
 10
76.42651666130823
 20
-142.3024416310912
 30
0.0
  0
VERTEX
  5
8C
330
8A
100
AcDbEntity
  8
_U+30EC_U+30A4_U+30E4_U+30FC 1
 62
   179
420
  2234388
370
     9
100
AcDbVertex
100
AcDb2dVertex
 10
70.42654292549142
 20
-142.3024416310912
 30
0.0
  0
SEQEND
  5
8D
330
8A
100
AcDbEntity
  8
_U+30EC_U+30A4_U+30E4_U+30FC 1
 62
   179
420
  2234388
370
     9
  0
POLYLINE
  5
8E
330
1F
100
AcDbEntity
  8
_U+30EC_U+30A4_U+30E4_U+30FC 1
 62
   179
420
  2234388
370
     9
100
AcDb2dPolyline
 66
     1
 10
0.0
 20
0.0
 30
0.0
  0
VERTEX
  5
8F
330
8E
100
AcDbEntity
  8
_U+30EC_U+30A4_U+30E4_U+30FC 1
 62
   179
420
  2234388
370
     9
100
AcDbVertex
100
AcDb2dVertex
 10
76.42651666130823
 20
-140.8424002425675
 30
0.0
  0
VERTEX
  5
90
330
8E
100
AcDbEntity
  8
_U+30EC_U+30A4_U+30E4_U+30FC 1
 62
   179
420
  2234388
370
     9
100
AcDbVertex
100
AcDb2dVertex
 10
76.42651666130823
 20
-143.3028841308411
 30
0.0
  0
SEQEND
  5
91
330
8E
100
AcDbEntity
  8
_U+30EC_U+30A4_U+30E4_U+30FC 1
 62
   179
420
  2234388
370
     9
  0
POLYLINE
  5
92
330
1F
100
AcDbEntity
  8
_U+30EC_U+30A4_U+30E4_U+30FC 1
 62
   179
420
  2234388
370
     9
100
AcDb2dPolyline
 66
     1
 10
0.0
 20
0.0
 30
0.0
  0
VERTEX
  5
93
330
92
100
AcDbEntity
  8
_U+30EC_U+30A4_U+30E4_U+30FC 1
 62
   179
420
  2234388
370
     9
100
AcDbVertex
100
AcDb2dVertex
 10
70.42654292549142
 20
-124.8425169132337
 30
0.0
  0
VERTEX
  5
94
330
92
100
AcDbEntity
  8
_U+30EC_U+30A4_U+30E4_U+30FC 1
 62
   179
420
  2234388
370
     9
100
AcDbVertex
100
AcDb2dVertex
 10
70.42654292549142
 20
-143.3028841308411
 30
0.0
  0
SEQEND
  5
95
330
92
100
AcDbEntity
  8
_U+30EC_U+30A4_U+30E4_U+30FC 1
 62
   179
420
  2234388
370
     9
  0
INSERT
  5
97
330
1F
100
AcDbEntity
  8
_U+30EC_U+30A4_U+30E4_U+30FC 1
100
AcDbBlockReference
  2
block 2
 10
0.0
 20
0.0
 30
0.0
  0
POLYLINE
  5
9D
330
1F
100
AcDbEntity
  8
_U+30EC_U+30A4_U+30E4_U+30FC 1
 62
   179
420
  2234388
370
     9
100
AcDb2dPolyline
 66
     1
 10
0.0
 20
0.0
 30
0.0
  0
VERTEX
  5
9E
330
9D
100
AcDbEntity
  8
_U+30EC_U+30A4_U+30E4_U+30FC 1
 62
   179
420
  2234388
370
     9
100
AcDbVertex
100
AcDb2dVertex
 10
76.42651666130823
 20
-142.3024416310912
 30
0.0
  0
VERTEX
  5
9F
330
9D
100
AcDbEntity
  8
_U+30EC_U+30A4_U+30E4_U+30FC 1
 62
   179
420
  2234388
370
     9
100
AcDbVertex
100
AcDb2dVertex
 10
86.42624946174935
 20
-142.3024416310912
 30
0.0
  0
SEQEND
  5
A0
330
9D
100
AcDbEntity
  8
_U+30EC_U+30A4_U+30E4_U+30FC 1
 62
   179
420
  2234388
370
     9
  0
POLYLINE
  5
A1
330
1F
100
AcDbEntity
  8
_U+30EC_U+30A4_U+30E4_U+30FC 1
 62
   179
420
  2234388
370
     9
100
AcDb2dPolyline
 66
     1
 10
0.0
 20
0.0
 30
0.0
  0
VERTEX
  5
A2
330
A1
100
AcDbEntity
  8
_U+30EC_U+30A4_U+30E4_U+30FC 1
 62
   179
420
  2234388
370
     9
100
AcDbVertex
100
AcDb2dVertex
 10
86.42624946174935
 20
-140.8424002425675
 30
0.0
  0
VERTEX
  5
A3
330
A1
100
AcDbEntity
  8
_U+30EC_U+30A4_U+30E4_U+30FC 1
 62
   179
420
  2234388
370
     9
100
AcDbVertex
100
AcDb2dVertex
 10
86.42624946174935
 20
-143.3028841308411
 30
0.0
  0
SEQEND
  5
A4
330
A1
100
AcDbEntity
  8
_U+30EC_U+30A4_U+30E4_U+30FC 1
 62
   179
420
  2234388
370
     9
  0
INSERT
  5
A6
330
1F
100
AcDbEntity
  8
_U+30EC_U+30A4_U+30E4_U+30FC 1
100
AcDbBlockReference
  2
block 3
 10
0.0
 20
0.0
 30
0.0
  0
POLYLINE
  5
AE
330
1F
100
AcDbEntity
  8
_U+30EC_U+30A4_U+30E4_U+30FC 1
 62
   179
420
  2234388
370
     9
100
AcDb2dPolyline
 66
     1
 10
0.0
 20
0.0
 30
0.0
  0
VERTEX
  5
AF
330
AE
100
AcDbEntity
  8
_U+30EC_U+30A4_U+30E4_U+30FC 1
 62
   179
420
  2234388
370
     9
100
AcDbVertex
100
AcDb2dVertex
 10
110.4270263494385
 20
-121.3023213585634
 30
0.0
  0
VERTEX
  5
B0
330
AE
100
AcDbEntity
  8
_U+30EC_U+30A4_U+30E4_U+30FC 1
 62
   179
420
  2234388
370
     9
100
AcDbVertex
100
AcDb2dVertex
 10
110.4270263494385
 20
-117.5321852483946
 30
0.0
  0
SEQEND
  5
B1
330
AE
100
AcDbEntity
  8
_U+30EC_U+30A4_U+30E4_U+30FC 1
 62
   179
420
  2234388
370
     9
  0
POLYLINE
  5
B2
330
1F
100
AcDbEntity
  8
_U+30EC_U+30A4_U+30E4_U+30FC 1
 62
   179
420
  2234388
370
     9
100
AcDb2dPolyline
 66
     1
 10
0.0
 20
0.0
 30
0.0
  0
VERTEX
  5
B3
330
B2
100
AcDbEntity
  8
_U+30EC_U+30A4_U+30E4_U+30FC 1
 62
   179
420
  2234388
370
     9
100
AcDbVertex
100
AcDb2dVertex
 10
110.4270263494385
 20
-121.3023213585634
 30
0.0
  0
VERTEX
  5
B4
330
B2
100
AcDbEntity
  8
_U+30EC_U+30A4_U+30E4_U+30FC 1
 62
   179
420
  2234388
370
     9
100
AcDbVertex
100
AcDb2dVertex
 10
110.4270263494385
 20
-122.3020935805357
 30
0.0
  0
SEQEND
  5
B5
330
B2
100
AcDbEntity
  8
_U+30EC_U+30A4_U+30E4_U+30FC 1
 62
   179
420
  2234388
370
     9
  0
POLYLINE
  5
B6
330
1F
100
AcDbEntity
  8
_U+30EC_U+30A4_U+30E4_U+30FC 1
 62
   179
420
  2234388
370
     9
100
AcDb2dPolyline
 66
     1
 10
0.0
 20
0.0
 30
0.0
  0
VERTEX
  5
B7
330
B6
100
AcDbEntity
  8
_U+30EC_U+30A4_U+30E4_U+30FC 1
 62
   179
420
  2234388
370
     9
100
AcDbVertex
100
AcDb2dVertex
 10
108.9669849977984
 20
-121.3023213585634
 30
0.0
  0
VERTEX
  5
B8
330
B6
100
AcDbEntity
  8
_U+30EC_U+30A4_U+30E4_U+30FC 1
 62
   179
420
  2234388
370
     9
100
AcDbVertex
100
AcDb2dVertex
 10
111.4267985461544
 20
-121.3023213585634
 30
0.0
  0
SEQEND
  5
B9
330
B6
100
AcDbEntity
  8
_U+30EC_U+30A4_U+30E4_U+30FC 1
 62
   179
420
  2234388
370
     9
  0
POLYLINE
  5
BA
330
1F
100
AcDbEntity
  8
_U+30EC_U+30A4_U+30E4_U+30FC 1
 62
   179
420
  2234388
370
     9
100
AcDb2dPolyline
 66
     1
 10
0.0
 20
0.0
 30
0.0
  0
VERTEX
  5
BB
330
BA
100
AcDbEntity
  8
_U+30EC_U+30A4_U+30E4_U+30FC 1
 62
   179
420
  2234388
370
     9
100
AcDbVertex
100
AcDb2dVertex
 10
108.9669849977984
 20
-122.3020935805357
 30
0.0
  0
VERTEX
  5
BC
330
BA
100
AcDbEntity
  8
_U+30EC_U+30A4_U+30E4_U+30FC 1
 62
   179
420
  2234388
370
     9
100
AcDbVertex
100
AcDb2dVertex
 10
111.4267985461544
 20
-122.3020935805357
 30
0.0
  0
SEQEND
  5
BD
330
BA
100
AcDbEntity
  8
_U+30EC_U+30A4_U+30E4_U+30FC 1
 62
   179
420
  2234388
370
     9
  0
INSERT
  5
BF
330
1F
100
AcDbEntity
  8
_U+30EC_U+30A4_U+30E4_U+30FC 1
100
AcDbBlockReference
  2
block 4
 10
0.0
 20
0.0
 30
0.0
  0
POLYLINE
  5
C4
330
1F
100
AcDbEntity
  8
_U+30EC_U+30A4_U+30E4_U+30FC 1
 62
   179
420
  2234388
370
     9
100
AcDb2dPolyline
 66
     1
 10
0.0
 20
0.0
 30
0.0
  0
VERTEX
  5
C5
330
C4
100
AcDbEntity
  8
_U+30EC_U+30A4_U+30E4_U+30FC 1
 62
   179
420
  2234388
370
     9
100
AcDbVertex
100
AcDb2dVertex
 10
110.4270263494385
 20
-135.30269552173
 30
0.0
  0
VERTEX
  5
C6
330
C4
100
AcDbEntity
  8
_U+30EC_U+30A4_U+30E4_U+30FC 1
 62
   179
420
  2234388
370
     9
100
AcDbVertex
100
AcDb2dVertex
 10
110.4270263494385
 20
-138.3026824654243
 30
0.0
  0
SEQEND
  5
C7
330
C4
100
AcDbEntity
  8
_U+30EC_U+30A4_U+30E4_U+30FC 1
 62
   179
420
  2234388
370
     9
  0
POLYLINE
  5
C8
330
1F
100
AcDbEntity
  8
_U+30EC_U+30A4_U+30E4_U+30FC 1
 62
   179
420
  2234388
370
     9
100
AcDb2dPolyline
 66
     1
 10
0.0
 20
0.0
 30
0.0
  0
VERTEX
  5
C9
330
C8
100
AcDbEntity
  8
_U+30EC_U+30A4_U+30E4_U+30FC 1
 62
   179
420
  2234388
370
     9
100
AcDbVertex
100
AcDb2dVertex
 10
88.96667497775844
 20
-138.3026824654243
 30
0.0
  0
VERTEX
  5
CA
330
C8
100
AcDbEntity
  8
_U+30EC_U+30A4_U+30E4_U+30FC 1
 62
   179
420
  2234388
370
     9
100
AcDbVertex
100
AcDb2dVertex
 10
111.4267985461544
 20
-138.3026824654243
 30
0.0
  0
SEQEND
  5
CB
330
C8
100
AcDbEntity
  8
_U+30EC_U+30A4_U+30E4_U+30FC 1
 62
   179
420
  2234388
370
     9
  0
INSERT
  5
CD
330
1F
100
AcDbEntity
  8
_U+30EC_U+30A4_U+30E4_U+30FC 1
100
AcDbBlockReference
  2
block 5
 10
0.0
 20
0.0
 30
0.0
  0
POLYLINE
  5
D2
330
1F
100
AcDbEntity
  8
_U+30EC_U+30A4_U+30E4_U+30FC 1
 62
   179
420
  2234388
370
     9
100
AcDb2dPolyline
 66
     1
 10
0.0
 20
0.0
 30
0.0
  0
VERTEX
  5
D3
330
D2
100
AcDbEntity
  8
_U+30EC_U+30A4_U+30E4_U+30FC 1
 62
   179
420
  2234388
370
     9
100
AcDbVertex
100
AcDb2dVertex
 10
70.42654292549142
 20
-117.3027385817854
 30
0.0
  0
VERTEX
  5
D4
330
D2
100
AcDbEntity
  8
_U+30EC_U+30A4_U+30E4_U+30FC 1
 62
   179
420
  2234388
370
     9
100
AcDbVertex
100
AcDb2dVertex
 10
106.4265617292767
 20
-117.3027385817854
 30
0.0
  0
SEQEND
  5
D5
330
D2
100
AcDbEntity
  8
_U+30EC_U+30A4_U+30E4_U+30FC 1
 62
   179
420
  2234388
370
     9
  0
POLYLINE
  5
D6
330
1F
100
AcDbEntity
  8
_U+30EC_U+30A4_U+30E4_U+30FC 1
 62
   179
420
  2234388
370
     9
100
AcDb2dPolyline
 66
     1
 10
0.0
 20
0.0
 30
0.0
  0
VERTEX
  5
D7
330
D6
100
AcDbEntity
  8
_U+30EC_U+30A4_U+30E4_U+30FC 1
 62
   179
420
  2234388
370
     9
100
AcDbVertex
100
AcDb2dVertex
 10
70.42654292549142
 20
-118.7626035814206
 30
0.0
  0
VERTEX
  5
D8
330
D6
100
AcDbEntity
  8
_U+30EC_U+30A4_U+30E4_U+30FC 1
 62
   179
420
  2234388
370
     9
100
AcDbVertex
100
AcDb2dVertex
 10
70.42654292549142
 20
-116.3022960820355
 30
0.0
  0
SEQEND
  5
D9
330
D6
100
AcDbEntity
  8
_U+30EC_U+30A4_U+30E4_U+30FC 1
 62
   179
420
  2234388
370
     9
  0
POLYLINE
  5
DA
330
1F
100
AcDbEntity
  8
_U+30EC_U+30A4_U+30E4_U+30FC 1
 62
   179
420
  2234388
370
     9
100
AcDb2dPolyline
 66
     1
 10
0.0
 20
0.0
 30
0.0
  0
VERTEX
  5
DB
330
DA
100
AcDbEntity
  8
_U+30EC_U+30A4_U+30E4_U+30FC 1
 62
   179
420
  2234388
370
     9
100
AcDbVertex
100
AcDb2dVertex
 10
106.4265617292767
 20
-118.7626035814206
 30
0.0
  0
VERTEX
  5
DC
330
DA
100
AcDbEntity
  8
_U+30EC_U+30A4_U+30E4_U+30FC 1
 62
   179
420
  2234388
370
     9
100
AcDbVertex
100
AcDb2dVertex
 10
106.4265617292767
 20
-116.3022960820355
 30
0.0
  0
SEQEND
  5
DD
330
DA
100
AcDbEntity
  8
_U+30EC_U+30A4_U+30E4_U+30FC 1
 62
   179
420
  2234388
370
     9
  0
INSERT
  5
DF
330
1F
100
AcDbEntity
  8
_U+30EC_U+30A4_U+30E4_U+30FC 1
100
AcDbBlockReference
  2
block 6
 10
0.0
 20
0.0
 30
0.0
  0
POLYLINE
  5
E7
330
1F
100
AcDbEntity
  8
_U+30EC_U+30A4_U+30E4_U+30FC 1
 62
   179
420
  2234388
370
     9
100
AcDb2dPolyline
 66
     1
 10
0.0
 20
0.0
 30
0.0
  0
VERTEX
  5
E8
330
E7
100
AcDbEntity
  8
_U+30EC_U+30A4_U+30E4_U+30FC 1
 62
   179
420
  2234388
370
     9
100
AcDbVertex
100
AcDb2dVertex
 10
110.4270263494385
 20
-135.30269552173
 30
0.0
  0
VERTEX
  5
E9
330
E7
100
AcDbEntity
  8
_U+30EC_U+30A4_U+30E4_U+30FC 1
 62
   179
420
  2234388
370
     9
100
AcDbVertex
100
AcDb2dVertex
 10
110.4270263494385
 20
-122.3020935805357
 30
0.0
  0
SEQEND
  5
EA
330
E7
100
AcDbEntity
  8
_U+30EC_U+30A4_U+30E4_U+30FC 1
 62
   179
420
  2234388
370
     9
  0
POLYLINE
  5
EB
330
1F
100
AcDbEntity
  8
_U+30EC_U+30A4_U+30E4_U+30FC 1
 62
   179
420
  2234388
370
     9
100
AcDb2dPolyline
 66
     1
 10
0.0
 20
0.0
 30
0.0
  0
VERTEX
  5
EC
330
EB
100
AcDbEntity
  8
_U+30EC_U+30A4_U+30E4_U+30FC 1
 62
   179
420
  2234388
370
     9
100
AcDbVertex
100
AcDb2dVertex
 10
88.96667497775844
 20
-135.30269552173
 30
0.0
  0
VERTEX
  5
ED
330
EB
100
AcDbEntity
  8
_U+30EC_U+30A4_U+30E4_U+30FC 1
 62
   179
420
  2234388
370
     9
100
AcDbVertex
100
AcDb2dVertex
 10
111.4267985461544
 20
-135.30269552173
 30
0.0
  0
SEQEND
  5
EE
330
EB
100
AcDbEntity
  8
_U+30EC_U+30A4_U+30E4_U+30FC 1
 62
   179
420
  2234388
370
     9
  0
INSERT
  5
F0
330
1F
100
AcDbEntity
  8
_U+30EC_U+30A4_U+30E4_U+30FC 1
100
AcDbBlockReference
  2
block 7
 10
0.0
 20
0.0
 30
0.0
  0
ENDSEC
  0
SECTION
  2
OBJECTS
  0
DICTIONARY
  5
C
330
0
100
AcDbDictionary
281
     1
  3
ACAD_GROUP
350
D
  3
ACAD_LAYOUT
350
1A
  3
ACAD_MATERIAL
350
3B
  3
ACAD_MLEADERSTYLE
350
F8
  3
ACAD_MLINESTYLE
350
17
  3
ACAD_PLOTSETTINGS
350
19
  3
ACAD_PLOTSTYLENAME
350
E
  3
ACAD_TABLESTYLE
350
F7
  3
ACAD_VISUALSTYLE
350
2A
  0
SUN
  5
3F
330
29
100
AcDbSun
 90
        1
290
     0
 63
     7
421
 16777215
 40
1.0
291
     1
 91
  2455826
 92
 54000000
292
     0
 70
     2
 71
   256
280
     1
  0
DICTIONARY
  5
D
102
{ACAD_REACTORS
330
C
102
}
330
C
100
AcDbDictionary
281
     1
  0
DICTIONARY
  5
1A
102
{ACAD_REACTORS
330
C
102
}
330
C
100
AcDbDictionary
281
     1
  3
Layout1
350
1E
  3
Layout2
350
26
  3
Model
350
22
  0
DICTIONARY
  5
3B
102
{ACAD_REACTORS
330
C
102
}
330
C
100
AcDbDictionary
281
     1
  3
ByBlock
350
3D
  3
ByLayer
350
3C
  3
Global
350
3E
  0
DICTIONARY
  5
F8
102
{ACAD_REACTORS
330
C
102
}
330
C
100
AcDbDictionary
281
     1
  0
DICTIONARY
  5
17
102
{ACAD_REACTORS
330
C
102
}
330
C
100
AcDbDictionary
281
     1
  3
Standard
350
18
  0
DICTIONARY
  5
19
102
{ACAD_REACTORS
330
C
102
}
330
C
100
AcDbDictionary
281
     1
  0
ACDBDICTIONARYWDFLT
  5
E
102
{ACAD_REACTORS
330
C
102
}
330
C
100
AcDbDictionary
281
     1
  3
Normal
350
F
100
AcDbDictionaryWithDefault
340
F
  0
DICTIONARY
  5
F7
102
{ACAD_REACTORS
330
C
102
}
330
C
100
AcDbDictionary
281
     1
  0
DICTIONARY
  5
2A
102
{ACAD_REACTORS
330
C
102
}
330
C
100
AcDbDictionary
281
     1
  3
2dWireframe
350
2F
  3
3D Hidden
350
31
  3
3dWireframe
350
30
  3
Basic
350
32
  3
Brighten
350
36
  3
ColorChange
350
3A
  3
Conceptual
350
34
  3
Dim
350
35
  3
Facepattern
350
39
  3
Flat
350
2B
  3
FlatWithEdges
350
2C
  3
Gouraud
350
2D
  3
GouraudWithEdges
350
2E
  3
Linepattern
350
38
  3
Realistic
350
33
  3
Thicken
350
37
  0
LAYOUT
  5
1E
102
{ACAD_REACTORS
330
1A
102
}
330
1A
100
AcDbPlotSettings
  1

  2
none_device
  4

  6

 40
0.0
 41
0.0
 42
0.0
 43
0.0
 44
0.0
 45
0.0
 46
0.0
 47
0.0
 48
0.0
 49
0.0
140
0.0
141
0.0
142
1.0
143
1.0
 70
   688
 72
     0
 73
     0
 74
     5
  7

 75
    16
 76
     0
 77
     2
 78
   300
147
1.0
148
0.0
149
0.0
100
AcDbLayout
  1
Layout1
 70
     1
 71
     1
 10
0.0
 20
0.0
 11
12.0
 21
9.0
 12
0.0
 22
0.0
 32
0.0
 14
1.000000000000000E+20
 24
1.000000000000000E+20
 34
1.000000000000000E+20
 15
-1.000000000000000E+20
 25
-1.000000000000000E+20
 35
-1.000000000000000E+20
146
0.0
 13
0.0
 23
0.0
 33
0.0
 16
1.0
 26
0.0
 36
0.0
 17
0.0
 27
1.0
 37
0.0
 76
     0
330
1B
  0
LAYOUT
  5
26
102
{ACAD_REACTORS
330
1A
102
}
330
1A
100
AcDbPlotSettings
  1

  2
none_device
  4

  6

 40
0.0
 41
0.0
 42
0.0
 43
0.0
 44
0.0
 45
0.0
 46
0.0
 47
0.0
 48
0.0
 49
0.0
140
0.0
141
0.0
142
1.0
143
1.0
 70
   688
 72
     0
 73
     0
 74
     5
  7

 75
    16
 76
     0
 77
     2
 78
   300
147
1.0
148
0.0
149
0.0
100
AcDbLayout
  1
Layout2
 70
     1
 71
     2
 10
0.0
 20
0.0
 11
0.0
 21
0.0
 12
0.0
 22
0.0
 32
0.0
 14
0.0
 24
0.0
 34
0.0
 15
0.0
 25
0.0
 35
0.0
146
0.0
 13
0.0
 23
0.0
 33
0.0
 16
1.0
 26
0.0
 36
0.0
 17
0.0
 27
1.0
 37
0.0
 76
     0
330
23
  0
LAYOUT
  5
22
102
{ACAD_REACTORS
330
1A
102
}
330
1A
100
AcDbPlotSettings
  1

  2
none_device
  4

  6

 40
0.0
 41
0.0
 42
0.0
 43
0.0
 44
0.0
 45
0.0
 46
0.0
 47
0.0
 48
0.0
 49
0.0
140
0.0
141
0.0
142
1.0
143
1.0
 70
  1712
 72
     0
 73
     0
 74
     0
  7

 75
     0
 76
     0
 77
     2
 78
   300
147
1.0
148
0.0
149
0.0
100
AcDbLayout
  1
Model
 70
     1
 71
     0
 10
0.0
 20
0.0
 11
12.0
 21
9.0
 12
0.0
 22
0.0
 32
0.0
 14
1.000000000000000E+20
 24
1.000000000000000E+20
 34
1.000000000000000E+20
 15
-1.000000000000000E+20
 25
-1.000000000000000E+20
 35
-1.000000000000000E+20
146
0.0
 13
0.0
 23
0.0
 33
0.0
 16
1.0
 26
0.0
 36
0.0
 17
0.0
 27
1.0
 37
0.0
 76
     0
330
1F
331
29
  0
MATERIAL
  5
3D
102
{ACAD_REACTORS
330
3B
102
}
330
3B
100
AcDbMaterial
  1
ByBlock
 72
     1
 94
      127
  0
MATERIAL
  5
3C
102
{ACAD_REACTORS
330
3B
102
}
330
3B
100
AcDbMaterial
  1
ByLayer
 72
     1
 94
      127
  0
MATERIAL
  5
3E
102
{ACAD_REACTORS
330
3B
102
}
330
3B
100
AcDbMaterial
  1
Global
 72
     1
 94
      127
  0
MLINESTYLE
  5
18
102
{ACAD_REACTORS
330
17
102
}
330
17
100
AcDbMlineStyle
  2
Standard
 70
     0
  3

 62
   256
 51
90.0
 52
90.0
 71
     2
 49
0.5
 62
   256
  6
BYLAYER
 49
-0.5
 62
   256
  6
BYLAYER
  0
ACDBPLACEHOLDER
  5
F
102
{ACAD_REACTORS
330
E
102
}
330
E
  0
VISUALSTYLE
  5
2F
102
{ACAD_REACTORS
330
2A
102
}
330
2A
100
AcDbVisualStyle
  2
2dWireframe
 70
     4
177
     2
291
     0
 71
     0
176
     1
 72
     2
176
     1
 73
     0
176
     1
 90
        0
176
     1
 40
-0.6
176
     1
 41
-30.0
176
     1
 62
     5
 63
     7
421
 16777215
176
     1
 74
     1
176
     1
 91
        4
176
     1
 64
     7
176
     1
 65
   257
176
     1
 75
     1
176
     1
175
     1
176
     1
 42
1.0
176
     1
 92
        0
176
     1
 66
   257
176
     1
 43
1.0
176
     1
 76
     1
176
     1
 77
     6
176
     1
 78
     2
176
     1
 67
     7
176
     1
 79
     5
176
     1
170
     0
176
     1
171
     0
176
     1
290
     0
176
     1
 93
        1
176
     1
 44
0.0
176
     1
173
     0
176
     1
  0
VISUALSTYLE
  5
31
102
{ACAD_REACTORS
330
2A
102
}
330
2A
100
AcDbVisualStyle
  2
3D Hidden
 70
     6
177
     2
291
     0
 71
     1
176
     1
 72
     2
176
     1
 73
     2
176
     1
 90
        0
176
     1
 40
-0.6
176
     1
 41
-30.0
176
     1
 62
     5
 63
     7
421
 16777215
176
     1
 74
     2
176
     1
 91
        2
176
     1
 64
     7
176
     1
 65
   257
176
     1
 75
     2
176
     1
175
     1
176
     1
 42
40.0
176
     1
 92
        0
176
     1
 66
   257
176
     1
 43
1.0
176
     1
 76
     1
176
     1
 77
     6
176
     1
 78
     2
176
     1
 67
     7
176
     1
 79
     3
176
     1
170
     0
176
     1
171
     0
176
     1
290
     0
176
     1
 93
        1
176
     1
 44
0.0
176
     1
173
     0
176
     1
  0
VISUALSTYLE
  5
30
102
{ACAD_REACTORS
330
2A
102
}
330
2A
100
AcDbVisualStyle
  2
3dWireframe
 70
     5
177
     2
291
     0
 71
     0
176
     1
 72
     2
176
     1
 73
     0
176
     1
 90
        0
176
     1
 40
-0.6
176
     1
 41
-30.0
176
     1
 62
     5
 63
     7
421
 16777215
176
     1
 74
     1
176
     1
 91
        4
176
     1
 64
     7
176
     1
 65
   257
176
     1
 75
     1
176
     1
175
     1
176
     1
 42
1.0
176
     1
 92
        0
176
     1
 66
   257
176
     1
 43
1.0
176
     1
 76
     1
176
     1
 77
     6
176
     1
 78
     2
176
     1
 67
     7
176
     1
 79
     5
176
     1
170
     0
176
     1
171
     0
176
     1
290
     0
176
     1
 93
        1
176
     1
 44
0.0
176
     1
173
     0
176
     1
  0
VISUALSTYLE
  5
32
102
{ACAD_REACTORS
330
2A
102
}
330
2A
100
AcDbVisualStyle
  2
Basic
 70
     7
177
     2
291
     1
 71
     1
176
     1
 72
     0
176
     1
 73
     1
176
     1
 90
        0
176
     1
 40
-0.6
176
     1
 41
-30.0
176
     1
 62
     5
 63
     7
421
 16777215
176
     1
 74
     0
176
     1
 91
        4
176
     1
 64
     7
176
     1
 65
   257
176
     1
 75
     1
176
     1
175
     1
176
     1
 42
1.0
176
     1
 92
        8
176
     1
 66
     7
176
     1
 43
1.0
176
     1
 76
     1
176
     1
 77
     6
176
     1
 78
     2
176
     1
 67
     7
176
     1
 79
     5
176
     1
170
     0
176
     1
171
     0
176
     1
290
     0
176
     1
 93
        1
176
     1
 44
0.0
176
     1
173
     0
176
     1
  0
VISUALSTYLE
  5
36
102
{ACAD_REACTORS
330
2A
102
}
330
2A
100
AcDbVisualStyle
  2
Brighten
 70
    12
177
     2
291
     1
 71
     2
176
     1
 72
     2
176
     1
 73
     0
176
     1
 90
        0
176
     1
 40
-0.6
176
     1
 41
-30.0
176
     1
 62
     5
 63
     7
421
 16777215
176
     1
 74
     1
176
     1
 91
        4
176
     1
 64
     7
176
     1
 65
   257
176
     1
 75
     1
176
     1
175
     1
176
     1
 42
1.0
176
     1
 92
        8
176
     1
 66
     7
176
     1
 43
1.0
176
     1
 76
     1
176
     1
 77
     6
176
     1
 78
     2
176
     1
 67
     7
176
     1
 79
     5
176
     1
170
     0
176
     1
171
     0
176
     1
290
     0
176
     1
 93
        1
176
     1
 44
50.0
176
     1
173
     0
176
     1
  0
VISUALSTYLE
  5
3A
102
{ACAD_REACTORS
330
2A
102
}
330
2A
100
AcDbVisualStyle
  2
ColorChange
 70
    16
177
     2
291
     1
 71
     2
176
     1
 72
     2
176
     1
 73
     3
176
     1
 90
        0
176
     1
 40
-0.6
176
     1
 41
-30.0
176
     1
 62
     5
 63
     8
421
  8421504
176
     1
 74
     1
176
     1
 91
        4
176
     1
 64
     7
176
     1
 65
   257
176
     1
 75
     1
176
     1
175
     1
176
     1
 42
1.0
176
     1
 92
        8
176
     1
 66
     8
424
  8421504
176
     1
 43
1.0
176
     1
 76
     1
176
     1
 77
     6
176
     1
 78
     2
176
     1
 67
     7
176
     1
 79
     5
176
     1
170
     0
176
     1
171
     0
176
     1
290
     0
176
     1
 93
        1
176
     1
 44
0.0
176
     1
173
     0
176
     1
  0
VISUALSTYLE
  5
34
102
{ACAD_REACTORS
330
2A
102
}
330
2A
100
AcDbVisualStyle
  2
Conceptual
 70
     9
177
     2
291
     0
 71
     3
176
     1
 72
     2
176
     1
 73
     0
176
     1
 90
        0
176
     1
 40
-0.6
176
     1
 41
-30.0
176
     1
 62
     5
 63
     7
421
 16777215
176
     1
 74
     2
176
     1
 91
        2
176
     1
 64
     7
176
     1
 65
   257
176
     1
 75
     1
176
     1
175
     1
176
     1
 42
40.0
176
     1
 92
        8
176
     1
 66
     7
176
     1
 43
1.0
176
     1
 76
     1
176
     1
 77
     6
176
     1
 78
     2
176
     1
 67
     7
176
     1
 79
     3
176
     1
170
     0
176
     1
171
     0
176
     1
290
     0
176
     1
 93
        1
176
     1
 44
0.0
176
     1
173
     0
176
     1
  0
VISUALSTYLE
  5
35
102
{ACAD_REACTORS
330
2A
102
}
330
2A
100
AcDbVisualStyle
  2
Dim
 70
    11
177
     2
291
     1
 71
     2
176
     1
 72
     2
176
     1
 73
     0
176
     1
 90
        0
176
     1
 40
-0.6
176
     1
 41
-30.0
176
     1
 62
     5
 63
     7
421
 16777215
176
     1
 74
     1
176
     1
 91
        4
176
     1
 64
     7
176
     1
 65
   257
176
     1
 75
     1
176
     1
175
     1
176
     1
 42
1.0
176
     1
 92
        8
176
     1
 66
     7
176
     1
 43
1.0
176
     1
 76
     1
176
     1
 77
     6
176
     1
 78
     2
176
     1
 67
     7
176
     1
 79
     5
176
     1
170
     0
176
     1
171
     0
176
     1
290
     0
176
     1
 93
        1
176
     1
 44
-50.0
176
     1
173
     0
176
     1
  0
VISUALSTYLE
  5
39
102
{ACAD_REACTORS
330
2A
102
}
330
2A
100
AcDbVisualStyle
  2
Facepattern
 70
    15
177
     2
291
     1
 71
     2
176
     1
 72
     2
176
     1
 73
     0
176
     1
 90
        0
176
     1
 40
-0.6
176
     1
 41
-30.0
176
     1
 62
     5
 63
     7
421
 16777215
176
     1
 74
     1
176
     1
 91
        4
176
     1
 64
     7
176
     1
 65
   257
176
     1
 75
     1
176
     1
175
     1
176
     1
 42
1.0
176
     1
 92
        8
176
     1
 66
     7
176
     1
 43
1.0
176
     1
 76
     1
176
     1
 77
     6
176
     1
 78
     2
176
     1
 67
     7
176
     1
 79
     5
176
     1
170
     0
176
     1
171
     0
176
     1
290
     0
176
     1
 93
        1
176
     1
 44
0.0
176
     1
173
     0
176
     1
  0
VISUALSTYLE
  5
2B
102
{ACAD_REACTORS
330
2A
102
}
330
2A
100
AcDbVisualStyle
  2
Flat
 70
     0
177
     2
291
     1
 71
     2
176
     1
 72
     1
176
     1
 73
     1
176
     1
 90
        2
176
     1
 40
-0.6
176
     1
 41
30.0
176
     1
 62
     5
 63
     7
421
 16777215
176
     1
 74
     0
176
     1
 91
        4
176
     1
 64
     7
176
     1
 65
   257
176
     1
 75
     1
176
     1
175
     1
176
     1
 42
1.0
176
     1
 92
        8
176
     1
 66
     7
176
     1
 43
1.0
176
     1
 76
     1
176
     1
 77
     6
176
     1
 78
     2
176
     1
 67
     7
176
     1
 79
     5
176
     1
170
     0
176
     1
171
     0
176
     1
290
     0
176
     1
 93
       13
176
     1
 44
0.0
176
     1
173
     0
176
     1
  0
VISUALSTYLE
  5
2C
102
{ACAD_REACTORS
330
2A
102
}
330
2A
100
AcDbVisualStyle
  2
FlatWithEdges
 70
     1
177
     2
291
     1
 71
     2
176
     1
 72
     1
176
     1
 73
     1
176
     1
 90
        2
176
     1
 40
-0.6
176
     1
 41
30.0
176
     1
 62
     5
 63
     7
421
 16777215
176
     1
 74
     1
176
     1
 91
        4
176
     1
 64
     7
176
     1
 65
   257
176
     1
 75
     1
176
     1
175
     1
176
     1
 42
1.0
176
     1
 92
        0
176
     1
 66
   257
176
     1
 43
1.0
176
     1
 76
     1
176
     1
 77
     6
176
     1
 78
     2
176
     1
 67
     7
176
     1
 79
     5
176
     1
170
     0
176
     1
171
     0
176
     1
290
     0
176
     1
 93
       13
176
     1
 44
0.0
176
     1
173
     0
176
     1
  0
VISUALSTYLE
  5
2D
102
{ACAD_REACTORS
330
2A
102
}
330
2A
100
AcDbVisualStyle
  2
Gouraud
 70
     2
177
     2
291
     1
 71
     2
176
     1
 72
     2
176
     1
 73
     1
176
     1
 90
        2
176
     1
 40
-0.6
176
     1
 41
30.0
176
     1
 62
     5
 63
     7
421
 16777215
176
     1
 74
     0
176
     1
 91
        4
176
     1
 64
     7
176
     1
 65
   257
176
     1
 75
     1
176
     1
175
     1
176
     1
 42
1.0
176
     1
 92
        0
176
     1
 66
     7
176
     1
 43
1.0
176
     1
 76
     1
176
     1
 77
     6
176
     1
 78
     2
176
     1
 67
     7
176
     1
 79
     5
176
     1
170
     0
176
     1
171
     0
176
     1
290
     0
176
     1
 93
       13
176
     1
 44
0.0
176
     1
173
     0
176
     1
  0
VISUALSTYLE
  5
2E
102
{ACAD_REACTORS
330
2A
102
}
330
2A
100
AcDbVisualStyle
  2
GouraudWithEdges
 70
     3
177
     2
291
     1
 71
     2
176
     1
 72
     2
176
     1
 73
     1
176
     1
 90
        2
176
     1
 40
-0.6
176
     1
 41
30.0
176
     1
 62
     5
 63
     7
421
 16777215
176
     1
 74
     1
176
     1
 91
        4
176
     1
 64
     7
176
     1
 65
   257
176
     1
 75
     1
176
     1
175
     1
176
     1
 42
1.0
176
     1
 92
        0
176
     1
 66
   257
176
     1
 43
1.0
176
     1
 76
     1
176
     1
 77
     6
176
     1
 78
     2
176
     1
 67
     7
176
     1
 79
     5
176
     1
170
     0
176
     1
171
     0
176
     1
290
     0
176
     1
 93
       13
176
     1
 44
0.0
176
     1
173
     0
176
     1
  0
VISUALSTYLE
  5
38
102
{ACAD_REACTORS
330
2A
102
}
330
2A
100
AcDbVisualStyle
  2
Linepattern
 70
    14
177
     2
291
     1
 71
     2
176
     1
 72
     2
176
     1
 73
     0
176
     1
 90
        0
176
     1
 40
-0.6
176
     1
 41
-30.0
176
     1
 62
     5
 63
     7
421
 16777215
176
     1
 74
     1
176
     1
 91
        4
176
     1
 64
     7
176
     1
 65
   257
176
     1
 75
     7
176
     1
175
     7
176
     1
 42
1.0
176
     1
 92
        8
176
     1
 66
     7
176
     1
 43
1.0
176
     1
 76
     1
176
     1
 77
     6
176
     1
 78
     2
176
     1
 67
     7
176
     1
 79
     5
176
     1
170
     0
176
     1
171
     0
176
     1
290
     0
176
     1
 93
        1
176
     1
 44
0.0
176
     1
173
     0
176
     1
  0
VISUALSTYLE
  5
33
102
{ACAD_REACTORS
330
2A
102
}
330
2A
100
AcDbVisualStyle
  2
Realistic
 70
     8
177
     2
291
     0
 71
     2
176
     1
 72
     2
176
     1
 73
     0
176
     1
 90
        0
176
     1
 40
-0.6
176
     1
 41
-30.0
176
     1
 62
     5
 63
     7
421
 16777215
176
     1
 74
     1
176
     1
 91
        0
176
     1
 64
     7
176
     1
 65
   257
176
     1
 75
     1
176
     1
175
     1
176
     1
 42
1.0
176
     1
 92
        8
176
     1
 66
     8
424
  7895160
176
     1
 43
1.0
176
     1
 76
     1
176
     1
 77
     6
176
     1
 78
     2
176
     1
 67
     7
176
     1
 79
     5
176
     1
170
     0
176
     1
171
     0
176
     1
290
     0
176
     1
 93
       13
176
     1
 44
0.0
176
     1
173
     0
176
     1
  0
VISUALSTYLE
  5
37
102
{ACAD_REACTORS
330
2A
102
}
330
2A
100
AcDbVisualStyle
  2
Thicken
 70
    13
177
     2
291
     1
 71
     2
176
     1
 72
     2
176
     1
 73
     0
176
     1
 90
        0
176
     1
 40
-0.6
176
     1
 41
-30.0
176
     1
 62
     5
 63
     7
421
 16777215
176
     1
 74
     1
176
     1
 91
        4
176
     1
 64
     7
176
     1
 65
   257
176
     1
 75
     1
176
     1
175
     1
176
     1
 42
1.0
176
     1
 92
       12
176
     1
 66
     7
176
     1
 43
1.0
176
     1
 76
     1
176
     1
 77
     6
176
     1
 78
     2
176
     1
 67
     7
176
     1
 79
     5
176
     1
170
     0
176
     1
171
     0
176
     1
290
     0
176
     1
 93
        1
176
     1
 44
0.0
176
     1
173
     0
176
     1
  0
ENDSEC
  0
EOF
