  0
SECTION
  2
HEADER
  9
$ACADVER
  1
AC1024
  9
$ACADMAINTVER
 70
     6
  9
$DWGCODEPAGE
  3
UNDEFINED
  9
$INSBASE
 10
0.0
 20
0.0
 30
0.0
  9
$EXTMIN
 10
1.000000000000000E+20
 20
1.000000000000000E+20
 30
1.000000000000000E+20
  9
$EXTMAX
 10
-1.000000000000000E+20
 20
-1.000000000000000E+20
 30
-1.000000000000000E+20
  9
$LIMMIN
 10
0.0
 20
0.0
  9
$LIMMAX
 10
12.0
 20
9.0
  9
$ORTHOMODE
 70
     0
  9
$REGENMODE
 70
     1
  9
$FILLMODE
 70
     1
  9
$QTEXTMODE
 70
     0
  9
$MIRRTEXT
 70
     1
  9
$LTSCALE
 40
1.0
  9
$ATTMODE
 70
     1
  9
$TEXTSIZE
 40
0.2
  9
$TRACEWID
 40
0.05
  9
$TEXTSTYLE
  7
Standard
  9
$CLAYER
  8
0
  9
$CELTYPE
  6
ByLayer
  9
$CECOLOR
 62
   256
  9
$CELTSCALE
 40
1.0
  9
$DISPSILH
 70
     0
  9
$DIMSCALE
 40
1.0
  9
$DIMASZ
 40
0.18
  9
$DIMEXO
 40
0.0625
  9
$DIMDLI
 40
0.38
  9
$DIMRND
 40
0.0
  9
$DIMDLE
 40
0.0
  9
$DIMEXE
 40
0.18
  9
$DIMTP
 40
0.0
  9
$DIMTM
 40
0.0
  9
$DIMTXT
 40
0.18
  9
$DIMCEN
 40
0.09
  9
$DIMTSZ
 40
0.0
  9
$DIMTOL
 70
     0
  9
$DIMLIM
 70
     0
  9
$DIMTIH
 70
     1
  9
$DIMTOH
 70
     1
  9
$DIMSE1
 70
     0
  9
$DIMSE2
 70
     0
  9
$DIMTAD
 70
     0
  9
$DIMZIN
 70
     0
  9
$DIMBLK
  1

  9
$DIMASO
 70
     1
  9
$DIMSHO
 70
     1
  9
$DIMPOST
  1

  9
$DIMAPOST
  1

  9
$DIMALT
 70
     0
  9
$DIMALTD
 70
     2
  9
$DIMALTF
 40
25.4
  9
$DIMLFAC
 40
1.0
  9
$DIMTOFL
 70
     0
  9
$DIMTVP
 40
0.0
  9
$DIMTIX
 70
     0
  9
$DIMSOXD
 70
     0
  9
$DIMSAH
 70
     0
  9
$DIMBLK1
  1

  9
$DIMBLK2
  1

  9
$DIMSTYLE
  2
Standard
  9
$DIMCLRD
 70
     0
  9
$DIMCLRE
 70
     0
  9
$DIMCLRT
 70
     0
  9
$DIMTFAC
 40
1.0
  9
$DIMGAP
 40
0.09
  9
$DIMJUST
 70
     0
  9
$DIMSD1
 70
     0
  9
$DIMSD2
 70
     0
  9
$DIMTOLJ
 70
     1
  9
$DIMTZIN
 70
     0
  9
$DIMALTZ
 70
     0
  9
$DIMALTTZ
 70
     0
  9
$DIMUPT
 70
     0
  9
$DIMDEC
 70
     4
  9
$DIMTDEC
 70
     4
  9
$DIMALTU
 70
     2
  9
$DIMALTTD
 70
     2
  9
$DIMTXSTY
  7
Standard
  9
$DIMAUNIT
 70
     0
  9
$DIMADEC
 70
     0
  9
$DIMALTRND
 40
0.0
  9
$DIMAZIN
 70
     0
  9
$DIMDSEP
 70
    46
  9
$DIMATFIT
 70
     3
  9
$DIMFRAC
 70
     0
  9
$DIMLDRBLK
  1

  9
$DIMLUNIT
 70
     2
  9
$DIMLWD
 70
    -2
  9
$DIMLWE
 70
    -2
  9
$DIMTMOVE
 70
     0
  9
$DIMFXL
 40
1.0
  9
$DIMFXLON
 70
     0
  9
$DIMJOGANG
 40
0.7853981633974483
  9
$DIMTFILL
 70
     0
  9
$DIMTFILLCLR
 70
     0
  9
$DIMARCSYM
 70
     0
  9
$DIMLTYPE
  6

  9
$DIMLTEX1
  6

  9
$DIMLTEX2
  6

  9
$DIMTXTDIRECTION
 70
     0
  9
$LUNITS
 70
     2
  9
$LUPREC
 70
     4
  9
$SKETCHINC
 40
0.1
  9
$FILLETRAD
 40
0.5
  9
$AUNITS
 70
     0
  9
$AUPREC
 70
     0
  9
$MENU
  1
.
  9
$ELEVATION
 40
0.0
  9
$PELEVATION
 40
0.0
  9
$THICKNESS
 40
0.0
  9
$LIMCHECK
 70
     0
  9
$CHAMFERA
 40
0.5
  9
$CHAMFERB
 40
0.5
  9
$CHAMFERC
 40
1.0
  9
$CHAMFERD
 40
0.0
  9
$SKPOLY
 70
     0
  9
$TDCREATE
 40
2457917.613182859
  9
$TDUCREATE
 40
2457917.23818287
  9
$TDUPDATE
 40
2457917.613182859
  9
$TDUUPDATE
 40
2457917.23818287
  9
$TDINDWG
 40
0.0000000116
  9
$TDUSRTIMER
 40
0.0000000116
  9
$USRTIMER
 70
     1
  9
$ANGBASE
 50
0.0
  9
$ANGDIR
 70
     0
  9
$PDMODE
 70
     0
  9
$PDSIZE
 40
0.0
  9
$PLINEWID
 40
0.0
  9
$SPLFRAME
 70
     0
  9
$SPLINETYPE
 70
     6
  9
$SPLINESEGS
 70
     8
  9
$HANDSEED
  5
F3
  9
$SURFTAB1
 70
     6
  9
$SURFTAB2
 70
     6
  9
$SURFTYPE
 70
     6
  9
$SURFU
 70
     6
  9
$SURFV
 70
     6
  9
$UCSBASE
  2

  9
$UCSNAME
  2

  9
$UCSORG
 10
0.0
 20
0.0
 30
0.0
  9
$UCSXDIR
 10
1.0
 20
0.0
 30
0.0
  9
$UCSYDIR
 10
0.0
 20
1.0
 30
0.0
  9
$UCSORTHOREF
  2

  9
$UCSORTHOVIEW
 70
     0
  9
$UCSORGTOP
 10
0.0
 20
0.0
 30
0.0
  9
$UCSORGBOTTOM
 10
0.0
 20
0.0
 30
0.0
  9
$UCSORGLEFT
 10
0.0
 20
0.0
 30
0.0
  9
$UCSORGRIGHT
 10
0.0
 20
0.0
 30
0.0
  9
$UCSORGFRONT
 10
0.0
 20
0.0
 30
0.0
  9
$UCSORGBACK
 10
0.0
 20
0.0
 30
0.0
  9
$PUCSBASE
  2

  9
$PUCSNAME
  2

  9
$PUCSORG
 10
0.0
 20
0.0
 30
0.0
  9
$PUCSXDIR
 10
1.0
 20
0.0
 30
0.0
  9
$PUCSYDIR
 10
0.0
 20
1.0
 30
0.0
  9
$PUCSORTHOREF
  2

  9
$PUCSORTHOVIEW
 70
     0
  9
$PUCSORGTOP
 10
0.0
 20
0.0
 30
0.0
  9
$PUCSORGBOTTOM
 10
0.0
 20
0.0
 30
0.0
  9
$PUCSORGLEFT
 10
0.0
 20
0.0
 30
0.0
  9
$PUCSORGRIGHT
 10
0.0
 20
0.0
 30
0.0
  9
$PUCSORGFRONT
 10
0.0
 20
0.0
 30
0.0
  9
$PUCSORGBACK
 10
0.0
 20
0.0
 30
0.0
  9
$USERI1
 70
     0
  9
$USERI2
 70
     0
  9
$USERI3
 70
     0
  9
$USERI4
 70
     0
  9
$USERI5
 70
     0
  9
$USERR1
 40
0.0
  9
$USERR2
 40
0.0
  9
$USERR3
 40
0.0
  9
$USERR4
 40
0.0
  9
$USERR5
 40
0.0
  9
$WORLDVIEW
 70
     1
  9
$SHADEDGE
 70
     3
  9
$SHADEDIF
 70
    70
  9
$TILEMODE
 70
     1
  9
$MAXACTVP
 70
    64
  9
$PINSBASE
 10
0.0
 20
0.0
 30
0.0
  9
$PLIMCHECK
 70
     0
  9
$PEXTMIN
 10
1.000000000000000E+20
 20
1.000000000000000E+20
 30
1.000000000000000E+20
  9
$PEXTMAX
 10
-1.000000000000000E+20
 20
-1.000000000000000E+20
 30
-1.000000000000000E+20
  9
$PLIMMIN
 10
0.0
 20
0.0
  9
$PLIMMAX
 10
12.0
 20
9.0
  9
$UNITMODE
 70
     0
  9
$VISRETAIN
 70
     1
  9
$PLINEGEN
 70
     0
  9
$PSLTSCALE
 70
     1
  9
$TREEDEPTH
 70
  3020
  9
$CMLSTYLE
  2
Standard
  9
$CMLJUST
 70
     0
  9
$CMLSCALE
 40
1.0
  9
$PROXYGRAPHICS
 70
     1
  9
$MEASUREMENT
 70
     0
  9
$CELWEIGHT
370
    -1
  9
$ENDCAPS
280
     0
  9
$JOINSTYLE
280
     0
  9
$LWDISPLAY
290
     1
  9
$INSUNITS
 70
     1
  9
$HYPERLINKBASE
  1

  9
$STYLESHEET
  1

  9
$XEDIT
290
     1
  9
$CEPSNTYPE
380
     0
  9
$PSTYLEMODE
290
     1
  9
$FINGERPRINTGUID
  2
{E471ABAC-D0D5-98DC-9B14-CC6EC6C44AB5}
  9
$VERSIONGUID
  2
{FAEB1C32-E019-11D5-929B-00C0DF256EC4}
  9
$EXTNAMES
290
     1
  9
$PSVPSCALE
 40
0.0
  9
$OLESTARTUP
290
     0
  9
$SORTENTS
280
   127
  9
$INDEXCTL
280
     0
  9
$HIDETEXT
280
     1
  9
$XCLIPFRAME
280
     2
  9
$HALOGAP
280
     0
  9
$OBSCOLOR
 70
   257
  9
$OBSLTYPE
280
     0
  9
$INTERSECTIONDISPLAY
280
     0
  9
$INTERSECTIONCOLOR
 70
   257
  9
$DIMASSOC
280
     2
  9
$PROJECTNAME
  1

  9
$CAMERADISPLAY
290
     0
  9
$LENSLENGTH
 40
50.0
  9
$CAMERAHEIGHT
 40
0.0
  9
$STEPSPERSEC
 40
2.0
  9
$STEPSIZE
 40
6.0
  9
$3DDWFPREC
 40
2.0
  9
$PSOLWIDTH
 40
0.25
  9
$PSOLHEIGHT
 40
4.0
  9
$LOFTANG1
 40
1.570796326794897
  9
$LOFTANG2
 40
1.570796326794897
  9
$LOFTMAG1
 40
0.0
  9
$LOFTMAG2
 40
0.0
  9
$LOFTPARAM
 70
     7
  9
$LOFTNORMALS
280
     1
  9
$LATITUDE
 40
37.795
  9
$LONGITUDE
 40
-122.394
  9
$NORTHDIRECTION
 40
0.0
  9
$TIMEZONE
 70
 -8000
  9
$LIGHTGLYPHDISPLAY
280
     1
  9
$TILEMODELIGHTSYNCH
280
     1
  9
$CMATERIAL
347
3C
  9
$SOLIDHIST
280
     1
  9
$SHOWHIST
280
     1
  9
$DWFFRAME
280
     2
  9
$DGNFRAME
280
     2
  9
$REALWORLDSCALE
290
     1
  9
$INTERFERECOLOR
 62
   256
  9
$CSHADOW
280
     0
  9
$SHADOWPLANELOCATION
 40
0.0
  0
ENDSEC
  0
SECTION
  2
CLASSES
  0
CLASS
  1
ACDBDICTIONARYWDFLT
  2
AcDbDictionaryWithDefault
  3
ObjectDBX Classes
 90
        0
 91
        4
280
     0
281
     0
  0
CLASS
  1
VISUALSTYLE
  2
AcDbVisualStyle
  3
ObjectDBX Classes
 90
     4095
 91
        4
280
     0
281
     0
  0
CLASS
  1
MATERIAL
  2
AcDbMaterial
  3
ObjectDBX Classes
 90
     1153
 91
        4
280
     0
281
     0
  0
CLASS
  1
SUN
  2
AcDbSun
  3
SCENEOE
 90
     1024
 91
        4
280
     0
281
     0
  0
ENDSEC
  0
SECTION
  2
TABLES
  0
TABLE
  2
VPORT
  5
8
330
0
100
AcDbSymbolTable
 70
     1
  0
VPORT
  5
29
330
8
100
AcDbSymbolTableRecord
100
AcDbViewportTableRecord
  2
*Active
 70
     0
 10
0.0
 20
0.0
 11
1.0
 21
1.0
 12
0.0
 22
0.0
 13
0.0
 23
0.0
 14
0.5
 24
0.5
 15
0.5
 25
0.5
 16
0.0
 26
0.0
 36
1.0
 17
91.00082462281999
 27
-128.4993055234307
 37
0.0
 40
256.9986110468615
 41
0.7081814508812795
 42
50.0
 43
0.0
 44
0.0
 50
0.0
 51
0.0
 71
     0
 72
   100
 73
     1
 74
     3
 75
     0
 76
     0
 77
     0
 78
     0
281
     0
 65
     1
110
0.0
120
0.0
130
0.0
111
1.0
121
0.0
131
0.0
112
0.0
122
1.0
132
0.0
 79
     0
146
0.0
 60
     3
 61
     5
292
     1
282
     1
141
0.0
142
0.0
 63
   250
361
3F
  0
ENDTAB
  0
TABLE
  2
LTYPE
  5
5
330
0
100
AcDbSymbolTable
 70
     1
  0
LTYPE
  5
14
330
5
100
AcDbSymbolTableRecord
100
AcDbLinetypeTableRecord
  2
ByBlock
 70
     0
  3

 72
    65
 73
     0
 40
0.0
  0
LTYPE
  5
15
330
5
100
AcDbSymbolTableRecord
100
AcDbLinetypeTableRecord
  2
ByLayer
 70
     0
  3

 72
    65
 73
     0
 40
0.0
  0
LTYPE
  5
16
330
5
100
AcDbSymbolTableRecord
100
AcDbLinetypeTableRecord
  2
Continuous
 70
     0
  3
Solid line
 72
    65
 73
     0
 40
0.0
  0
ENDTAB
  0
TABLE
  2
LAYER
  5
2
330
0
100
AcDbSymbolTable
 70
     2
  0
LAYER
  5
10
330
2
100
AcDbSymbolTableRecord
100
AcDbLayerTableRecord
  2
0
 70
     0
 62
     7
  6
Continuous
370
    -3
390
F
347
3E
  0
LAYER
  5
40
330
2
100
AcDbSymbolTableRecord
100
AcDbLayerTableRecord
  2
_U+30EC_U+30A4_U+30E4_U+30FC 1
 70
     0
 62
     7
  6
Continuous
370
    -3
390
F
347
3E
  0
ENDTAB
  0
TABLE
  2
STYLE
  5
3
330
0
100
AcDbSymbolTable
 70
     1
  0
STYLE
  5
11
330
3
100
AcDbSymbolTableRecord
100
AcDbTextStyleTableRecord
  2
Standard
 70
     0
 40
0.0
 41
1.0
 50
0.0
 71
     0
 42
0.2
  3
txt
  4

  0
ENDTAB
  0
TABLE
  2
VIEW
  5
6
330
0
100
AcDbSymbolTable
 70
     0
  0
ENDTAB
  0
TABLE
  2
UCS
  5
7
330
0
100
AcDbSymbolTable
 70
     0
  0
ENDTAB
  0
TABLE
  2
APPID
  5
9
330
0
100
AcDbSymbolTable
 70
     1
  0
APPID
  5
12
330
9
100
AcDbSymbolTableRecord
100
AcDbRegAppTableRecord
  2
ACAD
 70
     0
  0
ENDTAB
  0
TABLE
  2
DIMSTYLE
  5
A
330
0
100
AcDbSymbolTable
 70
     1
100
AcDbDimStyleTable
  0
DIMSTYLE
105
27
330
A
100
AcDbSymbolTableRecord
100
AcDbDimStyleTableRecord
  2
Standard
 70
     0
178
     0
340
11
  0
ENDTAB
  0
TABLE
  2
BLOCK_RECORD
  5
1
330
0
100
AcDbSymbolTable
 70
     7
  0
BLOCK_RECORD
  5
1F
330
1
100
AcDbSymbolTableRecord
100
AcDbBlockTableRecord
  2
*Model_Space
340
22
 70
     0
280
     1
281
     0
  0
BLOCK_RECORD
  5
1B
330
1
100
AcDbSymbolTableRecord
100
AcDbBlockTableRecord
  2
*Paper_Space
340
1E
 70
     0
280
     1
281
     0
  0
BLOCK_RECORD
  5
23
330
1
100
AcDbSymbolTableRecord
100
AcDbBlockTableRecord
  2
*Paper_Space0
340
26
 70
     0
280
     1
281
     0
  0
BLOCK_RECORD
  5
8A
330
1
100
AcDbSymbolTableRecord
100
AcDbBlockTableRecord
  2
block 2
340
0
102
{BLKREFS
331
8B
102
}
 70
     0
280
     1
281
     0
  0
BLOCK_RECORD
  5
98
330
1
100
AcDbSymbolTableRecord
100
AcDbBlockTableRecord
  2
block 3
340
0
102
{BLKREFS
331
99
102
}
 70
     0
280
     1
281
     0
  0
BLOCK_RECORD
  5
AA
330
1
100
AcDbSymbolTableRecord
100
AcDbBlockTableRecord
  2
block 4
340
0
102
{BLKREFS
331
AB
102
}
 70
     0
280
     1
281
     0
  0
BLOCK_RECORD
  5
BE
330
1
100
AcDbSymbolTableRecord
100
AcDbBlockTableRecord
  2
block 5
340
0
102
{BLKREFS
331
BF
102
}
 70
     0
280
     1
281
     0
  0
BLOCK_RECORD
  5
CF
330
1
100
AcDbSymbolTableRecord
100
AcDbBlockTableRecord
  2
block 6
340
0
102
{BLKREFS
331
D0
102
}
 70
     0
280
     1
281
     0
  0
BLOCK_RECORD
  5
DF
330
1
100
AcDbSymbolTableRecord
100
AcDbBlockTableRecord
  2
block 7
340
0
102
{BLKREFS
331
E0
102
}
 70
     0
280
     1
281
     0
  0
ENDTAB
  0
ENDSEC
  0
SECTION
  2
BLOCKS
  0
BLOCK
  5
20
330
1F
100
AcDbEntity
  8
0
100
AcDbBlockBegin
  2
*Model_Space
 70
     0
 10
0.0
 20
0.0
 30
0.0
  3
*Model_Space
  1

  0
ENDBLK
  5
21
330
1F
100
AcDbEntity
  8
0
100
AcDbBlockEnd
  0
BLOCK
  5
1C
330
1B
100
AcDbEntity
 67
     1
  8
0
100
AcDbBlockBegin
  2
*Paper_Space
 70
     0
 10
0.0
 20
0.0
 30
0.0
  3
*Paper_Space
  1

  0
ENDBLK
  5
1D
330
1B
100
AcDbEntity
 67
     1
  8
0
100
AcDbBlockEnd
  0
BLOCK
  5
24
330
23
100
AcDbEntity
  8
0
100
AcDbBlockBegin
  2
*Paper_Space0
 70
     0
 10
0.0
 20
0.0
 30
0.0
  3
*Paper_Space0
  1

  0
ENDBLK
  5
25
330
23
100
AcDbEntity
  8
0
100
AcDbBlockEnd
  0
BLOCK
  5
8C
330
8A
100
AcDbEntity
  8
0
100
AcDbBlockBegin
  2
block 2
 70
     0
 10
0.0
 20
0.0
 30
0.0
  3
block 2
  1

  0
SPLINE
  5
8E
330
8A
100
AcDbEntity
  8
_U+30EC_U+30A4_U+30E4_U+30FC 1
370
     0
100
AcDbSpline
210
0.0
220
0.0
230
1.0
 70
    11
 71
     3
 72
    26
 73
    22
 74
     0
 42
0.0000000001
 43
0.0000000001
 12
1.0
 22
0.0
 32
0.0
 13
1.0
 23
0.0
 33
0.0
 40
0.0
 40
0.0
 40
0.0
 40
0.0
 40
1.0
 40
1.0
 40
1.0
 40
2.0
 40
2.0
 40
2.0
 40
3.0
 40
3.0
 40
3.0
 40
4.0
 40
4.0
 40
4.0
 40
5.0
 40
5.0
 40
5.0
 40
6.0
 40
6.0
 40
6.0
 40
7.0
 40
7.0
 40
7.0
 40
7.0
 10
109.6925292694519
 20
-120.7785020314373
 30
0.0
 10
109.6925292694519
 20
-120.7785020314373
 30
0.0
 10
108.5883761664293
 20
-120.7785020314373
 30
0.0
 10
108.5883761664293
 20
-120.7785020314373
 30
0.0
 10
108.5883761664293
 20
-120.7785020314373
 30
0.0
 10
108.5883761664293
 20
-121.1085421789243
 30
0.0
 10
108.5883761664293
 20
-121.1085421789243
 30
0.0
 10
108.5883761664293
 20
-121.1085421789243
 30
0.0
 10
108.4402370605636
 20
-121.1085421789243
 30
0.0
 10
108.4402370605636
 20
-121.1085421789243
 30
0.0
 10
108.425423149977
 20
-120.7764349741462
 30
0.0
 10
108.2624701335247
 20
-120.7299261850953
 30
0.0
 10
108.1480929634144
 20
-120.7002983639222
 30
0.0
 10
108.1480929634144
 20
-120.7002983639222
 30
0.0
 10
108.1480929634144
 20
-120.5542263153476
 30
0.0
 10
108.1480929634144
 20
-120.5542263153476
 30
0.0
 10
108.1480929634144
 20
-120.5542263153476
 30
0.0
 10
109.6925292694519
 20
-120.5542263153476
 30
0.0
 10
109.6925292694519
 20
-120.5542263153476
 30
0.0
 10
109.6925292694519
 20
-120.5542263153476
 30
0.0
 10
109.6925292694519
 20
-120.7785020314373
 30
0.0
 10
109.6925292694519
 20
-120.7785020314373
 30
0.0
  0
HATCH
  5
8F
330
8A
100
AcDbEntity
  8
_U+30EC_U+30A4_U+30E4_U+30FC 1
 62
   179
420
  2234388
100
AcDbHatch
 10
0.0
 20
0.0
 30
0.0
210
0.0
220
0.0
230
1.0
  2
SOLID
 70
     1
 71
     0
 91
        1
 92
        1
 93
        1
 72
     4
 94
        3
 73
     0
 74
     1
 95
       26
 96
       22
 40
0.0
 40
0.0
 40
0.0
 40
0.0
 40
1.0
 40
1.0
 40
1.0
 40
2.0
 40
2.0
 40
2.0
 40
3.0
 40
3.0
 40
3.0
 40
4.0
 40
4.0
 40
4.0
 40
5.0
 40
5.0
 40
5.0
 40
6.0
 40
6.0
 40
6.0
 40
7.0
 40
7.0
 40
7.0
 40
7.0
 10
109.6925292694519
 20
-120.7785020314373
 10
109.6925292694519
 20
-120.7785020314373
 10
108.5883761664293
 20
-120.7785020314373
 10
108.5883761664293
 20
-120.7785020314373
 10
108.5883761664293
 20
-120.7785020314373
 10
108.5883761664293
 20
-121.1085421789243
 10
108.5883761664293
 20
-121.1085421789243
 10
108.5883761664293
 20
-121.1085421789243
 10
108.4402370605636
 20
-121.1085421789243
 10
108.4402370605636
 20
-121.1085421789243
 10
108.425423149977
 20
-120.7764349741462
 10
108.2624701335247
 20
-120.7299261850953
 10
108.1480929634144
 20
-120.7002983639222
 10
108.1480929634144
 20
-120.7002983639222
 10
108.1480929634144
 20
-120.5542263153476
 10
108.1480929634144
 20
-120.5542263153476
 10
108.1480929634144
 20
-120.5542263153476
 10
109.6925292694519
 20
-120.5542263153476
 10
109.6925292694519
 20
-120.5542263153476
 10
109.6925292694519
 20
-120.5542263153476
 10
109.6925292694519
 20
-120.7785020314373
 10
109.6925292694519
 20
-120.7785020314373
 97
        0
 97
        0
 75
     2
 76
     1
 98
        0
  0
ENDBLK
  5
8D
330
8A
100
AcDbEntity
  8
0
100
AcDbBlockEnd
  0
BLOCK
  5
9A
330
98
100
AcDbEntity
  8
0
100
AcDbBlockBegin
  2
block 3
 70
     0
 10
0.0
 20
0.0
 30
0.0
  3
block 3
  1

  0
SPLINE
  5
9C
330
98
100
AcDbEntity
  8
_U+30EC_U+30A4_U+30E4_U+30FC 1
370
     0
100
AcDbSpline
210
0.0
220
0.0
230
1.0
 70
    11
 71
     3
 72
    62
 73
    58
 74
     0
 42
0.0000000001
 43
0.0000000001
 12
1.0
 22
0.0
 32
0.0
 13
1.0
 23
0.0
 33
0.0
 40
0.0
 40
0.0
 40
0.0
 40
0.0
 40
1.0
 40
1.0
 40
1.0
 40
2.0
 40
2.0
 40
2.0
 40
3.0
 40
3.0
 40
3.0
 40
4.0
 40
4.0
 40
4.0
 40
5.0
 40
5.0
 40
5.0
 40
6.0
 40
6.0
 40
6.0
 40
7.0
 40
7.0
 40
7.0
 40
8.0
 40
8.0
 40
8.0
 40
9.0
 40
9.0
 40
9.0
 40
10.0
 40
10.0
 40
10.0
 40
11.0
 40
11.0
 40
11.0
 40
12.0
 40
12.0
 40
12.0
 40
13.0
 40
13.0
 40
13.0
 40
14.0
 40
14.0
 40
14.0
 40
15.0
 40
15.0
 40
15.0
 40
16.0
 40
16.0
 40
16.0
 40
17.0
 40
17.0
 40
17.0
 40
18.0
 40
18.0
 40
18.0
 40
19.0
 40
19.0
 40
19.0
 40
19.0
 10
109.743172173085
 20
-134.7397514854123
 30
0.0
 10
109.743172173085
 20
-134.8351806303537
 30
0.0
 10
109.722157090625
 20
-135.0529106650215
 30
0.0
 10
109.5361219344215
 20
-135.1779676311361
 30
0.0
 10
109.4238118216024
 20
-135.2516926745204
 30
0.0
 10
109.3245930716272
 20
-135.2561712986513
 30
0.0
 10
109.23984372269
 20
-135.2603054132335
 30
0.0
 10
109.23984372269
 20
-135.2603054132335
 30
0.0
 10
109.23984372269
 20
-135.0401638117261
 30
0.0
 10
109.23984372269
 20
-135.0401638117261
 30
0.0
 10
109.3139132756229
 20
-135.0380967544349
 30
0.0
 10
109.5485242781684
 20
-135.0277614679792
 30
0.0
 10
109.5485242781684
 20
-134.7442301095431
 30
0.0
 10
109.5485242781684
 20
-134.6067707996816
 30
0.0
 10
109.4789333493664
 20
-134.4541530696851
 30
0.0
 10
109.2505235186943
 20
-134.4541530696851
 30
0.0
 10
109.1340792912929
 20
-134.4541530696851
 30
0.0
 10
109.0855034449508
 20
-134.4923936295714
 30
0.0
 10
109.0538085664866
 20
-134.5240885080356
 30
0.0
 10
108.9797390135537
 20
-134.5981580609685
 30
0.0
 10
108.9669921602583
 20
-134.71460228837
 30
0.0
 10
108.9669921602583
 20
-134.7693793065854
 30
0.0
 10
108.9669921602583
 20
-134.7886718413028
 30
0.0
 10
108.9690592175494
 20
-134.8245008343494
 30
0.0
 10
108.9731933321317
 20
-134.8520615982314
 30
0.0
 10
108.9731933321317
 20
-134.8520615982314
 30
0.0
 10
108.7785454372151
 20
-134.8520615982314
 30
0.0
 10
108.7785454372151
 20
-134.8520615982314
 30
0.0
 10
108.7850911186371
 20
-134.8138210383452
 30
0.0
 10
108.7871581759282
 20
-134.7717908734251
 30
0.0
 10
108.7871581759282
 20
-134.7652451920031
 30
0.0
 10
108.7871581759282
 20
-134.6997883777834
 30
0.0
 10
108.7657985839197
 20
-134.5010063682845
 30
0.0
 10
108.529120524083
 20
-134.5010063682845
 30
0.0
 10
108.3513535970441
 20
-134.5010063682845
 30
0.0
 10
108.2962320692801
 20
-134.631919996724
 30
0.0
 10
108.2962320692801
 20
-134.742163052252
 30
0.0
 10
108.2962320692801
 20
-135.0064018759706
 30
0.0
 10
108.529120524083
 20
-135.0150146146838
 30
0.0
 10
108.6007785101762
 20
-135.019148729266
 30
0.0
 10
108.6007785101762
 20
-135.019148729266
 30
0.0
 10
108.6007785101762
 20
-135.2224093628958
 30
0.0
 10
108.6007785101762
 20
-135.2224093628958
 30
0.0
 10
108.4760660536102
 20
-135.2137966241827
 30
0.0
 10
108.0995171170724
 20
-135.1862358603007
 30
0.0
 10
108.0995171170724
 20
-134.7294161989565
 30
0.0
 10
108.0995171170724
 20
-134.5051404828668
 30
0.0
 10
108.2266411404781
 20
-134.2639837988993
 30
0.0
 10
108.522574842661
 20
-134.2639837988993
 30
0.0
 10
108.708954508413
 20
-134.2639837988993
 30
0.0
 10
108.7912922905105
 20
-134.3590684342922
 30
0.0
 10
108.852614990148
 20
-134.4586316938159
 30
0.0
 10
108.88017575403
 20
-134.3973089941784
 30
0.0
 10
108.9604464788363
 20
-134.2154079525573
 30
0.0
 10
109.2377766653989
 20
-134.2154079525573
 30
0.0
 10
109.5760850420504
 20
-134.2154079525573
 30
0.0
 10
109.743172173085
 20
-134.4627658083982
 30
0.0
 10
109.743172173085
 20
-134.7397514854123
 30
0.0
  0
HATCH
  5
9D
330
98
100
AcDbEntity
  8
_U+30EC_U+30A4_U+30E4_U+30FC 1
 62
   179
420
  2234388
100
AcDbHatch
 10
0.0
 20
0.0
 30
0.0
210
0.0
220
0.0
230
1.0
  2
SOLID
 70
     1
 71
     0
 91
        1
 92
        1
 93
        1
 72
     4
 94
        3
 73
     0
 74
     1
 95
       62
 96
       58
 40
0.0
 40
0.0
 40
0.0
 40
0.0
 40
1.0
 40
1.0
 40
1.0
 40
2.0
 40
2.0
 40
2.0
 40
3.0
 40
3.0
 40
3.0
 40
4.0
 40
4.0
 40
4.0
 40
5.0
 40
5.0
 40
5.0
 40
6.0
 40
6.0
 40
6.0
 40
7.0
 40
7.0
 40
7.0
 40
8.0
 40
8.0
 40
8.0
 40
9.0
 40
9.0
 40
9.0
 40
10.0
 40
10.0
 40
10.0
 40
11.0
 40
11.0
 40
11.0
 40
12.0
 40
12.0
 40
12.0
 40
13.0
 40
13.0
 40
13.0
 40
14.0
 40
14.0
 40
14.0
 40
15.0
 40
15.0
 40
15.0
 40
16.0
 40
16.0
 40
16.0
 40
17.0
 40
17.0
 40
17.0
 40
18.0
 40
18.0
 40
18.0
 40
19.0
 40
19.0
 40
19.0
 40
19.0
 10
109.743172173085
 20
-134.7397514854123
 10
109.743172173085
 20
-134.8351806303537
 10
109.722157090625
 20
-135.0529106650215
 10
109.5361219344215
 20
-135.1779676311361
 10
109.4238118216024
 20
-135.2516926745204
 10
109.3245930716272
 20
-135.2561712986513
 10
109.23984372269
 20
-135.2603054132335
 10
109.23984372269
 20
-135.2603054132335
 10
109.23984372269
 20
-135.0401638117261
 10
109.23984372269
 20
-135.0401638117261
 10
109.3139132756229
 20
-135.0380967544349
 10
109.5485242781684
 20
-135.0277614679792
 10
109.5485242781684
 20
-134.7442301095431
 10
109.5485242781684
 20
-134.6067707996816
 10
109.4789333493664
 20
-134.4541530696851
 10
109.2505235186943
 20
-134.4541530696851
 10
109.1340792912929
 20
-134.4541530696851
 10
109.0855034449508
 20
-134.4923936295714
 10
109.0538085664866
 20
-134.5240885080356
 10
108.9797390135537
 20
-134.5981580609685
 10
108.9669921602583
 20
-134.71460228837
 10
108.9669921602583
 20
-134.7693793065854
 10
108.9669921602583
 20
-134.7886718413028
 10
108.9690592175494
 20
-134.8245008343494
 10
108.9731933321317
 20
-134.8520615982314
 10
108.9731933321317
 20
-134.8520615982314
 10
108.7785454372151
 20
-134.8520615982314
 10
108.7785454372151
 20
-134.8520615982314
 10
108.7850911186371
 20
-134.8138210383452
 10
108.7871581759282
 20
-134.7717908734251
 10
108.7871581759282
 20
-134.7652451920031
 10
108.7871581759282
 20
-134.6997883777834
 10
108.7657985839197
 20
-134.5010063682845
 10
108.529120524083
 20
-134.5010063682845
 10
108.3513535970441
 20
-134.5010063682845
 10
108.2962320692801
 20
-134.631919996724
 10
108.2962320692801
 20
-134.742163052252
 10
108.2962320692801
 20
-135.0064018759706
 10
108.529120524083
 20
-135.0150146146838
 10
108.6007785101762
 20
-135.019148729266
 10
108.6007785101762
 20
-135.019148729266
 10
108.6007785101762
 20
-135.2224093628958
 10
108.6007785101762
 20
-135.2224093628958
 10
108.4760660536102
 20
-135.2137966241827
 10
108.0995171170724
 20
-135.1862358603007
 10
108.0995171170724
 20
-134.7294161989565
 10
108.0995171170724
 20
-134.5051404828668
 10
108.2266411404781
 20
-134.2639837988993
 10
108.522574842661
 20
-134.2639837988993
 10
108.708954508413
 20
-134.2639837988993
 10
108.7912922905105
 20
-134.3590684342922
 10
108.852614990148
 20
-134.4586316938159
 10
108.88017575403
 20
-134.3973089941784
 10
108.9604464788363
 20
-134.2154079525573
 10
109.2377766653989
 20
-134.2154079525573
 10
109.5760850420504
 20
-134.2154079525573
 10
109.743172173085
 20
-134.4627658083982
 10
109.743172173085
 20
-134.7397514854123
 97
        0
 97
        0
 75
     2
 76
     1
 98
        0
  0
ENDBLK
  5
9B
330
98
100
AcDbEntity
  8
0
100
AcDbBlockEnd
  0
BLOCK
  5
AC
330
AA
100
AcDbEntity
  8
0
100
AcDbBlockBegin
  2
block 4
 70
     0
 10
0.0
 20
0.0
 30
0.0
  3
block 4
  1

  0
SPLINE
  5
AE
330
AA
100
AcDbEntity
  8
_U+30EC_U+30A4_U+30E4_U+30FC 1
370
     0
100
AcDbSpline
210
0.0
220
0.0
230
1.0
 70
    11
 71
     3
 72
    62
 73
    58
 74
     0
 42
0.0000000001
 43
0.0000000001
 12
1.0
 22
0.0
 32
0.0
 13
1.0
 23
0.0
 33
0.0
 40
0.0
 40
0.0
 40
0.0
 40
0.0
 40
1.0
 40
1.0
 40
1.0
 40
2.0
 40
2.0
 40
2.0
 40
3.0
 40
3.0
 40
3.0
 40
4.0
 40
4.0
 40
4.0
 40
5.0
 40
5.0
 40
5.0
 40
6.0
 40
6.0
 40
6.0
 40
7.0
 40
7.0
 40
7.0
 40
8.0
 40
8.0
 40
8.0
 40
9.0
 40
9.0
 40
9.0
 40
10.0
 40
10.0
 40
10.0
 40
11.0
 40
11.0
 40
11.0
 40
12.0
 40
12.0
 40
12.0
 40
13.0
 40
13.0
 40
13.0
 40
14.0
 40
14.0
 40
14.0
 40
15.0
 40
15.0
 40
15.0
 40
16.0
 40
16.0
 40
16.0
 40
17.0
 40
17.0
 40
17.0
 40
18.0
 40
18.0
 40
18.0
 40
19.0
 40
19.0
 40
19.0
 40
19.0
 10
87.24170326595
 20
-119.1358805040702
 30
0.0
 10
87.14627412100857
 20
-119.1358805040702
 30
0.0
 10
86.92854408634078
 20
-119.1146931668359
 30
0.0
 10
86.80348712022622
 20
-118.9284857558582
 30
0.0
 10
86.72976207684187
 20
-118.8163478978133
 30
0.0
 10
86.72528345271104
 20
-118.7169568930638
 30
0.0
 10
86.72114933812874
 20
-118.6323797989009
 30
0.0
 10
86.72114933812874
 20
-118.6323797989009
 30
0.0
 10
86.9412909396362
 20
-118.6323797989009
 30
0.0
 10
86.9412909396362
 20
-118.6323797989009
 30
0.0
 10
86.94335799692736
 20
-118.7064493518338
 30
0.0
 10
86.9536932833831
 20
-118.9412326091536
 30
0.0
 10
87.23722464181917
 20
-118.9412326091536
 30
0.0
 10
87.37468395168064
 20
-118.9412326091536
 30
0.0
 10
87.5273016816772
 20
-118.8714694255773
 30
0.0
 10
87.5273016816772
 20
-118.642887340131
 30
0.0
 10
87.5273016816772
 20
-118.5266153675038
 30
0.0
 10
87.48906112179094
 20
-118.4778672663875
 30
0.0
 10
87.45736624332663
 20
-118.4461723879232
 30
0.0
 10
87.38329669039376
 20
-118.3721028349903
 30
0.0
 10
87.26685246299232
 20
-118.3595282364691
 30
0.0
 10
87.21207544477684
 20
-118.3595282364691
 30
0.0
 10
87.19278291005945
 20
-118.3595282364691
 30
0.0
 10
87.15695391701284
 20
-118.3615952937603
 30
0.0
 10
87.12939315313085
 20
-118.3657294083426
 30
0.0
 10
87.12939315313085
 20
-118.3657294083426
 30
0.0
 10
87.12939315313085
 20
-118.171081513426
 30
0.0
 10
87.12939315313085
 20
-118.171081513426
 30
0.0
 10
87.16763371301712
 20
-118.1774549400737
 30
0.0
 10
87.20966387793717
 20
-118.1796942521391
 30
0.0
 10
87.21620955935914
 20
-118.1796942521391
 30
0.0
 10
87.28166637357889
 20
-118.1796942521391
 30
0.0
 10
87.48044838307781
 20
-118.1585069149048
 30
0.0
 10
87.48044838307781
 20
-117.9214843455196
 30
0.0
 10
87.48044838307781
 20
-117.743889673255
 30
0.0
 10
87.34953475463831
 20
-117.688768145491
 30
0.0
 10
87.23929169911032
 20
-117.688768145491
 30
0.0
 10
86.97505287539165
 20
-117.688768145491
 30
0.0
 10
86.96644013667853
 20
-117.9214843455196
 30
0.0
 10
86.96230602209623
 20
-117.9934868411614
 30
0.0
 10
86.96230602209623
 20
-117.9934868411614
 30
0.0
 10
86.75904538846649
 20
-117.9934868411614
 30
0.0
 10
86.75904538846649
 20
-117.9934868411614
 30
0.0
 10
86.76765812717962
 20
-117.8686021298211
 30
0.0
 10
86.79521889106162
 20
-117.4920531932832
 30
0.0
 10
87.25203855240575
 20
-117.4920531932832
 30
0.0
 10
87.47631426849551
 20
-117.4920531932832
 30
0.0
 10
87.717470952463
 20
-117.6190049619147
 30
0.0
 10
87.717470952463
 20
-117.9151109188719
 30
0.0
 10
87.717470952463
 20
-118.1013183298497
 30
0.0
 10
87.6223863170701
 20
-118.1838283667214
 30
0.0
 10
87.52282305754638
 20
-118.2451510663589
 30
0.0
 10
87.58414575718383
 20
-118.2727118302409
 30
0.0
 10
87.76604679880502
 20
-118.3531548098214
 30
0.0
 10
87.76604679880502
 20
-118.6303127416098
 30
0.0
 10
87.76604679880502
 20
-118.9687933730356
 30
0.0
 10
87.51868894296408
 20
-119.1358805040702
 30
0.0
 10
87.24170326595
 20
-119.1358805040702
 30
0.0
  0
HATCH
  5
AF
330
AA
100
AcDbEntity
  8
_U+30EC_U+30A4_U+30E4_U+30FC 1
 62
   179
420
  2234388
100
AcDbHatch
 10
0.0
 20
0.0
 30
0.0
210
0.0
220
0.0
230
1.0
  2
SOLID
 70
     1
 71
     0
 91
        1
 92
        1
 93
        1
 72
     4
 94
        3
 73
     0
 74
     1
 95
       62
 96
       58
 40
0.0
 40
0.0
 40
0.0
 40
0.0
 40
1.0
 40
1.0
 40
1.0
 40
2.0
 40
2.0
 40
2.0
 40
3.0
 40
3.0
 40
3.0
 40
4.0
 40
4.0
 40
4.0
 40
5.0
 40
5.0
 40
5.0
 40
6.0
 40
6.0
 40
6.0
 40
7.0
 40
7.0
 40
7.0
 40
8.0
 40
8.0
 40
8.0
 40
9.0
 40
9.0
 40
9.0
 40
10.0
 40
10.0
 40
10.0
 40
11.0
 40
11.0
 40
11.0
 40
12.0
 40
12.0
 40
12.0
 40
13.0
 40
13.0
 40
13.0
 40
14.0
 40
14.0
 40
14.0
 40
15.0
 40
15.0
 40
15.0
 40
16.0
 40
16.0
 40
16.0
 40
17.0
 40
17.0
 40
17.0
 40
18.0
 40
18.0
 40
18.0
 40
19.0
 40
19.0
 40
19.0
 40
19.0
 10
87.24170326595
 20
-119.1358805040702
 10
87.14627412100857
 20
-119.1358805040702
 10
86.92854408634078
 20
-119.1146931668359
 10
86.80348712022622
 20
-118.9284857558582
 10
86.72976207684187
 20
-118.8163478978133
 10
86.72528345271104
 20
-118.7169568930638
 10
86.72114933812874
 20
-118.6323797989009
 10
86.72114933812874
 20
-118.6323797989009
 10
86.9412909396362
 20
-118.6323797989009
 10
86.9412909396362
 20
-118.6323797989009
 10
86.94335799692736
 20
-118.7064493518338
 10
86.9536932833831
 20
-118.9412326091536
 10
87.23722464181917
 20
-118.9412326091536
 10
87.37468395168064
 20
-118.9412326091536
 10
87.5273016816772
 20
-118.8714694255773
 10
87.5273016816772
 20
-118.642887340131
 10
87.5273016816772
 20
-118.5266153675038
 10
87.48906112179094
 20
-118.4778672663875
 10
87.45736624332663
 20
-118.4461723879232
 10
87.38329669039376
 20
-118.3721028349903
 10
87.26685246299232
 20
-118.3595282364691
 10
87.21207544477684
 20
-118.3595282364691
 10
87.19278291005945
 20
-118.3595282364691
 10
87.15695391701284
 20
-118.3615952937603
 10
87.12939315313085
 20
-118.3657294083426
 10
87.12939315313085
 20
-118.3657294083426
 10
87.12939315313085
 20
-118.171081513426
 10
87.12939315313085
 20
-118.171081513426
 10
87.16763371301712
 20
-118.1774549400737
 10
87.20966387793717
 20
-118.1796942521391
 10
87.21620955935914
 20
-118.1796942521391
 10
87.28166637357889
 20
-118.1796942521391
 10
87.48044838307781
 20
-118.1585069149048
 10
87.48044838307781
 20
-117.9214843455196
 10
87.48044838307781
 20
-117.743889673255
 10
87.34953475463831
 20
-117.688768145491
 10
87.23929169911032
 20
-117.688768145491
 10
86.97505287539165
 20
-117.688768145491
 10
86.96644013667853
 20
-117.9214843455196
 10
86.96230602209623
 20
-117.9934868411614
 10
86.96230602209623
 20
-117.9934868411614
 10
86.75904538846649
 20
-117.9934868411614
 10
86.75904538846649
 20
-117.9934868411614
 10
86.76765812717962
 20
-117.8686021298211
 10
86.79521889106162
 20
-117.4920531932832
 10
87.25203855240575
 20
-117.4920531932832
 10
87.47631426849551
 20
-117.4920531932832
 10
87.717470952463
 20
-117.6190049619147
 10
87.717470952463
 20
-117.9151109188719
 10
87.717470952463
 20
-118.1013183298497
 10
87.6223863170701
 20
-118.1838283667214
 10
87.52282305754638
 20
-118.2451510663589
 10
87.58414575718383
 20
-118.2727118302409
 10
87.76604679880502
 20
-118.3531548098214
 10
87.76604679880502
 20
-118.6303127416098
 10
87.76604679880502
 20
-118.9687933730356
 10
87.51868894296408
 20
-119.1358805040702
 10
87.24170326595
 20
-119.1358805040702
 97
        0
 97
        0
 75
     2
 76
     1
 98
        0
  0
SPLINE
  5
B0
330
AA
100
AcDbEntity
  8
_U+30EC_U+30A4_U+30E4_U+30FC 1
370
     0
100
AcDbSpline
210
0.0
220
0.0
230
1.0
 70
    11
 71
     3
 72
    26
 73
    22
 74
     0
 42
0.0000000001
 43
0.0000000001
 12
1.0
 22
0.0
 32
0.0
 13
1.0
 23
0.0
 33
0.0
 40
0.0
 40
0.0
 40
0.0
 40
0.0
 40
1.0
 40
1.0
 40
1.0
 40
2.0
 40
2.0
 40
2.0
 40
3.0
 40
3.0
 40
3.0
 40
4.0
 40
4.0
 40
4.0
 40
5.0
 40
5.0
 40
5.0
 40
6.0
 40
6.0
 40
6.0
 40
7.0
 40
7.0
 40
7.0
 40
7.0
 10
88.33793264935649
 20
-119.0850653456628
 30
0.0
 10
88.33793264935649
 20
-119.0850653456628
 30
0.0
 10
88.1009100799713
 20
-119.0850653456628
 30
0.0
 10
88.1009100799713
 20
-119.0850653456628
 30
0.0
 10
88.12640378656215
 20
-118.7762125354101
 30
0.0
 10
88.31898462418762
 20
-118.2578979196543
 30
0.0
 10
88.72516138189857
 20
-117.7523301571939
 30
0.0
 10
88.72516138189857
 20
-117.7523301571939
 30
0.0
 10
87.88731415988582
 20
-117.7523301571939
 30
0.0
 10
87.88731415988582
 20
-117.7523301571939
 30
0.0
 10
87.88731415988582
 20
-117.7523301571939
 30
0.0
 10
87.88731415988582
 20
-117.5408012943995
 30
0.0
 10
87.88731415988582
 20
-117.5408012943995
 30
0.0
 10
87.88731415988582
 20
-117.5408012943995
 30
0.0
 10
88.96218395128376
 20
-117.5408012943995
 30
0.0
 10
88.96218395128376
 20
-117.5408012943995
 30
0.0
 10
88.96218395128376
 20
-117.5408012943995
 30
0.0
 10
88.96218395128376
 20
-117.7523301571939
 30
0.0
 10
88.96218395128376
 20
-117.7523301571939
 30
0.0
 10
88.63834497567028
 20
-118.0420626875034
 30
0.0
 10
88.37169458511194
 20
-118.6344468561921
 30
0.0
 10
88.33793264935649
 20
-119.0850653456628
 30
0.0
  0
HATCH
  5
B1
330
AA
100
AcDbEntity
  8
_U+30EC_U+30A4_U+30E4_U+30FC 1
 62
   179
420
  2234388
100
AcDbHatch
 10
0.0
 20
0.0
 30
0.0
210
0.0
220
0.0
230
1.0
  2
SOLID
 70
     1
 71
     0
 91
        1
 92
        1
 93
        1
 72
     4
 94
        3
 73
     0
 74
     1
 95
       26
 96
       22
 40
0.0
 40
0.0
 40
0.0
 40
0.0
 40
1.0
 40
1.0
 40
1.0
 40
2.0
 40
2.0
 40
2.0
 40
3.0
 40
3.0
 40
3.0
 40
4.0
 40
4.0
 40
4.0
 40
5.0
 40
5.0
 40
5.0
 40
6.0
 40
6.0
 40
6.0
 40
7.0
 40
7.0
 40
7.0
 40
7.0
 10
88.33793264935649
 20
-119.0850653456628
 10
88.33793264935649
 20
-119.0850653456628
 10
88.1009100799713
 20
-119.0850653456628
 10
88.1009100799713
 20
-119.0850653456628
 10
88.12640378656215
 20
-118.7762125354101
 10
88.31898462418762
 20
-118.2578979196543
 10
88.72516138189857
 20
-117.7523301571939
 10
88.72516138189857
 20
-117.7523301571939
 10
87.88731415988582
 20
-117.7523301571939
 10
87.88731415988582
 20
-117.7523301571939
 10
87.88731415988582
 20
-117.7523301571939
 10
87.88731415988582
 20
-117.5408012943995
 10
87.88731415988582
 20
-117.5408012943995
 10
87.88731415988582
 20
-117.5408012943995
 10
88.96218395128376
 20
-117.5408012943995
 10
88.96218395128376
 20
-117.5408012943995
 10
88.96218395128376
 20
-117.5408012943995
 10
88.96218395128376
 20
-117.7523301571939
 10
88.96218395128376
 20
-117.7523301571939
 10
88.63834497567028
 20
-118.0420626875034
 10
88.37169458511194
 20
-118.6344468561921
 10
88.33793264935649
 20
-119.0850653456628
 97
        0
 97
        0
 75
     2
 76
     1
 98
        0
  0
ENDBLK
  5
AD
330
AA
100
AcDbEntity
  8
0
100
AcDbBlockEnd
  0
BLOCK
  5
C0
330
BE
100
AcDbEntity
  8
0
100
AcDbBlockBegin
  2
block 5
 70
     0
 10
0.0
 20
0.0
 30
0.0
  3
block 5
  1

  0
SPLINE
  5
C2
330
BE
100
AcDbEntity
  8
_U+30EC_U+30A4_U+30E4_U+30FC 1
370
     0
100
AcDbSpline
210
0.0
220
0.0
230
1.0
 70
    11
 71
     3
 72
    26
 73
    22
 74
     0
 42
0.0000000001
 43
0.0000000001
 12
1.0
 22
0.0
 32
0.0
 13
1.0
 23
0.0
 33
0.0
 40
0.0
 40
0.0
 40
0.0
 40
0.0
 40
1.0
 40
1.0
 40
1.0
 40
2.0
 40
2.0
 40
2.0
 40
3.0
 40
3.0
 40
3.0
 40
4.0
 40
4.0
 40
4.0
 40
5.0
 40
5.0
 40
5.0
 40
6.0
 40
6.0
 40
6.0
 40
7.0
 40
7.0
 40
7.0
 40
7.0
 10
85.7014010744948
 20
-139.5849337758677
 30
0.0
 10
85.7014010744948
 20
-139.5849337758677
 30
0.0
 10
85.7014010744948
 20
-138.4807806728451
 30
0.0
 10
85.7014010744948
 20
-138.4807806728451
 30
0.0
 10
85.7014010744948
 20
-138.4807806728451
 30
0.0
 10
85.37136092700786
 20
-138.4807806728451
 30
0.0
 10
85.37136092700786
 20
-138.4807806728451
 30
0.0
 10
85.37136092700786
 20
-138.4807806728451
 30
0.0
 10
85.37136092700786
 20
-138.3326415669793
 30
0.0
 10
85.37136092700786
 20
-138.3326415669793
 30
0.0
 10
85.70346813178594
 20
-138.3178276563928
 30
0.0
 10
85.74997692083681
 20
-138.1548746399405
 30
0.0
 10
85.77960474200997
 20
-138.0408419793787
 30
0.0
 10
85.77960474200997
 20
-138.0408419793787
 30
0.0
 10
85.92567679058456
 20
-138.0408419793787
 30
0.0
 10
85.92567679058456
 20
-138.0408419793787
 30
0.0
 10
85.92567679058456
 20
-138.0408419793787
 30
0.0
 10
85.92567679058456
 20
-139.5849337758677
 30
0.0
 10
85.92567679058456
 20
-139.5849337758677
 30
0.0
 10
85.92567679058456
 20
-139.5849337758677
 30
0.0
 10
85.7014010744948
 20
-139.5849337758677
 30
0.0
 10
85.7014010744948
 20
-139.5849337758677
 30
0.0
  0
HATCH
  5
C3
330
BE
100
AcDbEntity
  8
_U+30EC_U+30A4_U+30E4_U+30FC 1
 62
   179
420
  2234388
100
AcDbHatch
 10
0.0
 20
0.0
 30
0.0
210
0.0
220
0.0
230
1.0
  2
SOLID
 70
     1
 71
     0
 91
        1
 92
        1
 93
        1
 72
     4
 94
        3
 73
     0
 74
     1
 95
       26
 96
       22
 40
0.0
 40
0.0
 40
0.0
 40
0.0
 40
1.0
 40
1.0
 40
1.0
 40
2.0
 40
2.0
 40
2.0
 40
3.0
 40
3.0
 40
3.0
 40
4.0
 40
4.0
 40
4.0
 40
5.0
 40
5.0
 40
5.0
 40
6.0
 40
6.0
 40
6.0
 40
7.0
 40
7.0
 40
7.0
 40
7.0
 10
85.7014010744948
 20
-139.5849337758677
 10
85.7014010744948
 20
-139.5849337758677
 10
85.7014010744948
 20
-138.4807806728451
 10
85.7014010744948
 20
-138.4807806728451
 10
85.7014010744948
 20
-138.4807806728451
 10
85.37136092700786
 20
-138.4807806728451
 10
85.37136092700786
 20
-138.4807806728451
 10
85.37136092700786
 20
-138.4807806728451
 10
85.37136092700786
 20
-138.3326415669793
 10
85.37136092700786
 20
-138.3326415669793
 10
85.70346813178594
 20
-138.3178276563928
 10
85.74997692083681
 20
-138.1548746399405
 10
85.77960474200997
 20
-138.0408419793787
 10
85.77960474200997
 20
-138.0408419793787
 10
85.92567679058456
 20
-138.0408419793787
 10
85.92567679058456
 20
-138.0408419793787
 10
85.92567679058456
 20
-138.0408419793787
 10
85.92567679058456
 20
-139.5849337758677
 10
85.92567679058456
 20
-139.5849337758677
 10
85.92567679058456
 20
-139.5849337758677
 10
85.7014010744948
 20
-139.5849337758677
 10
85.7014010744948
 20
-139.5849337758677
 97
        0
 97
        0
 75
     2
 76
     1
 98
        0
  0
SPLINE
  5
C4
330
BE
100
AcDbEntity
  8
_U+30EC_U+30A4_U+30E4_U+30FC 1
370
     0
100
AcDbSpline
210
0.0
220
0.0
230
1.0
 70
    11
 71
     3
 72
    29
 73
    25
 74
     0
 42
0.0000000001
 43
0.0000000001
 12
1.0
 22
0.0
 32
0.0
 13
1.0
 23
0.0
 33
0.0
 40
0.0
 40
0.0
 40
0.0
 40
0.0
 40
1.0
 40
1.0
 40
1.0
 40
2.0
 40
2.0
 40
2.0
 40
3.0
 40
3.0
 40
3.0
 40
4.0
 40
4.0
 40
4.0
 40
5.0
 40
5.0
 40
5.0
 40
6.0
 40
6.0
 40
6.0
 40
7.0
 40
7.0
 40
7.0
 40
8.0
 40
8.0
 40
8.0
 40
8.0
 10
87.32473006714451
 20
-139.4071668488288
 30
0.0
 10
87.21655406890767
 20
-139.6166286543319
 30
0.0
 10
87.0432657659996
 20
-139.6359211890494
 30
0.0
 10
86.92682153859816
 20
-139.6359211890494
 30
0.0
 10
86.765935579437
 20
-139.6359211890494
 30
0.0
 10
86.62434215499323
 20
-139.5894123999985
 30
0.0
 10
86.52925751960034
 20
-139.4071668488288
 30
0.0
 10
86.4255601454943
 20
-139.2125189539122
 30
0.0
 10
86.40661212032543
 20
-138.9758408940755
 30
0.0
 10
86.40661212032543
 20
-138.8128878776232
 30
0.0
 10
86.40661212032543
 20
-138.6688828863397
 30
0.0
 10
86.42349308820316
 20
-138.4173909159165
 30
0.0
 10
86.52925751960034
 20
-138.218264396869
 30
0.0
 10
86.63708900828865
 20
-138.0153482727878
 30
0.0
 10
86.79797496744982
 20
-137.9919216234881
 30
0.0
 10
86.92682153859816
 20
-137.9919216234881
 30
0.0
 10
87.08564044046818
 20
-137.9919216234881
 30
0.0
 10
87.2293009222031
 20
-138.0363633552479
 30
0.0
 10
87.32473006714451
 20
-138.218264396869
 30
0.0
 10
87.42394881711971
 20
-138.4108452344945
 30
0.0
 10
87.44737546641942
 20
-138.6392550651666
 30
0.0
 10
87.44737546641942
 20
-138.8128878776232
 30
0.0
 10
87.44737546641942
 20
-138.9841091232401
 30
0.0
 10
87.42601587441087
 20
-139.2149305207518
 30
0.0
 10
87.32473006714451
 20
-139.4071668488288
 30
0.0
  0
SPLINE
  5
C5
330
BE
100
AcDbEntity
  8
_U+30EC_U+30A4_U+30E4_U+30FC 1
370
     0
100
AcDbSpline
210
0.0
220
0.0
230
1.0
 70
    11
 71
     3
 72
    17
 73
    13
 74
     0
 42
0.0000000001
 43
0.0000000001
 12
1.0
 22
0.0
 32
0.0
 13
1.0
 23
0.0
 33
0.0
 40
0.0
 40
0.0
 40
0.0
 40
0.0
 40
1.0
 40
1.0
 40
1.0
 40
2.0
 40
2.0
 40
2.0
 40
3.0
 40
3.0
 40
3.0
 40
4.0
 40
4.0
 40
4.0
 40
4.0
 10
86.92682153859816
 20
-138.1845024611136
 30
0.0
 10
86.67739662546607
 20
-138.1845024611136
 30
0.0
 10
86.63054332686667
 20
-138.4680338195497
 30
0.0
 10
86.63054332686667
 20
-138.8128878776232
 30
0.0
 10
86.63054332686667
 20
-139.1322482291058
 30
0.0
 10
86.66671682946179
 20
-139.4412732941327
 30
0.0
 10
86.92682153859816
 20
-139.4412732941327
 30
0.0
 10
87.17452390398762
 20
-139.4412732941327
 30
0.0
 10
87.22309975032965
 20
-139.1598089929878
 30
0.0
 10
87.22309975032965
 20
-138.8128878776232
 30
0.0
 10
87.22309975032965
 20
-138.4935275261405
 30
0.0
 10
87.18485919044338
 20
-138.1845024611136
 30
0.0
 10
86.92682153859816
 20
-138.1845024611136
 30
0.0
  0
HATCH
  5
C6
330
BE
100
AcDbEntity
  8
_U+30EC_U+30A4_U+30E4_U+30FC 1
 62
   179
420
  2234388
100
AcDbHatch
 10
0.0
 20
0.0
 30
0.0
210
0.0
220
0.0
230
1.0
  2
SOLID
 70
     1
 71
     0
 91
        2
 92
        1
 93
        1
 72
     4
 94
        3
 73
     0
 74
     1
 95
       29
 96
       25
 40
0.0
 40
0.0
 40
0.0
 40
0.0
 40
1.0
 40
1.0
 40
1.0
 40
2.0
 40
2.0
 40
2.0
 40
3.0
 40
3.0
 40
3.0
 40
4.0
 40
4.0
 40
4.0
 40
5.0
 40
5.0
 40
5.0
 40
6.0
 40
6.0
 40
6.0
 40
7.0
 40
7.0
 40
7.0
 40
8.0
 40
8.0
 40
8.0
 40
8.0
 10
87.32473006714451
 20
-139.4071668488288
 10
87.21655406890767
 20
-139.6166286543319
 10
87.0432657659996
 20
-139.6359211890494
 10
86.92682153859816
 20
-139.6359211890494
 10
86.765935579437
 20
-139.6359211890494
 10
86.62434215499323
 20
-139.5894123999985
 10
86.52925751960034
 20
-139.4071668488288
 10
86.4255601454943
 20
-139.2125189539122
 10
86.40661212032543
 20
-138.9758408940755
 10
86.40661212032543
 20
-138.8128878776232
 10
86.40661212032543
 20
-138.6688828863397
 10
86.42349308820316
 20
-138.4173909159165
 10
86.52925751960034
 20
-138.218264396869
 10
86.63708900828865
 20
-138.0153482727878
 10
86.79797496744982
 20
-137.9919216234881
 10
86.92682153859816
 20
-137.9919216234881
 10
87.08564044046818
 20
-137.9919216234881
 10
87.2293009222031
 20
-138.0363633552479
 10
87.32473006714451
 20
-138.218264396869
 10
87.42394881711971
 20
-138.4108452344945
 10
87.44737546641942
 20
-138.6392550651666
 10
87.44737546641942
 20
-138.8128878776232
 10
87.44737546641942
 20
-138.9841091232401
 10
87.42601587441087
 20
-139.2149305207518
 10
87.32473006714451
 20
-139.4071668488288
 97
        0
 97
        0
 92
        1
 93
        1
 72
     4
 94
        3
 73
     0
 74
     1
 95
       17
 96
       13
 40
0.0
 40
0.0
 40
0.0
 40
0.0
 40
1.0
 40
1.0
 40
1.0
 40
2.0
 40
2.0
 40
2.0
 40
3.0
 40
3.0
 40
3.0
 40
4.0
 40
4.0
 40
4.0
 40
4.0
 10
86.92682153859816
 20
-138.1845024611136
 10
86.67739662546607
 20
-138.1845024611136
 10
86.63054332686667
 20
-138.4680338195497
 10
86.63054332686667
 20
-138.8128878776232
 10
86.63054332686667
 20
-139.1322482291058
 10
86.66671682946179
 20
-139.4412732941327
 10
86.92682153859816
 20
-139.4412732941327
 10
87.17452390398762
 20
-139.4412732941327
 10
87.22309975032965
 20
-139.1598089929878
 10
87.22309975032965
 20
-138.8128878776232
 10
87.22309975032965
 20
-138.4935275261405
 10
87.18485919044338
 20
-138.1845024611136
 10
86.92682153859816
 20
-138.1845024611136
 97
        0
 97
        0
 75
     2
 76
     1
 98
        0
  0
ENDBLK
  5
C1
330
BE
100
AcDbEntity
  8
0
100
AcDbBlockEnd
  0
BLOCK
  5
D1
330
CF
100
AcDbEntity
  8
0
100
AcDbBlockBegin
  2
block 6
 70
     0
 10
0.0
 20
0.0
 30
0.0
  3
block 6
  1

  0
SPLINE
  5
D3
330
CF
100
AcDbEntity
  8
_U+30EC_U+30A4_U+30E4_U+30FC 1
370
     0
100
AcDbSpline
210
0.0
220
0.0
230
1.0
 70
    11
 71
     3
 72
    26
 73
    22
 74
     0
 42
0.0000000001
 43
0.0000000001
 12
1.0
 22
0.0
 32
0.0
 13
1.0
 23
0.0
 33
0.0
 40
0.0
 40
0.0
 40
0.0
 40
0.0
 40
1.0
 40
1.0
 40
1.0
 40
2.0
 40
2.0
 40
2.0
 40
3.0
 40
3.0
 40
3.0
 40
4.0
 40
4.0
 40
4.0
 40
5.0
 40
5.0
 40
5.0
 40
6.0
 40
6.0
 40
6.0
 40
7.0
 40
7.0
 40
7.0
 40
7.0
 10
74.70138344486632
 20
-139.5849337758677
 30
0.0
 10
74.70138344486632
 20
-139.5849337758677
 30
0.0
 10
74.70138344486632
 20
-138.4807806728451
 30
0.0
 10
74.70138344486632
 20
-138.4807806728451
 30
0.0
 10
74.70138344486632
 20
-138.4807806728451
 30
0.0
 10
74.37134329737938
 20
-138.4807806728451
 30
0.0
 10
74.37134329737938
 20
-138.4807806728451
 30
0.0
 10
74.37134329737938
 20
-138.4807806728451
 30
0.0
 10
74.37134329737938
 20
-138.3326415669793
 30
0.0
 10
74.37134329737938
 20
-138.3326415669793
 30
0.0
 10
74.70345050215748
 20
-138.3178276563928
 30
0.0
 10
74.74995929120834
 20
-138.1548746399405
 30
0.0
 10
74.77958711238149
 20
-138.0408419793787
 30
0.0
 10
74.77958711238149
 20
-138.0408419793787
 30
0.0
 10
74.92565916095609
 20
-138.0408419793787
 30
0.0
 10
74.92565916095609
 20
-138.0408419793787
 30
0.0
 10
74.92565916095609
 20
-138.0408419793787
 30
0.0
 10
74.92565916095609
 20
-139.5849337758677
 30
0.0
 10
74.92565916095609
 20
-139.5849337758677
 30
0.0
 10
74.92565916095609
 20
-139.5849337758677
 30
0.0
 10
74.70138344486632
 20
-139.5849337758677
 30
0.0
 10
74.70138344486632
 20
-139.5849337758677
 30
0.0
  0
HATCH
  5
D4
330
CF
100
AcDbEntity
  8
_U+30EC_U+30A4_U+30E4_U+30FC 1
 62
   179
420
  2234388
100
AcDbHatch
 10
0.0
 20
0.0
 30
0.0
210
0.0
220
0.0
230
1.0
  2
SOLID
 70
     1
 71
     0
 91
        1
 92
        1
 93
        1
 72
     4
 94
        3
 73
     0
 74
     1
 95
       26
 96
       22
 40
0.0
 40
0.0
 40
0.0
 40
0.0
 40
1.0
 40
1.0
 40
1.0
 40
2.0
 40
2.0
 40
2.0
 40
3.0
 40
3.0
 40
3.0
 40
4.0
 40
4.0
 40
4.0
 40
5.0
 40
5.0
 40
5.0
 40
6.0
 40
6.0
 40
6.0
 40
7.0
 40
7.0
 40
7.0
 40
7.0
 10
74.70138344486632
 20
-139.5849337758677
 10
74.70138344486632
 20
-139.5849337758677
 10
74.70138344486632
 20
-138.4807806728451
 10
74.70138344486632
 20
-138.4807806728451
 10
74.70138344486632
 20
-138.4807806728451
 10
74.37134329737938
 20
-138.4807806728451
 10
74.37134329737938
 20
-138.4807806728451
 10
74.37134329737938
 20
-138.4807806728451
 10
74.37134329737938
 20
-138.3326415669793
 10
74.37134329737938
 20
-138.3326415669793
 10
74.70345050215748
 20
-138.3178276563928
 10
74.74995929120834
 20
-138.1548746399405
 10
74.77958711238149
 20
-138.0408419793787
 10
74.77958711238149
 20
-138.0408419793787
 10
74.92565916095609
 20
-138.0408419793787
 10
74.92565916095609
 20
-138.0408419793787
 10
74.92565916095609
 20
-138.0408419793787
 10
74.92565916095609
 20
-139.5849337758677
 10
74.92565916095609
 20
-139.5849337758677
 10
74.92565916095609
 20
-139.5849337758677
 10
74.70138344486632
 20
-139.5849337758677
 10
74.70138344486632
 20
-139.5849337758677
 97
        0
 97
        0
 75
     2
 76
     1
 98
        0
  0
SPLINE
  5
D5
330
CF
100
AcDbEntity
  8
_U+30EC_U+30A4_U+30E4_U+30FC 1
370
     0
100
AcDbSpline
210
0.0
220
0.0
230
1.0
 70
    11
 71
     3
 72
    44
 73
    40
 74
     0
 42
0.0000000001
 43
0.0000000001
 12
1.0
 22
0.0
 32
0.0
 13
1.0
 23
0.0
 33
0.0
 40
0.0
 40
0.0
 40
0.0
 40
0.0
 40
1.0
 40
1.0
 40
1.0
 40
2.0
 40
2.0
 40
2.0
 40
3.0
 40
3.0
 40
3.0
 40
4.0
 40
4.0
 40
4.0
 40
5.0
 40
5.0
 40
5.0
 40
6.0
 40
6.0
 40
6.0
 40
7.0
 40
7.0
 40
7.0
 40
8.0
 40
8.0
 40
8.0
 40
9.0
 40
9.0
 40
9.0
 40
10.0
 40
10.0
 40
10.0
 40
11.0
 40
11.0
 40
11.0
 40
12.0
 40
12.0
 40
12.0
 40
13.0
 40
13.0
 40
13.0
 40
13.0
 10
76.0199937418457
 20
-139.0034016579575
 30
0.0
 10
75.80209145240364
 20
-139.161876050279
 30
0.0
 10
75.70890161952764
 20
-139.2359456032119
 30
0.0
 10
75.66032577318562
 20
-139.3799505944953
 30
0.0
 10
75.66032577318562
 20
-139.3799505944953
 30
0.0
 10
76.43874509807782
 20
-139.3799505944953
 30
0.0
 10
76.43874509807782
 20
-139.3799505944953
 30
0.0
 10
76.43874509807782
 20
-139.3799505944953
 30
0.0
 10
76.43874509807782
 20
-139.5849337758677
 30
0.0
 10
76.43874509807782
 20
-139.5849337758677
 30
0.0
 10
76.43874509807782
 20
-139.5849337758677
 30
0.0
 10
75.41072860527926
 20
-139.5849337758677
 30
0.0
 10
75.41072860527926
 20
-139.5849337758677
 30
0.0
 10
75.44242348374357
 20
-139.2273328644987
 30
0.0
 10
75.50805255273757
 20
-139.1491291969836
 30
0.0
 10
75.89304197321424
 20
-138.8507839279609
 30
0.0
 10
76.14901256776831
 20
-138.652001918462
 30
0.0
 10
76.21446938198805
 20
-138.5844780469511
 30
0.0
 10
76.21446938198805
 20
-138.4470187370896
 30
0.0
 10
76.21446938198805
 20
-138.328507452397
 30
0.0
 10
76.1426391411206
 20
-138.197249314409
 30
0.0
 10
75.94592418891283
 20
-138.197249314409
 30
0.0
 10
75.6856472250022
 20
-138.197249314409
 30
0.0
 10
75.67720674106334
 20
-138.4277262023722
 30
0.0
 10
75.67290037170677
 20
-138.5441704297737
 30
0.0
 10
75.67290037170677
 20
-138.5441704297737
 30
0.0
 10
75.44879691039128
 20
-138.5441704297737
 30
0.0
 10
75.44879691039128
 20
-138.5441704297737
 30
0.0
 10
75.45723739433014
 20
-138.4173909159165
 30
0.0
 10
75.46774493556015
 20
-138.3050808030974
 30
0.0
 10
75.54818791514073
 20
-138.1865695184048
 30
0.0
 10
75.6580864611202
 20
-138.0260280687921
 30
0.0
 10
75.84429387209796
 20
-137.9919216234881
 30
0.0
 10
75.96073809949941
 20
-137.9919216234881
 30
0.0
 10
76.23789603128775
 20
-137.9919216234881
 30
0.0
 10
76.44511852472553
 20
-138.176234231949
 30
0.0
 10
76.44511852472553
 20
-138.4490857943808
 30
0.0
 10
76.44511852472553
 20
-138.6774956250528
 30
0.0
 10
76.32884655209834
 20
-138.7770588845766
 30
0.0
 10
76.0199937418457
 20
-139.0034016579575
 30
0.0
  0
HATCH
  5
D6
330
CF
100
AcDbEntity
  8
_U+30EC_U+30A4_U+30E4_U+30FC 1
 62
   179
420
  2234388
100
AcDbHatch
 10
0.0
 20
0.0
 30
0.0
210
0.0
220
0.0
230
1.0
  2
SOLID
 70
     1
 71
     0
 91
        1
 92
        1
 93
        1
 72
     4
 94
        3
 73
     0
 74
     1
 95
       44
 96
       40
 40
0.0
 40
0.0
 40
0.0
 40
0.0
 40
1.0
 40
1.0
 40
1.0
 40
2.0
 40
2.0
 40
2.0
 40
3.0
 40
3.0
 40
3.0
 40
4.0
 40
4.0
 40
4.0
 40
5.0
 40
5.0
 40
5.0
 40
6.0
 40
6.0
 40
6.0
 40
7.0
 40
7.0
 40
7.0
 40
8.0
 40
8.0
 40
8.0
 40
9.0
 40
9.0
 40
9.0
 40
10.0
 40
10.0
 40
10.0
 40
11.0
 40
11.0
 40
11.0
 40
12.0
 40
12.0
 40
12.0
 40
13.0
 40
13.0
 40
13.0
 40
13.0
 10
76.0199937418457
 20
-139.0034016579575
 10
75.80209145240364
 20
-139.161876050279
 10
75.70890161952764
 20
-139.2359456032119
 10
75.66032577318562
 20
-139.3799505944953
 10
75.66032577318562
 20
-139.3799505944953
 10
76.43874509807782
 20
-139.3799505944953
 10
76.43874509807782
 20
-139.3799505944953
 10
76.43874509807782
 20
-139.3799505944953
 10
76.43874509807782
 20
-139.5849337758677
 10
76.43874509807782
 20
-139.5849337758677
 10
76.43874509807782
 20
-139.5849337758677
 10
75.41072860527926
 20
-139.5849337758677
 10
75.41072860527926
 20
-139.5849337758677
 10
75.44242348374357
 20
-139.2273328644987
 10
75.50805255273757
 20
-139.1491291969836
 10
75.89304197321424
 20
-138.8507839279609
 10
76.14901256776831
 20
-138.652001918462
 10
76.21446938198805
 20
-138.5844780469511
 10
76.21446938198805
 20
-138.4470187370896
 10
76.21446938198805
 20
-138.328507452397
 10
76.1426391411206
 20
-138.197249314409
 10
75.94592418891283
 20
-138.197249314409
 10
75.6856472250022
 20
-138.197249314409
 10
75.67720674106334
 20
-138.4277262023722
 10
75.67290037170677
 20
-138.5441704297737
 10
75.67290037170677
 20
-138.5441704297737
 10
75.44879691039128
 20
-138.5441704297737
 10
75.44879691039128
 20
-138.5441704297737
 10
75.45723739433014
 20
-138.4173909159165
 10
75.46774493556015
 20
-138.3050808030974
 10
75.54818791514073
 20
-138.1865695184048
 10
75.6580864611202
 20
-138.0260280687921
 10
75.84429387209796
 20
-137.9919216234881
 10
75.96073809949941
 20
-137.9919216234881
 10
76.23789603128775
 20
-137.9919216234881
 10
76.44511852472553
 20
-138.176234231949
 10
76.44511852472553
 20
-138.4490857943808
 10
76.44511852472553
 20
-138.6774956250528
 10
76.32884655209834
 20
-138.7770588845766
 10
76.0199937418457
 20
-139.0034016579575
 97
        0
 97
        0
 75
     2
 76
     1
 98
        0
  0
ENDBLK
  5
D2
330
CF
100
AcDbEntity
  8
0
100
AcDbBlockEnd
  0
BLOCK
  5
E1
330
DF
100
AcDbEntity
  8
0
100
AcDbBlockBegin
  2
block 7
 70
     0
 10
0.0
 20
0.0
 30
0.0
  3
block 7
  1

  0
SPLINE
  5
E3
330
DF
100
AcDbEntity
  8
_U+30EC_U+30A4_U+30E4_U+30FC 1
370
     0
100
AcDbSpline
210
0.0
220
0.0
230
1.0
 70
    11
 71
     3
 72
    29
 73
    25
 74
     0
 42
0.0000000001
 43
0.0000000001
 12
1.0
 22
0.0
 32
0.0
 13
1.0
 23
0.0
 33
0.0
 40
0.0
 40
0.0
 40
0.0
 40
0.0
 40
1.0
 40
1.0
 40
1.0
 40
2.0
 40
2.0
 40
2.0
 40
3.0
 40
3.0
 40
3.0
 40
4.0
 40
4.0
 40
4.0
 40
5.0
 40
5.0
 40
5.0
 40
6.0
 40
6.0
 40
6.0
 40
7.0
 40
7.0
 40
7.0
 40
8.0
 40
8.0
 40
8.0
 40
8.0
 10
109.743172173085
 20
-129.8425482531296
 30
0.0
 10
109.743172173085
 20
-130.109198643688
 30
0.0
 10
109.6057128632236
 20
-130.3631021809509
 30
0.0
 10
109.2567246905678
 20
-130.3631021809509
 30
0.0
 10
109.0007540960137
 20
-130.3631021809509
 30
0.0
 10
108.9056694606208
 20
-130.2211642469586
 30
0.0
 10
108.8443467609834
 20
-130.1153998155614
 30
0.0
 10
108.7850911186371
 20
-130.2401122721275
 30
0.0
 10
108.6707139485268
 20
-130.3162488823515
 30
0.0
 10
108.5098279893656
 20
-130.3162488823515
 30
0.0
 10
108.2349093696427
 20
-130.3162488823515
 30
0.0
 10
108.0995171170724
 20
-130.1174668728526
 30
0.0
 10
108.0995171170724
 20
-129.8425482531296
 30
0.0
 10
108.0995171170724
 20
-129.5590168946936
 30
0.0
 10
108.2435221083558
 20
-129.3685031143593
 30
0.0
 10
108.5098279893656
 20
-129.3685031143593
 30
0.0
 10
108.6707139485268
 20
-129.3685031143593
 30
0.0
 10
108.7850911186371
 20
-129.447051291423
 30
0.0
 10
108.8443467609834
 20
-129.571763747989
 30
0.0
 10
108.8949896646165
 20
-129.4828802844696
 30
0.0
 10
108.9900743000094
 20
-129.3240613825996
 30
0.0
 10
109.2525905759855
 20
-129.3240613825996
 30
0.0
 10
109.6270724552321
 20
-129.3240613825996
 30
0.0
 10
109.743172173085
 20
-129.6034586264533
 30
0.0
 10
109.743172173085
 20
-129.8425482531296
 30
0.0
  0
SPLINE
  5
E4
330
DF
100
AcDbEntity
  8
_U+30EC_U+30A4_U+30E4_U+30FC 1
370
     0
100
AcDbSpline
210
0.0
220
0.0
230
1.0
 70
    11
 71
     3
 72
    17
 73
    13
 74
     0
 42
0.0000000001
 43
0.0000000001
 12
1.0
 22
0.0
 32
0.0
 13
1.0
 23
0.0
 33
0.0
 40
0.0
 40
0.0
 40
0.0
 40
0.0
 40
1.0
 40
1.0
 40
1.0
 40
2.0
 40
2.0
 40
2.0
 40
3.0
 40
3.0
 40
3.0
 40
4.0
 40
4.0
 40
4.0
 40
4.0
 10
108.2920979546978
 20
-129.8425482531296
 30
0.0
 10
108.2920979546978
 20
-130.0075683268731
 30
0.0
 10
108.3871825900907
 20
-130.0923176758102
 30
0.0
 10
108.522574842661
 20
-130.0923176758102
 30
0.0
 10
108.6452202419359
 20
-130.0923176758102
 30
0.0
 10
108.7637315266285
 20
-130.0203151801686
 30
0.0
 10
108.7637315266285
 20
-129.8425482531296
 30
0.0
 10
108.7637315266285
 20
-129.6647813260907
 30
0.0
 10
108.6452202419359
 20
-129.592778830449
 30
0.0
 10
108.522574842661
 20
-129.592778830449
 30
0.0
 10
108.3871825900907
 20
-129.592778830449
 30
0.0
 10
108.2920979546978
 20
-129.6795952366773
 30
0.0
 10
108.2920979546978
 20
-129.8425482531296
 30
0.0
  0
SPLINE
  5
E5
330
DF
100
AcDbEntity
  8
_U+30EC_U+30A4_U+30E4_U+30FC 1
370
     0
100
AcDbSpline
210
0.0
220
0.0
230
1.0
 70
    11
 71
     3
 72
    17
 73
    13
 74
     0
 42
0.0000000001
 43
0.0000000001
 12
1.0
 22
0.0
 32
0.0
 13
1.0
 23
0.0
 33
0.0
 40
0.0
 40
0.0
 40
0.0
 40
0.0
 40
1.0
 40
1.0
 40
1.0
 40
2.0
 40
2.0
 40
2.0
 40
3.0
 40
3.0
 40
3.0
 40
4.0
 40
4.0
 40
4.0
 40
4.0
 10
108.9521782496717
 20
-129.8425482531296
 30
0.0
 10
108.9521782496717
 20
-129.9862087348646
 30
0.0
 10
109.0389946559
 20
-130.1388264648611
 30
0.0
 10
109.2419107799812
 20
-130.1388264648611
 30
0.0
 10
109.4472384709021
 20
-130.1388264648611
 30
0.0
 10
109.5485242781684
 20
-130.0117024414554
 30
0.0
 10
109.5485242781684
 20
-129.8425482531296
 30
0.0
 10
109.5485242781684
 20
-129.6565130969261
 30
0.0
 10
109.4258788788935
 20
-129.5462700413982
 30
0.0
 10
109.2481119518546
 20
-129.5462700413982
 30
0.0
 10
109.0262478026046
 20
-129.5462700413982
 30
0.0
 10
108.9521782496717
 20
-129.7092230578505
 30
0.0
 10
108.9521782496717
 20
-129.8425482531296
 30
0.0
  0
HATCH
  5
E6
330
DF
100
AcDbEntity
  8
_U+30EC_U+30A4_U+30E4_U+30FC 1
 62
   179
420
  2234388
100
AcDbHatch
 10
0.0
 20
0.0
 30
0.0
210
0.0
220
0.0
230
1.0
  2
SOLID
 70
     1
 71
     0
 91
        3
 92
        1
 93
        1
 72
     4
 94
        3
 73
     0
 74
     1
 95
       29
 96
       25
 40
0.0
 40
0.0
 40
0.0
 40
0.0
 40
1.0
 40
1.0
 40
1.0
 40
2.0
 40
2.0
 40
2.0
 40
3.0
 40
3.0
 40
3.0
 40
4.0
 40
4.0
 40
4.0
 40
5.0
 40
5.0
 40
5.0
 40
6.0
 40
6.0
 40
6.0
 40
7.0
 40
7.0
 40
7.0
 40
8.0
 40
8.0
 40
8.0
 40
8.0
 10
109.743172173085
 20
-129.8425482531296
 10
109.743172173085
 20
-130.109198643688
 10
109.6057128632236
 20
-130.3631021809509
 10
109.2567246905678
 20
-130.3631021809509
 10
109.0007540960137
 20
-130.3631021809509
 10
108.9056694606208
 20
-130.2211642469586
 10
108.8443467609834
 20
-130.1153998155614
 10
108.7850911186371
 20
-130.2401122721275
 10
108.6707139485268
 20
-130.3162488823515
 10
108.5098279893656
 20
-130.3162488823515
 10
108.2349093696427
 20
-130.3162488823515
 10
108.0995171170724
 20
-130.1174668728526
 10
108.0995171170724
 20
-129.8425482531296
 10
108.0995171170724
 20
-129.5590168946936
 10
108.2435221083558
 20
-129.3685031143593
 10
108.5098279893656
 20
-129.3685031143593
 10
108.6707139485268
 20
-129.3685031143593
 10
108.7850911186371
 20
-129.447051291423
 10
108.8443467609834
 20
-129.571763747989
 10
108.8949896646165
 20
-129.4828802844696
 10
108.9900743000094
 20
-129.3240613825996
 10
109.2525905759855
 20
-129.3240613825996
 10
109.6270724552321
 20
-129.3240613825996
 10
109.743172173085
 20
-129.6034586264533
 10
109.743172173085
 20
-129.8425482531296
 97
        0
 97
        0
 92
        1
 93
        1
 72
     4
 94
        3
 73
     0
 74
     1
 95
       17
 96
       13
 40
0.0
 40
0.0
 40
0.0
 40
0.0
 40
1.0
 40
1.0
 40
1.0
 40
2.0
 40
2.0
 40
2.0
 40
3.0
 40
3.0
 40
3.0
 40
4.0
 40
4.0
 40
4.0
 40
4.0
 10
108.2920979546978
 20
-129.8425482531296
 10
108.2920979546978
 20
-130.0075683268731
 10
108.3871825900907
 20
-130.0923176758102
 10
108.522574842661
 20
-130.0923176758102
 10
108.6452202419359
 20
-130.0923176758102
 10
108.7637315266285
 20
-130.0203151801686
 10
108.7637315266285
 20
-129.8425482531296
 10
108.7637315266285
 20
-129.6647813260907
 10
108.6452202419359
 20
-129.592778830449
 10
108.522574842661
 20
-129.592778830449
 10
108.3871825900907
 20
-129.592778830449
 10
108.2920979546978
 20
-129.6795952366773
 10
108.2920979546978
 20
-129.8425482531296
 97
        0
 97
        0
 92
        1
 93
        1
 72
     4
 94
        3
 73
     0
 74
     1
 95
       17
 96
       13
 40
0.0
 40
0.0
 40
0.0
 40
0.0
 40
1.0
 40
1.0
 40
1.0
 40
2.0
 40
2.0
 40
2.0
 40
3.0
 40
3.0
 40
3.0
 40
4.0
 40
4.0
 40
4.0
 40
4.0
 10
108.9521782496717
 20
-129.8425482531296
 10
108.9521782496717
 20
-129.9862087348646
 10
109.0389946559
 20
-130.1388264648611
 10
109.2419107799812
 20
-130.1388264648611
 10
109.4472384709021
 20
-130.1388264648611
 10
109.5485242781684
 20
-130.0117024414554
 10
109.5485242781684
 20
-129.8425482531296
 10
109.5485242781684
 20
-129.6565130969261
 10
109.4258788788935
 20
-129.5462700413982
 10
109.2481119518546
 20
-129.5462700413982
 10
109.0262478026046
 20
-129.5462700413982
 10
108.9521782496717
 20
-129.7092230578505
 10
108.9521782496717
 20
-129.8425482531296
 97
        0
 97
        0
 75
     2
 76
     1
 98
        0
  0
POLYLINE
  5
E7
330
DF
100
AcDbEntity
  8
_U+30EC_U+30A4_U+30E4_U+30FC 1
370
     0
100
AcDb2dPolyline
 66
     1
 10
0.0
 20
0.0
 30
0.0
  0
VERTEX
  5
E8
330
E7
100
AcDbEntity
  8
_U+30EC_U+30A4_U+30E4_U+30FC 1
370
     0
100
AcDbVertex
100
AcDb2dVertex
 10
109.6925292694519
 20
-129.1056423288347
 30
0.0
  0
VERTEX
  5
E9
330
E7
100
AcDbEntity
  8
_U+30EC_U+30A4_U+30E4_U+30FC 1
370
     0
100
AcDbVertex
100
AcDb2dVertex
 10
109.4406927894801
 20
-129.1056423288347
 30
0.0
  0
VERTEX
  5
EA
330
E7
100
AcDbEntity
  8
_U+30EC_U+30A4_U+30E4_U+30FC 1
370
     0
100
AcDbVertex
100
AcDb2dVertex
 10
109.4406927894801
 20
-128.8538058488629
 30
0.0
  0
VERTEX
  5
EB
330
E7
100
AcDbEntity
  8
_U+30EC_U+30A4_U+30E4_U+30FC 1
370
     0
100
AcDbVertex
100
AcDb2dVertex
 10
109.6925292694519
 20
-128.8538058488629
 30
0.0
  0
VERTEX
  5
EC
330
E7
100
AcDbEntity
  8
_U+30EC_U+30A4_U+30E4_U+30FC 1
370
     0
100
AcDbVertex
100
AcDb2dVertex
 10
109.6925292694519
 20
-129.1056423288347
 30
0.0
  0
SEQEND
  5
ED
330
E7
100
AcDbEntity
  8
_U+30EC_U+30A4_U+30E4_U+30FC 1
370
     0
  0
HATCH
  5
EE
330
DF
100
AcDbEntity
  8
_U+30EC_U+30A4_U+30E4_U+30FC 1
 62
   179
420
  2234388
100
AcDbHatch
 10
0.0
 20
0.0
 30
0.0
210
0.0
220
0.0
230
1.0
  2
SOLID
 70
     1
 71
     0
 91
        1
 92
        1
 93
        4
 72
     1
 10
109.6925292694519
 20
-129.1056423288347
 11
109.4406927894801
 21
-129.1056423288347
 72
     1
 10
109.4406927894801
 20
-129.1056423288347
 11
109.4406927894801
 21
-128.8538058488629
 72
     1
 10
109.4406927894801
 20
-128.8538058488629
 11
109.6925292694519
 21
-128.8538058488629
 72
     1
 10
109.6925292694519
 20
-128.8538058488629
 11
109.6925292694519
 21
-129.1056423288347
 97
        0
 75
     2
 76
     1
 98
        0
  0
SPLINE
  5
EF
330
DF
100
AcDbEntity
  8
_U+30EC_U+30A4_U+30E4_U+30FC 1
370
     0
100
AcDbSpline
210
0.0
220
0.0
230
1.0
 70
    11
 71
     3
 72
    53
 73
    49
 74
     0
 42
0.0000000001
 43
0.0000000001
 12
1.0
 22
0.0
 32
0.0
 13
1.0
 23
0.0
 33
0.0
 40
0.0
 40
0.0
 40
0.0
 40
0.0
 40
1.0
 40
1.0
 40
1.0
 40
2.0
 40
2.0
 40
2.0
 40
3.0
 40
3.0
 40
3.0
 40
4.0
 40
4.0
 40
4.0
 40
5.0
 40
5.0
 40
5.0
 40
6.0
 40
6.0
 40
6.0
 40
7.0
 40
7.0
 40
7.0
 40
8.0
 40
8.0
 40
8.0
 40
9.0
 40
9.0
 40
9.0
 40
10.0
 40
10.0
 40
10.0
 40
11.0
 40
11.0
 40
11.0
 40
12.0
 40
12.0
 40
12.0
 40
13.0
 40
13.0
 40
13.0
 40
14.0
 40
14.0
 40
14.0
 40
15.0
 40
15.0
 40
15.0
 40
16.0
 40
16.0
 40
16.0
 40
16.0
 10
109.743172173085
 20
-128.1365369688339
 30
0.0
 10
109.743172173085
 20
-128.2147406363491
 30
0.0
 10
109.7262912052073
 20
-128.316370953164
 30
0.0
 10
109.6629014482787
 20
-128.4180012699788
 30
0.0
 10
109.5530029022993
 20
-128.5912895728869
 30
0.0
 10
109.4217447643112
 20
-128.6126491648955
 30
0.0
 10
109.3139132756229
 20
-128.6315971900643
 30
0.0
 10
109.3139132756229
 20
-128.6315971900643
 30
0.0
 10
109.3139132756229
 20
-128.4093885312657
 30
0.0
 10
109.3139132756229
 20
-128.4093885312657
 30
0.0
 10
109.5126952851218
 20
-128.3546115130502
 30
0.0
 10
109.542323106295
 20
-128.2274874896445
 30
0.0
 10
109.542323106295
 20
-128.1344699115428
 30
0.0
 10
109.542323106295
 20
-127.9949435443902
 30
0.0
 10
109.4427598467713
 20
-127.8426703239421
 30
0.0
 10
109.2102159015169
 20
-127.8426703239421
 30
0.0
 10
108.9542453069628
 20
-127.8426703239421
 30
0.0
 10
108.8843098686123
 20
-128.0225043082721
 30
0.0
 10
108.8843098686123
 20
-128.1430826502559
 30
0.0
 10
108.8843098686123
 20
-128.1747775287202
 30
0.0
 10
108.8843098686123
 20
-128.316370953164
 30
0.0
 10
109.0135009493091
 20
-128.4052544166834
 30
0.0
 10
109.0135009493091
 20
-128.4052544166834
 30
0.0
 10
108.9945529241403
 20
-128.5809542864312
 30
0.0
 10
108.9945529241403
 20
-128.5809542864312
 30
0.0
 10
108.9945529241403
 20
-128.5809542864312
 30
0.0
 10
108.1480929634144
 20
-128.4603759444474
 30
0.0
 10
108.1480929634144
 20
-128.4603759444474
 30
0.0
 10
108.1480929634144
 20
-128.4603759444474
 30
0.0
 10
108.1480929634144
 20
-127.681784364781
 30
0.0
 10
108.1480929634144
 20
-127.681784364781
 30
0.0
 10
108.1480929634144
 20
-127.681784364781
 30
0.0
 10
108.342740858331
 20
-127.681784364781
 30
0.0
 10
108.342740858331
 20
-127.681784364781
 30
0.0
 10
108.342740858331
 20
-127.681784364781
 30
0.0
 10
108.342740858331
 20
-128.2974229279951
 30
0.0
 10
108.342740858331
 20
-128.2974229279951
 30
0.0
 10
108.342740858331
 20
-128.2974229279951
 30
0.0
 10
108.7657985839197
 20
-128.3628797422148
 30
0.0
 10
108.7657985839197
 20
-128.3628797422148
 30
0.0
 10
108.7320366481642
 20
-128.3015570425774
 30
0.0
 10
108.6917290309868
 20
-128.2192192604799
 30
0.0
 10
108.6917290309868
 20
-128.1007079757873
 30
0.0
 10
108.6917290309868
 20
-127.8468044385244
 30
0.0
 10
108.8781086967388
 20
-127.6097818691392
 30
0.0
 10
109.191267876348
 20
-127.6097818691392
 30
0.0
 10
109.5085611705395
 20
-127.6097818691392
 30
0.0
 10
109.743172173085
 20
-127.834057585229
 30
0.0
 10
109.743172173085
 20
-128.1365369688339
 30
0.0
  0
HATCH
  5
F0
330
DF
100
AcDbEntity
  8
_U+30EC_U+30A4_U+30E4_U+30FC 1
 62
   179
420
  2234388
100
AcDbHatch
 10
0.0
 20
0.0
 30
0.0
210
0.0
220
0.0
230
1.0
  2
SOLID
 70
     1
 71
     0
 91
        1
 92
        1
 93
        1
 72
     4
 94
        3
 73
     0
 74
     1
 95
       53
 96
       49
 40
0.0
 40
0.0
 40
0.0
 40
0.0
 40
1.0
 40
1.0
 40
1.0
 40
2.0
 40
2.0
 40
2.0
 40
3.0
 40
3.0
 40
3.0
 40
4.0
 40
4.0
 40
4.0
 40
5.0
 40
5.0
 40
5.0
 40
6.0
 40
6.0
 40
6.0
 40
7.0
 40
7.0
 40
7.0
 40
8.0
 40
8.0
 40
8.0
 40
9.0
 40
9.0
 40
9.0
 40
10.0
 40
10.0
 40
10.0
 40
11.0
 40
11.0
 40
11.0
 40
12.0
 40
12.0
 40
12.0
 40
13.0
 40
13.0
 40
13.0
 40
14.0
 40
14.0
 40
14.0
 40
15.0
 40
15.0
 40
15.0
 40
16.0
 40
16.0
 40
16.0
 40
16.0
 10
109.743172173085
 20
-128.1365369688339
 10
109.743172173085
 20
-128.2147406363491
 10
109.7262912052073
 20
-128.316370953164
 10
109.6629014482787
 20
-128.4180012699788
 10
109.5530029022993
 20
-128.5912895728869
 10
109.4217447643112
 20
-128.6126491648955
 10
109.3139132756229
 20
-128.6315971900643
 10
109.3139132756229
 20
-128.6315971900643
 10
109.3139132756229
 20
-128.4093885312657
 10
109.3139132756229
 20
-128.4093885312657
 10
109.5126952851218
 20
-128.3546115130502
 10
109.542323106295
 20
-128.2274874896445
 10
109.542323106295
 20
-128.1344699115428
 10
109.542323106295
 20
-127.9949435443902
 10
109.4427598467713
 20
-127.8426703239421
 10
109.2102159015169
 20
-127.8426703239421
 10
108.9542453069628
 20
-127.8426703239421
 10
108.8843098686123
 20
-128.0225043082721
 10
108.8843098686123
 20
-128.1430826502559
 10
108.8843098686123
 20
-128.1747775287202
 10
108.8843098686123
 20
-128.316370953164
 10
109.0135009493091
 20
-128.4052544166834
 10
109.0135009493091
 20
-128.4052544166834
 10
108.9945529241403
 20
-128.5809542864312
 10
108.9945529241403
 20
-128.5809542864312
 10
108.9945529241403
 20
-128.5809542864312
 10
108.1480929634144
 20
-128.4603759444474
 10
108.1480929634144
 20
-128.4603759444474
 10
108.1480929634144
 20
-128.4603759444474
 10
108.1480929634144
 20
-127.681784364781
 10
108.1480929634144
 20
-127.681784364781
 10
108.1480929634144
 20
-127.681784364781
 10
108.342740858331
 20
-127.681784364781
 10
108.342740858331
 20
-127.681784364781
 10
108.342740858331
 20
-127.681784364781
 10
108.342740858331
 20
-128.2974229279951
 10
108.342740858331
 20
-128.2974229279951
 10
108.342740858331
 20
-128.2974229279951
 10
108.7657985839197
 20
-128.3628797422148
 10
108.7657985839197
 20
-128.3628797422148
 10
108.7320366481642
 20
-128.3015570425774
 10
108.6917290309868
 20
-128.2192192604799
 10
108.6917290309868
 20
-128.1007079757873
 10
108.6917290309868
 20
-127.8468044385244
 10
108.8781086967388
 20
-127.6097818691392
 10
109.191267876348
 20
-127.6097818691392
 10
109.5085611705395
 20
-127.6097818691392
 10
109.743172173085
 20
-127.834057585229
 10
109.743172173085
 20
-128.1365369688339
 97
        0
 97
        0
 75
     2
 76
     1
 98
        0
  0
ENDBLK
  5
E2
330
DF
100
AcDbEntity
  8
0
100
AcDbBlockEnd
  0
ENDSEC
  0
SECTION
  2
ENTITIES
  0
POLYLINE
  5
41
330
1F
100
AcDbEntity
  8
_U+30EC_U+30A4_U+30E4_U+30FC 1
 62
   179
420
  2234388
370
    25
100
AcDb2dPolyline
 66
     1
 10
0.0
 20
0.0
 30
0.0
  0
VERTEX
  5
42
330
41
100
AcDbEntity
  8
_U+30EC_U+30A4_U+30E4_U+30FC 1
 62
   179
420
  2234388
370
    25
100
AcDbVertex
100
AcDb2dVertex
 10
69.33875267546549
 20
-123.7302438579562
 30
0.0
  0
VERTEX
  5
43
330
41
100
AcDbEntity
  8
_U+30EC_U+30A4_U+30E4_U+30FC 1
 62
   179
420
  2234388
370
    25
100
AcDbVertex
100
AcDb2dVertex
 10
106.338720064851
 20
-123.7302438579562
 30
0.0
  0
SEQEND
  5
44
330
41
100
AcDbEntity
  8
_U+30EC_U+30A4_U+30E4_U+30FC 1
 62
   179
420
  2234388
370
    25
  0
POLYLINE
  5
45
330
1F
100
AcDbEntity
  8
_U+30EC_U+30A4_U+30E4_U+30FC 1
 62
   179
420
  2234388
370
    25
100
AcDb2dPolyline
 66
     1
 10
0.0
 20
0.0
 30
0.0
  0
VERTEX
  5
46
330
45
100
AcDbEntity
  8
_U+30EC_U+30A4_U+30E4_U+30FC 1
 62
   179
420
  2234388
370
    25
100
AcDbVertex
100
AcDb2dVertex
 10
69.33875267546549
 20
-124.7300160799288
 30
0.0
  0
VERTEX
  5
47
330
45
100
AcDbEntity
  8
_U+30EC_U+30A4_U+30E4_U+30FC 1
 62
   179
420
  2234388
370
    25
100
AcDbVertex
100
AcDb2dVertex
 10
81.33887653598349
 20
-124.7300160799288
 30
0.0
  0
SEQEND
  5
48
330
45
100
AcDbEntity
  8
_U+30EC_U+30A4_U+30E4_U+30FC 1
 62
   179
420
  2234388
370
    25
  0
POLYLINE
  5
49
330
1F
100
AcDbEntity
  8
_U+30EC_U+30A4_U+30E4_U+30FC 1
 62
   179
420
  2234388
370
    25
100
AcDb2dPolyline
 66
     1
 10
0.0
 20
0.0
 30
0.0
  0
VERTEX
  5
4A
330
49
100
AcDbEntity
  8
_U+30EC_U+30A4_U+30E4_U+30FC 1
 62
   179
420
  2234388
370
    25
100
AcDbVertex
100
AcDb2dVertex
 10
106.338720064851
 20
-124.7300160799288
 30
0.0
  0
VERTEX
  5
4B
330
49
100
AcDbEntity
  8
_U+30EC_U+30A4_U+30E4_U+30FC 1
 62
   179
420
  2234388
370
    25
100
AcDbVertex
100
AcDb2dVertex
 10
106.338720064851
 20
-123.7302438579562
 30
0.0
  0
SEQEND
  5
4C
330
49
100
AcDbEntity
  8
_U+30EC_U+30A4_U+30E4_U+30FC 1
 62
   179
420
  2234388
370
    25
  0
POLYLINE
  5
4D
330
1F
100
AcDbEntity
  8
_U+30EC_U+30A4_U+30E4_U+30FC 1
 62
   179
420
  2234388
370
    25
100
AcDb2dPolyline
 66
     1
 10
0.0
 20
0.0
 30
0.0
  0
VERTEX
  5
4E
330
4D
100
AcDbEntity
  8
_U+30EC_U+30A4_U+30E4_U+30FC 1
 62
   179
420
  2234388
370
    25
100
AcDbVertex
100
AcDb2dVertex
 10
82.23874206858156
 20
-124.7300160799288
 30
0.0
  0
VERTEX
  5
4F
330
4D
100
AcDbEntity
  8
_U+30EC_U+30A4_U+30E4_U+30FC 1
 62
   179
420
  2234388
370
    25
100
AcDbVertex
100
AcDb2dVertex
 10
106.338720064851
 20
-124.7300160799288
 30
0.0
  0
SEQEND
  5
50
330
4D
100
AcDbEntity
  8
_U+30EC_U+30A4_U+30E4_U+30FC 1
 62
   179
420
  2234388
370
    25
  0
POLYLINE
  5
51
330
1F
100
AcDbEntity
  8
_U+30EC_U+30A4_U+30E4_U+30FC 1
 62
   179
420
  2234388
370
    25
100
AcDb2dPolyline
 66
     1
 10
0.0
 20
0.0
 30
0.0
  0
VERTEX
  5
52
330
51
100
AcDbEntity
  8
_U+30EC_U+30A4_U+30E4_U+30FC 1
 62
   179
420
  2234388
370
    25
100
AcDbVertex
100
AcDb2dVertex
 10
69.33875267546549
 20
-124.7300160799288
 30
0.0
  0
VERTEX
  5
53
330
51
100
AcDbEntity
  8
_U+30EC_U+30A4_U+30E4_U+30FC 1
 62
   179
420
  2234388
370
    25
100
AcDbVertex
100
AcDb2dVertex
 10
69.33875267546549
 20
-123.7302438579562
 30
0.0
  0
SEQEND
  5
54
330
51
100
AcDbEntity
  8
_U+30EC_U+30A4_U+30E4_U+30FC 1
 62
   179
420
  2234388
370
    25
  0
POLYLINE
  5
55
330
1F
100
AcDbEntity
  8
_U+30EC_U+30A4_U+30E4_U+30FC 1
 62
   179
420
  2234388
370
    25
100
AcDb2dPolyline
 66
     1
 10
0.0
 20
0.0
 30
0.0
  0
VERTEX
  5
56
330
55
100
AcDbEntity
  8
_U+30EC_U+30A4_U+30E4_U+30FC 1
 62
   179
420
  2234388
370
    25
100
AcDbVertex
100
AcDb2dVertex
 10
81.33887653598349
 20
-136.2307832992754
 30
0.0
  0
VERTEX
  5
57
330
55
100
AcDbEntity
  8
_U+30EC_U+30A4_U+30E4_U+30FC 1
 62
   179
420
  2234388
370
    25
100
AcDbVertex
100
AcDb2dVertex
 10
81.33887653598349
 20
-124.7300160799288
 30
0.0
  0
SEQEND
  5
58
330
55
100
AcDbEntity
  8
_U+30EC_U+30A4_U+30E4_U+30FC 1
 62
   179
420
  2234388
370
    25
  0
POLYLINE
  5
59
330
1F
100
AcDbEntity
  8
_U+30EC_U+30A4_U+30E4_U+30FC 1
 62
   179
420
  2234388
370
    25
100
AcDb2dPolyline
 66
     1
 10
0.0
 20
0.0
 30
0.0
  0
VERTEX
  5
5A
330
59
100
AcDbEntity
  8
_U+30EC_U+30A4_U+30E4_U+30FC 1
 62
   179
420
  2234388
370
    25
100
AcDbVertex
100
AcDb2dVertex
 10
90.3388371397087
 20
-133.230796355581
 30
0.0
  0
VERTEX
  5
5B
330
59
100
AcDbEntity
  8
_U+30EC_U+30A4_U+30E4_U+30FC 1
 62
   179
420
  2234388
370
    25
100
AcDbVertex
100
AcDb2dVertex
 10
91.33860933642461
 20
-133.230796355581
 30
0.0
  0
SEQEND
  5
5C
330
59
100
AcDbEntity
  8
_U+30EC_U+30A4_U+30E4_U+30FC 1
 62
   179
420
  2234388
370
    25
  0
POLYLINE
  5
5D
330
1F
100
AcDbEntity
  8
_U+30EC_U+30A4_U+30E4_U+30FC 1
 62
   179
420
  2234388
370
    25
100
AcDb2dPolyline
 66
     1
 10
0.0
 20
0.0
 30
0.0
  0
VERTEX
  5
5E
330
5D
100
AcDbEntity
  8
_U+30EC_U+30A4_U+30E4_U+30FC 1
 62
   179
420
  2234388
370
    25
100
AcDbVertex
100
AcDb2dVertex
 10
81.33887653598349
 20
-136.2307832992754
 30
0.0
  0
VERTEX
  5
5F
330
5D
100
AcDbEntity
  8
_U+30EC_U+30A4_U+30E4_U+30FC 1
 62
   179
420
  2234388
370
    25
100
AcDbVertex
100
AcDb2dVertex
 10
91.33860933642461
 20
-136.2307832992754
 30
0.0
  0
SEQEND
  5
60
330
5D
100
AcDbEntity
  8
_U+30EC_U+30A4_U+30E4_U+30FC 1
 62
   179
420
  2234388
370
    25
  0
POLYLINE
  5
61
330
1F
100
AcDbEntity
  8
_U+30EC_U+30A4_U+30E4_U+30FC 1
 62
   179
420
  2234388
370
    25
100
AcDb2dPolyline
 66
     1
 10
0.0
 20
0.0
 30
0.0
  0
VERTEX
  5
62
330
61
100
AcDbEntity
  8
_U+30EC_U+30A4_U+30E4_U+30FC 1
 62
   179
420
  2234388
370
    25
100
AcDbVertex
100
AcDb2dVertex
 10
82.23874206858156
 20
-135.2303407995255
 30
0.0
  0
VERTEX
  5
63
330
61
100
AcDbEntity
  8
_U+30EC_U+30A4_U+30E4_U+30FC 1
 62
   179
420
  2234388
370
    25
100
AcDbVertex
100
AcDb2dVertex
 10
90.3388371397087
 20
-135.2303407995255
 30
0.0
  0
SEQEND
  5
64
330
61
100
AcDbEntity
  8
_U+30EC_U+30A4_U+30E4_U+30FC 1
 62
   179
420
  2234388
370
    25
  0
POLYLINE
  5
65
330
1F
100
AcDbEntity
  8
_U+30EC_U+30A4_U+30E4_U+30FC 1
 62
   179
420
  2234388
370
    25
100
AcDb2dPolyline
 66
     1
 10
0.0
 20
0.0
 30
0.0
  0
VERTEX
  5
66
330
65
100
AcDbEntity
  8
_U+30EC_U+30A4_U+30E4_U+30FC 1
 62
   179
420
  2234388
370
    25
100
AcDbVertex
100
AcDb2dVertex
 10
91.33860933642461
 20
-136.2307832992754
 30
0.0
  0
VERTEX
  5
67
330
65
100
AcDbEntity
  8
_U+30EC_U+30A4_U+30E4_U+30FC 1
 62
   179
420
  2234388
370
    25
100
AcDbVertex
100
AcDb2dVertex
 10
91.33860933642461
 20
-133.230796355581
 30
0.0
  0
SEQEND
  5
68
330
65
100
AcDbEntity
  8
_U+30EC_U+30A4_U+30E4_U+30FC 1
 62
   179
420
  2234388
370
    25
  0
POLYLINE
  5
69
330
1F
100
AcDbEntity
  8
_U+30EC_U+30A4_U+30E4_U+30FC 1
 62
   179
420
  2234388
370
    25
100
AcDb2dPolyline
 66
     1
 10
0.0
 20
0.0
 30
0.0
  0
VERTEX
  5
6A
330
69
100
AcDbEntity
  8
_U+30EC_U+30A4_U+30E4_U+30FC 1
 62
   179
420
  2234388
370
    25
100
AcDbVertex
100
AcDb2dVertex
 10
90.3388371397087
 20
-135.2303407995255
 30
0.0
  0
VERTEX
  5
6B
330
69
100
AcDbEntity
  8
_U+30EC_U+30A4_U+30E4_U+30FC 1
 62
   179
420
  2234388
370
    25
100
AcDbVertex
100
AcDb2dVertex
 10
90.3388371397087
 20
-133.230796355581
 30
0.0
  0
SEQEND
  5
6C
330
69
100
AcDbEntity
  8
_U+30EC_U+30A4_U+30E4_U+30FC 1
 62
   179
420
  2234388
370
    25
  0
POLYLINE
  5
6D
330
1F
100
AcDbEntity
  8
_U+30EC_U+30A4_U+30E4_U+30FC 1
 62
   179
420
  2234388
370
    25
100
AcDb2dPolyline
 66
     1
 10
0.0
 20
0.0
 30
0.0
  0
VERTEX
  5
6E
330
6D
100
AcDbEntity
  8
_U+30EC_U+30A4_U+30E4_U+30FC 1
 62
   179
420
  2234388
370
    25
100
AcDbVertex
100
AcDb2dVertex
 10
82.23874206858156
 20
-135.2303407995255
 30
0.0
  0
VERTEX
  5
6F
330
6D
100
AcDbEntity
  8
_U+30EC_U+30A4_U+30E4_U+30FC 1
 62
   179
420
  2234388
370
    25
100
AcDbVertex
100
AcDb2dVertex
 10
82.23874206858156
 20
-124.7300160799288
 30
0.0
  0
SEQEND
  5
70
330
6D
100
AcDbEntity
  8
_U+30EC_U+30A4_U+30E4_U+30FC 1
 62
   179
420
  2234388
370
    25
  0
SPLINE
  5
71
330
1F
100
AcDbEntity
  8
_U+30EC_U+30A4_U+30E4_U+30FC 1
 62
   179
420
  2234388
370
     9
100
AcDbSpline
210
0.0
220
0.0
230
1.0
 70
    11
 71
     3
 72
    17
 73
    13
 74
     0
 42
0.0000000001
 43
0.0000000001
 12
1.0
 22
0.0
 32
0.0
 13
1.0
 23
0.0
 33
0.0
 40
0.0
 40
0.0
 40
0.0
 40
0.0
 40
1.0
 40
1.0
 40
1.0
 40
2.0
 40
2.0
 40
2.0
 40
3.0
 40
3.0
 40
3.0
 40
4.0
 40
4.0
 40
4.0
 40
4.0
 10
69.43883572846771
 20
-119.7303435811786
 30
0.0
 10
69.43883572846771
 20
-119.6752044145255
 30
0.0
 10
69.39403295183295
 20
-119.630436914537
 30
0.0
 10
69.33875267546549
 20
-119.630436914537
 30
0.0
 10
69.28361351020554
 20
-119.630436914537
 30
0.0
 10
69.23884601134765
 20
-119.6752044145255
 30
0.0
 10
69.23884601134765
 20
-119.7303435811786
 30
0.0
 10
69.23884601134765
 20
-119.7858002478313
 30
0.0
 10
69.28361351020554
 20
-119.8305677478202
 30
0.0
 10
69.33875267546549
 20
-119.8305677478202
 30
0.0
 10
69.39403295183295
 20
-119.8305677478202
 30
0.0
 10
69.43883572846771
 20
-119.7858002478313
 30
0.0
 10
69.43883572846771
 20
-119.7303435811786
 30
0.0
  0
SPLINE
  5
72
330
1F
100
AcDbEntity
  8
_U+30EC_U+30A4_U+30E4_U+30FC 1
 62
   179
420
  2234388
370
     9
100
AcDbSpline
210
0.0
220
0.0
230
1.0
 70
    11
 71
     3
 72
    17
 73
    13
 74
     0
 42
0.0000000001
 43
0.0000000001
 12
1.0
 22
0.0
 32
0.0
 13
1.0
 23
0.0
 33
0.0
 40
0.0
 40
0.0
 40
0.0
 40
0.0
 40
1.0
 40
1.0
 40
1.0
 40
2.0
 40
2.0
 40
2.0
 40
3.0
 40
3.0
 40
3.0
 40
4.0
 40
4.0
 40
4.0
 40
4.0
 10
106.4386267289688
 20
-119.7303435811786
 30
0.0
 10
106.4386267289688
 20
-119.6752044145255
 30
0.0
 10
106.393859230111
 20
-119.630436914537
 30
0.0
 10
106.338720064851
 20
-119.630436914537
 30
0.0
 10
106.2836161773679
 20
-119.630436914537
 30
0.0
 10
106.2388134007332
 20
-119.6752044145255
 30
0.0
 10
106.2388134007332
 20
-119.7303435811786
 30
0.0
 10
106.2388134007332
 20
-119.7858002478313
 30
0.0
 10
106.2836161773679
 20
-119.8305677478202
 30
0.0
 10
106.338720064851
 20
-119.8305677478202
 30
0.0
 10
106.393859230111
 20
-119.8305677478202
 30
0.0
 10
106.4386267289688
 20
-119.7858002478313
 30
0.0
 10
106.4386267289688
 20
-119.7303435811786
 30
0.0
  0
SPLINE
  5
73
330
1F
100
AcDbEntity
  8
_U+30EC_U+30A4_U+30E4_U+30FC 1
 62
   179
420
  2234388
370
     9
100
AcDbSpline
210
0.0
220
0.0
230
1.0
 70
    11
 71
     3
 72
    17
 73
    13
 74
     0
 42
0.0000000001
 43
0.0000000001
 12
1.0
 22
0.0
 32
0.0
 13
1.0
 23
0.0
 33
0.0
 40
0.0
 40
0.0
 40
0.0
 40
0.0
 40
1.0
 40
1.0
 40
1.0
 40
2.0
 40
2.0
 40
2.0
 40
3.0
 40
3.0
 40
3.0
 40
4.0
 40
4.0
 40
4.0
 40
4.0
 10
110.4390913491307
 20
-123.7302438579562
 30
0.0
 10
110.4390913491307
 20
-123.6751399690813
 30
0.0
 10
110.394288572496
 20
-123.6303371913146
 30
0.0
 10
110.3384791294753
 20
-123.6303371913146
 30
0.0
 10
110.2833752419922
 20
-123.6303371913146
 30
0.0
 10
110.2385724653575
 20
-123.6751399690813
 30
0.0
 10
110.2385724653575
 20
-123.7302438579562
 30
0.0
 10
110.2385724653575
 20
-123.7853830246093
 30
0.0
 10
110.2833752419922
 20
-123.8301505245982
 30
0.0
 10
110.3384791294753
 20
-123.8301505245982
 30
0.0
 10
110.394288572496
 20
-123.8301505245982
 30
0.0
 10
110.4390913491307
 20
-123.7853830246093
 30
0.0
 10
110.4390913491307
 20
-123.7302438579562
 30
0.0
  0
SPLINE
  5
74
330
1F
100
AcDbEntity
  8
_U+30EC_U+30A4_U+30E4_U+30FC 1
 62
   179
420
  2234388
370
     9
100
AcDbSpline
210
0.0
220
0.0
230
1.0
 70
    11
 71
     3
 72
    17
 73
    13
 74
     0
 42
0.0000000001
 43
0.0000000001
 12
1.0
 22
0.0
 32
0.0
 13
1.0
 23
0.0
 33
0.0
 40
0.0
 40
0.0
 40
0.0
 40
0.0
 40
1.0
 40
1.0
 40
1.0
 40
2.0
 40
2.0
 40
2.0
 40
3.0
 40
3.0
 40
3.0
 40
4.0
 40
4.0
 40
4.0
 40
4.0
 10
110.4390913491307
 20
-124.7300160799288
 30
0.0
 10
110.4390913491307
 20
-124.6749121910535
 30
0.0
 10
110.394288572496
 20
-124.6301094132868
 30
0.0
 10
110.3384791294753
 20
-124.6301094132868
 30
0.0
 10
110.2833752419922
 20
-124.6301094132868
 30
0.0
 10
110.2385724653575
 20
-124.6749121910535
 30
0.0
 10
110.2385724653575
 20
-124.7300160799288
 30
0.0
 10
110.2385724653575
 20
-124.7855080243593
 30
0.0
 10
110.2833752419922
 20
-124.8302755243478
 30
0.0
 10
110.3384791294753
 20
-124.8302755243478
 30
0.0
 10
110.394288572496
 20
-124.8302755243478
 30
0.0
 10
110.4390913491307
 20
-124.7855080243593
 30
0.0
 10
110.4390913491307
 20
-124.7300160799288
 30
0.0
  0
SPLINE
  5
75
330
1F
100
AcDbEntity
  8
_U+30EC_U+30A4_U+30E4_U+30FC 1
 62
   179
420
  2234388
370
     9
100
AcDbSpline
210
0.0
220
0.0
230
1.0
 70
    11
 71
     3
 72
    17
 73
    13
 74
     0
 42
0.0000000001
 43
0.0000000001
 12
1.0
 22
0.0
 32
0.0
 13
1.0
 23
0.0
 33
0.0
 40
0.0
 40
0.0
 40
0.0
 40
0.0
 40
1.0
 40
1.0
 40
1.0
 40
2.0
 40
2.0
 40
2.0
 40
3.0
 40
3.0
 40
3.0
 40
4.0
 40
4.0
 40
4.0
 40
4.0
 10
110.4390913491307
 20
-133.230796355581
 30
0.0
 10
110.4390913491307
 20
-133.1749869111506
 30
0.0
 10
110.394288572496
 20
-133.130219411162
 30
0.0
 10
110.3384791294753
 20
-133.130219411162
 30
0.0
 10
110.2833752419922
 20
-133.130219411162
 30
0.0
 10
110.2385724653575
 20
-133.1749869111506
 30
0.0
 10
110.2385724653575
 20
-133.230796355581
 30
0.0
 10
110.2385724653575
 20
-133.2859355222341
 30
0.0
 10
110.2833752419922
 20
-133.3307030222227
 30
0.0
 10
110.3384791294753
 20
-133.3307030222227
 30
0.0
 10
110.394288572496
 20
-133.3307030222227
 30
0.0
 10
110.4390913491307
 20
-133.2859355222341
 30
0.0
 10
110.4390913491307
 20
-133.230796355581
 30
0.0
  0
SPLINE
  5
76
330
1F
100
AcDbEntity
  8
_U+30EC_U+30A4_U+30E4_U+30FC 1
 62
   179
420
  2234388
370
     9
100
AcDbSpline
210
0.0
220
0.0
230
1.0
 70
    11
 71
     3
 72
    17
 73
    13
 74
     0
 42
0.0000000001
 43
0.0000000001
 12
1.0
 22
0.0
 32
0.0
 13
1.0
 23
0.0
 33
0.0
 40
0.0
 40
0.0
 40
0.0
 40
0.0
 40
1.0
 40
1.0
 40
1.0
 40
2.0
 40
2.0
 40
2.0
 40
3.0
 40
3.0
 40
3.0
 40
4.0
 40
4.0
 40
4.0
 40
4.0
 10
110.4390913491307
 20
-136.2307832992754
 30
0.0
 10
110.4390913491307
 20
-136.1749738548449
 30
0.0
 10
110.394288572496
 20
-136.1302063548564
 30
0.0
 10
110.3384791294753
 20
-136.1302063548564
 30
0.0
 10
110.2833752419922
 20
-136.1302063548564
 30
0.0
 10
110.2385724653575
 20
-136.1749738548449
 30
0.0
 10
110.2385724653575
 20
-136.2307832992754
 30
0.0
 10
110.2385724653575
 20
-136.2859224659285
 30
0.0
 10
110.2833752419922
 20
-136.330689965917
 30
0.0
 10
110.3384791294753
 20
-136.330689965917
 30
0.0
 10
110.394288572496
 20
-136.330689965917
 30
0.0
 10
110.4390913491307
 20
-136.2859224659285
 30
0.0
 10
110.4390913491307
 20
-136.2307832992754
 30
0.0
  0
SPLINE
  5
77
330
1F
100
AcDbEntity
  8
_U+30EC_U+30A4_U+30E4_U+30FC 1
 62
   179
420
  2234388
370
     9
100
AcDbSpline
210
0.0
220
0.0
230
1.0
 70
    11
 71
     3
 72
    17
 73
    13
 74
     0
 42
0.0000000001
 43
0.0000000001
 12
1.0
 22
0.0
 32
0.0
 13
1.0
 23
0.0
 33
0.0
 40
0.0
 40
0.0
 40
0.0
 40
0.0
 40
1.0
 40
1.0
 40
1.0
 40
2.0
 40
2.0
 40
2.0
 40
3.0
 40
3.0
 40
3.0
 40
4.0
 40
4.0
 40
4.0
 40
4.0
 10
81.43878320010133
 20
-140.2305424649423
 30
0.0
 10
81.43878320010133
 20
-140.1754385760673
 30
0.0
 10
81.39398042346656
 20
-140.1306357983006
 30
0.0
 10
81.33887653598349
 20
-140.1306357983006
 30
0.0
 10
81.28373737072354
 20
-140.1306357983006
 30
0.0
 10
81.23896987186565
 20
-140.1754385760673
 30
0.0
 10
81.23896987186565
 20
-140.2305424649423
 30
0.0
 10
81.23896987186565
 20
-140.2856816315953
 30
0.0
 10
81.28373737072354
 20
-140.3304491315839
 30
0.0
 10
81.33887653598349
 20
-140.3304491315839
 30
0.0
 10
81.39398042346656
 20
-140.3304491315839
 30
0.0
 10
81.43878320010133
 20
-140.2856816315953
 30
0.0
 10
81.43878320010133
 20
-140.2305424649423
 30
0.0
  0
SPLINE
  5
78
330
1F
100
AcDbEntity
  8
_U+30EC_U+30A4_U+30E4_U+30FC 1
 62
   179
420
  2234388
370
     9
100
AcDbSpline
210
0.0
220
0.0
230
1.0
 70
    11
 71
     3
 72
    17
 73
    13
 74
     0
 42
0.0000000001
 43
0.0000000001
 12
1.0
 22
0.0
 32
0.0
 13
1.0
 23
0.0
 33
0.0
 40
0.0
 40
0.0
 40
0.0
 40
0.0
 40
1.0
 40
1.0
 40
1.0
 40
2.0
 40
2.0
 40
2.0
 40
3.0
 40
3.0
 40
3.0
 40
4.0
 40
4.0
 40
4.0
 40
4.0
 10
91.43904516719562
 20
-140.2305424649423
 30
0.0
 10
91.43904516719562
 20
-140.1754385760673
 30
0.0
 10
91.39424239056085
 20
-140.1306357983006
 30
0.0
 10
91.33860933642461
 20
-140.1306357983006
 30
0.0
 10
91.28347017116467
 20
-140.1306357983006
 30
0.0
 10
91.23870267230677
 20
-140.1754385760673
 30
0.0
 10
91.23870267230677
 20
-140.2305424649423
 30
0.0
 10
91.23870267230677
 20
-140.2856816315953
 30
0.0
 10
91.28347017116467
 20
-140.3304491315839
 30
0.0
 10
91.33860933642461
 20
-140.3304491315839
 30
0.0
 10
91.39424239056085
 20
-140.3304491315839
 30
0.0
 10
91.43904516719562
 20
-140.2856816315953
 30
0.0
 10
91.43904516719562
 20
-140.2305424649423
 30
0.0
  0
SPLINE
  5
79
330
1F
100
AcDbEntity
  8
_U+30EC_U+30A4_U+30E4_U+30FC 1
 62
   179
420
  2234388
370
     9
100
AcDbSpline
210
0.0
220
0.0
230
1.0
 70
    11
 71
     3
 72
    17
 73
    13
 74
     0
 42
0.0000000001
 43
0.0000000001
 12
1.0
 22
0.0
 32
0.0
 13
1.0
 23
0.0
 33
0.0
 40
0.0
 40
0.0
 40
0.0
 40
0.0
 40
1.0
 40
1.0
 40
1.0
 40
2.0
 40
2.0
 40
2.0
 40
3.0
 40
3.0
 40
3.0
 40
4.0
 40
4.0
 40
4.0
 40
4.0
 10
69.43883572846771
 20
-140.2305424649423
 30
0.0
 10
69.43883572846771
 20
-140.1754385760673
 30
0.0
 10
69.39403295183295
 20
-140.1306357983006
 30
0.0
 10
69.33875267546549
 20
-140.1306357983006
 30
0.0
 10
69.28361351020554
 20
-140.1306357983006
 30
0.0
 10
69.23884601134765
 20
-140.1754385760673
 30
0.0
 10
69.23884601134765
 20
-140.2305424649423
 30
0.0
 10
69.23884601134765
 20
-140.2856816315953
 30
0.0
 10
69.28361351020554
 20
-140.3304491315839
 30
0.0
 10
69.33875267546549
 20
-140.3304491315839
 30
0.0
 10
69.39403295183295
 20
-140.3304491315839
 30
0.0
 10
69.43883572846771
 20
-140.2856816315953
 30
0.0
 10
69.43883572846771
 20
-140.2305424649423
 30
0.0
  0
POLYLINE
  5
7A
330
1F
100
AcDbEntity
  8
_U+30EC_U+30A4_U+30E4_U+30FC 1
 62
   179
420
  2234388
370
     9
100
AcDb2dPolyline
 66
     1
 10
0.0
 20
0.0
 30
0.0
  0
VERTEX
  5
7B
330
7A
100
AcDbEntity
  8
_U+30EC_U+30A4_U+30E4_U+30FC 1
 62
   179
420
  2234388
370
     9
100
AcDbVertex
100
AcDb2dVertex
 10
110.3384791294753
 20
-123.7302438579562
 30
0.0
  0
VERTEX
  5
7C
330
7A
100
AcDbEntity
  8
_U+30EC_U+30A4_U+30E4_U+30FC 1
 62
   179
420
  2234388
370
     9
100
AcDbVertex
100
AcDb2dVertex
 10
110.3384791294753
 20
-119.9601077477877
 30
0.0
  0
SEQEND
  5
7D
330
7A
100
AcDbEntity
  8
_U+30EC_U+30A4_U+30E4_U+30FC 1
 62
   179
420
  2234388
370
     9
  0
POLYLINE
  5
7E
330
1F
100
AcDbEntity
  8
_U+30EC_U+30A4_U+30E4_U+30FC 1
 62
   179
420
  2234388
370
     9
100
AcDb2dPolyline
 66
     1
 10
0.0
 20
0.0
 30
0.0
  0
VERTEX
  5
7F
330
7E
100
AcDbEntity
  8
_U+30EC_U+30A4_U+30E4_U+30FC 1
 62
   179
420
  2234388
370
     9
100
AcDbVertex
100
AcDb2dVertex
 10
110.3384791294753
 20
-123.7302438579562
 30
0.0
  0
VERTEX
  5
80
330
7E
100
AcDbEntity
  8
_U+30EC_U+30A4_U+30E4_U+30FC 1
 62
   179
420
  2234388
370
     9
100
AcDbVertex
100
AcDb2dVertex
 10
110.3384791294753
 20
-124.7300160799288
 30
0.0
  0
SEQEND
  5
81
330
7E
100
AcDbEntity
  8
_U+30EC_U+30A4_U+30E4_U+30FC 1
 62
   179
420
  2234388
370
     9
  0
POLYLINE
  5
82
330
1F
100
AcDbEntity
  8
_U+30EC_U+30A4_U+30E4_U+30FC 1
 62
   179
420
  2234388
370
     9
100
AcDb2dPolyline
 66
     1
 10
0.0
 20
0.0
 30
0.0
  0
VERTEX
  5
83
330
82
100
AcDbEntity
  8
_U+30EC_U+30A4_U+30E4_U+30FC 1
 62
   179
420
  2234388
370
     9
100
AcDbVertex
100
AcDb2dVertex
 10
108.8784377778352
 20
-123.7302438579562
 30
0.0
  0
VERTEX
  5
84
330
82
100
AcDbEntity
  8
_U+30EC_U+30A4_U+30E4_U+30FC 1
 62
   179
420
  2234388
370
     9
100
AcDbVertex
100
AcDb2dVertex
 10
111.3389216039519
 20
-123.7302438579562
 30
0.0
  0
SEQEND
  5
85
330
82
100
AcDbEntity
  8
_U+30EC_U+30A4_U+30E4_U+30FC 1
 62
   179
420
  2234388
370
     9
  0
POLYLINE
  5
86
330
1F
100
AcDbEntity
  8
_U+30EC_U+30A4_U+30E4_U+30FC 1
 62
   179
420
  2234388
370
     9
100
AcDb2dPolyline
 66
     1
 10
0.0
 20
0.0
 30
0.0
  0
VERTEX
  5
87
330
86
100
AcDbEntity
  8
_U+30EC_U+30A4_U+30E4_U+30FC 1
 62
   179
420
  2234388
370
     9
100
AcDbVertex
100
AcDb2dVertex
 10
108.8784377778352
 20
-124.7300160799288
 30
0.0
  0
VERTEX
  5
88
330
86
100
AcDbEntity
  8
_U+30EC_U+30A4_U+30E4_U+30FC 1
 62
   179
420
  2234388
370
     9
100
AcDbVertex
100
AcDb2dVertex
 10
111.3389216039519
 20
-124.7300160799288
 30
0.0
  0
SEQEND
  5
89
330
86
100
AcDbEntity
  8
_U+30EC_U+30A4_U+30E4_U+30FC 1
 62
   179
420
  2234388
370
     9
  0
INSERT
  5
8B
330
1F
100
AcDbEntity
  8
_U+30EC_U+30A4_U+30E4_U+30FC 1
100
AcDbBlockReference
  2
block 2
 10
0.0
 20
0.0
 30
0.0
  0
POLYLINE
  5
90
330
1F
100
AcDbEntity
  8
_U+30EC_U+30A4_U+30E4_U+30FC 1
 62
   179
420
  2234388
370
     9
100
AcDb2dPolyline
 66
     1
 10
0.0
 20
0.0
 30
0.0
  0
VERTEX
  5
91
330
90
100
AcDbEntity
  8
_U+30EC_U+30A4_U+30E4_U+30FC 1
 62
   179
420
  2234388
370
     9
100
AcDbVertex
100
AcDb2dVertex
 10
110.3384791294753
 20
-136.2307832992754
 30
0.0
  0
VERTEX
  5
92
330
90
100
AcDbEntity
  8
_U+30EC_U+30A4_U+30E4_U+30FC 1
 62
   179
420
  2234388
370
     9
100
AcDbVertex
100
AcDb2dVertex
 10
110.3384791294753
 20
-133.230796355581
 30
0.0
  0
SEQEND
  5
93
330
90
100
AcDbEntity
  8
_U+30EC_U+30A4_U+30E4_U+30FC 1
 62
   179
420
  2234388
370
     9
  0
POLYLINE
  5
94
330
1F
100
AcDbEntity
  8
_U+30EC_U+30A4_U+30E4_U+30FC 1
 62
   179
420
  2234388
370
     9
100
AcDb2dPolyline
 66
     1
 10
0.0
 20
0.0
 30
0.0
  0
VERTEX
  5
95
330
94
100
AcDbEntity
  8
_U+30EC_U+30A4_U+30E4_U+30FC 1
 62
   179
420
  2234388
370
     9
100
AcDbVertex
100
AcDb2dVertex
 10
93.87885621606196
 20
-136.2307832992754
 30
0.0
  0
VERTEX
  5
96
330
94
100
AcDbEntity
  8
_U+30EC_U+30A4_U+30E4_U+30FC 1
 62
   179
420
  2234388
370
     9
100
AcDbVertex
100
AcDb2dVertex
 10
111.3389216039519
 20
-136.2307832992754
 30
0.0
  0
SEQEND
  5
97
330
94
100
AcDbEntity
  8
_U+30EC_U+30A4_U+30E4_U+30FC 1
 62
   179
420
  2234388
370
     9
  0
INSERT
  5
99
330
1F
100
AcDbEntity
  8
_U+30EC_U+30A4_U+30E4_U+30FC 1
100
AcDbBlockReference
  2
block 3
 10
0.0
 20
0.0
 30
0.0
  0
POLYLINE
  5
9E
330
1F
100
AcDbEntity
  8
_U+30EC_U+30A4_U+30E4_U+30FC 1
 62
   179
420
  2234388
370
     9
100
AcDb2dPolyline
 66
     1
 10
0.0
 20
0.0
 30
0.0
  0
VERTEX
  5
9F
330
9E
100
AcDbEntity
  8
_U+30EC_U+30A4_U+30E4_U+30FC 1
 62
   179
420
  2234388
370
     9
100
AcDbVertex
100
AcDb2dVertex
 10
69.33875267546549
 20
-119.7303435811786
 30
0.0
  0
VERTEX
  5
A0
330
9E
100
AcDbEntity
  8
_U+30EC_U+30A4_U+30E4_U+30FC 1
 62
   179
420
  2234388
370
     9
100
AcDbVertex
100
AcDb2dVertex
 10
106.338720064851
 20
-119.7303435811786
 30
0.0
  0
SEQEND
  5
A1
330
9E
100
AcDbEntity
  8
_U+30EC_U+30A4_U+30E4_U+30FC 1
 62
   179
420
  2234388
370
     9
  0
POLYLINE
  5
A2
330
1F
100
AcDbEntity
  8
_U+30EC_U+30A4_U+30E4_U+30FC 1
 62
   179
420
  2234388
370
     9
100
AcDb2dPolyline
 66
     1
 10
0.0
 20
0.0
 30
0.0
  0
VERTEX
  5
A3
330
A2
100
AcDbEntity
  8
_U+30EC_U+30A4_U+30E4_U+30FC 1
 62
   179
420
  2234388
370
     9
100
AcDbVertex
100
AcDb2dVertex
 10
69.33875267546549
 20
-121.1902085808134
 30
0.0
  0
VERTEX
  5
A4
330
A2
100
AcDbEntity
  8
_U+30EC_U+30A4_U+30E4_U+30FC 1
 62
   179
420
  2234388
370
     9
100
AcDbVertex
100
AcDb2dVertex
 10
69.33875267546549
 20
-118.7303949703175
 30
0.0
  0
SEQEND
  5
A5
330
A2
100
AcDbEntity
  8
_U+30EC_U+30A4_U+30E4_U+30FC 1
 62
   179
420
  2234388
370
     9
  0
POLYLINE
  5
A6
330
1F
100
AcDbEntity
  8
_U+30EC_U+30A4_U+30E4_U+30FC 1
 62
   179
420
  2234388
370
     9
100
AcDb2dPolyline
 66
     1
 10
0.0
 20
0.0
 30
0.0
  0
VERTEX
  5
A7
330
A6
100
AcDbEntity
  8
_U+30EC_U+30A4_U+30E4_U+30FC 1
 62
   179
420
  2234388
370
     9
100
AcDbVertex
100
AcDb2dVertex
 10
106.338720064851
 20
-121.1902085808134
 30
0.0
  0
VERTEX
  5
A8
330
A6
100
AcDbEntity
  8
_U+30EC_U+30A4_U+30E4_U+30FC 1
 62
   179
420
  2234388
370
     9
100
AcDbVertex
100
AcDb2dVertex
 10
106.338720064851
 20
-118.7303949703175
 30
0.0
  0
SEQEND
  5
A9
330
A6
100
AcDbEntity
  8
_U+30EC_U+30A4_U+30E4_U+30FC 1
 62
   179
420
  2234388
370
     9
  0
INSERT
  5
AB
330
1F
100
AcDbEntity
  8
_U+30EC_U+30A4_U+30E4_U+30FC 1
100
AcDbBlockReference
  2
block 4
 10
0.0
 20
0.0
 30
0.0
  0
POLYLINE
  5
B2
330
1F
100
AcDbEntity
  8
_U+30EC_U+30A4_U+30E4_U+30FC 1
 62
   179
420
  2234388
370
     9
100
AcDb2dPolyline
 66
     1
 10
0.0
 20
0.0
 30
0.0
  0
VERTEX
  5
B3
330
B2
100
AcDbEntity
  8
_U+30EC_U+30A4_U+30E4_U+30FC 1
 62
   179
420
  2234388
370
     9
100
AcDbVertex
100
AcDb2dVertex
 10
81.33887653598349
 20
-140.2305424649423
 30
0.0
  0
VERTEX
  5
B4
330
B2
100
AcDbEntity
  8
_U+30EC_U+30A4_U+30E4_U+30FC 1
 62
   179
420
  2234388
370
     9
100
AcDbVertex
100
AcDb2dVertex
 10
91.33860933642461
 20
-140.2305424649423
 30
0.0
  0
SEQEND
  5
B5
330
B2
100
AcDbEntity
  8
_U+30EC_U+30A4_U+30E4_U+30FC 1
 62
   179
420
  2234388
370
     9
  0
POLYLINE
  5
B6
330
1F
100
AcDbEntity
  8
_U+30EC_U+30A4_U+30E4_U+30FC 1
 62
   179
420
  2234388
370
     9
100
AcDb2dPolyline
 66
     1
 10
0.0
 20
0.0
 30
0.0
  0
VERTEX
  5
B7
330
B6
100
AcDbEntity
  8
_U+30EC_U+30A4_U+30E4_U+30FC 1
 62
   179
420
  2234388
370
     9
100
AcDbVertex
100
AcDb2dVertex
 10
81.33887653598349
 20
-138.7705010764186
 30
0.0
  0
VERTEX
  5
B8
330
B6
100
AcDbEntity
  8
_U+30EC_U+30A4_U+30E4_U+30FC 1
 62
   179
420
  2234388
370
     9
100
AcDbVertex
100
AcDb2dVertex
 10
81.33887653598349
 20
-141.2303146869148
 30
0.0
  0
SEQEND
  5
B9
330
B6
100
AcDbEntity
  8
_U+30EC_U+30A4_U+30E4_U+30FC 1
 62
   179
420
  2234388
370
     9
  0
POLYLINE
  5
BA
330
1F
100
AcDbEntity
  8
_U+30EC_U+30A4_U+30E4_U+30FC 1
 62
   179
420
  2234388
370
     9
100
AcDb2dPolyline
 66
     1
 10
0.0
 20
0.0
 30
0.0
  0
VERTEX
  5
BB
330
BA
100
AcDbEntity
  8
_U+30EC_U+30A4_U+30E4_U+30FC 1
 62
   179
420
  2234388
370
     9
100
AcDbVertex
100
AcDb2dVertex
 10
91.33860933642461
 20
-138.7705010764186
 30
0.0
  0
VERTEX
  5
BC
330
BA
100
AcDbEntity
  8
_U+30EC_U+30A4_U+30E4_U+30FC 1
 62
   179
420
  2234388
370
     9
100
AcDbVertex
100
AcDb2dVertex
 10
91.33860933642461
 20
-141.2303146869148
 30
0.0
  0
SEQEND
  5
BD
330
BA
100
AcDbEntity
  8
_U+30EC_U+30A4_U+30E4_U+30FC 1
 62
   179
420
  2234388
370
     9
  0
INSERT
  5
BF
330
1F
100
AcDbEntity
  8
_U+30EC_U+30A4_U+30E4_U+30FC 1
100
AcDbBlockReference
  2
block 5
 10
0.0
 20
0.0
 30
0.0
  0
POLYLINE
  5
C7
330
1F
100
AcDbEntity
  8
_U+30EC_U+30A4_U+30E4_U+30FC 1
 62
   179
420
  2234388
370
     9
100
AcDb2dPolyline
 66
     1
 10
0.0
 20
0.0
 30
0.0
  0
VERTEX
  5
C8
330
C7
100
AcDbEntity
  8
_U+30EC_U+30A4_U+30E4_U+30FC 1
 62
   179
420
  2234388
370
     9
100
AcDbVertex
100
AcDb2dVertex
 10
69.33875267546549
 20
-140.2305424649423
 30
0.0
  0
VERTEX
  5
C9
330
C7
100
AcDbEntity
  8
_U+30EC_U+30A4_U+30E4_U+30FC 1
 62
   179
420
  2234388
370
     9
100
AcDbVertex
100
AcDb2dVertex
 10
81.33887653598349
 20
-140.2305424649423
 30
0.0
  0
SEQEND
  5
CA
330
C7
100
AcDbEntity
  8
_U+30EC_U+30A4_U+30E4_U+30FC 1
 62
   179
420
  2234388
370
     9
  0
POLYLINE
  5
CB
330
1F
100
AcDbEntity
  8
_U+30EC_U+30A4_U+30E4_U+30FC 1
 62
   179
420
  2234388
370
     9
100
AcDb2dPolyline
 66
     1
 10
0.0
 20
0.0
 30
0.0
  0
VERTEX
  5
CC
330
CB
100
AcDbEntity
  8
_U+30EC_U+30A4_U+30E4_U+30FC 1
 62
   179
420
  2234388
370
     9
100
AcDbVertex
100
AcDb2dVertex
 10
69.33875267546549
 20
-127.2704394126268
 30
0.0
  0
VERTEX
  5
CD
330
CB
100
AcDbEntity
  8
_U+30EC_U+30A4_U+30E4_U+30FC 1
 62
   179
420
  2234388
370
     9
100
AcDbVertex
100
AcDb2dVertex
 10
69.33875267546549
 20
-141.2303146869148
 30
0.0
  0
SEQEND
  5
CE
330
CB
100
AcDbEntity
  8
_U+30EC_U+30A4_U+30E4_U+30FC 1
 62
   179
420
  2234388
370
     9
  0
INSERT
  5
D0
330
1F
100
AcDbEntity
  8
_U+30EC_U+30A4_U+30E4_U+30FC 1
100
AcDbBlockReference
  2
block 6
 10
0.0
 20
0.0
 30
0.0
  0
POLYLINE
  5
D7
330
1F
100
AcDbEntity
  8
_U+30EC_U+30A4_U+30E4_U+30FC 1
 62
   179
420
  2234388
370
     9
100
AcDb2dPolyline
 66
     1
 10
0.0
 20
0.0
 30
0.0
  0
VERTEX
  5
D8
330
D7
100
AcDbEntity
  8
_U+30EC_U+30A4_U+30E4_U+30FC 1
 62
   179
420
  2234388
370
     9
100
AcDbVertex
100
AcDb2dVertex
 10
110.3384791294753
 20
-133.230796355581
 30
0.0
  0
VERTEX
  5
D9
330
D7
100
AcDbEntity
  8
_U+30EC_U+30A4_U+30E4_U+30FC 1
 62
   179
420
  2234388
370
     9
100
AcDbVertex
100
AcDb2dVertex
 10
110.3384791294753
 20
-124.7300160799288
 30
0.0
  0
SEQEND
  5
DA
330
D7
100
AcDbEntity
  8
_U+30EC_U+30A4_U+30E4_U+30FC 1
 62
   179
420
  2234388
370
     9
  0
POLYLINE
  5
DB
330
1F
100
AcDbEntity
  8
_U+30EC_U+30A4_U+30E4_U+30FC 1
 62
   179
420
  2234388
370
     9
100
AcDb2dPolyline
 66
     1
 10
0.0
 20
0.0
 30
0.0
  0
VERTEX
  5
DC
330
DB
100
AcDbEntity
  8
_U+30EC_U+30A4_U+30E4_U+30FC 1
 62
   179
420
  2234388
370
     9
100
AcDbVertex
100
AcDb2dVertex
 10
93.87885621606196
 20
-133.230796355581
 30
0.0
  0
VERTEX
  5
DD
330
DB
100
AcDbEntity
  8
_U+30EC_U+30A4_U+30E4_U+30FC 1
 62
   179
420
  2234388
370
     9
100
AcDbVertex
100
AcDb2dVertex
 10
111.3389216039519
 20
-133.230796355581
 30
0.0
  0
SEQEND
  5
DE
330
DB
100
AcDbEntity
  8
_U+30EC_U+30A4_U+30E4_U+30FC 1
 62
   179
420
  2234388
370
     9
  0
INSERT
  5
E0
330
1F
100
AcDbEntity
  8
_U+30EC_U+30A4_U+30E4_U+30FC 1
100
AcDbBlockReference
  2
block 7
 10
0.0
 20
0.0
 30
0.0
  0
ENDSEC
  0
SECTION
  2
OBJECTS
  0
DICTIONARY
  5
C
330
0
100
AcDbDictionary
281
     1
  3
ACAD_GROUP
350
D
  3
ACAD_LAYOUT
350
1A
  3
ACAD_MATERIAL
350
3B
  3
ACAD_MLEADERSTYLE
350
F2
  3
ACAD_MLINESTYLE
350
17
  3
ACAD_PLOTSETTINGS
350
19
  3
ACAD_PLOTSTYLENAME
350
E
  3
ACAD_TABLESTYLE
350
F1
  3
ACAD_VISUALSTYLE
350
2A
  0
SUN
  5
3F
330
29
100
AcDbSun
 90
        1
290
     0
 63
     7
421
 16777215
 40
1.0
291
     1
 91
  2455826
 92
 54000000
292
     0
 70
     2
 71
   256
280
     1
  0
DICTIONARY
  5
D
102
{ACAD_REACTORS
330
C
102
}
330
C
100
AcDbDictionary
281
     1
  0
DICTIONARY
  5
1A
102
{ACAD_REACTORS
330
C
102
}
330
C
100
AcDbDictionary
281
     1
  3
Layout1
350
1E
  3
Layout2
350
26
  3
Model
350
22
  0
DICTIONARY
  5
3B
102
{ACAD_REACTORS
330
C
102
}
330
C
100
AcDbDictionary
281
     1
  3
ByBlock
350
3D
  3
ByLayer
350
3C
  3
Global
350
3E
  0
DICTIONARY
  5
F2
102
{ACAD_REACTORS
330
C
102
}
330
C
100
AcDbDictionary
281
     1
  0
DICTIONARY
  5
17
102
{ACAD_REACTORS
330
C
102
}
330
C
100
AcDbDictionary
281
     1
  3
Standard
350
18
  0
DICTIONARY
  5
19
102
{ACAD_REACTORS
330
C
102
}
330
C
100
AcDbDictionary
281
     1
  0
ACDBDICTIONARYWDFLT
  5
E
102
{ACAD_REACTORS
330
C
102
}
330
C
100
AcDbDictionary
281
     1
  3
Normal
350
F
100
AcDbDictionaryWithDefault
340
F
  0
DICTIONARY
  5
F1
102
{ACAD_REACTORS
330
C
102
}
330
C
100
AcDbDictionary
281
     1
  0
DICTIONARY
  5
2A
102
{ACAD_REACTORS
330
C
102
}
330
C
100
AcDbDictionary
281
     1
  3
2dWireframe
350
2F
  3
3D Hidden
350
31
  3
3dWireframe
350
30
  3
Basic
350
32
  3
Brighten
350
36
  3
ColorChange
350
3A
  3
Conceptual
350
34
  3
Dim
350
35
  3
Facepattern
350
39
  3
Flat
350
2B
  3
FlatWithEdges
350
2C
  3
Gouraud
350
2D
  3
GouraudWithEdges
350
2E
  3
Linepattern
350
38
  3
Realistic
350
33
  3
Thicken
350
37
  0
LAYOUT
  5
1E
102
{ACAD_REACTORS
330
1A
102
}
330
1A
100
AcDbPlotSettings
  1

  2
none_device
  4

  6

 40
0.0
 41
0.0
 42
0.0
 43
0.0
 44
0.0
 45
0.0
 46
0.0
 47
0.0
 48
0.0
 49
0.0
140
0.0
141
0.0
142
1.0
143
1.0
 70
   688
 72
     0
 73
     0
 74
     5
  7

 75
    16
 76
     0
 77
     2
 78
   300
147
1.0
148
0.0
149
0.0
100
AcDbLayout
  1
Layout1
 70
     1
 71
     1
 10
0.0
 20
0.0
 11
12.0
 21
9.0
 12
0.0
 22
0.0
 32
0.0
 14
1.000000000000000E+20
 24
1.000000000000000E+20
 34
1.000000000000000E+20
 15
-1.000000000000000E+20
 25
-1.000000000000000E+20
 35
-1.000000000000000E+20
146
0.0
 13
0.0
 23
0.0
 33
0.0
 16
1.0
 26
0.0
 36
0.0
 17
0.0
 27
1.0
 37
0.0
 76
     0
330
1B
  0
LAYOUT
  5
26
102
{ACAD_REACTORS
330
1A
102
}
330
1A
100
AcDbPlotSettings
  1

  2
none_device
  4

  6

 40
0.0
 41
0.0
 42
0.0
 43
0.0
 44
0.0
 45
0.0
 46
0.0
 47
0.0
 48
0.0
 49
0.0
140
0.0
141
0.0
142
1.0
143
1.0
 70
   688
 72
     0
 73
     0
 74
     5
  7

 75
    16
 76
     0
 77
     2
 78
   300
147
1.0
148
0.0
149
0.0
100
AcDbLayout
  1
Layout2
 70
     1
 71
     2
 10
0.0
 20
0.0
 11
0.0
 21
0.0
 12
0.0
 22
0.0
 32
0.0
 14
0.0
 24
0.0
 34
0.0
 15
0.0
 25
0.0
 35
0.0
146
0.0
 13
0.0
 23
0.0
 33
0.0
 16
1.0
 26
0.0
 36
0.0
 17
0.0
 27
1.0
 37
0.0
 76
     0
330
23
  0
LAYOUT
  5
22
102
{ACAD_REACTORS
330
1A
102
}
330
1A
100
AcDbPlotSettings
  1

  2
none_device
  4

  6

 40
0.0
 41
0.0
 42
0.0
 43
0.0
 44
0.0
 45
0.0
 46
0.0
 47
0.0
 48
0.0
 49
0.0
140
0.0
141
0.0
142
1.0
143
1.0
 70
  1712
 72
     0
 73
     0
 74
     0
  7

 75
     0
 76
     0
 77
     2
 78
   300
147
1.0
148
0.0
149
0.0
100
AcDbLayout
  1
Model
 70
     1
 71
     0
 10
0.0
 20
0.0
 11
12.0
 21
9.0
 12
0.0
 22
0.0
 32
0.0
 14
1.000000000000000E+20
 24
1.000000000000000E+20
 34
1.000000000000000E+20
 15
-1.000000000000000E+20
 25
-1.000000000000000E+20
 35
-1.000000000000000E+20
146
0.0
 13
0.0
 23
0.0
 33
0.0
 16
1.0
 26
0.0
 36
0.0
 17
0.0
 27
1.0
 37
0.0
 76
     0
330
1F
331
29
  0
MATERIAL
  5
3D
102
{ACAD_REACTORS
330
3B
102
}
330
3B
100
AcDbMaterial
  1
ByBlock
 72
     1
 94
      127
  0
MATERIAL
  5
3C
102
{ACAD_REACTORS
330
3B
102
}
330
3B
100
AcDbMaterial
  1
ByLayer
 72
     1
 94
      127
  0
MATERIAL
  5
3E
102
{ACAD_REACTORS
330
3B
102
}
330
3B
100
AcDbMaterial
  1
Global
 72
     1
 94
      127
  0
MLINESTYLE
  5
18
102
{ACAD_REACTORS
330
17
102
}
330
17
100
AcDbMlineStyle
  2
Standard
 70
     0
  3

 62
   256
 51
90.0
 52
90.0
 71
     2
 49
0.5
 62
   256
  6
BYLAYER
 49
-0.5
 62
   256
  6
BYLAYER
  0
ACDBPLACEHOLDER
  5
F
102
{ACAD_REACTORS
330
E
102
}
330
E
  0
VISUALSTYLE
  5
2F
102
{ACAD_REACTORS
330
2A
102
}
330
2A
100
AcDbVisualStyle
  2
2dWireframe
 70
     4
177
     2
291
     0
 71
     0
176
     1
 72
     2
176
     1
 73
     0
176
     1
 90
        0
176
     1
 40
-0.6
176
     1
 41
-30.0
176
     1
 62
     5
 63
     7
421
 16777215
176
     1
 74
     1
176
     1
 91
        4
176
     1
 64
     7
176
     1
 65
   257
176
     1
 75
     1
176
     1
175
     1
176
     1
 42
1.0
176
     1
 92
        0
176
     1
 66
   257
176
     1
 43
1.0
176
     1
 76
     1
176
     1
 77
     6
176
     1
 78
     2
176
     1
 67
     7
176
     1
 79
     5
176
     1
170
     0
176
     1
171
     0
176
     1
290
     0
176
     1
 93
        1
176
     1
 44
0.0
176
     1
173
     0
176
     1
  0
VISUALSTYLE
  5
31
102
{ACAD_REACTORS
330
2A
102
}
330
2A
100
AcDbVisualStyle
  2
3D Hidden
 70
     6
177
     2
291
     0
 71
     1
176
     1
 72
     2
176
     1
 73
     2
176
     1
 90
        0
176
     1
 40
-0.6
176
     1
 41
-30.0
176
     1
 62
     5
 63
     7
421
 16777215
176
     1
 74
     2
176
     1
 91
        2
176
     1
 64
     7
176
     1
 65
   257
176
     1
 75
     2
176
     1
175
     1
176
     1
 42
40.0
176
     1
 92
        0
176
     1
 66
   257
176
     1
 43
1.0
176
     1
 76
     1
176
     1
 77
     6
176
     1
 78
     2
176
     1
 67
     7
176
     1
 79
     3
176
     1
170
     0
176
     1
171
     0
176
     1
290
     0
176
     1
 93
        1
176
     1
 44
0.0
176
     1
173
     0
176
     1
  0
VISUALSTYLE
  5
30
102
{ACAD_REACTORS
330
2A
102
}
330
2A
100
AcDbVisualStyle
  2
3dWireframe
 70
     5
177
     2
291
     0
 71
     0
176
     1
 72
     2
176
     1
 73
     0
176
     1
 90
        0
176
     1
 40
-0.6
176
     1
 41
-30.0
176
     1
 62
     5
 63
     7
421
 16777215
176
     1
 74
     1
176
     1
 91
        4
176
     1
 64
     7
176
     1
 65
   257
176
     1
 75
     1
176
     1
175
     1
176
     1
 42
1.0
176
     1
 92
        0
176
     1
 66
   257
176
     1
 43
1.0
176
     1
 76
     1
176
     1
 77
     6
176
     1
 78
     2
176
     1
 67
     7
176
     1
 79
     5
176
     1
170
     0
176
     1
171
     0
176
     1
290
     0
176
     1
 93
        1
176
     1
 44
0.0
176
     1
173
     0
176
     1
  0
VISUALSTYLE
  5
32
102
{ACAD_REACTORS
330
2A
102
}
330
2A
100
AcDbVisualStyle
  2
Basic
 70
     7
177
     2
291
     1
 71
     1
176
     1
 72
     0
176
     1
 73
     1
176
     1
 90
        0
176
     1
 40
-0.6
176
     1
 41
-30.0
176
     1
 62
     5
 63
     7
421
 16777215
176
     1
 74
     0
176
     1
 91
        4
176
     1
 64
     7
176
     1
 65
   257
176
     1
 75
     1
176
     1
175
     1
176
     1
 42
1.0
176
     1
 92
        8
176
     1
 66
     7
176
     1
 43
1.0
176
     1
 76
     1
176
     1
 77
     6
176
     1
 78
     2
176
     1
 67
     7
176
     1
 79
     5
176
     1
170
     0
176
     1
171
     0
176
     1
290
     0
176
     1
 93
        1
176
     1
 44
0.0
176
     1
173
     0
176
     1
  0
VISUALSTYLE
  5
36
102
{ACAD_REACTORS
330
2A
102
}
330
2A
100
AcDbVisualStyle
  2
Brighten
 70
    12
177
     2
291
     1
 71
     2
176
     1
 72
     2
176
     1
 73
     0
176
     1
 90
        0
176
     1
 40
-0.6
176
     1
 41
-30.0
176
     1
 62
     5
 63
     7
421
 16777215
176
     1
 74
     1
176
     1
 91
        4
176
     1
 64
     7
176
     1
 65
   257
176
     1
 75
     1
176
     1
175
     1
176
     1
 42
1.0
176
     1
 92
        8
176
     1
 66
     7
176
     1
 43
1.0
176
     1
 76
     1
176
     1
 77
     6
176
     1
 78
     2
176
     1
 67
     7
176
     1
 79
     5
176
     1
170
     0
176
     1
171
     0
176
     1
290
     0
176
     1
 93
        1
176
     1
 44
50.0
176
     1
173
     0
176
     1
  0
VISUALSTYLE
  5
3A
102
{ACAD_REACTORS
330
2A
102
}
330
2A
100
AcDbVisualStyle
  2
ColorChange
 70
    16
177
     2
291
     1
 71
     2
176
     1
 72
     2
176
     1
 73
     3
176
     1
 90
        0
176
     1
 40
-0.6
176
     1
 41
-30.0
176
     1
 62
     5
 63
     8
421
  8421504
176
     1
 74
     1
176
     1
 91
        4
176
     1
 64
     7
176
     1
 65
   257
176
     1
 75
     1
176
     1
175
     1
176
     1
 42
1.0
176
     1
 92
        8
176
     1
 66
     8
424
  8421504
176
     1
 43
1.0
176
     1
 76
     1
176
     1
 77
     6
176
     1
 78
     2
176
     1
 67
     7
176
     1
 79
     5
176
     1
170
     0
176
     1
171
     0
176
     1
290
     0
176
     1
 93
        1
176
     1
 44
0.0
176
     1
173
     0
176
     1
  0
VISUALSTYLE
  5
34
102
{ACAD_REACTORS
330
2A
102
}
330
2A
100
AcDbVisualStyle
  2
Conceptual
 70
     9
177
     2
291
     0
 71
     3
176
     1
 72
     2
176
     1
 73
     0
176
     1
 90
        0
176
     1
 40
-0.6
176
     1
 41
-30.0
176
     1
 62
     5
 63
     7
421
 16777215
176
     1
 74
     2
176
     1
 91
        2
176
     1
 64
     7
176
     1
 65
   257
176
     1
 75
     1
176
     1
175
     1
176
     1
 42
40.0
176
     1
 92
        8
176
     1
 66
     7
176
     1
 43
1.0
176
     1
 76
     1
176
     1
 77
     6
176
     1
 78
     2
176
     1
 67
     7
176
     1
 79
     3
176
     1
170
     0
176
     1
171
     0
176
     1
290
     0
176
     1
 93
        1
176
     1
 44
0.0
176
     1
173
     0
176
     1
  0
VISUALSTYLE
  5
35
102
{ACAD_REACTORS
330
2A
102
}
330
2A
100
AcDbVisualStyle
  2
Dim
 70
    11
177
     2
291
     1
 71
     2
176
     1
 72
     2
176
     1
 73
     0
176
     1
 90
        0
176
     1
 40
-0.6
176
     1
 41
-30.0
176
     1
 62
     5
 63
     7
421
 16777215
176
     1
 74
     1
176
     1
 91
        4
176
     1
 64
     7
176
     1
 65
   257
176
     1
 75
     1
176
     1
175
     1
176
     1
 42
1.0
176
     1
 92
        8
176
     1
 66
     7
176
     1
 43
1.0
176
     1
 76
     1
176
     1
 77
     6
176
     1
 78
     2
176
     1
 67
     7
176
     1
 79
     5
176
     1
170
     0
176
     1
171
     0
176
     1
290
     0
176
     1
 93
        1
176
     1
 44
-50.0
176
     1
173
     0
176
     1
  0
VISUALSTYLE
  5
39
102
{ACAD_REACTORS
330
2A
102
}
330
2A
100
AcDbVisualStyle
  2
Facepattern
 70
    15
177
     2
291
     1
 71
     2
176
     1
 72
     2
176
     1
 73
     0
176
     1
 90
        0
176
     1
 40
-0.6
176
     1
 41
-30.0
176
     1
 62
     5
 63
     7
421
 16777215
176
     1
 74
     1
176
     1
 91
        4
176
     1
 64
     7
176
     1
 65
   257
176
     1
 75
     1
176
     1
175
     1
176
     1
 42
1.0
176
     1
 92
        8
176
     1
 66
     7
176
     1
 43
1.0
176
     1
 76
     1
176
     1
 77
     6
176
     1
 78
     2
176
     1
 67
     7
176
     1
 79
     5
176
     1
170
     0
176
     1
171
     0
176
     1
290
     0
176
     1
 93
        1
176
     1
 44
0.0
176
     1
173
     0
176
     1
  0
VISUALSTYLE
  5
2B
102
{ACAD_REACTORS
330
2A
102
}
330
2A
100
AcDbVisualStyle
  2
Flat
 70
     0
177
     2
291
     1
 71
     2
176
     1
 72
     1
176
     1
 73
     1
176
     1
 90
        2
176
     1
 40
-0.6
176
     1
 41
30.0
176
     1
 62
     5
 63
     7
421
 16777215
176
     1
 74
     0
176
     1
 91
        4
176
     1
 64
     7
176
     1
 65
   257
176
     1
 75
     1
176
     1
175
     1
176
     1
 42
1.0
176
     1
 92
        8
176
     1
 66
     7
176
     1
 43
1.0
176
     1
 76
     1
176
     1
 77
     6
176
     1
 78
     2
176
     1
 67
     7
176
     1
 79
     5
176
     1
170
     0
176
     1
171
     0
176
     1
290
     0
176
     1
 93
       13
176
     1
 44
0.0
176
     1
173
     0
176
     1
  0
VISUALSTYLE
  5
2C
102
{ACAD_REACTORS
330
2A
102
}
330
2A
100
AcDbVisualStyle
  2
FlatWithEdges
 70
     1
177
     2
291
     1
 71
     2
176
     1
 72
     1
176
     1
 73
     1
176
     1
 90
        2
176
     1
 40
-0.6
176
     1
 41
30.0
176
     1
 62
     5
 63
     7
421
 16777215
176
     1
 74
     1
176
     1
 91
        4
176
     1
 64
     7
176
     1
 65
   257
176
     1
 75
     1
176
     1
175
     1
176
     1
 42
1.0
176
     1
 92
        0
176
     1
 66
   257
176
     1
 43
1.0
176
     1
 76
     1
176
     1
 77
     6
176
     1
 78
     2
176
     1
 67
     7
176
     1
 79
     5
176
     1
170
     0
176
     1
171
     0
176
     1
290
     0
176
     1
 93
       13
176
     1
 44
0.0
176
     1
173
     0
176
     1
  0
VISUALSTYLE
  5
2D
102
{ACAD_REACTORS
330
2A
102
}
330
2A
100
AcDbVisualStyle
  2
Gouraud
 70
     2
177
     2
291
     1
 71
     2
176
     1
 72
     2
176
     1
 73
     1
176
     1
 90
        2
176
     1
 40
-0.6
176
     1
 41
30.0
176
     1
 62
     5
 63
     7
421
 16777215
176
     1
 74
     0
176
     1
 91
        4
176
     1
 64
     7
176
     1
 65
   257
176
     1
 75
     1
176
     1
175
     1
176
     1
 42
1.0
176
     1
 92
        0
176
     1
 66
     7
176
     1
 43
1.0
176
     1
 76
     1
176
     1
 77
     6
176
     1
 78
     2
176
     1
 67
     7
176
     1
 79
     5
176
     1
170
     0
176
     1
171
     0
176
     1
290
     0
176
     1
 93
       13
176
     1
 44
0.0
176
     1
173
     0
176
     1
  0
VISUALSTYLE
  5
2E
102
{ACAD_REACTORS
330
2A
102
}
330
2A
100
AcDbVisualStyle
  2
GouraudWithEdges
 70
     3
177
     2
291
     1
 71
     2
176
     1
 72
     2
176
     1
 73
     1
176
     1
 90
        2
176
     1
 40
-0.6
176
     1
 41
30.0
176
     1
 62
     5
 63
     7
421
 16777215
176
     1
 74
     1
176
     1
 91
        4
176
     1
 64
     7
176
     1
 65
   257
176
     1
 75
     1
176
     1
175
     1
176
     1
 42
1.0
176
     1
 92
        0
176
     1
 66
   257
176
     1
 43
1.0
176
     1
 76
     1
176
     1
 77
     6
176
     1
 78
     2
176
     1
 67
     7
176
     1
 79
     5
176
     1
170
     0
176
     1
171
     0
176
     1
290
     0
176
     1
 93
       13
176
     1
 44
0.0
176
     1
173
     0
176
     1
  0
VISUALSTYLE
  5
38
102
{ACAD_REACTORS
330
2A
102
}
330
2A
100
AcDbVisualStyle
  2
Linepattern
 70
    14
177
     2
291
     1
 71
     2
176
     1
 72
     2
176
     1
 73
     0
176
     1
 90
        0
176
     1
 40
-0.6
176
     1
 41
-30.0
176
     1
 62
     5
 63
     7
421
 16777215
176
     1
 74
     1
176
     1
 91
        4
176
     1
 64
     7
176
     1
 65
   257
176
     1
 75
     7
176
     1
175
     7
176
     1
 42
1.0
176
     1
 92
        8
176
     1
 66
     7
176
     1
 43
1.0
176
     1
 76
     1
176
     1
 77
     6
176
     1
 78
     2
176
     1
 67
     7
176
     1
 79
     5
176
     1
170
     0
176
     1
171
     0
176
     1
290
     0
176
     1
 93
        1
176
     1
 44
0.0
176
     1
173
     0
176
     1
  0
VISUALSTYLE
  5
33
102
{ACAD_REACTORS
330
2A
102
}
330
2A
100
AcDbVisualStyle
  2
Realistic
 70
     8
177
     2
291
     0
 71
     2
176
     1
 72
     2
176
     1
 73
     0
176
     1
 90
        0
176
     1
 40
-0.6
176
     1
 41
-30.0
176
     1
 62
     5
 63
     7
421
 16777215
176
     1
 74
     1
176
     1
 91
        0
176
     1
 64
     7
176
     1
 65
   257
176
     1
 75
     1
176
     1
175
     1
176
     1
 42
1.0
176
     1
 92
        8
176
     1
 66
     8
424
  7895160
176
     1
 43
1.0
176
     1
 76
     1
176
     1
 77
     6
176
     1
 78
     2
176
     1
 67
     7
176
     1
 79
     5
176
     1
170
     0
176
     1
171
     0
176
     1
290
     0
176
     1
 93
       13
176
     1
 44
0.0
176
     1
173
     0
176
     1
  0
VISUALSTYLE
  5
37
102
{ACAD_REACTORS
330
2A
102
}
330
2A
100
AcDbVisualStyle
  2
Thicken
 70
    13
177
     2
291
     1
 71
     2
176
     1
 72
     2
176
     1
 73
     0
176
     1
 90
        0
176
     1
 40
-0.6
176
     1
 41
-30.0
176
     1
 62
     5
 63
     7
421
 16777215
176
     1
 74
     1
176
     1
 91
        4
176
     1
 64
     7
176
     1
 65
   257
176
     1
 75
     1
176
     1
175
     1
176
     1
 42
1.0
176
     1
 92
       12
176
     1
 66
     7
176
     1
 43
1.0
176
     1
 76
     1
176
     1
 77
     6
176
     1
 78
     2
176
     1
 67
     7
176
     1
 79
     5
176
     1
170
     0
176
     1
171
     0
176
     1
290
     0
176
     1
 93
        1
176
     1
 44
0.0
176
     1
173
     0
176
     1
  0
ENDSEC
  0
EOF
