  0
SECTION
  2
HEADER
  9
$ACADVER
  1
AC1024
  9
$ACADMAINTVER
 70
     6
  9
$DWGCODEPAGE
  3
UNDEFINED
  9
$INSBASE
 10
0.0
 20
0.0
 30
0.0
  9
$EXTMIN
 10
1.000000000000000E+20
 20
1.000000000000000E+20
 30
1.000000000000000E+20
  9
$EXTMAX
 10
-1.000000000000000E+20
 20
-1.000000000000000E+20
 30
-1.000000000000000E+20
  9
$LIMMIN
 10
0.0
 20
0.0
  9
$LIMMAX
 10
12.0
 20
9.0
  9
$ORTHOMODE
 70
     0
  9
$REGENMODE
 70
     1
  9
$FILLMODE
 70
     1
  9
$QTEXTMODE
 70
     0
  9
$MIRRTEXT
 70
     1
  9
$LTSCALE
 40
1.0
  9
$ATTMODE
 70
     1
  9
$TEXTSIZE
 40
0.2
  9
$TRACEWID
 40
0.05
  9
$TEXTSTYLE
  7
Standard
  9
$CLAYER
  8
0
  9
$CELTYPE
  6
ByLayer
  9
$CECOLOR
 62
   256
  9
$CELTSCALE
 40
1.0
  9
$DISPSILH
 70
     0
  9
$DIMSCALE
 40
1.0
  9
$DIMASZ
 40
0.18
  9
$DIMEXO
 40
0.0625
  9
$DIMDLI
 40
0.38
  9
$DIMRND
 40
0.0
  9
$DIMDLE
 40
0.0
  9
$DIMEXE
 40
0.18
  9
$DIMTP
 40
0.0
  9
$DIMTM
 40
0.0
  9
$DIMTXT
 40
0.18
  9
$DIMCEN
 40
0.09
  9
$DIMTSZ
 40
0.0
  9
$DIMTOL
 70
     0
  9
$DIMLIM
 70
     0
  9
$DIMTIH
 70
     1
  9
$DIMTOH
 70
     1
  9
$DIMSE1
 70
     0
  9
$DIMSE2
 70
     0
  9
$DIMTAD
 70
     0
  9
$DIMZIN
 70
     0
  9
$DIMBLK
  1

  9
$DIMASO
 70
     1
  9
$DIMSHO
 70
     1
  9
$DIMPOST
  1

  9
$DIMAPOST
  1

  9
$DIMALT
 70
     0
  9
$DIMALTD
 70
     2
  9
$DIMALTF
 40
25.4
  9
$DIMLFAC
 40
1.0
  9
$DIMTOFL
 70
     0
  9
$DIMTVP
 40
0.0
  9
$DIMTIX
 70
     0
  9
$DIMSOXD
 70
     0
  9
$DIMSAH
 70
     0
  9
$DIMBLK1
  1

  9
$DIMBLK2
  1

  9
$DIMSTYLE
  2
Standard
  9
$DIMCLRD
 70
     0
  9
$DIMCLRE
 70
     0
  9
$DIMCLRT
 70
     0
  9
$DIMTFAC
 40
1.0
  9
$DIMGAP
 40
0.09
  9
$DIMJUST
 70
     0
  9
$DIMSD1
 70
     0
  9
$DIMSD2
 70
     0
  9
$DIMTOLJ
 70
     1
  9
$DIMTZIN
 70
     0
  9
$DIMALTZ
 70
     0
  9
$DIMALTTZ
 70
     0
  9
$DIMUPT
 70
     0
  9
$DIMDEC
 70
     4
  9
$DIMTDEC
 70
     4
  9
$DIMALTU
 70
     2
  9
$DIMALTTD
 70
     2
  9
$DIMTXSTY
  7
Standard
  9
$DIMAUNIT
 70
     0
  9
$DIMADEC
 70
     0
  9
$DIMALTRND
 40
0.0
  9
$DIMAZIN
 70
     0
  9
$DIMDSEP
 70
    46
  9
$DIMATFIT
 70
     3
  9
$DIMFRAC
 70
     0
  9
$DIMLDRBLK
  1

  9
$DIMLUNIT
 70
     2
  9
$DIMLWD
 70
    -2
  9
$DIMLWE
 70
    -2
  9
$DIMTMOVE
 70
     0
  9
$DIMFXL
 40
1.0
  9
$DIMFXLON
 70
     0
  9
$DIMJOGANG
 40
0.7853981633974483
  9
$DIMTFILL
 70
     0
  9
$DIMTFILLCLR
 70
     0
  9
$DIMARCSYM
 70
     0
  9
$DIMLTYPE
  6

  9
$DIMLTEX1
  6

  9
$DIMLTEX2
  6

  9
$DIMTXTDIRECTION
 70
     0
  9
$LUNITS
 70
     2
  9
$LUPREC
 70
     4
  9
$SKETCHINC
 40
0.1
  9
$FILLETRAD
 40
0.5
  9
$AUNITS
 70
     0
  9
$AUPREC
 70
     0
  9
$MENU
  1
.
  9
$ELEVATION
 40
0.0
  9
$PELEVATION
 40
0.0
  9
$THICKNESS
 40
0.0
  9
$LIMCHECK
 70
     0
  9
$CHAMFERA
 40
0.5
  9
$CHAMFERB
 40
0.5
  9
$CHAMFERC
 40
1.0
  9
$CHAMFERD
 40
0.0
  9
$SKPOLY
 70
     0
  9
$TDCREATE
 40
2457917.61310184
  9
$TDUCREATE
 40
2457917.238101852
  9
$TDUPDATE
 40
2457917.61310184
  9
$TDUUPDATE
 40
2457917.238101852
  9
$TDINDWG
 40
0.0000000116
  9
$TDUSRTIMER
 40
0.0000000116
  9
$USRTIMER
 70
     1
  9
$ANGBASE
 50
0.0
  9
$ANGDIR
 70
     0
  9
$PDMODE
 70
     0
  9
$PDSIZE
 40
0.0
  9
$PLINEWID
 40
0.0
  9
$SPLFRAME
 70
     0
  9
$SPLINETYPE
 70
     6
  9
$SPLINESEGS
 70
     8
  9
$HANDSEED
  5
107
  9
$SURFTAB1
 70
     6
  9
$SURFTAB2
 70
     6
  9
$SURFTYPE
 70
     6
  9
$SURFU
 70
     6
  9
$SURFV
 70
     6
  9
$UCSBASE
  2

  9
$UCSNAME
  2

  9
$UCSORG
 10
0.0
 20
0.0
 30
0.0
  9
$UCSXDIR
 10
1.0
 20
0.0
 30
0.0
  9
$UCSYDIR
 10
0.0
 20
1.0
 30
0.0
  9
$UCSORTHOREF
  2

  9
$UCSORTHOVIEW
 70
     0
  9
$UCSORGTOP
 10
0.0
 20
0.0
 30
0.0
  9
$UCSORGBOTTOM
 10
0.0
 20
0.0
 30
0.0
  9
$UCSORGLEFT
 10
0.0
 20
0.0
 30
0.0
  9
$UCSORGRIGHT
 10
0.0
 20
0.0
 30
0.0
  9
$UCSORGFRONT
 10
0.0
 20
0.0
 30
0.0
  9
$UCSORGBACK
 10
0.0
 20
0.0
 30
0.0
  9
$PUCSBASE
  2

  9
$PUCSNAME
  2

  9
$PUCSORG
 10
0.0
 20
0.0
 30
0.0
  9
$PUCSXDIR
 10
1.0
 20
0.0
 30
0.0
  9
$PUCSYDIR
 10
0.0
 20
1.0
 30
0.0
  9
$PUCSORTHOREF
  2

  9
$PUCSORTHOVIEW
 70
     0
  9
$PUCSORGTOP
 10
0.0
 20
0.0
 30
0.0
  9
$PUCSORGBOTTOM
 10
0.0
 20
0.0
 30
0.0
  9
$PUCSORGLEFT
 10
0.0
 20
0.0
 30
0.0
  9
$PUCSORGRIGHT
 10
0.0
 20
0.0
 30
0.0
  9
$PUCSORGFRONT
 10
0.0
 20
0.0
 30
0.0
  9
$PUCSORGBACK
 10
0.0
 20
0.0
 30
0.0
  9
$USERI1
 70
     0
  9
$USERI2
 70
     0
  9
$USERI3
 70
     0
  9
$USERI4
 70
     0
  9
$USERI5
 70
     0
  9
$USERR1
 40
0.0
  9
$USERR2
 40
0.0
  9
$USERR3
 40
0.0
  9
$USERR4
 40
0.0
  9
$USERR5
 40
0.0
  9
$WORLDVIEW
 70
     1
  9
$SHADEDGE
 70
     3
  9
$SHADEDIF
 70
    70
  9
$TILEMODE
 70
     1
  9
$MAXACTVP
 70
    64
  9
$PINSBASE
 10
0.0
 20
0.0
 30
0.0
  9
$PLIMCHECK
 70
     0
  9
$PEXTMIN
 10
1.000000000000000E+20
 20
1.000000000000000E+20
 30
1.000000000000000E+20
  9
$PEXTMAX
 10
-1.000000000000000E+20
 20
-1.000000000000000E+20
 30
-1.000000000000000E+20
  9
$PLIMMIN
 10
0.0
 20
0.0
  9
$PLIMMAX
 10
12.0
 20
9.0
  9
$UNITMODE
 70
     0
  9
$VISRETAIN
 70
     1
  9
$PLINEGEN
 70
     0
  9
$PSLTSCALE
 70
     1
  9
$TREEDEPTH
 70
  3020
  9
$CMLSTYLE
  2
Standard
  9
$CMLJUST
 70
     0
  9
$CMLSCALE
 40
1.0
  9
$PROXYGRAPHICS
 70
     1
  9
$MEASUREMENT
 70
     0
  9
$CELWEIGHT
370
    -1
  9
$ENDCAPS
280
     0
  9
$JOINSTYLE
280
     0
  9
$LWDISPLAY
290
     1
  9
$INSUNITS
 70
     1
  9
$HYPERLINKBASE
  1

  9
$STYLESHEET
  1

  9
$XEDIT
290
     1
  9
$CEPSNTYPE
380
     0
  9
$PSTYLEMODE
290
     1
  9
$FINGERPRINTGUID
  2
{E63ABA7A-34CD-9DAA-90E8-9D3E3875C498}
  9
$VERSIONGUID
  2
{FAEB1C32-E019-11D5-929B-00C0DF256EC4}
  9
$EXTNAMES
290
     1
  9
$PSVPSCALE
 40
0.0
  9
$OLESTARTUP
290
     0
  9
$SORTENTS
280
   127
  9
$INDEXCTL
280
     0
  9
$HIDETEXT
280
     1
  9
$XCLIPFRAME
280
     2
  9
$HALOGAP
280
     0
  9
$OBSCOLOR
 70
   257
  9
$OBSLTYPE
280
     0
  9
$INTERSECTIONDISPLAY
280
     0
  9
$INTERSECTIONCOLOR
 70
   257
  9
$DIMASSOC
280
     2
  9
$PROJECTNAME
  1

  9
$CAMERADISPLAY
290
     0
  9
$LENSLENGTH
 40
50.0
  9
$CAMERAHEIGHT
 40
0.0
  9
$STEPSPERSEC
 40
2.0
  9
$STEPSIZE
 40
6.0
  9
$3DDWFPREC
 40
2.0
  9
$PSOLWIDTH
 40
0.25
  9
$PSOLHEIGHT
 40
4.0
  9
$LOFTANG1
 40
1.570796326794897
  9
$LOFTANG2
 40
1.570796326794897
  9
$LOFTMAG1
 40
0.0
  9
$LOFTMAG2
 40
0.0
  9
$LOFTPARAM
 70
     7
  9
$LOFTNORMALS
280
     1
  9
$LATITUDE
 40
37.795
  9
$LONGITUDE
 40
-122.394
  9
$NORTHDIRECTION
 40
0.0
  9
$TIMEZONE
 70
 -8000
  9
$LIGHTGLYPHDISPLAY
280
     1
  9
$TILEMODELIGHTSYNCH
280
     1
  9
$CMATERIAL
347
3C
  9
$SOLIDHIST
280
     1
  9
$SHOWHIST
280
     1
  9
$DWFFRAME
280
     2
  9
$DGNFRAME
280
     2
  9
$REALWORLDSCALE
290
     1
  9
$INTERFERECOLOR
 62
   256
  9
$CSHADOW
280
     0
  9
$SHADOWPLANELOCATION
 40
0.0
  0
ENDSEC
  0
SECTION
  2
CLASSES
  0
CLASS
  1
ACDBDICTIONARYWDFLT
  2
AcDbDictionaryWithDefault
  3
ObjectDBX Classes
 90
        0
 91
        4
280
     0
281
     0
  0
CLASS
  1
VISUALSTYLE
  2
AcDbVisualStyle
  3
ObjectDBX Classes
 90
     4095
 91
        4
280
     0
281
     0
  0
CLASS
  1
MATERIAL
  2
AcDbMaterial
  3
ObjectDBX Classes
 90
     1153
 91
        4
280
     0
281
     0
  0
CLASS
  1
SUN
  2
AcDbSun
  3
SCENEOE
 90
     1024
 91
        4
280
     0
281
     0
  0
ENDSEC
  0
SECTION
  2
TABLES
  0
TABLE
  2
VPORT
  5
8
330
0
100
AcDbSymbolTable
 70
     1
  0
VPORT
  5
29
330
8
100
AcDbSymbolTableRecord
100
AcDbViewportTableRecord
  2
*Active
 70
     0
 10
0.0
 20
0.0
 11
1.0
 21
1.0
 12
0.0
 22
0.0
 13
0.0
 23
0.0
 14
0.5
 24
0.5
 15
0.5
 25
0.5
 16
0.0
 26
0.0
 36
1.0
 17
91.00082462281999
 27
-128.4993055234307
 37
0.0
 40
256.9986110468615
 41
0.7081814508812795
 42
50.0
 43
0.0
 44
0.0
 50
0.0
 51
0.0
 71
     0
 72
   100
 73
     1
 74
     3
 75
     0
 76
     0
 77
     0
 78
     0
281
     0
 65
     1
110
0.0
120
0.0
130
0.0
111
1.0
121
0.0
131
0.0
112
0.0
122
1.0
132
0.0
 79
     0
146
0.0
 60
     3
 61
     5
292
     1
282
     1
141
0.0
142
0.0
 63
   250
361
3F
  0
ENDTAB
  0
TABLE
  2
LTYPE
  5
5
330
0
100
AcDbSymbolTable
 70
     1
  0
LTYPE
  5
14
330
5
100
AcDbSymbolTableRecord
100
AcDbLinetypeTableRecord
  2
ByBlock
 70
     0
  3

 72
    65
 73
     0
 40
0.0
  0
LTYPE
  5
15
330
5
100
AcDbSymbolTableRecord
100
AcDbLinetypeTableRecord
  2
ByLayer
 70
     0
  3

 72
    65
 73
     0
 40
0.0
  0
LTYPE
  5
16
330
5
100
AcDbSymbolTableRecord
100
AcDbLinetypeTableRecord
  2
Continuous
 70
     0
  3
Solid line
 72
    65
 73
     0
 40
0.0
  0
ENDTAB
  0
TABLE
  2
LAYER
  5
2
330
0
100
AcDbSymbolTable
 70
     2
  0
LAYER
  5
10
330
2
100
AcDbSymbolTableRecord
100
AcDbLayerTableRecord
  2
0
 70
     0
 62
     7
  6
Continuous
370
    -3
390
F
347
3E
  0
LAYER
  5
40
330
2
100
AcDbSymbolTableRecord
100
AcDbLayerTableRecord
  2
_U+30EC_U+30A4_U+30E4_U+30FC 1
 70
     0
 62
     7
  6
Continuous
370
    -3
390
F
347
3E
  0
ENDTAB
  0
TABLE
  2
STYLE
  5
3
330
0
100
AcDbSymbolTable
 70
     1
  0
STYLE
  5
11
330
3
100
AcDbSymbolTableRecord
100
AcDbTextStyleTableRecord
  2
Standard
 70
     0
 40
0.0
 41
1.0
 50
0.0
 71
     0
 42
0.2
  3
txt
  4

  0
ENDTAB
  0
TABLE
  2
VIEW
  5
6
330
0
100
AcDbSymbolTable
 70
     0
  0
ENDTAB
  0
TABLE
  2
UCS
  5
7
330
0
100
AcDbSymbolTable
 70
     0
  0
ENDTAB
  0
TABLE
  2
APPID
  5
9
330
0
100
AcDbSymbolTable
 70
     1
  0
APPID
  5
12
330
9
100
AcDbSymbolTableRecord
100
AcDbRegAppTableRecord
  2
ACAD
 70
     0
  0
ENDTAB
  0
TABLE
  2
DIMSTYLE
  5
A
330
0
100
AcDbSymbolTable
 70
     1
100
AcDbDimStyleTable
  0
DIMSTYLE
105
27
330
A
100
AcDbSymbolTableRecord
100
AcDbDimStyleTableRecord
  2
Standard
 70
     0
178
     0
340
11
  0
ENDTAB
  0
TABLE
  2
BLOCK_RECORD
  5
1
330
0
100
AcDbSymbolTable
 70
     7
  0
BLOCK_RECORD
  5
1F
330
1
100
AcDbSymbolTableRecord
100
AcDbBlockTableRecord
  2
*Model_Space
340
22
 70
     0
280
     1
281
     0
  0
BLOCK_RECORD
  5
1B
330
1
100
AcDbSymbolTableRecord
100
AcDbBlockTableRecord
  2
*Paper_Space
340
1E
 70
     0
280
     1
281
     0
  0
BLOCK_RECORD
  5
23
330
1
100
AcDbSymbolTableRecord
100
AcDbBlockTableRecord
  2
*Paper_Space0
340
26
 70
     0
280
     1
281
     0
  0
BLOCK_RECORD
  5
86
330
1
100
AcDbSymbolTableRecord
100
AcDbBlockTableRecord
  2
block 2
340
0
102
{BLKREFS
331
87
102
}
 70
     0
280
     1
281
     0
  0
BLOCK_RECORD
  5
94
330
1
100
AcDbSymbolTableRecord
100
AcDbBlockTableRecord
  2
block 3
340
0
102
{BLKREFS
331
95
102
}
 70
     0
280
     1
281
     0
  0
BLOCK_RECORD
  5
A6
330
1
100
AcDbSymbolTableRecord
100
AcDbBlockTableRecord
  2
block 4
340
0
102
{BLKREFS
331
A7
102
}
 70
     0
280
     1
281
     0
  0
BLOCK_RECORD
  5
B7
330
1
100
AcDbSymbolTableRecord
100
AcDbBlockTableRecord
  2
block 5
340
0
102
{BLKREFS
331
B8
102
}
 70
     0
280
     1
281
     0
  0
BLOCK_RECORD
  5
CB
330
1
100
AcDbSymbolTableRecord
100
AcDbBlockTableRecord
  2
block 6
340
0
102
{BLKREFS
331
CC
102
}
 70
     0
280
     1
281
     0
  0
BLOCK_RECORD
  5
EF
330
1
100
AcDbSymbolTableRecord
100
AcDbBlockTableRecord
  2
block 7
340
0
102
{BLKREFS
331
F0
102
}
 70
     0
280
     1
281
     0
  0
ENDTAB
  0
ENDSEC
  0
SECTION
  2
BLOCKS
  0
BLOCK
  5
20
330
1F
100
AcDbEntity
  8
0
100
AcDbBlockBegin
  2
*Model_Space
 70
     0
 10
0.0
 20
0.0
 30
0.0
  3
*Model_Space
  1

  0
ENDBLK
  5
21
330
1F
100
AcDbEntity
  8
0
100
AcDbBlockEnd
  0
BLOCK
  5
1C
330
1B
100
AcDbEntity
 67
     1
  8
0
100
AcDbBlockBegin
  2
*Paper_Space
 70
     0
 10
0.0
 20
0.0
 30
0.0
  3
*Paper_Space
  1

  0
ENDBLK
  5
1D
330
1B
100
AcDbEntity
 67
     1
  8
0
100
AcDbBlockEnd
  0
BLOCK
  5
24
330
23
100
AcDbEntity
  8
0
100
AcDbBlockBegin
  2
*Paper_Space0
 70
     0
 10
0.0
 20
0.0
 30
0.0
  3
*Paper_Space0
  1

  0
ENDBLK
  5
25
330
23
100
AcDbEntity
  8
0
100
AcDbBlockEnd
  0
BLOCK
  5
88
330
86
100
AcDbEntity
  8
0
100
AcDbBlockBegin
  2
block 2
 70
     0
 10
0.0
 20
0.0
 30
0.0
  3
block 2
  1

  0
SPLINE
  5
8A
330
86
100
AcDbEntity
  8
_U+30EC_U+30A4_U+30E4_U+30FC 1
370
     0
100
AcDbSpline
210
0.0
220
0.0
230
1.0
 70
    11
 71
     3
 72
    26
 73
    22
 74
     0
 42
0.0000000001
 43
0.0000000001
 12
1.0
 22
0.0
 32
0.0
 13
1.0
 23
0.0
 33
0.0
 40
0.0
 40
0.0
 40
0.0
 40
0.0
 40
1.0
 40
1.0
 40
1.0
 40
2.0
 40
2.0
 40
2.0
 40
3.0
 40
3.0
 40
3.0
 40
4.0
 40
4.0
 40
4.0
 40
5.0
 40
5.0
 40
5.0
 40
6.0
 40
6.0
 40
6.0
 40
7.0
 40
7.0
 40
7.0
 40
7.0
 10
111.4009521205873
 20
-118.4806233427757
 30
0.0
 10
111.4009521205873
 20
-118.4806233427757
 30
0.0
 10
110.2967990175647
 20
-118.4806233427757
 30
0.0
 10
110.2967990175647
 20
-118.4806233427757
 30
0.0
 10
110.2967990175647
 20
-118.4806233427757
 30
0.0
 10
110.2967990175647
 20
-118.8106634902626
 30
0.0
 10
110.2967990175647
 20
-118.8106634902626
 30
0.0
 10
110.2967990175647
 20
-118.8106634902626
 30
0.0
 10
110.148659911699
 20
-118.8106634902626
 30
0.0
 10
110.148659911699
 20
-118.8106634902626
 30
0.0
 10
110.1338460011124
 20
-118.4785562854845
 30
0.0
 10
109.9708929846601
 20
-118.4320474964337
 30
0.0
 10
109.8565158145498
 20
-118.4024196752605
 30
0.0
 10
109.8565158145498
 20
-118.4024196752605
 30
0.0
 10
109.8565158145498
 20
-118.2563476266859
 30
0.0
 10
109.8565158145498
 20
-118.2563476266859
 30
0.0
 10
109.8565158145498
 20
-118.2563476266859
 30
0.0
 10
111.4009521205873
 20
-118.2563476266859
 30
0.0
 10
111.4009521205873
 20
-118.2563476266859
 30
0.0
 10
111.4009521205873
 20
-118.2563476266859
 30
0.0
 10
111.4009521205873
 20
-118.4806233427757
 30
0.0
 10
111.4009521205873
 20
-118.4806233427757
 30
0.0
  0
HATCH
  5
8B
330
86
100
AcDbEntity
  8
_U+30EC_U+30A4_U+30E4_U+30FC 1
 62
   179
420
  2234388
100
AcDbHatch
 10
0.0
 20
0.0
 30
0.0
210
0.0
220
0.0
230
1.0
  2
SOLID
 70
     1
 71
     0
 91
        1
 92
        1
 93
        1
 72
     4
 94
        3
 73
     0
 74
     1
 95
       26
 96
       22
 40
0.0
 40
0.0
 40
0.0
 40
0.0
 40
1.0
 40
1.0
 40
1.0
 40
2.0
 40
2.0
 40
2.0
 40
3.0
 40
3.0
 40
3.0
 40
4.0
 40
4.0
 40
4.0
 40
5.0
 40
5.0
 40
5.0
 40
6.0
 40
6.0
 40
6.0
 40
7.0
 40
7.0
 40
7.0
 40
7.0
 10
111.4009521205873
 20
-118.4806233427757
 10
111.4009521205873
 20
-118.4806233427757
 10
110.2967990175647
 20
-118.4806233427757
 10
110.2967990175647
 20
-118.4806233427757
 10
110.2967990175647
 20
-118.4806233427757
 10
110.2967990175647
 20
-118.8106634902626
 10
110.2967990175647
 20
-118.8106634902626
 10
110.2967990175647
 20
-118.8106634902626
 10
110.148659911699
 20
-118.8106634902626
 10
110.148659911699
 20
-118.8106634902626
 10
110.1338460011124
 20
-118.4785562854845
 10
109.9708929846601
 20
-118.4320474964337
 10
109.8565158145498
 20
-118.4024196752605
 10
109.8565158145498
 20
-118.4024196752605
 10
109.8565158145498
 20
-118.2563476266859
 10
109.8565158145498
 20
-118.2563476266859
 10
109.8565158145498
 20
-118.2563476266859
 10
111.4009521205873
 20
-118.2563476266859
 10
111.4009521205873
 20
-118.2563476266859
 10
111.4009521205873
 20
-118.2563476266859
 10
111.4009521205873
 20
-118.4806233427757
 10
111.4009521205873
 20
-118.4806233427757
 97
        0
 97
        0
 75
     2
 76
     1
 98
        0
  0
ENDBLK
  5
89
330
86
100
AcDbEntity
  8
0
100
AcDbBlockEnd
  0
BLOCK
  5
96
330
94
100
AcDbEntity
  8
0
100
AcDbBlockBegin
  2
block 3
 70
     0
 10
0.0
 20
0.0
 30
0.0
  3
block 3
  1

  0
SPLINE
  5
98
330
94
100
AcDbEntity
  8
_U+30EC_U+30A4_U+30E4_U+30FC 1
370
     0
100
AcDbSpline
210
0.0
220
0.0
230
1.0
 70
    11
 71
     3
 72
    62
 73
    58
 74
     0
 42
0.0000000001
 43
0.0000000001
 12
1.0
 22
0.0
 32
0.0
 13
1.0
 23
0.0
 33
0.0
 40
0.0
 40
0.0
 40
0.0
 40
0.0
 40
1.0
 40
1.0
 40
1.0
 40
2.0
 40
2.0
 40
2.0
 40
3.0
 40
3.0
 40
3.0
 40
4.0
 40
4.0
 40
4.0
 40
5.0
 40
5.0
 40
5.0
 40
6.0
 40
6.0
 40
6.0
 40
7.0
 40
7.0
 40
7.0
 40
8.0
 40
8.0
 40
8.0
 40
9.0
 40
9.0
 40
9.0
 40
10.0
 40
10.0
 40
10.0
 40
11.0
 40
11.0
 40
11.0
 40
12.0
 40
12.0
 40
12.0
 40
13.0
 40
13.0
 40
13.0
 40
14.0
 40
14.0
 40
14.0
 40
15.0
 40
15.0
 40
15.0
 40
16.0
 40
16.0
 40
16.0
 40
17.0
 40
17.0
 40
17.0
 40
18.0
 40
18.0
 40
18.0
 40
19.0
 40
19.0
 40
19.0
 40
19.0
 10
111.4515950242204
 20
-136.9404784813899
 30
0.0
 10
111.4515950242204
 20
-137.0359076263313
 30
0.0
 10
111.4305799417604
 20
-137.2536376609991
 30
0.0
 10
111.2445447855569
 20
-137.3786946271137
 30
0.0
 10
111.1322346727378
 20
-137.452419670498
 30
0.0
 10
111.0330159227626
 20
-137.4568982946288
 30
0.0
 10
110.9482665738254
 20
-137.4610324092111
 30
0.0
 10
110.9482665738254
 20
-137.4610324092111
 30
0.0
 10
110.9482665738254
 20
-137.2408908077037
 30
0.0
 10
110.9482665738254
 20
-137.2408908077037
 30
0.0
 10
111.0223361267583
 20
-137.2388237504125
 30
0.0
 10
111.2569471293038
 20
-137.2284884639568
 30
0.0
 10
111.2569471293038
 20
-136.9449571055207
 30
0.0
 10
111.2569471293038
 20
-136.8074977956592
 30
0.0
 10
111.1873562005018
 20
-136.6548800656627
 30
0.0
 10
110.9589463698297
 20
-136.6548800656627
 30
0.0
 10
110.8425021424283
 20
-136.6548800656627
 30
0.0
 10
110.7939262960862
 20
-136.6931206255489
 30
0.0
 10
110.7622314176219
 20
-136.7248155040132
 30
0.0
 10
110.6881618646891
 20
-136.7988850569461
 30
0.0
 10
110.6754150113937
 20
-136.9153292843476
 30
0.0
 10
110.6754150113937
 20
-136.970106302563
 30
0.0
 10
110.6754150113937
 20
-136.9893988372804
 30
0.0
 10
110.6774820686848
 20
-137.025227830327
 30
0.0
 10
110.6816161832671
 20
-137.052788594209
 30
0.0
 10
110.6816161832671
 20
-137.052788594209
 30
0.0
 10
110.4869682883505
 20
-137.052788594209
 30
0.0
 10
110.4869682883505
 20
-137.052788594209
 30
0.0
 10
110.4935139697725
 20
-137.0145480343228
 30
0.0
 10
110.4955810270636
 20
-136.9725178694027
 30
0.0
 10
110.4955810270636
 20
-136.9659721879807
 30
0.0
 10
110.4955810270636
 20
-136.900515373761
 30
0.0
 10
110.4742214350551
 20
-136.7017333642621
 30
0.0
 10
110.2375433752184
 20
-136.7017333642621
 30
0.0
 10
110.0597764481795
 20
-136.7017333642621
 30
0.0
 10
110.0046549204155
 20
-136.8326469927016
 30
0.0
 10
110.0046549204155
 20
-136.9428900482296
 30
0.0
 10
110.0046549204155
 20
-137.2071288719482
 30
0.0
 10
110.2375433752184
 20
-137.2157416106614
 30
0.0
 10
110.3092013613116
 20
-137.2198757252436
 30
0.0
 10
110.3092013613116
 20
-137.2198757252436
 30
0.0
 10
110.3092013613116
 20
-137.4231363588734
 30
0.0
 10
110.3092013613116
 20
-137.4231363588734
 30
0.0
 10
110.1844889047455
 20
-137.4145236201603
 30
0.0
 10
109.8079399682077
 20
-137.3869628562783
 30
0.0
 10
109.8079399682077
 20
-136.9301431949341
 30
0.0
 10
109.8079399682077
 20
-136.7058674788444
 30
0.0
 10
109.9350639916135
 20
-136.4647107948769
 30
0.0
 10
110.2309976937964
 20
-136.4647107948769
 30
0.0
 10
110.4173773595484
 20
-136.4647107948769
 30
0.0
 10
110.4997151416459
 20
-136.5597954302698
 30
0.0
 10
110.5610378412834
 20
-136.6593586897935
 30
0.0
 10
110.5885986051654
 20
-136.5980359901561
 30
0.0
 10
110.6688693299717
 20
-136.4161349485349
 30
0.0
 10
110.9461995165343
 20
-136.4161349485349
 30
0.0
 10
111.2845078931858
 20
-136.4161349485349
 30
0.0
 10
111.4515950242204
 20
-136.6634928043758
 30
0.0
 10
111.4515950242204
 20
-136.9404784813899
 30
0.0
  0
HATCH
  5
99
330
94
100
AcDbEntity
  8
_U+30EC_U+30A4_U+30E4_U+30FC 1
 62
   179
420
  2234388
100
AcDbHatch
 10
0.0
 20
0.0
 30
0.0
210
0.0
220
0.0
230
1.0
  2
SOLID
 70
     1
 71
     0
 91
        1
 92
        1
 93
        1
 72
     4
 94
        3
 73
     0
 74
     1
 95
       62
 96
       58
 40
0.0
 40
0.0
 40
0.0
 40
0.0
 40
1.0
 40
1.0
 40
1.0
 40
2.0
 40
2.0
 40
2.0
 40
3.0
 40
3.0
 40
3.0
 40
4.0
 40
4.0
 40
4.0
 40
5.0
 40
5.0
 40
5.0
 40
6.0
 40
6.0
 40
6.0
 40
7.0
 40
7.0
 40
7.0
 40
8.0
 40
8.0
 40
8.0
 40
9.0
 40
9.0
 40
9.0
 40
10.0
 40
10.0
 40
10.0
 40
11.0
 40
11.0
 40
11.0
 40
12.0
 40
12.0
 40
12.0
 40
13.0
 40
13.0
 40
13.0
 40
14.0
 40
14.0
 40
14.0
 40
15.0
 40
15.0
 40
15.0
 40
16.0
 40
16.0
 40
16.0
 40
17.0
 40
17.0
 40
17.0
 40
18.0
 40
18.0
 40
18.0
 40
19.0
 40
19.0
 40
19.0
 40
19.0
 10
111.4515950242204
 20
-136.9404784813899
 10
111.4515950242204
 20
-137.0359076263313
 10
111.4305799417604
 20
-137.2536376609991
 10
111.2445447855569
 20
-137.3786946271137
 10
111.1322346727378
 20
-137.452419670498
 10
111.0330159227626
 20
-137.4568982946288
 10
110.9482665738254
 20
-137.4610324092111
 10
110.9482665738254
 20
-137.4610324092111
 10
110.9482665738254
 20
-137.2408908077037
 10
110.9482665738254
 20
-137.2408908077037
 10
111.0223361267583
 20
-137.2388237504125
 10
111.2569471293038
 20
-137.2284884639568
 10
111.2569471293038
 20
-136.9449571055207
 10
111.2569471293038
 20
-136.8074977956592
 10
111.1873562005018
 20
-136.6548800656627
 10
110.9589463698297
 20
-136.6548800656627
 10
110.8425021424283
 20
-136.6548800656627
 10
110.7939262960862
 20
-136.6931206255489
 10
110.7622314176219
 20
-136.7248155040132
 10
110.6881618646891
 20
-136.7988850569461
 10
110.6754150113937
 20
-136.9153292843476
 10
110.6754150113937
 20
-136.970106302563
 10
110.6754150113937
 20
-136.9893988372804
 10
110.6774820686848
 20
-137.025227830327
 10
110.6816161832671
 20
-137.052788594209
 10
110.6816161832671
 20
-137.052788594209
 10
110.4869682883505
 20
-137.052788594209
 10
110.4869682883505
 20
-137.052788594209
 10
110.4935139697725
 20
-137.0145480343228
 10
110.4955810270636
 20
-136.9725178694027
 10
110.4955810270636
 20
-136.9659721879807
 10
110.4955810270636
 20
-136.900515373761
 10
110.4742214350551
 20
-136.7017333642621
 10
110.2375433752184
 20
-136.7017333642621
 10
110.0597764481795
 20
-136.7017333642621
 10
110.0046549204155
 20
-136.8326469927016
 10
110.0046549204155
 20
-136.9428900482296
 10
110.0046549204155
 20
-137.2071288719482
 10
110.2375433752184
 20
-137.2157416106614
 10
110.3092013613116
 20
-137.2198757252436
 10
110.3092013613116
 20
-137.2198757252436
 10
110.3092013613116
 20
-137.4231363588734
 10
110.3092013613116
 20
-137.4231363588734
 10
110.1844889047455
 20
-137.4145236201603
 10
109.8079399682077
 20
-137.3869628562783
 10
109.8079399682077
 20
-136.9301431949341
 10
109.8079399682077
 20
-136.7058674788444
 10
109.9350639916135
 20
-136.4647107948769
 10
110.2309976937964
 20
-136.4647107948769
 10
110.4173773595484
 20
-136.4647107948769
 10
110.4997151416459
 20
-136.5597954302698
 10
110.5610378412834
 20
-136.6593586897935
 10
110.5885986051654
 20
-136.5980359901561
 10
110.6688693299717
 20
-136.4161349485349
 10
110.9461995165343
 20
-136.4161349485349
 10
111.2845078931858
 20
-136.4161349485349
 10
111.4515950242204
 20
-136.6634928043758
 10
111.4515950242204
 20
-136.9404784813899
 97
        0
 97
        0
 75
     2
 76
     1
 98
        0
  0
ENDBLK
  5
97
330
94
100
AcDbEntity
  8
0
100
AcDbBlockEnd
  0
BLOCK
  5
A8
330
A6
100
AcDbEntity
  8
0
100
AcDbBlockBegin
  2
block 4
 70
     0
 10
0.0
 20
0.0
 30
0.0
  3
block 4
  1

  0
SPLINE
  5
AA
330
A6
100
AcDbEntity
  8
_U+30EC_U+30A4_U+30E4_U+30FC 1
370
     0
100
AcDbSpline
210
0.0
220
0.0
230
1.0
 70
    11
 71
     3
 72
    26
 73
    22
 74
     0
 42
0.0000000001
 43
0.0000000001
 12
1.0
 22
0.0
 32
0.0
 13
1.0
 23
0.0
 33
0.0
 40
0.0
 40
0.0
 40
0.0
 40
0.0
 40
1.0
 40
1.0
 40
1.0
 40
2.0
 40
2.0
 40
2.0
 40
3.0
 40
3.0
 40
3.0
 40
4.0
 40
4.0
 40
4.0
 40
5.0
 40
5.0
 40
5.0
 40
6.0
 40
6.0
 40
6.0
 40
7.0
 40
7.0
 40
7.0
 40
7.0
 10
84.40914575797758
 20
-141.7849717527482
 30
0.0
 10
84.40914575797758
 20
-141.7849717527482
 30
0.0
 10
84.40914575797758
 20
-140.6811631592741
 30
0.0
 10
84.40914575797758
 20
-140.6811631592741
 30
0.0
 10
84.40914575797758
 20
-140.6811631592741
 30
0.0
 10
84.07910561049064
 20
-140.6811631592741
 30
0.0
 10
84.07910561049064
 20
-140.6811631592741
 30
0.0
 10
84.07910561049064
 20
-140.6811631592741
 30
0.0
 10
84.07910561049064
 20
-140.5330240534084
 30
0.0
 10
84.07910561049064
 20
-140.5330240534084
 30
0.0
 10
84.41121281526873
 20
-140.5178656332733
 30
0.0
 10
84.4577216043196
 20
-140.3552571263695
 30
0.0
 10
84.48734942549275
 20
-140.2408799562592
 30
0.0
 10
84.48734942549275
 20
-140.2408799562592
 30
0.0
 10
84.63342147406735
 20
-140.2408799562592
 30
0.0
 10
84.63342147406735
 20
-140.2408799562592
 30
0.0
 10
84.63342147406735
 20
-140.2408799562592
 30
0.0
 10
84.63342147406735
 20
-141.7849717527482
 30
0.0
 10
84.63342147406735
 20
-141.7849717527482
 30
0.0
 10
84.63342147406735
 20
-141.7849717527482
 30
0.0
 10
84.40914575797758
 20
-141.7849717527482
 30
0.0
 10
84.40914575797758
 20
-141.7849717527482
 30
0.0
  0
HATCH
  5
AB
330
A6
100
AcDbEntity
  8
_U+30EC_U+30A4_U+30E4_U+30FC 1
 62
   179
420
  2234388
100
AcDbHatch
 10
0.0
 20
0.0
 30
0.0
210
0.0
220
0.0
230
1.0
  2
SOLID
 70
     1
 71
     0
 91
        1
 92
        1
 93
        1
 72
     4
 94
        3
 73
     0
 74
     1
 95
       26
 96
       22
 40
0.0
 40
0.0
 40
0.0
 40
0.0
 40
1.0
 40
1.0
 40
1.0
 40
2.0
 40
2.0
 40
2.0
 40
3.0
 40
3.0
 40
3.0
 40
4.0
 40
4.0
 40
4.0
 40
5.0
 40
5.0
 40
5.0
 40
6.0
 40
6.0
 40
6.0
 40
7.0
 40
7.0
 40
7.0
 40
7.0
 10
84.40914575797758
 20
-141.7849717527482
 10
84.40914575797758
 20
-141.7849717527482
 10
84.40914575797758
 20
-140.6811631592741
 10
84.40914575797758
 20
-140.6811631592741
 10
84.40914575797758
 20
-140.6811631592741
 10
84.07910561049064
 20
-140.6811631592741
 10
84.07910561049064
 20
-140.6811631592741
 10
84.07910561049064
 20
-140.6811631592741
 10
84.07910561049064
 20
-140.5330240534084
 10
84.07910561049064
 20
-140.5330240534084
 10
84.41121281526873
 20
-140.5178656332733
 10
84.4577216043196
 20
-140.3552571263695
 10
84.48734942549275
 20
-140.2408799562592
 10
84.48734942549275
 20
-140.2408799562592
 10
84.63342147406735
 20
-140.2408799562592
 10
84.63342147406735
 20
-140.2408799562592
 10
84.63342147406735
 20
-140.2408799562592
 10
84.63342147406735
 20
-141.7849717527482
 10
84.63342147406735
 20
-141.7849717527482
 10
84.63342147406735
 20
-141.7849717527482
 10
84.40914575797758
 20
-141.7849717527482
 10
84.40914575797758
 20
-141.7849717527482
 97
        0
 97
        0
 75
     2
 76
     1
 98
        0
  0
SPLINE
  5
AC
330
A6
100
AcDbEntity
  8
_U+30EC_U+30A4_U+30E4_U+30FC 1
370
     0
100
AcDbSpline
210
0.0
220
0.0
230
1.0
 70
    11
 71
     3
 72
    29
 73
    25
 74
     0
 42
0.0000000001
 43
0.0000000001
 12
1.0
 22
0.0
 32
0.0
 13
1.0
 23
0.0
 33
0.0
 40
0.0
 40
0.0
 40
0.0
 40
0.0
 40
1.0
 40
1.0
 40
1.0
 40
2.0
 40
2.0
 40
2.0
 40
3.0
 40
3.0
 40
3.0
 40
4.0
 40
4.0
 40
4.0
 40
5.0
 40
5.0
 40
5.0
 40
6.0
 40
6.0
 40
6.0
 40
7.0
 40
7.0
 40
7.0
 40
8.0
 40
8.0
 40
8.0
 40
8.0
 10
86.0324747506273
 20
-141.6072048257093
 30
0.0
 10
85.92429875239046
 20
-141.8166666312125
 30
0.0
 10
85.7510104494824
 20
-141.8359591659299
 30
0.0
 10
85.63456622208095
 20
-141.8359591659299
 30
0.0
 10
85.47368026291979
 20
-141.8359591659299
 30
0.0
 10
85.33208683847602
 20
-141.7891058673305
 30
0.0
 10
85.23700220308311
 20
-141.6072048257093
 30
0.0
 10
85.13330482897709
 20
-141.4129014403412
 30
0.0
 10
85.11435680380822
 20
-141.175878870956
 30
0.0
 10
85.11435680380822
 20
-141.0132703640522
 30
0.0
 10
85.11435680380822
 20
-140.8692653727688
 30
0.0
 10
85.13123777168595
 20
-140.6170843832485
 30
0.0
 10
85.23700220308311
 20
-140.4186468832981
 30
0.0
 10
85.34483369177144
 20
-140.2153862496684
 30
0.0
 10
85.5057196509326
 20
-140.1919596003687
 30
0.0
 10
85.63456622208095
 20
-140.1919596003687
 30
0.0
 10
85.79338512395097
 20
-140.1919596003687
 30
0.0
 10
85.93704560568588
 20
-140.2367458416769
 30
0.0
 10
86.0324747506273
 20
-140.4186468832981
 30
0.0
 10
86.1316935006025
 20
-140.6108832113751
 30
0.0
 10
86.1551201499022
 20
-140.8396375515956
 30
0.0
 10
86.1551201499022
 20
-141.0132703640522
 30
0.0
 10
86.1551201499022
 20
-141.1841471001206
 30
0.0
 10
86.13376055789365
 20
-141.4149684976324
 30
0.0
 10
86.0324747506273
 20
-141.6072048257093
 30
0.0
  0
SPLINE
  5
AD
330
A6
100
AcDbEntity
  8
_U+30EC_U+30A4_U+30E4_U+30FC 1
370
     0
100
AcDbSpline
210
0.0
220
0.0
230
1.0
 70
    11
 71
     3
 72
    17
 73
    13
 74
     0
 42
0.0000000001
 43
0.0000000001
 12
1.0
 22
0.0
 32
0.0
 13
1.0
 23
0.0
 33
0.0
 40
0.0
 40
0.0
 40
0.0
 40
0.0
 40
1.0
 40
1.0
 40
1.0
 40
2.0
 40
2.0
 40
2.0
 40
3.0
 40
3.0
 40
3.0
 40
4.0
 40
4.0
 40
4.0
 40
4.0
 10
85.63456622208095
 20
-140.3848849475427
 30
0.0
 10
85.38514130894886
 20
-140.3848849475427
 30
0.0
 10
85.33828801034946
 20
-140.6680717964302
 30
0.0
 10
85.33828801034946
 20
-141.0132703640522
 30
0.0
 10
85.33828801034946
 20
-141.3322862059864
 30
0.0
 10
85.37446151294458
 20
-141.6409667614648
 30
0.0
 10
85.63456622208095
 20
-141.6409667614648
 30
0.0
 10
85.8822685874704
 20
-141.6409667614648
 30
0.0
 10
85.93084443381242
 20
-141.3598469698684
 30
0.0
 10
85.93084443381242
 20
-141.0132703640522
 30
0.0
 10
85.93084443381242
 20
-140.6935655030211
 30
0.0
 10
85.89260387392616
 20
-140.3848849475427
 30
0.0
 10
85.63456622208095
 20
-140.3848849475427
 30
0.0
  0
HATCH
  5
AE
330
A6
100
AcDbEntity
  8
_U+30EC_U+30A4_U+30E4_U+30FC 1
 62
   179
420
  2234388
100
AcDbHatch
 10
0.0
 20
0.0
 30
0.0
210
0.0
220
0.0
230
1.0
  2
SOLID
 70
     1
 71
     0
 91
        2
 92
        1
 93
        1
 72
     4
 94
        3
 73
     0
 74
     1
 95
       29
 96
       25
 40
0.0
 40
0.0
 40
0.0
 40
0.0
 40
1.0
 40
1.0
 40
1.0
 40
2.0
 40
2.0
 40
2.0
 40
3.0
 40
3.0
 40
3.0
 40
4.0
 40
4.0
 40
4.0
 40
5.0
 40
5.0
 40
5.0
 40
6.0
 40
6.0
 40
6.0
 40
7.0
 40
7.0
 40
7.0
 40
8.0
 40
8.0
 40
8.0
 40
8.0
 10
86.0324747506273
 20
-141.6072048257093
 10
85.92429875239046
 20
-141.8166666312125
 10
85.7510104494824
 20
-141.8359591659299
 10
85.63456622208095
 20
-141.8359591659299
 10
85.47368026291979
 20
-141.8359591659299
 10
85.33208683847602
 20
-141.7891058673305
 10
85.23700220308311
 20
-141.6072048257093
 10
85.13330482897709
 20
-141.4129014403412
 10
85.11435680380822
 20
-141.175878870956
 10
85.11435680380822
 20
-141.0132703640522
 10
85.11435680380822
 20
-140.8692653727688
 10
85.13123777168595
 20
-140.6170843832485
 10
85.23700220308311
 20
-140.4186468832981
 10
85.34483369177144
 20
-140.2153862496684
 10
85.5057196509326
 20
-140.1919596003687
 10
85.63456622208095
 20
-140.1919596003687
 10
85.79338512395097
 20
-140.1919596003687
 10
85.93704560568588
 20
-140.2367458416769
 10
86.0324747506273
 20
-140.4186468832981
 10
86.1316935006025
 20
-140.6108832113751
 10
86.1551201499022
 20
-140.8396375515956
 10
86.1551201499022
 20
-141.0132703640522
 10
86.1551201499022
 20
-141.1841471001206
 10
86.13376055789365
 20
-141.4149684976324
 10
86.0324747506273
 20
-141.6072048257093
 97
        0
 97
        0
 92
        1
 93
        1
 72
     4
 94
        3
 73
     0
 74
     1
 95
       17
 96
       13
 40
0.0
 40
0.0
 40
0.0
 40
0.0
 40
1.0
 40
1.0
 40
1.0
 40
2.0
 40
2.0
 40
2.0
 40
3.0
 40
3.0
 40
3.0
 40
4.0
 40
4.0
 40
4.0
 40
4.0
 10
85.63456622208095
 20
-140.3848849475427
 10
85.38514130894886
 20
-140.3848849475427
 10
85.33828801034946
 20
-140.6680717964302
 10
85.33828801034946
 20
-141.0132703640522
 10
85.33828801034946
 20
-141.3322862059864
 10
85.37446151294458
 20
-141.6409667614648
 10
85.63456622208095
 20
-141.6409667614648
 10
85.8822685874704
 20
-141.6409667614648
 10
85.93084443381242
 20
-141.3598469698684
 10
85.93084443381242
 20
-141.0132703640522
 10
85.93084443381242
 20
-140.6935655030211
 10
85.89260387392616
 20
-140.3848849475427
 10
85.63456622208095
 20
-140.3848849475427
 97
        0
 97
        0
 75
     2
 76
     1
 98
        0
  0
ENDBLK
  5
A9
330
A6
100
AcDbEntity
  8
0
100
AcDbBlockEnd
  0
BLOCK
  5
B9
330
B7
100
AcDbEntity
  8
0
100
AcDbBlockBegin
  2
block 5
 70
     0
 10
0.0
 20
0.0
 30
0.0
  3
block 5
  1

  0
SPLINE
  5
BB
330
B7
100
AcDbEntity
  8
_U+30EC_U+30A4_U+30E4_U+30FC 1
370
     0
100
AcDbSpline
210
0.0
220
0.0
230
1.0
 70
    11
 71
     3
 72
    26
 73
    22
 74
     0
 42
0.0000000001
 43
0.0000000001
 12
1.0
 22
0.0
 32
0.0
 13
1.0
 23
0.0
 33
0.0
 40
0.0
 40
0.0
 40
0.0
 40
0.0
 40
1.0
 40
1.0
 40
1.0
 40
2.0
 40
2.0
 40
2.0
 40
3.0
 40
3.0
 40
3.0
 40
4.0
 40
4.0
 40
4.0
 40
5.0
 40
5.0
 40
5.0
 40
6.0
 40
6.0
 40
6.0
 40
7.0
 40
7.0
 40
7.0
 40
7.0
 10
73.40912812834911
 20
-141.7849717527482
 30
0.0
 10
73.40912812834911
 20
-141.7849717527482
 30
0.0
 10
73.40912812834911
 20
-140.6811631592741
 30
0.0
 10
73.40912812834911
 20
-140.6811631592741
 30
0.0
 10
73.40912812834911
 20
-140.6811631592741
 30
0.0
 10
73.07908798086217
 20
-140.6811631592741
 30
0.0
 10
73.07908798086217
 20
-140.6811631592741
 30
0.0
 10
73.07908798086217
 20
-140.6811631592741
 30
0.0
 10
73.07908798086217
 20
-140.5330240534084
 30
0.0
 10
73.07908798086217
 20
-140.5330240534084
 30
0.0
 10
73.41119518564027
 20
-140.5178656332733
 30
0.0
 10
73.45770397469113
 20
-140.3552571263695
 30
0.0
 10
73.48733179586428
 20
-140.2408799562592
 30
0.0
 10
73.48733179586428
 20
-140.2408799562592
 30
0.0
 10
73.63340384443887
 20
-140.2408799562592
 30
0.0
 10
73.63340384443887
 20
-140.2408799562592
 30
0.0
 10
73.63340384443887
 20
-140.2408799562592
 30
0.0
 10
73.63340384443887
 20
-141.7849717527482
 30
0.0
 10
73.63340384443887
 20
-141.7849717527482
 30
0.0
 10
73.63340384443887
 20
-141.7849717527482
 30
0.0
 10
73.40912812834911
 20
-141.7849717527482
 30
0.0
 10
73.40912812834911
 20
-141.7849717527482
 30
0.0
  0
HATCH
  5
BC
330
B7
100
AcDbEntity
  8
_U+30EC_U+30A4_U+30E4_U+30FC 1
 62
   179
420
  2234388
100
AcDbHatch
 10
0.0
 20
0.0
 30
0.0
210
0.0
220
0.0
230
1.0
  2
SOLID
 70
     1
 71
     0
 91
        1
 92
        1
 93
        1
 72
     4
 94
        3
 73
     0
 74
     1
 95
       26
 96
       22
 40
0.0
 40
0.0
 40
0.0
 40
0.0
 40
1.0
 40
1.0
 40
1.0
 40
2.0
 40
2.0
 40
2.0
 40
3.0
 40
3.0
 40
3.0
 40
4.0
 40
4.0
 40
4.0
 40
5.0
 40
5.0
 40
5.0
 40
6.0
 40
6.0
 40
6.0
 40
7.0
 40
7.0
 40
7.0
 40
7.0
 10
73.40912812834911
 20
-141.7849717527482
 10
73.40912812834911
 20
-141.7849717527482
 10
73.40912812834911
 20
-140.6811631592741
 10
73.40912812834911
 20
-140.6811631592741
 10
73.40912812834911
 20
-140.6811631592741
 10
73.07908798086217
 20
-140.6811631592741
 10
73.07908798086217
 20
-140.6811631592741
 10
73.07908798086217
 20
-140.6811631592741
 10
73.07908798086217
 20
-140.5330240534084
 10
73.07908798086217
 20
-140.5330240534084
 10
73.41119518564027
 20
-140.5178656332733
 10
73.45770397469113
 20
-140.3552571263695
 10
73.48733179586428
 20
-140.2408799562592
 10
73.48733179586428
 20
-140.2408799562592
 10
73.63340384443887
 20
-140.2408799562592
 10
73.63340384443887
 20
-140.2408799562592
 10
73.63340384443887
 20
-140.2408799562592
 10
73.63340384443887
 20
-141.7849717527482
 10
73.63340384443887
 20
-141.7849717527482
 10
73.63340384443887
 20
-141.7849717527482
 10
73.40912812834911
 20
-141.7849717527482
 10
73.40912812834911
 20
-141.7849717527482
 97
        0
 97
        0
 75
     2
 76
     1
 98
        0
  0
SPLINE
  5
BD
330
B7
100
AcDbEntity
  8
_U+30EC_U+30A4_U+30E4_U+30FC 1
370
     0
100
AcDbSpline
210
0.0
220
0.0
230
1.0
 70
    11
 71
     3
 72
    44
 73
    40
 74
     0
 42
0.0000000001
 43
0.0000000001
 12
1.0
 22
0.0
 32
0.0
 13
1.0
 23
0.0
 33
0.0
 40
0.0
 40
0.0
 40
0.0
 40
0.0
 40
1.0
 40
1.0
 40
1.0
 40
2.0
 40
2.0
 40
2.0
 40
3.0
 40
3.0
 40
3.0
 40
4.0
 40
4.0
 40
4.0
 40
5.0
 40
5.0
 40
5.0
 40
6.0
 40
6.0
 40
6.0
 40
7.0
 40
7.0
 40
7.0
 40
8.0
 40
8.0
 40
8.0
 40
9.0
 40
9.0
 40
9.0
 40
10.0
 40
10.0
 40
10.0
 40
11.0
 40
11.0
 40
11.0
 40
12.0
 40
12.0
 40
12.0
 40
13.0
 40
13.0
 40
13.0
 40
13.0
 10
74.72773842532848
 20
-141.203439634838
 30
0.0
 10
74.50983613588643
 20
-141.3619140271595
 30
0.0
 10
74.41664630301042
 20
-141.4363280896409
 30
0.0
 10
74.3680704566684
 20
-141.5796440618273
 30
0.0
 10
74.3680704566684
 20
-141.5796440618273
 30
0.0
 10
75.1464897815606
 20
-141.5796440618273
 30
0.0
 10
75.1464897815606
 20
-141.5796440618273
 30
0.0
 10
75.1464897815606
 20
-141.5796440618273
 30
0.0
 10
75.1464897815606
 20
-141.7849717527482
 30
0.0
 10
75.1464897815606
 20
-141.7849717527482
 30
0.0
 10
75.1464897815606
 20
-141.7849717527482
 30
0.0
 10
74.11847328876205
 20
-141.7849717527482
 30
0.0
 10
74.11847328876205
 20
-141.7849717527482
 30
0.0
 10
74.15016816722635
 20
-141.4273708413793
 30
0.0
 10
74.21579723622035
 20
-141.3495116834126
 30
0.0
 10
74.60078665669703
 20
-141.05116641439
 30
0.0
 10
74.8567572512511
 20
-140.8520398953426
 30
0.0
 10
74.92221406547084
 20
-140.7845160238317
 30
0.0
 10
74.92221406547084
 20
-140.6467122044217
 30
0.0
 10
74.92221406547084
 20
-140.5282009197291
 30
0.0
 10
74.85038382460338
 20
-140.3972872912896
 30
0.0
 10
74.65366887239561
 20
-140.3972872912896
 30
0.0
 10
74.39339190848499
 20
-140.3972872912896
 30
0.0
 10
74.38495142454613
 20
-140.6281086888013
 30
0.0
 10
74.38064505518956
 20
-140.7445529162028
 30
0.0
 10
74.38064505518956
 20
-140.7445529162028
 30
0.0
 10
74.15654159387407
 20
-140.7445529162028
 30
0.0
 10
74.15654159387407
 20
-140.7445529162028
 30
0.0
 10
74.16498207781292
 20
-140.6170843832485
 30
0.0
 10
74.17548961904293
 20
-140.5054632895264
 30
0.0
 10
74.25593259862352
 20
-140.3869520048338
 30
0.0
 10
74.36583114460299
 20
-140.2260660456727
 30
0.0
 10
74.55203855558075
 20
-140.1919596003687
 30
0.0
 10
74.66848278298218
 20
-140.1919596003687
 30
0.0
 10
74.94564071477053
 20
-140.1919596003687
 30
0.0
 10
75.15286320820832
 20
-140.375927699281
 30
0.0
 10
75.15286320820832
 20
-140.6487792617128
 30
0.0
 10
75.15286320820832
 20
-140.8775336019334
 30
0.0
 10
75.03659123558113
 20
-140.9767523519086
 30
0.0
 10
74.72773842532848
 20
-141.203439634838
 30
0.0
  0
HATCH
  5
BE
330
B7
100
AcDbEntity
  8
_U+30EC_U+30A4_U+30E4_U+30FC 1
 62
   179
420
  2234388
100
AcDbHatch
 10
0.0
 20
0.0
 30
0.0
210
0.0
220
0.0
230
1.0
  2
SOLID
 70
     1
 71
     0
 91
        1
 92
        1
 93
        1
 72
     4
 94
        3
 73
     0
 74
     1
 95
       44
 96
       40
 40
0.0
 40
0.0
 40
0.0
 40
0.0
 40
1.0
 40
1.0
 40
1.0
 40
2.0
 40
2.0
 40
2.0
 40
3.0
 40
3.0
 40
3.0
 40
4.0
 40
4.0
 40
4.0
 40
5.0
 40
5.0
 40
5.0
 40
6.0
 40
6.0
 40
6.0
 40
7.0
 40
7.0
 40
7.0
 40
8.0
 40
8.0
 40
8.0
 40
9.0
 40
9.0
 40
9.0
 40
10.0
 40
10.0
 40
10.0
 40
11.0
 40
11.0
 40
11.0
 40
12.0
 40
12.0
 40
12.0
 40
13.0
 40
13.0
 40
13.0
 40
13.0
 10
74.72773842532848
 20
-141.203439634838
 10
74.50983613588643
 20
-141.3619140271595
 10
74.41664630301042
 20
-141.4363280896409
 10
74.3680704566684
 20
-141.5796440618273
 10
74.3680704566684
 20
-141.5796440618273
 10
75.1464897815606
 20
-141.5796440618273
 10
75.1464897815606
 20
-141.5796440618273
 10
75.1464897815606
 20
-141.5796440618273
 10
75.1464897815606
 20
-141.7849717527482
 10
75.1464897815606
 20
-141.7849717527482
 10
75.1464897815606
 20
-141.7849717527482
 10
74.11847328876205
 20
-141.7849717527482
 10
74.11847328876205
 20
-141.7849717527482
 10
74.15016816722635
 20
-141.4273708413793
 10
74.21579723622035
 20
-141.3495116834126
 10
74.60078665669703
 20
-141.05116641439
 10
74.8567572512511
 20
-140.8520398953426
 10
74.92221406547084
 20
-140.7845160238317
 10
74.92221406547084
 20
-140.6467122044217
 10
74.92221406547084
 20
-140.5282009197291
 10
74.85038382460338
 20
-140.3972872912896
 10
74.65366887239561
 20
-140.3972872912896
 10
74.39339190848499
 20
-140.3972872912896
 10
74.38495142454613
 20
-140.6281086888013
 10
74.38064505518956
 20
-140.7445529162028
 10
74.38064505518956
 20
-140.7445529162028
 10
74.15654159387407
 20
-140.7445529162028
 10
74.15654159387407
 20
-140.7445529162028
 10
74.16498207781292
 20
-140.6170843832485
 10
74.17548961904293
 20
-140.5054632895264
 10
74.25593259862352
 20
-140.3869520048338
 10
74.36583114460299
 20
-140.2260660456727
 10
74.55203855558075
 20
-140.1919596003687
 10
74.66848278298218
 20
-140.1919596003687
 10
74.94564071477053
 20
-140.1919596003687
 10
75.15286320820832
 20
-140.375927699281
 10
75.15286320820832
 20
-140.6487792617128
 10
75.15286320820832
 20
-140.8775336019334
 10
75.03659123558113
 20
-140.9767523519086
 10
74.72773842532848
 20
-141.203439634838
 97
        0
 97
        0
 75
     2
 76
     1
 98
        0
  0
ENDBLK
  5
BA
330
B7
100
AcDbEntity
  8
0
100
AcDbBlockEnd
  0
BLOCK
  5
CD
330
CB
100
AcDbEntity
  8
0
100
AcDbBlockBegin
  2
block 6
 70
     0
 10
0.0
 20
0.0
 30
0.0
  3
block 6
  1

  0
POLYLINE
  5
CF
330
CB
100
AcDbEntity
  8
_U+30EC_U+30A4_U+30E4_U+30FC 1
370
     0
100
AcDb2dPolyline
 66
     1
 10
0.0
 20
0.0
 30
0.0
  0
VERTEX
  5
D0
330
CF
100
AcDbEntity
  8
_U+30EC_U+30A4_U+30E4_U+30FC 1
370
     0
100
AcDbVertex
100
AcDb2dVertex
 10
87.78999021242751
 20
-116.4381984843453
 30
0.0
  0
VERTEX
  5
D1
330
CF
100
AcDbEntity
  8
_U+30EC_U+30A4_U+30E4_U+30FC 1
370
     0
100
AcDbVertex
100
AcDb2dVertex
 10
87.78999021242751
 20
-116.78511959971
 30
0.0
  0
VERTEX
  5
D2
330
CF
100
AcDbEntity
  8
_U+30EC_U+30A4_U+30E4_U+30FC 1
370
     0
100
AcDbVertex
100
AcDb2dVertex
 10
87.57226017775972
 20
-116.78511959971
 30
0.0
  0
VERTEX
  5
D3
330
CF
100
AcDbEntity
  8
_U+30EC_U+30A4_U+30E4_U+30FC 1
370
     0
100
AcDbVertex
100
AcDb2dVertex
 10
87.57226017775972
 20
-116.4381984843453
 30
0.0
  0
VERTEX
  5
D4
330
CF
100
AcDbEntity
  8
_U+30EC_U+30A4_U+30E4_U+30FC 1
370
     0
100
AcDbVertex
100
AcDb2dVertex
 10
86.91631399736815
 20
-116.4381984843453
 30
0.0
  0
VERTEX
  5
D5
330
CF
100
AcDbEntity
  8
_U+30EC_U+30A4_U+30E4_U+30FC 1
370
     0
100
AcDbVertex
100
AcDb2dVertex
 10
86.91631399736815
 20
-116.2139227682556
 30
0.0
  0
VERTEX
  5
D6
330
CF
100
AcDbEntity
  8
_U+30EC_U+30A4_U+30E4_U+30FC 1
370
     0
100
AcDbVertex
100
AcDb2dVertex
 10
87.59534231751088
 20
-115.2408555484467
 30
0.0
  0
VERTEX
  5
D7
330
CF
100
AcDbEntity
  8
_U+30EC_U+30A4_U+30E4_U+30FC 1
370
     0
100
AcDbVertex
100
AcDb2dVertex
 10
87.78999021242751
 20
-115.2408555484467
 30
0.0
  0
VERTEX
  5
D8
330
CF
100
AcDbEntity
  8
_U+30EC_U+30A4_U+30E4_U+30FC 1
370
     0
100
AcDbVertex
100
AcDb2dVertex
 10
87.78999021242751
 20
-116.2392442200721
 30
0.0
  0
VERTEX
  5
D9
330
CF
100
AcDbEntity
  8
_U+30EC_U+30A4_U+30E4_U+30FC 1
370
     0
100
AcDbVertex
100
AcDb2dVertex
 10
87.99738496063955
 20
-116.2392442200721
 30
0.0
  0
VERTEX
  5
DA
330
CF
100
AcDbEntity
  8
_U+30EC_U+30A4_U+30E4_U+30FC 1
370
     0
100
AcDbVertex
100
AcDb2dVertex
 10
87.99738496063955
 20
-116.4381984843453
 30
0.0
  0
VERTEX
  5
DB
330
CF
100
AcDbEntity
  8
_U+30EC_U+30A4_U+30E4_U+30FC 1
370
     0
100
AcDbVertex
100
AcDb2dVertex
 10
87.78999021242751
 20
-116.4381984843453
 30
0.0
  0
SEQEND
  5
DC
330
CF
100
AcDbEntity
  8
_U+30EC_U+30A4_U+30E4_U+30FC 1
370
     0
  0
POLYLINE
  5
DD
330
CB
100
AcDbEntity
  8
_U+30EC_U+30A4_U+30E4_U+30FC 1
370
     0
100
AcDb2dPolyline
 66
     1
 10
0.0
 20
0.0
 30
0.0
  0
VERTEX
  5
DE
330
DD
100
AcDbEntity
  8
_U+30EC_U+30A4_U+30E4_U+30FC 1
370
     0
100
AcDbVertex
100
AcDb2dVertex
 10
87.57226017775972
 20
-115.5834702944548
 30
0.0
  0
VERTEX
  5
DF
330
DD
100
AcDbEntity
  8
_U+30EC_U+30A4_U+30E4_U+30FC 1
370
     0
100
AcDbVertex
100
AcDb2dVertex
 10
87.11509600686706
 20
-116.2392442200721
 30
0.0
  0
VERTEX
  5
E0
330
DD
100
AcDbEntity
  8
_U+30EC_U+30A4_U+30E4_U+30FC 1
370
     0
100
AcDbVertex
100
AcDb2dVertex
 10
87.57226017775972
 20
-116.2392442200721
 30
0.0
  0
VERTEX
  5
E1
330
DD
100
AcDbEntity
  8
_U+30EC_U+30A4_U+30E4_U+30FC 1
370
     0
100
AcDbVertex
100
AcDb2dVertex
 10
87.57226017775972
 20
-115.5834702944548
 30
0.0
  0
SEQEND
  5
E2
330
DD
100
AcDbEntity
  8
_U+30EC_U+30A4_U+30E4_U+30FC 1
370
     0
  0
HATCH
  5
E3
330
CB
100
AcDbEntity
  8
_U+30EC_U+30A4_U+30E4_U+30FC 1
 62
   179
420
  2234388
100
AcDbHatch
 10
0.0
 20
0.0
 30
0.0
210
0.0
220
0.0
230
1.0
  2
SOLID
 70
     1
 71
     0
 91
        2
 92
        1
 93
       11
 72
     1
 10
87.78999021242751
 20
-116.4381984843453
 11
87.78999021242751
 21
-116.78511959971
 72
     1
 10
87.78999021242751
 20
-116.78511959971
 11
87.57226017775972
 21
-116.78511959971
 72
     1
 10
87.57226017775972
 20
-116.78511959971
 11
87.57226017775972
 21
-116.4381984843453
 72
     1
 10
87.57226017775972
 20
-116.4381984843453
 11
86.91631399736815
 21
-116.4381984843453
 72
     1
 10
86.91631399736815
 20
-116.4381984843453
 11
86.91631399736815
 21
-116.2139227682556
 72
     1
 10
86.91631399736815
 20
-116.2139227682556
 11
87.59534231751088
 21
-115.2408555484467
 72
     1
 10
87.59534231751088
 20
-115.2408555484467
 11
87.78999021242751
 21
-115.2408555484467
 72
     1
 10
87.78999021242751
 20
-115.2408555484467
 11
87.78999021242751
 21
-116.2392442200721
 72
     1
 10
87.78999021242751
 20
-116.2392442200721
 11
87.99738496063955
 21
-116.2392442200721
 72
     1
 10
87.99738496063955
 20
-116.2392442200721
 11
87.99738496063955
 21
-116.4381984843453
 72
     1
 10
87.99738496063955
 20
-116.4381984843453
 11
87.78999021242751
 21
-116.4381984843453
 97
        0
 92
        1
 93
        3
 72
     1
 10
87.57226017775972
 20
-115.5834702944548
 11
87.11509600686706
 21
-116.2392442200721
 72
     1
 10
87.11509600686706
 20
-116.2392442200721
 11
87.57226017775972
 21
-116.2392442200721
 72
     1
 10
87.57226017775972
 20
-116.2392442200721
 11
87.57226017775972
 21
-115.5834702944548
 97
        0
 75
     2
 76
     1
 98
        0
  0
SPLINE
  5
E4
330
CB
100
AcDbEntity
  8
_U+30EC_U+30A4_U+30E4_U+30FC 1
370
     0
100
AcDbSpline
210
0.0
220
0.0
230
1.0
 70
    11
 71
     3
 72
    29
 73
    25
 74
     0
 42
0.0000000001
 43
0.0000000001
 12
1.0
 22
0.0
 32
0.0
 13
1.0
 23
0.0
 33
0.0
 40
0.0
 40
0.0
 40
0.0
 40
0.0
 40
1.0
 40
1.0
 40
1.0
 40
2.0
 40
2.0
 40
2.0
 40
3.0
 40
3.0
 40
3.0
 40
4.0
 40
4.0
 40
4.0
 40
5.0
 40
5.0
 40
5.0
 40
6.0
 40
6.0
 40
6.0
 40
7.0
 40
7.0
 40
7.0
 40
8.0
 40
8.0
 40
8.0
 40
8.0
 10
89.03263615395713
 20
-116.6073526726711
 30
0.0
 10
88.92446015572028
 20
-116.8168144781743
 30
0.0
 10
88.7511718528122
 20
-116.8359347581174
 30
0.0
 10
88.63472762541076
 20
-116.8359347581174
 30
0.0
 10
88.4738416662496
 20
-116.8359347581174
 30
0.0
 10
88.33224824180583
 20
-116.7894259690665
 30
0.0
 10
88.23716360641293
 20
-116.6073526726711
 30
0.0
 10
88.13346623230692
 20
-116.4127047777545
 30
0.0
 10
88.11417369758952
 20
-116.1758544631435
 30
0.0
 10
88.11417369758952
 20
-116.0129014466912
 30
0.0
 10
88.11417369758952
 20
-115.869068710182
 30
0.0
 10
88.13139917501576
 20
-115.6174044849845
 30
0.0
 10
88.23716360641293
 20
-115.4184502207114
 30
0.0
 10
88.34499509510125
 20
-115.2153618418559
 30
0.0
 10
88.50588105426242
 20
-115.1921074473305
 30
0.0
 10
88.63472762541076
 20
-115.1921074473305
 30
0.0
 10
88.79354652728078
 20
-115.1921074473305
 30
0.0
 10
88.93720700901571
 20
-115.2365491790902
 30
0.0
 10
89.03263615395713
 20
-115.4184502207114
 30
0.0
 10
89.13185490393232
 20
-115.6110310583368
 30
0.0
 10
89.15528155323202
 20
-115.8394408890089
 30
0.0
 10
89.15528155323202
 20
-116.0129014466912
 30
0.0
 10
89.15528155323202
 20
-116.1842949470824
 30
0.0
 10
89.13392196122346
 20
-116.4149440898199
 30
0.0
 10
89.03263615395713
 20
-116.6073526726711
 30
0.0
  0
SPLINE
  5
E5
330
CB
100
AcDbEntity
  8
_U+30EC_U+30A4_U+30E4_U+30FC 1
370
     0
100
AcDbSpline
210
0.0
220
0.0
230
1.0
 70
    11
 71
     3
 72
    17
 73
    13
 74
     0
 42
0.0000000001
 43
0.0000000001
 12
1.0
 22
0.0
 32
0.0
 13
1.0
 23
0.0
 33
0.0
 40
0.0
 40
0.0
 40
0.0
 40
0.0
 40
1.0
 40
1.0
 40
1.0
 40
2.0
 40
2.0
 40
2.0
 40
3.0
 40
3.0
 40
3.0
 40
4.0
 40
4.0
 40
4.0
 40
4.0
 10
88.63472762541076
 20
-115.3846882849559
 30
0.0
 10
88.38495820273015
 20
-115.3846882849559
 30
0.0
 10
88.33844941367929
 20
-115.668219643392
 30
0.0
 10
88.33844941367929
 20
-116.0129014466912
 30
0.0
 10
88.33844941367929
 20
-116.3324340529481
 30
0.0
 10
88.3746229162744
 20
-116.6412868632008
 30
0.0
 10
88.63472762541076
 20
-116.6412868632008
 30
0.0
 10
88.88242999080023
 20
-116.6412868632008
 30
0.0
 10
88.93100583714225
 20
-116.3598225620559
 30
0.0
 10
88.93100583714225
 20
-116.0129014466912
 30
0.0
 10
88.93100583714225
 20
-115.6935410952086
 30
0.0
 10
88.89276527725598
 20
-115.3846882849559
 30
0.0
 10
88.63472762541076
 20
-115.3846882849559
 30
0.0
  0
HATCH
  5
E6
330
CB
100
AcDbEntity
  8
_U+30EC_U+30A4_U+30E4_U+30FC 1
 62
   179
420
  2234388
100
AcDbHatch
 10
0.0
 20
0.0
 30
0.0
210
0.0
220
0.0
230
1.0
  2
SOLID
 70
     1
 71
     0
 91
        2
 92
        1
 93
        1
 72
     4
 94
        3
 73
     0
 74
     1
 95
       29
 96
       25
 40
0.0
 40
0.0
 40
0.0
 40
0.0
 40
1.0
 40
1.0
 40
1.0
 40
2.0
 40
2.0
 40
2.0
 40
3.0
 40
3.0
 40
3.0
 40
4.0
 40
4.0
 40
4.0
 40
5.0
 40
5.0
 40
5.0
 40
6.0
 40
6.0
 40
6.0
 40
7.0
 40
7.0
 40
7.0
 40
8.0
 40
8.0
 40
8.0
 40
8.0
 10
89.03263615395713
 20
-116.6073526726711
 10
88.92446015572028
 20
-116.8168144781743
 10
88.7511718528122
 20
-116.8359347581174
 10
88.63472762541076
 20
-116.8359347581174
 10
88.4738416662496
 20
-116.8359347581174
 10
88.33224824180583
 20
-116.7894259690665
 10
88.23716360641293
 20
-116.6073526726711
 10
88.13346623230692
 20
-116.4127047777545
 10
88.11417369758952
 20
-116.1758544631435
 10
88.11417369758952
 20
-116.0129014466912
 10
88.11417369758952
 20
-115.869068710182
 10
88.13139917501576
 20
-115.6174044849845
 10
88.23716360641293
 20
-115.4184502207114
 10
88.34499509510125
 20
-115.2153618418559
 10
88.50588105426242
 20
-115.1921074473305
 10
88.63472762541076
 20
-115.1921074473305
 10
88.79354652728078
 20
-115.1921074473305
 10
88.93720700901571
 20
-115.2365491790902
 10
89.03263615395713
 20
-115.4184502207114
 10
89.13185490393232
 20
-115.6110310583368
 10
89.15528155323202
 20
-115.8394408890089
 10
89.15528155323202
 20
-116.0129014466912
 10
89.15528155323202
 20
-116.1842949470824
 10
89.13392196122346
 20
-116.4149440898199
 10
89.03263615395713
 20
-116.6073526726711
 97
        0
 97
        0
 92
        1
 93
        1
 72
     4
 94
        3
 73
     0
 74
     1
 95
       17
 96
       13
 40
0.0
 40
0.0
 40
0.0
 40
0.0
 40
1.0
 40
1.0
 40
1.0
 40
2.0
 40
2.0
 40
2.0
 40
3.0
 40
3.0
 40
3.0
 40
4.0
 40
4.0
 40
4.0
 40
4.0
 10
88.63472762541076
 20
-115.3846882849559
 10
88.38495820273015
 20
-115.3846882849559
 10
88.33844941367929
 20
-115.668219643392
 10
88.33844941367929
 20
-116.0129014466912
 10
88.33844941367929
 20
-116.3324340529481
 10
88.3746229162744
 20
-116.6412868632008
 10
88.63472762541076
 20
-116.6412868632008
 10
88.88242999080023
 20
-116.6412868632008
 10
88.93100583714225
 20
-116.3598225620559
 10
88.93100583714225
 20
-116.0129014466912
 10
88.93100583714225
 20
-115.6935410952086
 10
88.89276527725598
 20
-115.3846882849559
 10
88.63472762541076
 20
-115.3846882849559
 97
        0
 97
        0
 75
     2
 76
     1
 98
        0
  0
ENDBLK
  5
CE
330
CB
100
AcDbEntity
  8
0
100
AcDbBlockEnd
  0
BLOCK
  5
F1
330
EF
100
AcDbEntity
  8
0
100
AcDbBlockBegin
  2
block 7
 70
     0
 10
0.0
 20
0.0
 30
0.0
  3
block 7
  1

  0
SPLINE
  5
F3
330
EF
100
AcDbEntity
  8
_U+30EC_U+30A4_U+30E4_U+30FC 1
370
     0
100
AcDbSpline
210
0.0
220
0.0
230
1.0
 70
    11
 71
     3
 72
    26
 73
    22
 74
     0
 42
0.0000000001
 43
0.0000000001
 12
1.0
 22
0.0
 32
0.0
 13
1.0
 23
0.0
 33
0.0
 40
0.0
 40
0.0
 40
0.0
 40
0.0
 40
1.0
 40
1.0
 40
1.0
 40
2.0
 40
2.0
 40
2.0
 40
3.0
 40
3.0
 40
3.0
 40
4.0
 40
4.0
 40
4.0
 40
5.0
 40
5.0
 40
5.0
 40
6.0
 40
6.0
 40
6.0
 40
7.0
 40
7.0
 40
7.0
 40
7.0
 10
111.4009521205873
 20
-129.5690076716008
 30
0.0
 10
111.4009521205873
 20
-129.5690076716008
 30
0.0
 10
110.2967990175647
 20
-129.5690076716008
 30
0.0
 10
110.2967990175647
 20
-129.5690076716008
 30
0.0
 10
110.2967990175647
 20
-129.5690076716008
 30
0.0
 10
110.2967990175647
 20
-129.8990478190877
 30
0.0
 10
110.2967990175647
 20
-129.8990478190877
 30
0.0
 10
110.2967990175647
 20
-129.8990478190877
 30
0.0
 10
110.148659911699
 20
-129.8990478190877
 30
0.0
 10
110.148659911699
 20
-129.8990478190877
 30
0.0
 10
110.1338460011124
 20
-129.5669406143097
 30
0.0
 10
109.9708929846601
 20
-129.5204318252588
 30
0.0
 10
109.8565158145498
 20
-129.4908040040856
 30
0.0
 10
109.8565158145498
 20
-129.4908040040856
 30
0.0
 10
109.8565158145498
 20
-129.344731955511
 30
0.0
 10
109.8565158145498
 20
-129.344731955511
 30
0.0
 10
109.8565158145498
 20
-129.344731955511
 30
0.0
 10
111.4009521205873
 20
-129.344731955511
 30
0.0
 10
111.4009521205873
 20
-129.344731955511
 30
0.0
 10
111.4009521205873
 20
-129.344731955511
 30
0.0
 10
111.4009521205873
 20
-129.5690076716008
 30
0.0
 10
111.4009521205873
 20
-129.5690076716008
 30
0.0
  0
HATCH
  5
F4
330
EF
100
AcDbEntity
  8
_U+30EC_U+30A4_U+30E4_U+30FC 1
 62
   179
420
  2234388
100
AcDbHatch
 10
0.0
 20
0.0
 30
0.0
210
0.0
220
0.0
230
1.0
  2
SOLID
 70
     1
 71
     0
 91
        1
 92
        1
 93
        1
 72
     4
 94
        3
 73
     0
 74
     1
 95
       26
 96
       22
 40
0.0
 40
0.0
 40
0.0
 40
0.0
 40
1.0
 40
1.0
 40
1.0
 40
2.0
 40
2.0
 40
2.0
 40
3.0
 40
3.0
 40
3.0
 40
4.0
 40
4.0
 40
4.0
 40
5.0
 40
5.0
 40
5.0
 40
6.0
 40
6.0
 40
6.0
 40
7.0
 40
7.0
 40
7.0
 40
7.0
 10
111.4009521205873
 20
-129.5690076716008
 10
111.4009521205873
 20
-129.5690076716008
 10
110.2967990175647
 20
-129.5690076716008
 10
110.2967990175647
 20
-129.5690076716008
 10
110.2967990175647
 20
-129.5690076716008
 10
110.2967990175647
 20
-129.8990478190877
 10
110.2967990175647
 20
-129.8990478190877
 10
110.2967990175647
 20
-129.8990478190877
 10
110.148659911699
 20
-129.8990478190877
 10
110.148659911699
 20
-129.8990478190877
 10
110.1338460011124
 20
-129.5669406143097
 10
109.9708929846601
 20
-129.5204318252588
 10
109.8565158145498
 20
-129.4908040040856
 10
109.8565158145498
 20
-129.4908040040856
 10
109.8565158145498
 20
-129.344731955511
 10
109.8565158145498
 20
-129.344731955511
 10
109.8565158145498
 20
-129.344731955511
 10
111.4009521205873
 20
-129.344731955511
 10
111.4009521205873
 20
-129.344731955511
 10
111.4009521205873
 20
-129.344731955511
 10
111.4009521205873
 20
-129.5690076716008
 10
111.4009521205873
 20
-129.5690076716008
 97
        0
 97
        0
 75
     2
 76
     1
 98
        0
  0
SPLINE
  5
F5
330
EF
100
AcDbEntity
  8
_U+30EC_U+30A4_U+30E4_U+30FC 1
370
     0
100
AcDbSpline
210
0.0
220
0.0
230
1.0
 70
    11
 71
     3
 72
    62
 73
    58
 74
     0
 42
0.0000000001
 43
0.0000000001
 12
1.0
 22
0.0
 32
0.0
 13
1.0
 23
0.0
 33
0.0
 40
0.0
 40
0.0
 40
0.0
 40
0.0
 40
1.0
 40
1.0
 40
1.0
 40
2.0
 40
2.0
 40
2.0
 40
3.0
 40
3.0
 40
3.0
 40
4.0
 40
4.0
 40
4.0
 40
5.0
 40
5.0
 40
5.0
 40
6.0
 40
6.0
 40
6.0
 40
7.0
 40
7.0
 40
7.0
 40
8.0
 40
8.0
 40
8.0
 40
9.0
 40
9.0
 40
9.0
 40
10.0
 40
10.0
 40
10.0
 40
11.0
 40
11.0
 40
11.0
 40
12.0
 40
12.0
 40
12.0
 40
13.0
 40
13.0
 40
13.0
 40
14.0
 40
14.0
 40
14.0
 40
15.0
 40
15.0
 40
15.0
 40
16.0
 40
16.0
 40
16.0
 40
17.0
 40
17.0
 40
17.0
 40
18.0
 40
18.0
 40
18.0
 40
19.0
 40
19.0
 40
19.0
 40
19.0
 10
111.4515950242204
 20
-128.351855436662
 30
0.0
 10
111.4515950242204
 20
-128.4472845816035
 30
0.0
 10
111.4305799417604
 20
-128.6650146162713
 30
0.0
 10
111.2445447855569
 20
-128.7900715823858
 30
0.0
 10
111.1322346727378
 20
-128.8637966257702
 30
0.0
 10
111.0330159227626
 20
-128.868275249901
 30
0.0
 10
110.9482665738254
 20
-128.8724093644833
 30
0.0
 10
110.9482665738254
 20
-128.8724093644833
 30
0.0
 10
110.9482665738254
 20
-128.6522677629758
 30
0.0
 10
110.9482665738254
 20
-128.6522677629758
 30
0.0
 10
111.0223361267583
 20
-128.6502007056847
 30
0.0
 10
111.2569471293038
 20
-128.6398654192289
 30
0.0
 10
111.2569471293038
 20
-128.3563340607929
 30
0.0
 10
111.2569471293038
 20
-128.2188747509314
 30
0.0
 10
111.1873562005018
 20
-128.0662570209348
 30
0.0
 10
110.9589463698297
 20
-128.0662570209348
 30
0.0
 10
110.8425021424283
 20
-128.0662570209348
 30
0.0
 10
110.7939262960862
 20
-128.1044975808211
 30
0.0
 10
110.7622314176219
 20
-128.1361924592854
 30
0.0
 10
110.6881618646891
 20
-128.2102620122183
 30
0.0
 10
110.6754150113937
 20
-128.3267062396197
 30
0.0
 10
110.6754150113937
 20
-128.3814832578352
 30
0.0
 10
110.6754150113937
 20
-128.4007757925526
 30
0.0
 10
110.6774820686848
 20
-128.4366047855992
 30
0.0
 10
110.6816161832671
 20
-128.4641655494812
 30
0.0
 10
110.6816161832671
 20
-128.4641655494812
 30
0.0
 10
110.4869682883505
 20
-128.4641655494812
 30
0.0
 10
110.4869682883505
 20
-128.4641655494812
 30
0.0
 10
110.4935139697725
 20
-128.4259249895949
 30
0.0
 10
110.4955810270636
 20
-128.3838948246749
 30
0.0
 10
110.4955810270636
 20
-128.3773491432529
 30
0.0
 10
110.4955810270636
 20
-128.3118923290332
 30
0.0
 10
110.4742214350551
 20
-128.1131103195342
 30
0.0
 10
110.2375433752184
 20
-128.1131103195342
 30
0.0
 10
110.0597764481795
 20
-128.1131103195342
 30
0.0
 10
110.0046549204155
 20
-128.2440239479737
 30
0.0
 10
110.0046549204155
 20
-128.3542670035017
 30
0.0
 10
110.0046549204155
 20
-128.6185058272204
 30
0.0
 10
110.2375433752184
 20
-128.6271185659335
 30
0.0
 10
110.3092013613116
 20
-128.6312526805158
 30
0.0
 10
110.3092013613116
 20
-128.6312526805158
 30
0.0
 10
110.3092013613116
 20
-128.8345133141455
 30
0.0
 10
110.3092013613116
 20
-128.8345133141455
 30
0.0
 10
110.1844889047455
 20
-128.8259005754324
 30
0.0
 10
109.8079399682077
 20
-128.7983398115504
 30
0.0
 10
109.8079399682077
 20
-128.3415201502063
 30
0.0
 10
109.8079399682077
 20
-128.1172444341165
 30
0.0
 10
109.9350639916135
 20
-127.876087750149
 30
0.0
 10
110.2309976937964
 20
-127.876087750149
 30
0.0
 10
110.4173773595484
 20
-127.876087750149
 30
0.0
 10
110.4997151416459
 20
-127.9711723855419
 30
0.0
 10
110.5610378412834
 20
-128.0707356450657
 30
0.0
 10
110.5885986051654
 20
-128.0094129454282
 30
0.0
 10
110.6688693299717
 20
-127.827511903807
 30
0.0
 10
110.9461995165343
 20
-127.827511903807
 30
0.0
 10
111.2845078931858
 20
-127.827511903807
 30
0.0
 10
111.4515950242204
 20
-128.074869759648
 30
0.0
 10
111.4515950242204
 20
-128.351855436662
 30
0.0
  0
HATCH
  5
F6
330
EF
100
AcDbEntity
  8
_U+30EC_U+30A4_U+30E4_U+30FC 1
 62
   179
420
  2234388
100
AcDbHatch
 10
0.0
 20
0.0
 30
0.0
210
0.0
220
0.0
230
1.0
  2
SOLID
 70
     1
 71
     0
 91
        1
 92
        1
 93
        1
 72
     4
 94
        3
 73
     0
 74
     1
 95
       62
 96
       58
 40
0.0
 40
0.0
 40
0.0
 40
0.0
 40
1.0
 40
1.0
 40
1.0
 40
2.0
 40
2.0
 40
2.0
 40
3.0
 40
3.0
 40
3.0
 40
4.0
 40
4.0
 40
4.0
 40
5.0
 40
5.0
 40
5.0
 40
6.0
 40
6.0
 40
6.0
 40
7.0
 40
7.0
 40
7.0
 40
8.0
 40
8.0
 40
8.0
 40
9.0
 40
9.0
 40
9.0
 40
10.0
 40
10.0
 40
10.0
 40
11.0
 40
11.0
 40
11.0
 40
12.0
 40
12.0
 40
12.0
 40
13.0
 40
13.0
 40
13.0
 40
14.0
 40
14.0
 40
14.0
 40
15.0
 40
15.0
 40
15.0
 40
16.0
 40
16.0
 40
16.0
 40
17.0
 40
17.0
 40
17.0
 40
18.0
 40
18.0
 40
18.0
 40
19.0
 40
19.0
 40
19.0
 40
19.0
 10
111.4515950242204
 20
-128.351855436662
 10
111.4515950242204
 20
-128.4472845816035
 10
111.4305799417604
 20
-128.6650146162713
 10
111.2445447855569
 20
-128.7900715823858
 10
111.1322346727378
 20
-128.8637966257702
 10
111.0330159227626
 20
-128.868275249901
 10
110.9482665738254
 20
-128.8724093644833
 10
110.9482665738254
 20
-128.8724093644833
 10
110.9482665738254
 20
-128.6522677629758
 10
110.9482665738254
 20
-128.6522677629758
 10
111.0223361267583
 20
-128.6502007056847
 10
111.2569471293038
 20
-128.6398654192289
 10
111.2569471293038
 20
-128.3563340607929
 10
111.2569471293038
 20
-128.2188747509314
 10
111.1873562005018
 20
-128.0662570209348
 10
110.9589463698297
 20
-128.0662570209348
 10
110.8425021424283
 20
-128.0662570209348
 10
110.7939262960862
 20
-128.1044975808211
 10
110.7622314176219
 20
-128.1361924592854
 10
110.6881618646891
 20
-128.2102620122183
 10
110.6754150113937
 20
-128.3267062396197
 10
110.6754150113937
 20
-128.3814832578352
 10
110.6754150113937
 20
-128.4007757925526
 10
110.6774820686848
 20
-128.4366047855992
 10
110.6816161832671
 20
-128.4641655494812
 10
110.6816161832671
 20
-128.4641655494812
 10
110.4869682883505
 20
-128.4641655494812
 10
110.4869682883505
 20
-128.4641655494812
 10
110.4935139697725
 20
-128.4259249895949
 10
110.4955810270636
 20
-128.3838948246749
 10
110.4955810270636
 20
-128.3773491432529
 10
110.4955810270636
 20
-128.3118923290332
 10
110.4742214350551
 20
-128.1131103195342
 10
110.2375433752184
 20
-128.1131103195342
 10
110.0597764481795
 20
-128.1131103195342
 10
110.0046549204155
 20
-128.2440239479737
 10
110.0046549204155
 20
-128.3542670035017
 10
110.0046549204155
 20
-128.6185058272204
 10
110.2375433752184
 20
-128.6271185659335
 10
110.3092013613116
 20
-128.6312526805158
 10
110.3092013613116
 20
-128.6312526805158
 10
110.3092013613116
 20
-128.8345133141455
 10
110.3092013613116
 20
-128.8345133141455
 10
110.1844889047455
 20
-128.8259005754324
 10
109.8079399682077
 20
-128.7983398115504
 10
109.8079399682077
 20
-128.3415201502063
 10
109.8079399682077
 20
-128.1172444341165
 10
109.9350639916135
 20
-127.876087750149
 10
110.2309976937964
 20
-127.876087750149
 10
110.4173773595484
 20
-127.876087750149
 10
110.4997151416459
 20
-127.9711723855419
 10
110.5610378412834
 20
-128.0707356450657
 10
110.5885986051654
 20
-128.0094129454282
 10
110.6688693299717
 20
-127.827511903807
 10
110.9461995165343
 20
-127.827511903807
 10
111.2845078931858
 20
-127.827511903807
 10
111.4515950242204
 20
-128.074869759648
 10
111.4515950242204
 20
-128.351855436662
 97
        0
 97
        0
 75
     2
 76
     1
 98
        0
  0
ENDBLK
  5
F2
330
EF
100
AcDbEntity
  8
0
100
AcDbBlockEnd
  0
ENDSEC
  0
SECTION
  2
ENTITIES
  0
POLYLINE
  5
41
330
1F
100
AcDbEntity
  8
_U+30EC_U+30A4_U+30E4_U+30FC 1
 62
   179
420
  2234388
370
    25
100
AcDb2dPolyline
 66
     1
 10
0.0
 20
0.0
 30
0.0
  0
VERTEX
  5
42
330
41
100
AcDbEntity
  8
_U+30EC_U+30A4_U+30E4_U+30FC 1
 62
   179
420
  2234388
370
    25
100
AcDbVertex
100
AcDb2dVertex
 10
68.0466688195404
 20
-121.4304855251981
 30
0.0
  0
VERTEX
  5
43
330
41
100
AcDbEntity
  8
_U+30EC_U+30A4_U+30E4_U+30FC 1
 62
   179
420
  2234388
370
    25
100
AcDbVertex
100
AcDb2dVertex
 10
108.0464466879499
 20
-121.4304855251981
 30
0.0
  0
SEQEND
  5
44
330
41
100
AcDbEntity
  8
_U+30EC_U+30A4_U+30E4_U+30FC 1
 62
   179
420
  2234388
370
    25
  0
POLYLINE
  5
45
330
1F
100
AcDbEntity
  8
_U+30EC_U+30A4_U+30E4_U+30FC 1
 62
   179
420
  2234388
370
    25
100
AcDb2dPolyline
 66
     1
 10
0.0
 20
0.0
 30
0.0
  0
VERTEX
  5
46
330
45
100
AcDbEntity
  8
_U+30EC_U+30A4_U+30E4_U+30FC 1
 62
   179
420
  2234388
370
    25
100
AcDbVertex
100
AcDb2dVertex
 10
68.0466688195404
 20
-122.4302577471703
 30
0.0
  0
VERTEX
  5
47
330
45
100
AcDbEntity
  8
_U+30EC_U+30A4_U+30E4_U+30FC 1
 62
   179
420
  2234388
370
    25
100
AcDbVertex
100
AcDb2dVertex
 10
80.04661629117402
 20
-122.4302577471703
 30
0.0
  0
SEQEND
  5
48
330
45
100
AcDbEntity
  8
_U+30EC_U+30A4_U+30E4_U+30FC 1
 62
   179
420
  2234388
370
    25
  0
POLYLINE
  5
49
330
1F
100
AcDbEntity
  8
_U+30EC_U+30A4_U+30E4_U+30FC 1
 62
   179
420
  2234388
370
    25
100
AcDb2dPolyline
 66
     1
 10
0.0
 20
0.0
 30
0.0
  0
VERTEX
  5
4A
330
49
100
AcDbEntity
  8
_U+30EC_U+30A4_U+30E4_U+30FC 1
 62
   179
420
  2234388
370
    25
100
AcDbVertex
100
AcDb2dVertex
 10
108.0464466879499
 20
-122.4302577471703
 30
0.0
  0
VERTEX
  5
4B
330
49
100
AcDbEntity
  8
_U+30EC_U+30A4_U+30E4_U+30FC 1
 62
   179
420
  2234388
370
    25
100
AcDbVertex
100
AcDb2dVertex
 10
108.0464466879499
 20
-121.4304855251981
 30
0.0
  0
SEQEND
  5
4C
330
49
100
AcDbEntity
  8
_U+30EC_U+30A4_U+30E4_U+30FC 1
 62
   179
420
  2234388
370
    25
  0
POLYLINE
  5
4D
330
1F
100
AcDbEntity
  8
_U+30EC_U+30A4_U+30E4_U+30FC 1
 62
   179
420
  2234388
370
    25
100
AcDb2dPolyline
 66
     1
 10
0.0
 20
0.0
 30
0.0
  0
VERTEX
  5
4E
330
4D
100
AcDbEntity
  8
_U+30EC_U+30A4_U+30E4_U+30FC 1
 62
   179
420
  2234388
370
    25
100
AcDbVertex
100
AcDb2dVertex
 10
68.0466688195404
 20
-122.4302577471703
 30
0.0
  0
VERTEX
  5
4F
330
4D
100
AcDbEntity
  8
_U+30EC_U+30A4_U+30E4_U+30FC 1
 62
   179
420
  2234388
370
    25
100
AcDbVertex
100
AcDb2dVertex
 10
68.0466688195404
 20
-121.4304855251981
 30
0.0
  0
SEQEND
  5
50
330
4D
100
AcDbEntity
  8
_U+30EC_U+30A4_U+30E4_U+30FC 1
 62
   179
420
  2234388
370
    25
  0
POLYLINE
  5
51
330
1F
100
AcDbEntity
  8
_U+30EC_U+30A4_U+30E4_U+30FC 1
 62
   179
420
  2234388
370
    25
100
AcDb2dPolyline
 66
     1
 10
0.0
 20
0.0
 30
0.0
  0
VERTEX
  5
52
330
51
100
AcDbEntity
  8
_U+30EC_U+30A4_U+30E4_U+30FC 1
 62
   179
420
  2234388
370
    25
100
AcDbVertex
100
AcDb2dVertex
 10
80.04661629117402
 20
-138.4308113542811
 30
0.0
  0
VERTEX
  5
53
330
51
100
AcDbEntity
  8
_U+30EC_U+30A4_U+30E4_U+30FC 1
 62
   179
420
  2234388
370
    25
100
AcDbVertex
100
AcDb2dVertex
 10
80.04661629117402
 20
-122.4302577471703
 30
0.0
  0
SEQEND
  5
54
330
51
100
AcDbEntity
  8
_U+30EC_U+30A4_U+30E4_U+30FC 1
 62
   179
420
  2234388
370
    25
  0
POLYLINE
  5
55
330
1F
100
AcDbEntity
  8
_U+30EC_U+30A4_U+30E4_U+30FC 1
 62
   179
420
  2234388
370
    25
100
AcDb2dPolyline
 66
     1
 10
0.0
 20
0.0
 30
0.0
  0
VERTEX
  5
56
330
55
100
AcDbEntity
  8
_U+30EC_U+30A4_U+30E4_U+30FC 1
 62
   179
420
  2234388
370
    25
100
AcDbVertex
100
AcDb2dVertex
 10
89.04657689489923
 20
-135.4308244105868
 30
0.0
  0
VERTEX
  5
57
330
55
100
AcDbEntity
  8
_U+30EC_U+30A4_U+30E4_U+30FC 1
 62
   179
420
  2234388
370
    25
100
AcDbVertex
100
AcDb2dVertex
 10
90.04634909161514
 20
-135.4308244105868
 30
0.0
  0
SEQEND
  5
58
330
55
100
AcDbEntity
  8
_U+30EC_U+30A4_U+30E4_U+30FC 1
 62
   179
420
  2234388
370
    25
  0
POLYLINE
  5
59
330
1F
100
AcDbEntity
  8
_U+30EC_U+30A4_U+30E4_U+30FC 1
 62
   179
420
  2234388
370
    25
100
AcDb2dPolyline
 66
     1
 10
0.0
 20
0.0
 30
0.0
  0
VERTEX
  5
5A
330
59
100
AcDbEntity
  8
_U+30EC_U+30A4_U+30E4_U+30FC 1
 62
   179
420
  2234388
370
    25
100
AcDbVertex
100
AcDb2dVertex
 10
80.04661629117402
 20
-138.4308113542811
 30
0.0
  0
VERTEX
  5
5B
330
59
100
AcDbEntity
  8
_U+30EC_U+30A4_U+30E4_U+30FC 1
 62
   179
420
  2234388
370
    25
100
AcDbVertex
100
AcDb2dVertex
 10
90.04634909161514
 20
-138.4308113542811
 30
0.0
  0
SEQEND
  5
5C
330
59
100
AcDbEntity
  8
_U+30EC_U+30A4_U+30E4_U+30FC 1
 62
   179
420
  2234388
370
    25
  0
POLYLINE
  5
5D
330
1F
100
AcDbEntity
  8
_U+30EC_U+30A4_U+30E4_U+30FC 1
 62
   179
420
  2234388
370
    25
100
AcDb2dPolyline
 66
     1
 10
0.0
 20
0.0
 30
0.0
  0
VERTEX
  5
5E
330
5D
100
AcDbEntity
  8
_U+30EC_U+30A4_U+30E4_U+30FC 1
 62
   179
420
  2234388
370
    25
100
AcDbVertex
100
AcDb2dVertex
 10
80.94648182377209
 20
-137.4303688545312
 30
0.0
  0
VERTEX
  5
5F
330
5D
100
AcDbEntity
  8
_U+30EC_U+30A4_U+30E4_U+30FC 1
 62
   179
420
  2234388
370
    25
100
AcDbVertex
100
AcDb2dVertex
 10
89.04657689489923
 20
-137.4303688545312
 30
0.0
  0
SEQEND
  5
60
330
5D
100
AcDbEntity
  8
_U+30EC_U+30A4_U+30E4_U+30FC 1
 62
   179
420
  2234388
370
    25
  0
POLYLINE
  5
61
330
1F
100
AcDbEntity
  8
_U+30EC_U+30A4_U+30E4_U+30FC 1
 62
   179
420
  2234388
370
    25
100
AcDb2dPolyline
 66
     1
 10
0.0
 20
0.0
 30
0.0
  0
VERTEX
  5
62
330
61
100
AcDbEntity
  8
_U+30EC_U+30A4_U+30E4_U+30FC 1
 62
   179
420
  2234388
370
    25
100
AcDbVertex
100
AcDb2dVertex
 10
90.04634909161514
 20
-138.4308113542811
 30
0.0
  0
VERTEX
  5
63
330
61
100
AcDbEntity
  8
_U+30EC_U+30A4_U+30E4_U+30FC 1
 62
   179
420
  2234388
370
    25
100
AcDbVertex
100
AcDb2dVertex
 10
90.04634909161514
 20
-135.4308244105868
 30
0.0
  0
SEQEND
  5
64
330
61
100
AcDbEntity
  8
_U+30EC_U+30A4_U+30E4_U+30FC 1
 62
   179
420
  2234388
370
    25
  0
POLYLINE
  5
65
330
1F
100
AcDbEntity
  8
_U+30EC_U+30A4_U+30E4_U+30FC 1
 62
   179
420
  2234388
370
    25
100
AcDb2dPolyline
 66
     1
 10
0.0
 20
0.0
 30
0.0
  0
VERTEX
  5
66
330
65
100
AcDbEntity
  8
_U+30EC_U+30A4_U+30E4_U+30FC 1
 62
   179
420
  2234388
370
    25
100
AcDbVertex
100
AcDb2dVertex
 10
89.04657689489923
 20
-137.4303688545312
 30
0.0
  0
VERTEX
  5
67
330
65
100
AcDbEntity
  8
_U+30EC_U+30A4_U+30E4_U+30FC 1
 62
   179
420
  2234388
370
    25
100
AcDbVertex
100
AcDb2dVertex
 10
89.04657689489923
 20
-135.4308244105868
 30
0.0
  0
SEQEND
  5
68
330
65
100
AcDbEntity
  8
_U+30EC_U+30A4_U+30E4_U+30FC 1
 62
   179
420
  2234388
370
    25
  0
POLYLINE
  5
69
330
1F
100
AcDbEntity
  8
_U+30EC_U+30A4_U+30E4_U+30FC 1
 62
   179
420
  2234388
370
    25
100
AcDb2dPolyline
 66
     1
 10
0.0
 20
0.0
 30
0.0
  0
VERTEX
  5
6A
330
69
100
AcDbEntity
  8
_U+30EC_U+30A4_U+30E4_U+30FC 1
 62
   179
420
  2234388
370
    25
100
AcDbVertex
100
AcDb2dVertex
 10
80.94648182377209
 20
-137.4303688545312
 30
0.0
  0
VERTEX
  5
6B
330
69
100
AcDbEntity
  8
_U+30EC_U+30A4_U+30E4_U+30FC 1
 62
   179
420
  2234388
370
    25
100
AcDbVertex
100
AcDb2dVertex
 10
80.94648182377209
 20
-122.4302577471703
 30
0.0
  0
SEQEND
  5
6C
330
69
100
AcDbEntity
  8
_U+30EC_U+30A4_U+30E4_U+30FC 1
 62
   179
420
  2234388
370
    25
  0
SPLINE
  5
6D
330
1F
100
AcDbEntity
  8
_U+30EC_U+30A4_U+30E4_U+30FC 1
 62
   179
420
  2234388
370
     9
100
AcDbSpline
210
0.0
220
0.0
230
1.0
 70
    11
 71
     3
 72
    17
 73
    13
 74
     0
 42
0.0000000001
 43
0.0000000001
 12
1.0
 22
0.0
 32
0.0
 13
1.0
 23
0.0
 33
0.0
 40
0.0
 40
0.0
 40
0.0
 40
0.0
 40
1.0
 40
1.0
 40
1.0
 40
2.0
 40
2.0
 40
2.0
 40
3.0
 40
3.0
 40
3.0
 40
4.0
 40
4.0
 40
4.0
 40
4.0
 10
68.14657548365824
 20
-117.4303735817534
 30
0.0
 10
68.14657548365824
 20
-117.3752696928785
 30
0.0
 10
68.10177270702347
 20
-117.3304669151118
 30
0.0
 10
68.0466688195404
 20
-117.3304669151118
 30
0.0
 10
67.99152965428046
 20
-117.3304669151118
 30
0.0
 10
67.94676387190205
 20
-117.3752696928785
 30
0.0
 10
67.94676387190205
 20
-117.4303735817534
 30
0.0
 10
67.94676387190205
 20
-117.4858655261843
 30
0.0
 10
67.99152965428046
 20
-117.5306330261728
 30
0.0
 10
68.0466688195404
 20
-117.5306330261728
 30
0.0
 10
68.10177270702347
 20
-117.5306330261728
 30
0.0
 10
68.14657548365824
 20
-117.4858655261843
 30
0.0
 10
68.14657548365824
 20
-117.4303735817534
 30
0.0
  0
SPLINE
  5
6E
330
1F
100
AcDbEntity
  8
_U+30EC_U+30A4_U+30E4_U+30FC 1
 62
   179
420
  2234388
370
     9
100
AcDbSpline
210
0.0
220
0.0
230
1.0
 70
    11
 71
     3
 72
    17
 73
    13
 74
     0
 42
0.0000000001
 43
0.0000000001
 12
1.0
 22
0.0
 32
0.0
 13
1.0
 23
0.0
 33
0.0
 40
0.0
 40
0.0
 40
0.0
 40
0.0
 40
1.0
 40
1.0
 40
1.0
 40
2.0
 40
2.0
 40
2.0
 40
3.0
 40
3.0
 40
3.0
 40
4.0
 40
4.0
 40
4.0
 40
4.0
 10
108.1463533520678
 20
-117.4303735817534
 30
0.0
 10
108.1463533520678
 20
-117.3752696928785
 30
0.0
 10
108.1015858532099
 20
-117.3304669151118
 30
0.0
 10
108.0464466879499
 20
-117.3304669151118
 30
0.0
 10
107.9913428004669
 20
-117.3304669151118
 30
0.0
 10
107.9465400238321
 20
-117.3752696928785
 30
0.0
 10
107.9465400238321
 20
-117.4303735817534
 30
0.0
 10
107.9465400238321
 20
-117.4858655261843
 30
0.0
 10
107.9913428004669
 20
-117.5306330261728
 30
0.0
 10
108.0464466879499
 20
-117.5306330261728
 30
0.0
 10
108.1015858532099
 20
-117.5306330261728
 30
0.0
 10
108.1463533520678
 20
-117.4858655261843
 30
0.0
 10
108.1463533520678
 20
-117.4303735817534
 30
0.0
  0
SPLINE
  5
6F
330
1F
100
AcDbEntity
  8
_U+30EC_U+30A4_U+30E4_U+30FC 1
 62
   179
420
  2234388
370
     9
100
AcDbSpline
210
0.0
220
0.0
230
1.0
 70
    11
 71
     3
 72
    17
 73
    13
 74
     0
 42
0.0000000001
 43
0.0000000001
 12
1.0
 22
0.0
 32
0.0
 13
1.0
 23
0.0
 33
0.0
 40
0.0
 40
0.0
 40
0.0
 40
0.0
 40
1.0
 40
1.0
 40
1.0
 40
2.0
 40
2.0
 40
2.0
 40
3.0
 40
3.0
 40
3.0
 40
4.0
 40
4.0
 40
4.0
 40
4.0
 10
112.1468179722296
 20
-121.4304855251981
 30
0.0
 10
112.1468179722296
 20
-121.3753816363228
 30
0.0
 10
112.1020151955949
 20
-121.3305788585564
 30
0.0
 10
112.0469113081118
 20
-121.3305788585564
 30
0.0
 10
111.9911018650912
 20
-121.3305788585564
 30
0.0
 10
111.9462990884564
 20
-121.3753816363228
 30
0.0
 10
111.9462990884564
 20
-121.4304855251981
 30
0.0
 10
111.9462990884564
 20
-121.4856246918508
 30
0.0
 10
111.9911018650912
 20
-121.5303921918397
 30
0.0
 10
112.0469113081118
 20
-121.5303921918397
 30
0.0
 10
112.1020151955949
 20
-121.5303921918397
 30
0.0
 10
112.1468179722296
 20
-121.4856246918508
 30
0.0
 10
112.1468179722296
 20
-121.4304855251981
 30
0.0
  0
SPLINE
  5
70
330
1F
100
AcDbEntity
  8
_U+30EC_U+30A4_U+30E4_U+30FC 1
 62
   179
420
  2234388
370
     9
100
AcDbSpline
210
0.0
220
0.0
230
1.0
 70
    11
 71
     3
 72
    17
 73
    13
 74
     0
 42
0.0000000001
 43
0.0000000001
 12
1.0
 22
0.0
 32
0.0
 13
1.0
 23
0.0
 33
0.0
 40
0.0
 40
0.0
 40
0.0
 40
0.0
 40
1.0
 40
1.0
 40
1.0
 40
2.0
 40
2.0
 40
2.0
 40
3.0
 40
3.0
 40
3.0
 40
4.0
 40
4.0
 40
4.0
 40
4.0
 10
112.1468179722296
 20
-122.4302577471703
 30
0.0
 10
112.1468179722296
 20
-122.3751185805172
 30
0.0
 10
112.1020151955949
 20
-122.3303510805286
 30
0.0
 10
112.0469113081118
 20
-122.3303510805286
 30
0.0
 10
111.9911018650912
 20
-122.3303510805286
 30
0.0
 10
111.9462990884564
 20
-122.3751185805172
 30
0.0
 10
111.9462990884564
 20
-122.4302577471703
 30
0.0
 10
111.9462990884564
 20
-122.485714413823
 30
0.0
 10
111.9911018650912
 20
-122.5305171915897
 30
0.0
 10
112.0469113081118
 20
-122.5305171915897
 30
0.0
 10
112.1020151955949
 20
-122.5305171915897
 30
0.0
 10
112.1468179722296
 20
-122.485714413823
 30
0.0
 10
112.1468179722296
 20
-122.4302577471703
 30
0.0
  0
SPLINE
  5
71
330
1F
100
AcDbEntity
  8
_U+30EC_U+30A4_U+30E4_U+30FC 1
 62
   179
420
  2234388
370
     9
100
AcDbSpline
210
0.0
220
0.0
230
1.0
 70
    11
 71
     3
 72
    17
 73
    13
 74
     0
 42
0.0000000001
 43
0.0000000001
 12
1.0
 22
0.0
 32
0.0
 13
1.0
 23
0.0
 33
0.0
 40
0.0
 40
0.0
 40
0.0
 40
0.0
 40
1.0
 40
1.0
 40
1.0
 40
2.0
 40
2.0
 40
2.0
 40
3.0
 40
3.0
 40
3.0
 40
4.0
 40
4.0
 40
4.0
 40
4.0
 10
112.1468179722296
 20
-135.4308244105868
 30
0.0
 10
112.1468179722296
 20
-135.3750149661563
 30
0.0
 10
112.1020151955949
 20
-135.3302474661677
 30
0.0
 10
112.0469113081118
 20
-135.3302474661677
 30
0.0
 10
111.9911018650912
 20
-135.3302474661677
 30
0.0
 10
111.9462990884564
 20
-135.3750149661563
 30
0.0
 10
111.9462990884564
 20
-135.4308244105868
 30
0.0
 10
111.9462990884564
 20
-135.4859635772398
 30
0.0
 10
111.9911018650912
 20
-135.5307310772284
 30
0.0
 10
112.0469113081118
 20
-135.5307310772284
 30
0.0
 10
112.1020151955949
 20
-135.5307310772284
 30
0.0
 10
112.1468179722296
 20
-135.4859635772398
 30
0.0
 10
112.1468179722296
 20
-135.4308244105868
 30
0.0
  0
SPLINE
  5
72
330
1F
100
AcDbEntity
  8
_U+30EC_U+30A4_U+30E4_U+30FC 1
 62
   179
420
  2234388
370
     9
100
AcDbSpline
210
0.0
220
0.0
230
1.0
 70
    11
 71
     3
 72
    17
 73
    13
 74
     0
 42
0.0000000001
 43
0.0000000001
 12
1.0
 22
0.0
 32
0.0
 13
1.0
 23
0.0
 33
0.0
 40
0.0
 40
0.0
 40
0.0
 40
0.0
 40
1.0
 40
1.0
 40
1.0
 40
2.0
 40
2.0
 40
2.0
 40
3.0
 40
3.0
 40
3.0
 40
4.0
 40
4.0
 40
4.0
 40
4.0
 10
112.1468179722296
 20
-138.4308113542811
 30
0.0
 10
112.1468179722296
 20
-138.3750019098507
 30
0.0
 10
112.1020151955949
 20
-138.3302344098621
 30
0.0
 10
112.0469113081118
 20
-138.3302344098621
 30
0.0
 10
111.9911018650912
 20
-138.3302344098621
 30
0.0
 10
111.9462990884564
 20
-138.3750019098507
 30
0.0
 10
111.9462990884564
 20
-138.4308113542811
 30
0.0
 10
111.9462990884564
 20
-138.4859505209342
 30
0.0
 10
111.9911018650912
 20
-138.5307180209227
 30
0.0
 10
112.0469113081118
 20
-138.5307180209227
 30
0.0
 10
112.1020151955949
 20
-138.5307180209227
 30
0.0
 10
112.1468179722296
 20
-138.4859505209342
 30
0.0
 10
112.1468179722296
 20
-138.4308113542811
 30
0.0
  0
SPLINE
  5
73
330
1F
100
AcDbEntity
  8
_U+30EC_U+30A4_U+30E4_U+30FC 1
 62
   179
420
  2234388
370
     9
100
AcDbSpline
210
0.0
220
0.0
230
1.0
 70
    11
 71
     3
 72
    17
 73
    13
 74
     0
 42
0.0000000001
 43
0.0000000001
 12
1.0
 22
0.0
 32
0.0
 13
1.0
 23
0.0
 33
0.0
 40
0.0
 40
0.0
 40
0.0
 40
0.0
 40
1.0
 40
1.0
 40
1.0
 40
2.0
 40
2.0
 40
2.0
 40
3.0
 40
3.0
 40
3.0
 40
4.0
 40
4.0
 40
4.0
 40
4.0
 10
80.14652497996333
 20
-142.430570519948
 30
0.0
 10
80.14652497996333
 20
-142.3754666310731
 30
0.0
 10
80.10175545643396
 20
-142.3306638533063
 30
0.0
 10
80.04661629117402
 20
-142.3306638533063
 30
0.0
 10
79.99151240369095
 20
-142.3306638533063
 30
0.0
 10
79.94670962705618
 20
-142.3754666310731
 30
0.0
 10
79.94670962705618
 20
-142.430570519948
 30
0.0
 10
79.94670962705618
 20
-142.4857096866011
 30
0.0
 10
79.99151240369095
 20
-142.5304771865896
 30
0.0
 10
80.04661629117402
 20
-142.5304771865896
 30
0.0
 10
80.10175545643396
 20
-142.5304771865896
 30
0.0
 10
80.14652497996333
 20
-142.4857096866011
 30
0.0
 10
80.14652497996333
 20
-142.430570519948
 30
0.0
  0
SPLINE
  5
74
330
1F
100
AcDbEntity
  8
_U+30EC_U+30A4_U+30E4_U+30FC 1
 62
   179
420
  2234388
370
     9
100
AcDbSpline
210
0.0
220
0.0
230
1.0
 70
    11
 71
     3
 72
    17
 73
    13
 74
     0
 42
0.0000000001
 43
0.0000000001
 12
1.0
 22
0.0
 32
0.0
 13
1.0
 23
0.0
 33
0.0
 40
0.0
 40
0.0
 40
0.0
 40
0.0
 40
1.0
 40
1.0
 40
1.0
 40
2.0
 40
2.0
 40
2.0
 40
3.0
 40
3.0
 40
3.0
 40
4.0
 40
4.0
 40
4.0
 40
4.0
 10
90.14696131127053
 20
-142.430570519948
 30
0.0
 10
90.14696131127053
 20
-142.3754666310731
 30
0.0
 10
90.10215853463576
 20
-142.3306638533063
 30
0.0
 10
90.04634909161514
 20
-142.3306638533063
 30
0.0
 10
89.99124520413207
 20
-142.3306638533063
 30
0.0
 10
89.9464424274973
 20
-142.3754666310731
 30
0.0
 10
89.9464424274973
 20
-142.430570519948
 30
0.0
 10
89.9464424274973
 20
-142.4857096866011
 30
0.0
 10
89.99124520413207
 20
-142.5304771865896
 30
0.0
 10
90.04634909161514
 20
-142.5304771865896
 30
0.0
 10
90.10215853463576
 20
-142.5304771865896
 30
0.0
 10
90.14696131127053
 20
-142.4857096866011
 30
0.0
 10
90.14696131127053
 20
-142.430570519948
 30
0.0
  0
SPLINE
  5
75
330
1F
100
AcDbEntity
  8
_U+30EC_U+30A4_U+30E4_U+30FC 1
 62
   179
420
  2234388
370
     9
100
AcDbSpline
210
0.0
220
0.0
230
1.0
 70
    11
 71
     3
 72
    17
 73
    13
 74
     0
 42
0.0000000001
 43
0.0000000001
 12
1.0
 22
0.0
 32
0.0
 13
1.0
 23
0.0
 33
0.0
 40
0.0
 40
0.0
 40
0.0
 40
0.0
 40
1.0
 40
1.0
 40
1.0
 40
2.0
 40
2.0
 40
2.0
 40
3.0
 40
3.0
 40
3.0
 40
4.0
 40
4.0
 40
4.0
 40
4.0
 10
68.14657548365824
 20
-142.430570519948
 30
0.0
 10
68.14657548365824
 20
-142.3754666310731
 30
0.0
 10
68.10177270702347
 20
-142.3306638533063
 30
0.0
 10
68.0466688195404
 20
-142.3306638533063
 30
0.0
 10
67.99152965428046
 20
-142.3306638533063
 30
0.0
 10
67.94676387190205
 20
-142.3754666310731
 30
0.0
 10
67.94676387190205
 20
-142.430570519948
 30
0.0
 10
67.94676387190205
 20
-142.4857096866011
 30
0.0
 10
67.99152965428046
 20
-142.5304771865896
 30
0.0
 10
68.0466688195404
 20
-142.5304771865896
 30
0.0
 10
68.10177270702347
 20
-142.5304771865896
 30
0.0
 10
68.14657548365824
 20
-142.4857096866011
 30
0.0
 10
68.14657548365824
 20
-142.430570519948
 30
0.0
  0
POLYLINE
  5
76
330
1F
100
AcDbEntity
  8
_U+30EC_U+30A4_U+30E4_U+30FC 1
 62
   179
420
  2234388
370
     9
100
AcDb2dPolyline
 66
     1
 10
0.0
 20
0.0
 30
0.0
  0
VERTEX
  5
77
330
76
100
AcDbEntity
  8
_U+30EC_U+30A4_U+30E4_U+30FC 1
 62
   179
420
  2234388
370
     9
100
AcDbVertex
100
AcDb2dVertex
 10
112.0469113081118
 20
-121.4304855251981
 30
0.0
  0
VERTEX
  5
78
330
76
100
AcDbEntity
  8
_U+30EC_U+30A4_U+30E4_U+30FC 1
 62
   179
420
  2234388
370
     9
100
AcDbVertex
100
AcDb2dVertex
 10
112.0469113081118
 20
-117.6601730261406
 30
0.0
  0
SEQEND
  5
79
330
76
100
AcDbEntity
  8
_U+30EC_U+30A4_U+30E4_U+30FC 1
 62
   179
420
  2234388
370
     9
  0
POLYLINE
  5
7A
330
1F
100
AcDbEntity
  8
_U+30EC_U+30A4_U+30E4_U+30FC 1
 62
   179
420
  2234388
370
     9
100
AcDb2dPolyline
 66
     1
 10
0.0
 20
0.0
 30
0.0
  0
VERTEX
  5
7B
330
7A
100
AcDbEntity
  8
_U+30EC_U+30A4_U+30E4_U+30FC 1
 62
   179
420
  2234388
370
     9
100
AcDbVertex
100
AcDb2dVertex
 10
112.0469113081118
 20
-121.4304855251981
 30
0.0
  0
VERTEX
  5
7C
330
7A
100
AcDbEntity
  8
_U+30EC_U+30A4_U+30E4_U+30FC 1
 62
   179
420
  2234388
370
     9
100
AcDbVertex
100
AcDb2dVertex
 10
112.0469113081118
 20
-122.4302577471703
 30
0.0
  0
SEQEND
  5
7D
330
7A
100
AcDbEntity
  8
_U+30EC_U+30A4_U+30E4_U+30FC 1
 62
   179
420
  2234388
370
     9
  0
POLYLINE
  5
7E
330
1F
100
AcDbEntity
  8
_U+30EC_U+30A4_U+30E4_U+30FC 1
 62
   179
420
  2234388
370
     9
100
AcDb2dPolyline
 66
     1
 10
0.0
 20
0.0
 30
0.0
  0
VERTEX
  5
7F
330
7E
100
AcDbEntity
  8
_U+30EC_U+30A4_U+30E4_U+30FC 1
 62
   179
420
  2234388
370
     9
100
AcDbVertex
100
AcDb2dVertex
 10
110.5868699564717
 20
-121.4304855251981
 30
0.0
  0
VERTEX
  5
80
330
7E
100
AcDbEntity
  8
_U+30EC_U+30A4_U+30E4_U+30FC 1
 62
   179
420
  2234388
370
     9
100
AcDbVertex
100
AcDb2dVertex
 10
113.0466835048277
 20
-121.4304855251981
 30
0.0
  0
SEQEND
  5
81
330
7E
100
AcDbEntity
  8
_U+30EC_U+30A4_U+30E4_U+30FC 1
 62
   179
420
  2234388
370
     9
  0
POLYLINE
  5
82
330
1F
100
AcDbEntity
  8
_U+30EC_U+30A4_U+30E4_U+30FC 1
 62
   179
420
  2234388
370
     9
100
AcDb2dPolyline
 66
     1
 10
0.0
 20
0.0
 30
0.0
  0
VERTEX
  5
83
330
82
100
AcDbEntity
  8
_U+30EC_U+30A4_U+30E4_U+30FC 1
 62
   179
420
  2234388
370
     9
100
AcDbVertex
100
AcDb2dVertex
 10
110.5868699564717
 20
-122.4302577471703
 30
0.0
  0
VERTEX
  5
84
330
82
100
AcDbEntity
  8
_U+30EC_U+30A4_U+30E4_U+30FC 1
 62
   179
420
  2234388
370
     9
100
AcDbVertex
100
AcDb2dVertex
 10
113.0466835048277
 20
-122.4302577471703
 30
0.0
  0
SEQEND
  5
85
330
82
100
AcDbEntity
  8
_U+30EC_U+30A4_U+30E4_U+30FC 1
 62
   179
420
  2234388
370
     9
  0
INSERT
  5
87
330
1F
100
AcDbEntity
  8
_U+30EC_U+30A4_U+30E4_U+30FC 1
100
AcDbBlockReference
  2
block 2
 10
0.0
 20
0.0
 30
0.0
  0
POLYLINE
  5
8C
330
1F
100
AcDbEntity
  8
_U+30EC_U+30A4_U+30E4_U+30FC 1
 62
   179
420
  2234388
370
     9
100
AcDb2dPolyline
 66
     1
 10
0.0
 20
0.0
 30
0.0
  0
VERTEX
  5
8D
330
8C
100
AcDbEntity
  8
_U+30EC_U+30A4_U+30E4_U+30FC 1
 62
   179
420
  2234388
370
     9
100
AcDbVertex
100
AcDb2dVertex
 10
112.0469113081118
 20
-138.4308113542811
 30
0.0
  0
VERTEX
  5
8E
330
8C
100
AcDbEntity
  8
_U+30EC_U+30A4_U+30E4_U+30FC 1
 62
   179
420
  2234388
370
     9
100
AcDbVertex
100
AcDb2dVertex
 10
112.0469113081118
 20
-135.4308244105868
 30
0.0
  0
SEQEND
  5
8F
330
8C
100
AcDbEntity
  8
_U+30EC_U+30A4_U+30E4_U+30FC 1
 62
   179
420
  2234388
370
     9
  0
POLYLINE
  5
90
330
1F
100
AcDbEntity
  8
_U+30EC_U+30A4_U+30E4_U+30FC 1
 62
   179
420
  2234388
370
     9
100
AcDb2dPolyline
 66
     1
 10
0.0
 20
0.0
 30
0.0
  0
VERTEX
  5
91
330
90
100
AcDbEntity
  8
_U+30EC_U+30A4_U+30E4_U+30FC 1
 62
   179
420
  2234388
370
     9
100
AcDbVertex
100
AcDb2dVertex
 10
92.58694874902126
 20
-138.4308113542811
 30
0.0
  0
VERTEX
  5
92
330
90
100
AcDbEntity
  8
_U+30EC_U+30A4_U+30E4_U+30FC 1
 62
   179
420
  2234388
370
     9
100
AcDbVertex
100
AcDb2dVertex
 10
113.0466835048277
 20
-138.4308113542811
 30
0.0
  0
SEQEND
  5
93
330
90
100
AcDbEntity
  8
_U+30EC_U+30A4_U+30E4_U+30FC 1
 62
   179
420
  2234388
370
     9
  0
INSERT
  5
95
330
1F
100
AcDbEntity
  8
_U+30EC_U+30A4_U+30E4_U+30FC 1
100
AcDbBlockReference
  2
block 3
 10
0.0
 20
0.0
 30
0.0
  0
POLYLINE
  5
9A
330
1F
100
AcDbEntity
  8
_U+30EC_U+30A4_U+30E4_U+30FC 1
 62
   179
420
  2234388
370
     9
100
AcDb2dPolyline
 66
     1
 10
0.0
 20
0.0
 30
0.0
  0
VERTEX
  5
9B
330
9A
100
AcDbEntity
  8
_U+30EC_U+30A4_U+30E4_U+30FC 1
 62
   179
420
  2234388
370
     9
100
AcDbVertex
100
AcDb2dVertex
 10
80.04661629117402
 20
-142.430570519948
 30
0.0
  0
VERTEX
  5
9C
330
9A
100
AcDbEntity
  8
_U+30EC_U+30A4_U+30E4_U+30FC 1
 62
   179
420
  2234388
370
     9
100
AcDbVertex
100
AcDb2dVertex
 10
90.04634909161514
 20
-142.430570519948
 30
0.0
  0
SEQEND
  5
9D
330
9A
100
AcDbEntity
  8
_U+30EC_U+30A4_U+30E4_U+30FC 1
 62
   179
420
  2234388
370
     9
  0
POLYLINE
  5
9E
330
1F
100
AcDbEntity
  8
_U+30EC_U+30A4_U+30E4_U+30FC 1
 62
   179
420
  2234388
370
     9
100
AcDb2dPolyline
 66
     1
 10
0.0
 20
0.0
 30
0.0
  0
VERTEX
  5
9F
330
9E
100
AcDbEntity
  8
_U+30EC_U+30A4_U+30E4_U+30FC 1
 62
   179
420
  2234388
370
     9
100
AcDbVertex
100
AcDb2dVertex
 10
80.04661629117402
 20
-140.9705644092018
 30
0.0
  0
VERTEX
  5
A0
330
9E
100
AcDbEntity
  8
_U+30EC_U+30A4_U+30E4_U+30FC 1
 62
   179
420
  2234388
370
     9
100
AcDbVertex
100
AcDb2dVertex
 10
80.04661629117402
 20
-143.4303427419199
 30
0.0
  0
SEQEND
  5
A1
330
9E
100
AcDbEntity
  8
_U+30EC_U+30A4_U+30E4_U+30FC 1
 62
   179
420
  2234388
370
     9
  0
POLYLINE
  5
A2
330
1F
100
AcDbEntity
  8
_U+30EC_U+30A4_U+30E4_U+30FC 1
 62
   179
420
  2234388
370
     9
100
AcDb2dPolyline
 66
     1
 10
0.0
 20
0.0
 30
0.0
  0
VERTEX
  5
A3
330
A2
100
AcDbEntity
  8
_U+30EC_U+30A4_U+30E4_U+30FC 1
 62
   179
420
  2234388
370
     9
100
AcDbVertex
100
AcDb2dVertex
 10
90.04634909161514
 20
-140.9705644092018
 30
0.0
  0
VERTEX
  5
A4
330
A2
100
AcDbEntity
  8
_U+30EC_U+30A4_U+30E4_U+30FC 1
 62
   179
420
  2234388
370
     9
100
AcDbVertex
100
AcDb2dVertex
 10
90.04634909161514
 20
-143.4303427419199
 30
0.0
  0
SEQEND
  5
A5
330
A2
100
AcDbEntity
  8
_U+30EC_U+30A4_U+30E4_U+30FC 1
 62
   179
420
  2234388
370
     9
  0
INSERT
  5
A7
330
1F
100
AcDbEntity
  8
_U+30EC_U+30A4_U+30E4_U+30FC 1
100
AcDbBlockReference
  2
block 4
 10
0.0
 20
0.0
 30
0.0
  0
POLYLINE
  5
AF
330
1F
100
AcDbEntity
  8
_U+30EC_U+30A4_U+30E4_U+30FC 1
 62
   179
420
  2234388
370
     9
100
AcDb2dPolyline
 66
     1
 10
0.0
 20
0.0
 30
0.0
  0
VERTEX
  5
B0
330
AF
100
AcDbEntity
  8
_U+30EC_U+30A4_U+30E4_U+30FC 1
 62
   179
420
  2234388
370
     9
100
AcDbVertex
100
AcDb2dVertex
 10
68.0466688195404
 20
-142.430570519948
 30
0.0
  0
VERTEX
  5
B1
330
AF
100
AcDbEntity
  8
_U+30EC_U+30A4_U+30E4_U+30FC 1
 62
   179
420
  2234388
370
     9
100
AcDbVertex
100
AcDb2dVertex
 10
80.04661629117402
 20
-142.430570519948
 30
0.0
  0
SEQEND
  5
B2
330
AF
100
AcDbEntity
  8
_U+30EC_U+30A4_U+30E4_U+30FC 1
 62
   179
420
  2234388
370
     9
  0
POLYLINE
  5
B3
330
1F
100
AcDbEntity
  8
_U+30EC_U+30A4_U+30E4_U+30FC 1
 62
   179
420
  2234388
370
     9
100
AcDb2dPolyline
 66
     1
 10
0.0
 20
0.0
 30
0.0
  0
VERTEX
  5
B4
330
B3
100
AcDbEntity
  8
_U+30EC_U+30A4_U+30E4_U+30FC 1
 62
   179
420
  2234388
370
     9
100
AcDbVertex
100
AcDb2dVertex
 10
68.0466688195404
 20
-124.9706810798683
 30
0.0
  0
VERTEX
  5
B5
330
B3
100
AcDbEntity
  8
_U+30EC_U+30A4_U+30E4_U+30FC 1
 62
   179
420
  2234388
370
     9
100
AcDbVertex
100
AcDb2dVertex
 10
68.0466688195404
 20
-143.4303427419199
 30
0.0
  0
SEQEND
  5
B6
330
B3
100
AcDbEntity
  8
_U+30EC_U+30A4_U+30E4_U+30FC 1
 62
   179
420
  2234388
370
     9
  0
INSERT
  5
B8
330
1F
100
AcDbEntity
  8
_U+30EC_U+30A4_U+30E4_U+30FC 1
100
AcDbBlockReference
  2
block 5
 10
0.0
 20
0.0
 30
0.0
  0
POLYLINE
  5
BF
330
1F
100
AcDbEntity
  8
_U+30EC_U+30A4_U+30E4_U+30FC 1
 62
   179
420
  2234388
370
     9
100
AcDb2dPolyline
 66
     1
 10
0.0
 20
0.0
 30
0.0
  0
VERTEX
  5
C0
330
BF
100
AcDbEntity
  8
_U+30EC_U+30A4_U+30E4_U+30FC 1
 62
   179
420
  2234388
370
     9
100
AcDbVertex
100
AcDb2dVertex
 10
68.0466688195404
 20
-117.4303735817534
 30
0.0
  0
VERTEX
  5
C1
330
BF
100
AcDbEntity
  8
_U+30EC_U+30A4_U+30E4_U+30FC 1
 62
   179
420
  2234388
370
     9
100
AcDbVertex
100
AcDb2dVertex
 10
108.0464466879499
 20
-117.4303735817534
 30
0.0
  0
SEQEND
  5
C2
330
BF
100
AcDbEntity
  8
_U+30EC_U+30A4_U+30E4_U+30FC 1
 62
   179
420
  2234388
370
     9
  0
POLYLINE
  5
C3
330
1F
100
AcDbEntity
  8
_U+30EC_U+30A4_U+30E4_U+30FC 1
 62
   179
420
  2234388
370
     9
100
AcDb2dPolyline
 66
     1
 10
0.0
 20
0.0
 30
0.0
  0
VERTEX
  5
C4
330
C3
100
AcDbEntity
  8
_U+30EC_U+30A4_U+30E4_U+30FC 1
 62
   179
420
  2234388
370
     9
100
AcDbVertex
100
AcDb2dVertex
 10
68.0466688195404
 20
-118.8904149702774
 30
0.0
  0
VERTEX
  5
C5
330
C3
100
AcDbEntity
  8
_U+30EC_U+30A4_U+30E4_U+30FC 1
 62
   179
420
  2234388
370
     9
100
AcDbVertex
100
AcDb2dVertex
 10
68.0466688195404
 20
-116.4302838597813
 30
0.0
  0
SEQEND
  5
C6
330
C3
100
AcDbEntity
  8
_U+30EC_U+30A4_U+30E4_U+30FC 1
 62
   179
420
  2234388
370
     9
  0
POLYLINE
  5
C7
330
1F
100
AcDbEntity
  8
_U+30EC_U+30A4_U+30E4_U+30FC 1
 62
   179
420
  2234388
370
     9
100
AcDb2dPolyline
 66
     1
 10
0.0
 20
0.0
 30
0.0
  0
VERTEX
  5
C8
330
C7
100
AcDbEntity
  8
_U+30EC_U+30A4_U+30E4_U+30FC 1
 62
   179
420
  2234388
370
     9
100
AcDbVertex
100
AcDb2dVertex
 10
108.0464466879499
 20
-118.8904149702774
 30
0.0
  0
VERTEX
  5
C9
330
C7
100
AcDbEntity
  8
_U+30EC_U+30A4_U+30E4_U+30FC 1
 62
   179
420
  2234388
370
     9
100
AcDbVertex
100
AcDb2dVertex
 10
108.0464466879499
 20
-116.4302838597813
 30
0.0
  0
SEQEND
  5
CA
330
C7
100
AcDbEntity
  8
_U+30EC_U+30A4_U+30E4_U+30FC 1
 62
   179
420
  2234388
370
     9
  0
INSERT
  5
CC
330
1F
100
AcDbEntity
  8
_U+30EC_U+30A4_U+30E4_U+30FC 1
100
AcDbBlockReference
  2
block 6
 10
0.0
 20
0.0
 30
0.0
  0
POLYLINE
  5
E7
330
1F
100
AcDbEntity
  8
_U+30EC_U+30A4_U+30E4_U+30FC 1
 62
   179
420
  2234388
370
     9
100
AcDb2dPolyline
 66
     1
 10
0.0
 20
0.0
 30
0.0
  0
VERTEX
  5
E8
330
E7
100
AcDbEntity
  8
_U+30EC_U+30A4_U+30E4_U+30FC 1
 62
   179
420
  2234388
370
     9
100
AcDbVertex
100
AcDb2dVertex
 10
112.0469113081118
 20
-135.4308244105868
 30
0.0
  0
VERTEX
  5
E9
330
E7
100
AcDbEntity
  8
_U+30EC_U+30A4_U+30E4_U+30FC 1
 62
   179
420
  2234388
370
     9
100
AcDbVertex
100
AcDb2dVertex
 10
112.0469113081118
 20
-122.4302577471703
 30
0.0
  0
SEQEND
  5
EA
330
E7
100
AcDbEntity
  8
_U+30EC_U+30A4_U+30E4_U+30FC 1
 62
   179
420
  2234388
370
     9
  0
POLYLINE
  5
EB
330
1F
100
AcDbEntity
  8
_U+30EC_U+30A4_U+30E4_U+30FC 1
 62
   179
420
  2234388
370
     9
100
AcDb2dPolyline
 66
     1
 10
0.0
 20
0.0
 30
0.0
  0
VERTEX
  5
EC
330
EB
100
AcDbEntity
  8
_U+30EC_U+30A4_U+30E4_U+30FC 1
 62
   179
420
  2234388
370
     9
100
AcDbVertex
100
AcDb2dVertex
 10
92.58694874902126
 20
-135.4308244105868
 30
0.0
  0
VERTEX
  5
ED
330
EB
100
AcDbEntity
  8
_U+30EC_U+30A4_U+30E4_U+30FC 1
 62
   179
420
  2234388
370
     9
100
AcDbVertex
100
AcDb2dVertex
 10
113.0466835048277
 20
-135.4308244105868
 30
0.0
  0
SEQEND
  5
EE
330
EB
100
AcDbEntity
  8
_U+30EC_U+30A4_U+30E4_U+30FC 1
 62
   179
420
  2234388
370
     9
  0
INSERT
  5
F0
330
1F
100
AcDbEntity
  8
_U+30EC_U+30A4_U+30E4_U+30FC 1
100
AcDbBlockReference
  2
block 7
 10
0.0
 20
0.0
 30
0.0
  0
POLYLINE
  5
F7
330
1F
100
AcDbEntity
  8
_U+30EC_U+30A4_U+30E4_U+30FC 1
 62
     7
420
 16777215
370
    25
100
AcDb2dPolyline
 66
     1
 10
0.0
 20
0.0
 30
0.0
  0
VERTEX
  5
F8
330
F7
100
AcDbEntity
  8
_U+30EC_U+30A4_U+30E4_U+30FC 1
 62
     7
420
 16777215
370
    25
100
AcDbVertex
100
AcDb2dVertex
 10
80.94648182377209
 20
-122.4302577471703
 30
0.0
  0
VERTEX
  5
F9
330
F7
100
AcDbEntity
  8
_U+30EC_U+30A4_U+30E4_U+30FC 1
 62
     7
420
 16777215
370
    25
100
AcDbVertex
100
AcDb2dVertex
 10
97.2481661301037
 20
-122.4302577471703
 30
0.0
  0
SEQEND
  5
FA
330
F7
100
AcDbEntity
  8
_U+30EC_U+30A4_U+30E4_U+30FC 1
 62
     7
420
 16777215
370
    25
  0
POLYLINE
  5
FB
330
1F
100
AcDbEntity
  8
_U+30EC_U+30A4_U+30E4_U+30FC 1
 62
     7
420
 16777215
370
    25
100
AcDb2dPolyline
 66
     1
 10
0.0
 20
0.0
 30
0.0
  0
VERTEX
  5
FC
330
FB
100
AcDbEntity
  8
_U+30EC_U+30A4_U+30E4_U+30FC 1
 62
     7
420
 16777215
370
    25
100
AcDbVertex
100
AcDb2dVertex
 10
98.84529692269084
 20
-122.4302577471703
 30
0.0
  0
VERTEX
  5
FD
330
FB
100
AcDbEntity
  8
_U+30EC_U+30A4_U+30E4_U+30FC 1
 62
     7
420
 16777215
370
    25
100
AcDbVertex
100
AcDb2dVertex
 10
108.0471522434875
 20
-122.4302577471703
 30
0.0
  0
SEQEND
  5
FE
330
FB
100
AcDbEntity
  8
_U+30EC_U+30A4_U+30E4_U+30FC 1
 62
     7
420
 16777215
370
    25
  0
SPLINE
  5
FF
330
1F
100
AcDbEntity
  8
_U+30EC_U+30A4_U+30E4_U+30FC 1
 62
     7
420
 16777215
370
    25
100
AcDbSpline
210
0.0
220
0.0
230
1.0
 70
     8
 71
     3
 72
     8
 73
     4
 74
     0
 42
0.0000000001
 43
0.0000000001
 12
1.0
 22
0.0
 32
0.0
 13
1.0
 23
0.0
 33
0.0
 40
0.0
 40
0.0
 40
0.0
 40
0.0
 40
1.0
 40
1.0
 40
1.0
 40
1.0
 10
98.19692666145436
 20
-122.598709136017
 30
0.0
 10
98.36093304615909
 20
-122.6410777471176
 30
0.0
 10
98.53248887511567
 20
-122.6410777471176
 30
0.0
 10
98.69645998204354
 20
-122.598709136017
 30
0.0
  0
SPLINE
  5
100
330
1F
100
AcDbEntity
  8
_U+30EC_U+30A4_U+30E4_U+30FC 1
 62
     7
420
 16777215
370
    25
100
AcDbSpline
210
0.0
220
0.0
230
1.0
 70
     8
 71
     3
 72
     8
 73
     4
 74
     0
 42
0.0000000001
 43
0.0000000001
 12
1.0
 22
0.0
 32
0.0
 13
1.0
 23
0.0
 33
0.0
 40
0.0
 40
0.0
 40
0.0
 40
0.0
 40
1.0
 40
1.0
 40
1.0
 40
1.0
 10
98.69645998204354
 20
-122.598709136017
 30
0.0
 10
98.77569386891099
 20
-122.5783891360221
 30
0.0
 10
98.83429025630497
 20
-122.5115730249276
 30
0.0
 10
98.84529692269084
 20
-122.4302577471703
 30
0.0
  0
SPLINE
  5
101
330
1F
100
AcDbEntity
  8
_U+30EC_U+30A4_U+30E4_U+30FC 1
 62
     7
420
 16777215
370
    25
100
AcDbSpline
210
0.0
220
0.0
230
1.0
 70
     8
 71
     3
 72
     8
 73
     4
 74
     0
 42
0.0000000001
 43
0.0000000001
 12
1.0
 22
0.0
 32
0.0
 13
1.0
 23
0.0
 33
0.0
 40
0.0
 40
0.0
 40
0.0
 40
0.0
 40
1.0
 40
1.0
 40
1.0
 40
1.0
 10
98.04671388750883
 20
-122.4051046916208
 30
0.0
 10
98.04671388750883
 20
-122.4964035804871
 30
0.0
 10
98.10806194149926
 20
-122.5759902471338
 30
0.0
 10
98.19692666145436
 20
-122.598709136017
 30
0.0
  0
SPLINE
  5
102
330
1F
100
AcDbEntity
  8
_U+30EC_U+30A4_U+30E4_U+30FC 1
 62
     7
420
 16777215
370
    25
100
AcDbSpline
210
0.0
220
0.0
230
1.0
 70
     8
 71
     3
 72
     8
 73
     4
 74
     0
 42
0.0000000001
 43
0.0000000001
 12
1.0
 22
0.0
 32
0.0
 13
1.0
 23
0.0
 33
0.0
 40
0.0
 40
0.0
 40
0.0
 40
0.0
 40
1.0
 40
1.0
 40
1.0
 40
1.0
 10
97.39629997565119
 20
-122.598709136017
 30
0.0
 10
97.5602686221413
 20
-122.6410777471176
 30
0.0
 10
97.73253000663543
 20
-122.6410777471176
 30
0.0
 10
97.89653886441491
 20
-122.598709136017
 30
0.0
  0
SPLINE
  5
103
330
1F
100
AcDbEntity
  8
_U+30EC_U+30A4_U+30E4_U+30FC 1
 62
     7
420
 16777215
370
    25
100
AcDbSpline
210
0.0
220
0.0
230
1.0
 70
     8
 71
     3
 72
     8
 73
     4
 74
     0
 42
0.0000000001
 43
0.0000000001
 12
1.0
 22
0.0
 32
0.0
 13
1.0
 23
0.0
 33
0.0
 40
0.0
 40
0.0
 40
0.0
 40
0.0
 40
1.0
 40
1.0
 40
1.0
 40
1.0
 10
97.2481661301037
 20
-122.4302577471703
 30
0.0
 10
97.25850251872889
 20
-122.5115730249276
 30
0.0
 10
97.31773390610665
 20
-122.5783891360221
 30
0.0
 10
97.39629997565119
 20
-122.598709136017
 30
0.0
  0
SPLINE
  5
104
330
1F
100
AcDbEntity
  8
_U+30EC_U+30A4_U+30E4_U+30FC 1
 62
     7
420
 16777215
370
    25
100
AcDbSpline
210
0.0
220
0.0
230
1.0
 70
     8
 71
     3
 72
     8
 73
     4
 74
     0
 42
0.0000000001
 43
0.0000000001
 12
1.0
 22
0.0
 32
0.0
 13
1.0
 23
0.0
 33
0.0
 40
0.0
 40
0.0
 40
0.0
 40
0.0
 40
1.0
 40
1.0
 40
1.0
 40
1.0
 10
97.89653886441491
 20
-122.598709136017
 30
0.0
 10
97.98473330883729
 20
-122.5759902471338
 30
0.0
 10
98.04671388750883
 20
-122.4964035804871
 30
0.0
 10
98.04671388750883
 20
-122.4051046916208
 30
0.0
  0
ENDSEC
  0
SECTION
  2
OBJECTS
  0
DICTIONARY
  5
C
330
0
100
AcDbDictionary
281
     1
  3
ACAD_GROUP
350
D
  3
ACAD_LAYOUT
350
1A
  3
ACAD_MATERIAL
350
3B
  3
ACAD_MLEADERSTYLE
350
106
  3
ACAD_MLINESTYLE
350
17
  3
ACAD_PLOTSETTINGS
350
19
  3
ACAD_PLOTSTYLENAME
350
E
  3
ACAD_TABLESTYLE
350
105
  3
ACAD_VISUALSTYLE
350
2A
  0
SUN
  5
3F
330
29
100
AcDbSun
 90
        1
290
     0
 63
     7
421
 16777215
 40
1.0
291
     1
 91
  2455826
 92
 54000000
292
     0
 70
     2
 71
   256
280
     1
  0
DICTIONARY
  5
D
102
{ACAD_REACTORS
330
C
102
}
330
C
100
AcDbDictionary
281
     1
  0
DICTIONARY
  5
1A
102
{ACAD_REACTORS
330
C
102
}
330
C
100
AcDbDictionary
281
     1
  3
Layout1
350
1E
  3
Layout2
350
26
  3
Model
350
22
  0
DICTIONARY
  5
3B
102
{ACAD_REACTORS
330
C
102
}
330
C
100
AcDbDictionary
281
     1
  3
ByBlock
350
3D
  3
ByLayer
350
3C
  3
Global
350
3E
  0
DICTIONARY
  5
106
102
{ACAD_REACTORS
330
C
102
}
330
C
100
AcDbDictionary
281
     1
  0
DICTIONARY
  5
17
102
{ACAD_REACTORS
330
C
102
}
330
C
100
AcDbDictionary
281
     1
  3
Standard
350
18
  0
DICTIONARY
  5
19
102
{ACAD_REACTORS
330
C
102
}
330
C
100
AcDbDictionary
281
     1
  0
ACDBDICTIONARYWDFLT
  5
E
102
{ACAD_REACTORS
330
C
102
}
330
C
100
AcDbDictionary
281
     1
  3
Normal
350
F
100
AcDbDictionaryWithDefault
340
F
  0
DICTIONARY
  5
105
102
{ACAD_REACTORS
330
C
102
}
330
C
100
AcDbDictionary
281
     1
  0
DICTIONARY
  5
2A
102
{ACAD_REACTORS
330
C
102
}
330
C
100
AcDbDictionary
281
     1
  3
2dWireframe
350
2F
  3
3D Hidden
350
31
  3
3dWireframe
350
30
  3
Basic
350
32
  3
Brighten
350
36
  3
ColorChange
350
3A
  3
Conceptual
350
34
  3
Dim
350
35
  3
Facepattern
350
39
  3
Flat
350
2B
  3
FlatWithEdges
350
2C
  3
Gouraud
350
2D
  3
GouraudWithEdges
350
2E
  3
Linepattern
350
38
  3
Realistic
350
33
  3
Thicken
350
37
  0
LAYOUT
  5
1E
102
{ACAD_REACTORS
330
1A
102
}
330
1A
100
AcDbPlotSettings
  1

  2
none_device
  4

  6

 40
0.0
 41
0.0
 42
0.0
 43
0.0
 44
0.0
 45
0.0
 46
0.0
 47
0.0
 48
0.0
 49
0.0
140
0.0
141
0.0
142
1.0
143
1.0
 70
   688
 72
     0
 73
     0
 74
     5
  7

 75
    16
 76
     0
 77
     2
 78
   300
147
1.0
148
0.0
149
0.0
100
AcDbLayout
  1
Layout1
 70
     1
 71
     1
 10
0.0
 20
0.0
 11
12.0
 21
9.0
 12
0.0
 22
0.0
 32
0.0
 14
1.000000000000000E+20
 24
1.000000000000000E+20
 34
1.000000000000000E+20
 15
-1.000000000000000E+20
 25
-1.000000000000000E+20
 35
-1.000000000000000E+20
146
0.0
 13
0.0
 23
0.0
 33
0.0
 16
1.0
 26
0.0
 36
0.0
 17
0.0
 27
1.0
 37
0.0
 76
     0
330
1B
  0
LAYOUT
  5
26
102
{ACAD_REACTORS
330
1A
102
}
330
1A
100
AcDbPlotSettings
  1

  2
none_device
  4

  6

 40
0.0
 41
0.0
 42
0.0
 43
0.0
 44
0.0
 45
0.0
 46
0.0
 47
0.0
 48
0.0
 49
0.0
140
0.0
141
0.0
142
1.0
143
1.0
 70
   688
 72
     0
 73
     0
 74
     5
  7

 75
    16
 76
     0
 77
     2
 78
   300
147
1.0
148
0.0
149
0.0
100
AcDbLayout
  1
Layout2
 70
     1
 71
     2
 10
0.0
 20
0.0
 11
0.0
 21
0.0
 12
0.0
 22
0.0
 32
0.0
 14
0.0
 24
0.0
 34
0.0
 15
0.0
 25
0.0
 35
0.0
146
0.0
 13
0.0
 23
0.0
 33
0.0
 16
1.0
 26
0.0
 36
0.0
 17
0.0
 27
1.0
 37
0.0
 76
     0
330
23
  0
LAYOUT
  5
22
102
{ACAD_REACTORS
330
1A
102
}
330
1A
100
AcDbPlotSettings
  1

  2
none_device
  4

  6

 40
0.0
 41
0.0
 42
0.0
 43
0.0
 44
0.0
 45
0.0
 46
0.0
 47
0.0
 48
0.0
 49
0.0
140
0.0
141
0.0
142
1.0
143
1.0
 70
  1712
 72
     0
 73
     0
 74
     0
  7

 75
     0
 76
     0
 77
     2
 78
   300
147
1.0
148
0.0
149
0.0
100
AcDbLayout
  1
Model
 70
     1
 71
     0
 10
0.0
 20
0.0
 11
12.0
 21
9.0
 12
0.0
 22
0.0
 32
0.0
 14
1.000000000000000E+20
 24
1.000000000000000E+20
 34
1.000000000000000E+20
 15
-1.000000000000000E+20
 25
-1.000000000000000E+20
 35
-1.000000000000000E+20
146
0.0
 13
0.0
 23
0.0
 33
0.0
 16
1.0
 26
0.0
 36
0.0
 17
0.0
 27
1.0
 37
0.0
 76
     0
330
1F
331
29
  0
MATERIAL
  5
3D
102
{ACAD_REACTORS
330
3B
102
}
330
3B
100
AcDbMaterial
  1
ByBlock
 72
     1
 94
      127
  0
MATERIAL
  5
3C
102
{ACAD_REACTORS
330
3B
102
}
330
3B
100
AcDbMaterial
  1
ByLayer
 72
     1
 94
      127
  0
MATERIAL
  5
3E
102
{ACAD_REACTORS
330
3B
102
}
330
3B
100
AcDbMaterial
  1
Global
 72
     1
 94
      127
  0
MLINESTYLE
  5
18
102
{ACAD_REACTORS
330
17
102
}
330
17
100
AcDbMlineStyle
  2
Standard
 70
     0
  3

 62
   256
 51
90.0
 52
90.0
 71
     2
 49
0.5
 62
   256
  6
BYLAYER
 49
-0.5
 62
   256
  6
BYLAYER
  0
ACDBPLACEHOLDER
  5
F
102
{ACAD_REACTORS
330
E
102
}
330
E
  0
VISUALSTYLE
  5
2F
102
{ACAD_REACTORS
330
2A
102
}
330
2A
100
AcDbVisualStyle
  2
2dWireframe
 70
     4
177
     2
291
     0
 71
     0
176
     1
 72
     2
176
     1
 73
     0
176
     1
 90
        0
176
     1
 40
-0.6
176
     1
 41
-30.0
176
     1
 62
     5
 63
     7
421
 16777215
176
     1
 74
     1
176
     1
 91
        4
176
     1
 64
     7
176
     1
 65
   257
176
     1
 75
     1
176
     1
175
     1
176
     1
 42
1.0
176
     1
 92
        0
176
     1
 66
   257
176
     1
 43
1.0
176
     1
 76
     1
176
     1
 77
     6
176
     1
 78
     2
176
     1
 67
     7
176
     1
 79
     5
176
     1
170
     0
176
     1
171
     0
176
     1
290
     0
176
     1
 93
        1
176
     1
 44
0.0
176
     1
173
     0
176
     1
  0
VISUALSTYLE
  5
31
102
{ACAD_REACTORS
330
2A
102
}
330
2A
100
AcDbVisualStyle
  2
3D Hidden
 70
     6
177
     2
291
     0
 71
     1
176
     1
 72
     2
176
     1
 73
     2
176
     1
 90
        0
176
     1
 40
-0.6
176
     1
 41
-30.0
176
     1
 62
     5
 63
     7
421
 16777215
176
     1
 74
     2
176
     1
 91
        2
176
     1
 64
     7
176
     1
 65
   257
176
     1
 75
     2
176
     1
175
     1
176
     1
 42
40.0
176
     1
 92
        0
176
     1
 66
   257
176
     1
 43
1.0
176
     1
 76
     1
176
     1
 77
     6
176
     1
 78
     2
176
     1
 67
     7
176
     1
 79
     3
176
     1
170
     0
176
     1
171
     0
176
     1
290
     0
176
     1
 93
        1
176
     1
 44
0.0
176
     1
173
     0
176
     1
  0
VISUALSTYLE
  5
30
102
{ACAD_REACTORS
330
2A
102
}
330
2A
100
AcDbVisualStyle
  2
3dWireframe
 70
     5
177
     2
291
     0
 71
     0
176
     1
 72
     2
176
     1
 73
     0
176
     1
 90
        0
176
     1
 40
-0.6
176
     1
 41
-30.0
176
     1
 62
     5
 63
     7
421
 16777215
176
     1
 74
     1
176
     1
 91
        4
176
     1
 64
     7
176
     1
 65
   257
176
     1
 75
     1
176
     1
175
     1
176
     1
 42
1.0
176
     1
 92
        0
176
     1
 66
   257
176
     1
 43
1.0
176
     1
 76
     1
176
     1
 77
     6
176
     1
 78
     2
176
     1
 67
     7
176
     1
 79
     5
176
     1
170
     0
176
     1
171
     0
176
     1
290
     0
176
     1
 93
        1
176
     1
 44
0.0
176
     1
173
     0
176
     1
  0
VISUALSTYLE
  5
32
102
{ACAD_REACTORS
330
2A
102
}
330
2A
100
AcDbVisualStyle
  2
Basic
 70
     7
177
     2
291
     1
 71
     1
176
     1
 72
     0
176
     1
 73
     1
176
     1
 90
        0
176
     1
 40
-0.6
176
     1
 41
-30.0
176
     1
 62
     5
 63
     7
421
 16777215
176
     1
 74
     0
176
     1
 91
        4
176
     1
 64
     7
176
     1
 65
   257
176
     1
 75
     1
176
     1
175
     1
176
     1
 42
1.0
176
     1
 92
        8
176
     1
 66
     7
176
     1
 43
1.0
176
     1
 76
     1
176
     1
 77
     6
176
     1
 78
     2
176
     1
 67
     7
176
     1
 79
     5
176
     1
170
     0
176
     1
171
     0
176
     1
290
     0
176
     1
 93
        1
176
     1
 44
0.0
176
     1
173
     0
176
     1
  0
VISUALSTYLE
  5
36
102
{ACAD_REACTORS
330
2A
102
}
330
2A
100
AcDbVisualStyle
  2
Brighten
 70
    12
177
     2
291
     1
 71
     2
176
     1
 72
     2
176
     1
 73
     0
176
     1
 90
        0
176
     1
 40
-0.6
176
     1
 41
-30.0
176
     1
 62
     5
 63
     7
421
 16777215
176
     1
 74
     1
176
     1
 91
        4
176
     1
 64
     7
176
     1
 65
   257
176
     1
 75
     1
176
     1
175
     1
176
     1
 42
1.0
176
     1
 92
        8
176
     1
 66
     7
176
     1
 43
1.0
176
     1
 76
     1
176
     1
 77
     6
176
     1
 78
     2
176
     1
 67
     7
176
     1
 79
     5
176
     1
170
     0
176
     1
171
     0
176
     1
290
     0
176
     1
 93
        1
176
     1
 44
50.0
176
     1
173
     0
176
     1
  0
VISUALSTYLE
  5
3A
102
{ACAD_REACTORS
330
2A
102
}
330
2A
100
AcDbVisualStyle
  2
ColorChange
 70
    16
177
     2
291
     1
 71
     2
176
     1
 72
     2
176
     1
 73
     3
176
     1
 90
        0
176
     1
 40
-0.6
176
     1
 41
-30.0
176
     1
 62
     5
 63
     8
421
  8421504
176
     1
 74
     1
176
     1
 91
        4
176
     1
 64
     7
176
     1
 65
   257
176
     1
 75
     1
176
     1
175
     1
176
     1
 42
1.0
176
     1
 92
        8
176
     1
 66
     8
424
  8421504
176
     1
 43
1.0
176
     1
 76
     1
176
     1
 77
     6
176
     1
 78
     2
176
     1
 67
     7
176
     1
 79
     5
176
     1
170
     0
176
     1
171
     0
176
     1
290
     0
176
     1
 93
        1
176
     1
 44
0.0
176
     1
173
     0
176
     1
  0
VISUALSTYLE
  5
34
102
{ACAD_REACTORS
330
2A
102
}
330
2A
100
AcDbVisualStyle
  2
Conceptual
 70
     9
177
     2
291
     0
 71
     3
176
     1
 72
     2
176
     1
 73
     0
176
     1
 90
        0
176
     1
 40
-0.6
176
     1
 41
-30.0
176
     1
 62
     5
 63
     7
421
 16777215
176
     1
 74
     2
176
     1
 91
        2
176
     1
 64
     7
176
     1
 65
   257
176
     1
 75
     1
176
     1
175
     1
176
     1
 42
40.0
176
     1
 92
        8
176
     1
 66
     7
176
     1
 43
1.0
176
     1
 76
     1
176
     1
 77
     6
176
     1
 78
     2
176
     1
 67
     7
176
     1
 79
     3
176
     1
170
     0
176
     1
171
     0
176
     1
290
     0
176
     1
 93
        1
176
     1
 44
0.0
176
     1
173
     0
176
     1
  0
VISUALSTYLE
  5
35
102
{ACAD_REACTORS
330
2A
102
}
330
2A
100
AcDbVisualStyle
  2
Dim
 70
    11
177
     2
291
     1
 71
     2
176
     1
 72
     2
176
     1
 73
     0
176
     1
 90
        0
176
     1
 40
-0.6
176
     1
 41
-30.0
176
     1
 62
     5
 63
     7
421
 16777215
176
     1
 74
     1
176
     1
 91
        4
176
     1
 64
     7
176
     1
 65
   257
176
     1
 75
     1
176
     1
175
     1
176
     1
 42
1.0
176
     1
 92
        8
176
     1
 66
     7
176
     1
 43
1.0
176
     1
 76
     1
176
     1
 77
     6
176
     1
 78
     2
176
     1
 67
     7
176
     1
 79
     5
176
     1
170
     0
176
     1
171
     0
176
     1
290
     0
176
     1
 93
        1
176
     1
 44
-50.0
176
     1
173
     0
176
     1
  0
VISUALSTYLE
  5
39
102
{ACAD_REACTORS
330
2A
102
}
330
2A
100
AcDbVisualStyle
  2
Facepattern
 70
    15
177
     2
291
     1
 71
     2
176
     1
 72
     2
176
     1
 73
     0
176
     1
 90
        0
176
     1
 40
-0.6
176
     1
 41
-30.0
176
     1
 62
     5
 63
     7
421
 16777215
176
     1
 74
     1
176
     1
 91
        4
176
     1
 64
     7
176
     1
 65
   257
176
     1
 75
     1
176
     1
175
     1
176
     1
 42
1.0
176
     1
 92
        8
176
     1
 66
     7
176
     1
 43
1.0
176
     1
 76
     1
176
     1
 77
     6
176
     1
 78
     2
176
     1
 67
     7
176
     1
 79
     5
176
     1
170
     0
176
     1
171
     0
176
     1
290
     0
176
     1
 93
        1
176
     1
 44
0.0
176
     1
173
     0
176
     1
  0
VISUALSTYLE
  5
2B
102
{ACAD_REACTORS
330
2A
102
}
330
2A
100
AcDbVisualStyle
  2
Flat
 70
     0
177
     2
291
     1
 71
     2
176
     1
 72
     1
176
     1
 73
     1
176
     1
 90
        2
176
     1
 40
-0.6
176
     1
 41
30.0
176
     1
 62
     5
 63
     7
421
 16777215
176
     1
 74
     0
176
     1
 91
        4
176
     1
 64
     7
176
     1
 65
   257
176
     1
 75
     1
176
     1
175
     1
176
     1
 42
1.0
176
     1
 92
        8
176
     1
 66
     7
176
     1
 43
1.0
176
     1
 76
     1
176
     1
 77
     6
176
     1
 78
     2
176
     1
 67
     7
176
     1
 79
     5
176
     1
170
     0
176
     1
171
     0
176
     1
290
     0
176
     1
 93
       13
176
     1
 44
0.0
176
     1
173
     0
176
     1
  0
VISUALSTYLE
  5
2C
102
{ACAD_REACTORS
330
2A
102
}
330
2A
100
AcDbVisualStyle
  2
FlatWithEdges
 70
     1
177
     2
291
     1
 71
     2
176
     1
 72
     1
176
     1
 73
     1
176
     1
 90
        2
176
     1
 40
-0.6
176
     1
 41
30.0
176
     1
 62
     5
 63
     7
421
 16777215
176
     1
 74
     1
176
     1
 91
        4
176
     1
 64
     7
176
     1
 65
   257
176
     1
 75
     1
176
     1
175
     1
176
     1
 42
1.0
176
     1
 92
        0
176
     1
 66
   257
176
     1
 43
1.0
176
     1
 76
     1
176
     1
 77
     6
176
     1
 78
     2
176
     1
 67
     7
176
     1
 79
     5
176
     1
170
     0
176
     1
171
     0
176
     1
290
     0
176
     1
 93
       13
176
     1
 44
0.0
176
     1
173
     0
176
     1
  0
VISUALSTYLE
  5
2D
102
{ACAD_REACTORS
330
2A
102
}
330
2A
100
AcDbVisualStyle
  2
Gouraud
 70
     2
177
     2
291
     1
 71
     2
176
     1
 72
     2
176
     1
 73
     1
176
     1
 90
        2
176
     1
 40
-0.6
176
     1
 41
30.0
176
     1
 62
     5
 63
     7
421
 16777215
176
     1
 74
     0
176
     1
 91
        4
176
     1
 64
     7
176
     1
 65
   257
176
     1
 75
     1
176
     1
175
     1
176
     1
 42
1.0
176
     1
 92
        0
176
     1
 66
     7
176
     1
 43
1.0
176
     1
 76
     1
176
     1
 77
     6
176
     1
 78
     2
176
     1
 67
     7
176
     1
 79
     5
176
     1
170
     0
176
     1
171
     0
176
     1
290
     0
176
     1
 93
       13
176
     1
 44
0.0
176
     1
173
     0
176
     1
  0
VISUALSTYLE
  5
2E
102
{ACAD_REACTORS
330
2A
102
}
330
2A
100
AcDbVisualStyle
  2
GouraudWithEdges
 70
     3
177
     2
291
     1
 71
     2
176
     1
 72
     2
176
     1
 73
     1
176
     1
 90
        2
176
     1
 40
-0.6
176
     1
 41
30.0
176
     1
 62
     5
 63
     7
421
 16777215
176
     1
 74
     1
176
     1
 91
        4
176
     1
 64
     7
176
     1
 65
   257
176
     1
 75
     1
176
     1
175
     1
176
     1
 42
1.0
176
     1
 92
        0
176
     1
 66
   257
176
     1
 43
1.0
176
     1
 76
     1
176
     1
 77
     6
176
     1
 78
     2
176
     1
 67
     7
176
     1
 79
     5
176
     1
170
     0
176
     1
171
     0
176
     1
290
     0
176
     1
 93
       13
176
     1
 44
0.0
176
     1
173
     0
176
     1
  0
VISUALSTYLE
  5
38
102
{ACAD_REACTORS
330
2A
102
}
330
2A
100
AcDbVisualStyle
  2
Linepattern
 70
    14
177
     2
291
     1
 71
     2
176
     1
 72
     2
176
     1
 73
     0
176
     1
 90
        0
176
     1
 40
-0.6
176
     1
 41
-30.0
176
     1
 62
     5
 63
     7
421
 16777215
176
     1
 74
     1
176
     1
 91
        4
176
     1
 64
     7
176
     1
 65
   257
176
     1
 75
     7
176
     1
175
     7
176
     1
 42
1.0
176
     1
 92
        8
176
     1
 66
     7
176
     1
 43
1.0
176
     1
 76
     1
176
     1
 77
     6
176
     1
 78
     2
176
     1
 67
     7
176
     1
 79
     5
176
     1
170
     0
176
     1
171
     0
176
     1
290
     0
176
     1
 93
        1
176
     1
 44
0.0
176
     1
173
     0
176
     1
  0
VISUALSTYLE
  5
33
102
{ACAD_REACTORS
330
2A
102
}
330
2A
100
AcDbVisualStyle
  2
Realistic
 70
     8
177
     2
291
     0
 71
     2
176
     1
 72
     2
176
     1
 73
     0
176
     1
 90
        0
176
     1
 40
-0.6
176
     1
 41
-30.0
176
     1
 62
     5
 63
     7
421
 16777215
176
     1
 74
     1
176
     1
 91
        0
176
     1
 64
     7
176
     1
 65
   257
176
     1
 75
     1
176
     1
175
     1
176
     1
 42
1.0
176
     1
 92
        8
176
     1
 66
     8
424
  7895160
176
     1
 43
1.0
176
     1
 76
     1
176
     1
 77
     6
176
     1
 78
     2
176
     1
 67
     7
176
     1
 79
     5
176
     1
170
     0
176
     1
171
     0
176
     1
290
     0
176
     1
 93
       13
176
     1
 44
0.0
176
     1
173
     0
176
     1
  0
VISUALSTYLE
  5
37
102
{ACAD_REACTORS
330
2A
102
}
330
2A
100
AcDbVisualStyle
  2
Thicken
 70
    13
177
     2
291
     1
 71
     2
176
     1
 72
     2
176
     1
 73
     0
176
     1
 90
        0
176
     1
 40
-0.6
176
     1
 41
-30.0
176
     1
 62
     5
 63
     7
421
 16777215
176
     1
 74
     1
176
     1
 91
        4
176
     1
 64
     7
176
     1
 65
   257
176
     1
 75
     1
176
     1
175
     1
176
     1
 42
1.0
176
     1
 92
       12
176
     1
 66
     7
176
     1
 43
1.0
176
     1
 76
     1
176
     1
 77
     6
176
     1
 78
     2
176
     1
 67
     7
176
     1
 79
     5
176
     1
170
     0
176
     1
171
     0
176
     1
290
     0
176
     1
 93
        1
176
     1
 44
0.0
176
     1
173
     0
176
     1
  0
ENDSEC
  0
EOF
