  0
SECTION
  2
HEADER
  9
$ACADVER
  1
AC1024
  9
$ACADMAINTVER
 70
     6
  9
$DWGCODEPAGE
  3
UNDEFINED
  9
$INSBASE
 10
0.0
 20
0.0
 30
0.0
  9
$EXTMIN
 10
1.000000000000000E+20
 20
1.000000000000000E+20
 30
1.000000000000000E+20
  9
$EXTMAX
 10
-1.000000000000000E+20
 20
-1.000000000000000E+20
 30
-1.000000000000000E+20
  9
$LIMMIN
 10
0.0
 20
0.0
  9
$LIMMAX
 10
12.0
 20
9.0
  9
$ORTHOMODE
 70
     0
  9
$REGENMODE
 70
     1
  9
$FILLMODE
 70
     1
  9
$QTEXTMODE
 70
     0
  9
$MIRRTEXT
 70
     1
  9
$LTSCALE
 40
1.0
  9
$ATTMODE
 70
     1
  9
$TEXTSIZE
 40
0.2
  9
$TRACEWID
 40
0.05
  9
$TEXTSTYLE
  7
Standard
  9
$CLAYER
  8
0
  9
$CELTYPE
  6
ByLayer
  9
$CECOLOR
 62
   256
  9
$CELTSCALE
 40
1.0
  9
$DISPSILH
 70
     0
  9
$DIMSCALE
 40
1.0
  9
$DIMASZ
 40
0.18
  9
$DIMEXO
 40
0.0625
  9
$DIMDLI
 40
0.38
  9
$DIMRND
 40
0.0
  9
$DIMDLE
 40
0.0
  9
$DIMEXE
 40
0.18
  9
$DIMTP
 40
0.0
  9
$DIMTM
 40
0.0
  9
$DIMTXT
 40
0.18
  9
$DIMCEN
 40
0.09
  9
$DIMTSZ
 40
0.0
  9
$DIMTOL
 70
     0
  9
$DIMLIM
 70
     0
  9
$DIMTIH
 70
     1
  9
$DIMTOH
 70
     1
  9
$DIMSE1
 70
     0
  9
$DIMSE2
 70
     0
  9
$DIMTAD
 70
     0
  9
$DIMZIN
 70
     0
  9
$DIMBLK
  1

  9
$DIMASO
 70
     1
  9
$DIMSHO
 70
     1
  9
$DIMPOST
  1

  9
$DIMAPOST
  1

  9
$DIMALT
 70
     0
  9
$DIMALTD
 70
     2
  9
$DIMALTF
 40
25.4
  9
$DIMLFAC
 40
1.0
  9
$DIMTOFL
 70
     0
  9
$DIMTVP
 40
0.0
  9
$DIMTIX
 70
     0
  9
$DIMSOXD
 70
     0
  9
$DIMSAH
 70
     0
  9
$DIMBLK1
  1

  9
$DIMBLK2
  1

  9
$DIMSTYLE
  2
Standard
  9
$DIMCLRD
 70
     0
  9
$DIMCLRE
 70
     0
  9
$DIMCLRT
 70
     0
  9
$DIMTFAC
 40
1.0
  9
$DIMGAP
 40
0.09
  9
$DIMJUST
 70
     0
  9
$DIMSD1
 70
     0
  9
$DIMSD2
 70
     0
  9
$DIMTOLJ
 70
     1
  9
$DIMTZIN
 70
     0
  9
$DIMALTZ
 70
     0
  9
$DIMALTTZ
 70
     0
  9
$DIMUPT
 70
     0
  9
$DIMDEC
 70
     4
  9
$DIMTDEC
 70
     4
  9
$DIMALTU
 70
     2
  9
$DIMALTTD
 70
     2
  9
$DIMTXSTY
  7
Standard
  9
$DIMAUNIT
 70
     0
  9
$DIMADEC
 70
     0
  9
$DIMALTRND
 40
0.0
  9
$DIMAZIN
 70
     0
  9
$DIMDSEP
 70
    46
  9
$DIMATFIT
 70
     3
  9
$DIMFRAC
 70
     0
  9
$DIMLDRBLK
  1

  9
$DIMLUNIT
 70
     2
  9
$DIMLWD
 70
    -2
  9
$DIMLWE
 70
    -2
  9
$DIMTMOVE
 70
     0
  9
$DIMFXL
 40
1.0
  9
$DIMFXLON
 70
     0
  9
$DIMJOGANG
 40
0.7853981633974483
  9
$DIMTFILL
 70
     0
  9
$DIMTFILLCLR
 70
     0
  9
$DIMARCSYM
 70
     0
  9
$DIMLTYPE
  6

  9
$DIMLTEX1
  6

  9
$DIMLTEX2
  6

  9
$DIMTXTDIRECTION
 70
     0
  9
$LUNITS
 70
     2
  9
$LUPREC
 70
     4
  9
$SKETCHINC
 40
0.1
  9
$FILLETRAD
 40
0.5
  9
$AUNITS
 70
     0
  9
$AUPREC
 70
     0
  9
$MENU
  1
.
  9
$ELEVATION
 40
0.0
  9
$PELEVATION
 40
0.0
  9
$THICKNESS
 40
0.0
  9
$LIMCHECK
 70
     0
  9
$CHAMFERA
 40
0.5
  9
$CHAMFERB
 40
0.5
  9
$CHAMFERC
 40
1.0
  9
$CHAMFERD
 40
0.0
  9
$SKPOLY
 70
     0
  9
$TDCREATE
 40
2457917.613090266
  9
$TDUCREATE
 40
2457917.238090278
  9
$TDUPDATE
 40
2457917.613090266
  9
$TDUUPDATE
 40
2457917.238090278
  9
$TDINDWG
 40
0.0000000116
  9
$TDUSRTIMER
 40
0.0000000116
  9
$USRTIMER
 70
     1
  9
$ANGBASE
 50
0.0
  9
$ANGDIR
 70
     0
  9
$PDMODE
 70
     0
  9
$PDSIZE
 40
0.0
  9
$PLINEWID
 40
0.0
  9
$SPLFRAME
 70
     0
  9
$SPLINETYPE
 70
     6
  9
$SPLINESEGS
 70
     8
  9
$HANDSEED
  5
108
  9
$SURFTAB1
 70
     6
  9
$SURFTAB2
 70
     6
  9
$SURFTYPE
 70
     6
  9
$SURFU
 70
     6
  9
$SURFV
 70
     6
  9
$UCSBASE
  2

  9
$UCSNAME
  2

  9
$UCSORG
 10
0.0
 20
0.0
 30
0.0
  9
$UCSXDIR
 10
1.0
 20
0.0
 30
0.0
  9
$UCSYDIR
 10
0.0
 20
1.0
 30
0.0
  9
$UCSORTHOREF
  2

  9
$UCSORTHOVIEW
 70
     0
  9
$UCSORGTOP
 10
0.0
 20
0.0
 30
0.0
  9
$UCSORGBOTTOM
 10
0.0
 20
0.0
 30
0.0
  9
$UCSORGLEFT
 10
0.0
 20
0.0
 30
0.0
  9
$UCSORGRIGHT
 10
0.0
 20
0.0
 30
0.0
  9
$UCSORGFRONT
 10
0.0
 20
0.0
 30
0.0
  9
$UCSORGBACK
 10
0.0
 20
0.0
 30
0.0
  9
$PUCSBASE
  2

  9
$PUCSNAME
  2

  9
$PUCSORG
 10
0.0
 20
0.0
 30
0.0
  9
$PUCSXDIR
 10
1.0
 20
0.0
 30
0.0
  9
$PUCSYDIR
 10
0.0
 20
1.0
 30
0.0
  9
$PUCSORTHOREF
  2

  9
$PUCSORTHOVIEW
 70
     0
  9
$PUCSORGTOP
 10
0.0
 20
0.0
 30
0.0
  9
$PUCSORGBOTTOM
 10
0.0
 20
0.0
 30
0.0
  9
$PUCSORGLEFT
 10
0.0
 20
0.0
 30
0.0
  9
$PUCSORGRIGHT
 10
0.0
 20
0.0
 30
0.0
  9
$PUCSORGFRONT
 10
0.0
 20
0.0
 30
0.0
  9
$PUCSORGBACK
 10
0.0
 20
0.0
 30
0.0
  9
$USERI1
 70
     0
  9
$USERI2
 70
     0
  9
$USERI3
 70
     0
  9
$USERI4
 70
     0
  9
$USERI5
 70
     0
  9
$USERR1
 40
0.0
  9
$USERR2
 40
0.0
  9
$USERR3
 40
0.0
  9
$USERR4
 40
0.0
  9
$USERR5
 40
0.0
  9
$WORLDVIEW
 70
     1
  9
$SHADEDGE
 70
     3
  9
$SHADEDIF
 70
    70
  9
$TILEMODE
 70
     1
  9
$MAXACTVP
 70
    64
  9
$PINSBASE
 10
0.0
 20
0.0
 30
0.0
  9
$PLIMCHECK
 70
     0
  9
$PEXTMIN
 10
1.000000000000000E+20
 20
1.000000000000000E+20
 30
1.000000000000000E+20
  9
$PEXTMAX
 10
-1.000000000000000E+20
 20
-1.000000000000000E+20
 30
-1.000000000000000E+20
  9
$PLIMMIN
 10
0.0
 20
0.0
  9
$PLIMMAX
 10
12.0
 20
9.0
  9
$UNITMODE
 70
     0
  9
$VISRETAIN
 70
     1
  9
$PLINEGEN
 70
     0
  9
$PSLTSCALE
 70
     1
  9
$TREEDEPTH
 70
  3020
  9
$CMLSTYLE
  2
Standard
  9
$CMLJUST
 70
     0
  9
$CMLSCALE
 40
1.0
  9
$PROXYGRAPHICS
 70
     1
  9
$MEASUREMENT
 70
     0
  9
$CELWEIGHT
370
    -1
  9
$ENDCAPS
280
     0
  9
$JOINSTYLE
280
     0
  9
$LWDISPLAY
290
     1
  9
$INSUNITS
 70
     1
  9
$HYPERLINKBASE
  1

  9
$STYLESHEET
  1

  9
$XEDIT
290
     1
  9
$CEPSNTYPE
380
     0
  9
$PSTYLEMODE
290
     1
  9
$FINGERPRINTGUID
  2
{2B490323-3595-FBA4-44C1-4E5A08841A88}
  9
$VERSIONGUID
  2
{FAEB1C32-E019-11D5-929B-00C0DF256EC4}
  9
$EXTNAMES
290
     1
  9
$PSVPSCALE
 40
0.0
  9
$OLESTARTUP
290
     0
  9
$SORTENTS
280
   127
  9
$INDEXCTL
280
     0
  9
$HIDETEXT
280
     1
  9
$XCLIPFRAME
280
     2
  9
$HALOGAP
280
     0
  9
$OBSCOLOR
 70
   257
  9
$OBSLTYPE
280
     0
  9
$INTERSECTIONDISPLAY
280
     0
  9
$INTERSECTIONCOLOR
 70
   257
  9
$DIMASSOC
280
     2
  9
$PROJECTNAME
  1

  9
$CAMERADISPLAY
290
     0
  9
$LENSLENGTH
 40
50.0
  9
$CAMERAHEIGHT
 40
0.0
  9
$STEPSPERSEC
 40
2.0
  9
$STEPSIZE
 40
6.0
  9
$3DDWFPREC
 40
2.0
  9
$PSOLWIDTH
 40
0.25
  9
$PSOLHEIGHT
 40
4.0
  9
$LOFTANG1
 40
1.570796326794897
  9
$LOFTANG2
 40
1.570796326794897
  9
$LOFTMAG1
 40
0.0
  9
$LOFTMAG2
 40
0.0
  9
$LOFTPARAM
 70
     7
  9
$LOFTNORMALS
280
     1
  9
$LATITUDE
 40
37.795
  9
$LONGITUDE
 40
-122.394
  9
$NORTHDIRECTION
 40
0.0
  9
$TIMEZONE
 70
 -8000
  9
$LIGHTGLYPHDISPLAY
280
     1
  9
$TILEMODELIGHTSYNCH
280
     1
  9
$CMATERIAL
347
3C
  9
$SOLIDHIST
280
     1
  9
$SHOWHIST
280
     1
  9
$DWFFRAME
280
     2
  9
$DGNFRAME
280
     2
  9
$REALWORLDSCALE
290
     1
  9
$INTERFERECOLOR
 62
   256
  9
$CSHADOW
280
     0
  9
$SHADOWPLANELOCATION
 40
0.0
  0
ENDSEC
  0
SECTION
  2
CLASSES
  0
CLASS
  1
ACDBDICTIONARYWDFLT
  2
AcDbDictionaryWithDefault
  3
ObjectDBX Classes
 90
        0
 91
        4
280
     0
281
     0
  0
CLASS
  1
VISUALSTYLE
  2
AcDbVisualStyle
  3
ObjectDBX Classes
 90
     4095
 91
        4
280
     0
281
     0
  0
CLASS
  1
MATERIAL
  2
AcDbMaterial
  3
ObjectDBX Classes
 90
     1153
 91
        4
280
     0
281
     0
  0
CLASS
  1
SUN
  2
AcDbSun
  3
SCENEOE
 90
     1024
 91
        4
280
     0
281
     0
  0
ENDSEC
  0
SECTION
  2
TABLES
  0
TABLE
  2
VPORT
  5
8
330
0
100
AcDbSymbolTable
 70
     1
  0
VPORT
  5
29
330
8
100
AcDbSymbolTableRecord
100
AcDbViewportTableRecord
  2
*Active
 70
     0
 10
0.0
 20
0.0
 11
1.0
 21
1.0
 12
0.0
 22
0.0
 13
0.0
 23
0.0
 14
0.5
 24
0.5
 15
0.5
 25
0.5
 16
0.0
 26
0.0
 36
1.0
 17
91.00082462281999
 27
-128.4993055234307
 37
0.0
 40
256.9986110468615
 41
0.7081814508812795
 42
50.0
 43
0.0
 44
0.0
 50
0.0
 51
0.0
 71
     0
 72
   100
 73
     1
 74
     3
 75
     0
 76
     0
 77
     0
 78
     0
281
     0
 65
     1
110
0.0
120
0.0
130
0.0
111
1.0
121
0.0
131
0.0
112
0.0
122
1.0
132
0.0
 79
     0
146
0.0
 60
     3
 61
     5
292
     1
282
     1
141
0.0
142
0.0
 63
   250
361
3F
  0
ENDTAB
  0
TABLE
  2
LTYPE
  5
5
330
0
100
AcDbSymbolTable
 70
     1
  0
LTYPE
  5
14
330
5
100
AcDbSymbolTableRecord
100
AcDbLinetypeTableRecord
  2
ByBlock
 70
     0
  3

 72
    65
 73
     0
 40
0.0
  0
LTYPE
  5
15
330
5
100
AcDbSymbolTableRecord
100
AcDbLinetypeTableRecord
  2
ByLayer
 70
     0
  3

 72
    65
 73
     0
 40
0.0
  0
LTYPE
  5
16
330
5
100
AcDbSymbolTableRecord
100
AcDbLinetypeTableRecord
  2
Continuous
 70
     0
  3
Solid line
 72
    65
 73
     0
 40
0.0
  0
ENDTAB
  0
TABLE
  2
LAYER
  5
2
330
0
100
AcDbSymbolTable
 70
     2
  0
LAYER
  5
10
330
2
100
AcDbSymbolTableRecord
100
AcDbLayerTableRecord
  2
0
 70
     0
 62
     7
  6
Continuous
370
    -3
390
F
347
3E
  0
LAYER
  5
40
330
2
100
AcDbSymbolTableRecord
100
AcDbLayerTableRecord
  2
_U+30EC_U+30A4_U+30E4_U+30FC 1
 70
     0
 62
     7
  6
Continuous
370
    -3
390
F
347
3E
  0
ENDTAB
  0
TABLE
  2
STYLE
  5
3
330
0
100
AcDbSymbolTable
 70
     1
  0
STYLE
  5
11
330
3
100
AcDbSymbolTableRecord
100
AcDbTextStyleTableRecord
  2
Standard
 70
     0
 40
0.0
 41
1.0
 50
0.0
 71
     0
 42
0.2
  3
txt
  4

  0
ENDTAB
  0
TABLE
  2
VIEW
  5
6
330
0
100
AcDbSymbolTable
 70
     0
  0
ENDTAB
  0
TABLE
  2
UCS
  5
7
330
0
100
AcDbSymbolTable
 70
     0
  0
ENDTAB
  0
TABLE
  2
APPID
  5
9
330
0
100
AcDbSymbolTable
 70
     1
  0
APPID
  5
12
330
9
100
AcDbSymbolTableRecord
100
AcDbRegAppTableRecord
  2
ACAD
 70
     0
  0
ENDTAB
  0
TABLE
  2
DIMSTYLE
  5
A
330
0
100
AcDbSymbolTable
 70
     1
100
AcDbDimStyleTable
  0
DIMSTYLE
105
27
330
A
100
AcDbSymbolTableRecord
100
AcDbDimStyleTableRecord
  2
Standard
 70
     0
178
     0
340
11
  0
ENDTAB
  0
TABLE
  2
BLOCK_RECORD
  5
1
330
0
100
AcDbSymbolTable
 70
     7
  0
BLOCK_RECORD
  5
1F
330
1
100
AcDbSymbolTableRecord
100
AcDbBlockTableRecord
  2
*Model_Space
340
22
 70
     0
280
     1
281
     0
  0
BLOCK_RECORD
  5
1B
330
1
100
AcDbSymbolTableRecord
100
AcDbBlockTableRecord
  2
*Paper_Space
340
1E
 70
     0
280
     1
281
     0
  0
BLOCK_RECORD
  5
23
330
1
100
AcDbSymbolTableRecord
100
AcDbBlockTableRecord
  2
*Paper_Space0
340
26
 70
     0
280
     1
281
     0
  0
BLOCK_RECORD
  5
86
330
1
100
AcDbSymbolTableRecord
100
AcDbBlockTableRecord
  2
block 2
340
0
102
{BLKREFS
331
87
102
}
 70
     0
280
     1
281
     0
  0
BLOCK_RECORD
  5
94
330
1
100
AcDbSymbolTableRecord
100
AcDbBlockTableRecord
  2
block 3
340
0
102
{BLKREFS
331
95
102
}
 70
     0
280
     1
281
     0
  0
BLOCK_RECORD
  5
A6
330
1
100
AcDbSymbolTableRecord
100
AcDbBlockTableRecord
  2
block 4
340
0
102
{BLKREFS
331
A7
102
}
 70
     0
280
     1
281
     0
  0
BLOCK_RECORD
  5
B7
330
1
100
AcDbSymbolTableRecord
100
AcDbBlockTableRecord
  2
block 5
340
0
102
{BLKREFS
331
B8
102
}
 70
     0
280
     1
281
     0
  0
BLOCK_RECORD
  5
C7
330
1
100
AcDbSymbolTableRecord
100
AcDbBlockTableRecord
  2
block 6
340
0
102
{BLKREFS
331
C8
102
}
 70
     0
280
     1
281
     0
  0
BLOCK_RECORD
  5
DC
330
1
100
AcDbSymbolTableRecord
100
AcDbBlockTableRecord
  2
block 7
340
0
102
{BLKREFS
331
DD
102
}
 70
     0
280
     1
281
     0
  0
ENDTAB
  0
ENDSEC
  0
SECTION
  2
BLOCKS
  0
BLOCK
  5
20
330
1F
100
AcDbEntity
  8
0
100
AcDbBlockBegin
  2
*Model_Space
 70
     0
 10
0.0
 20
0.0
 30
0.0
  3
*Model_Space
  1

  0
ENDBLK
  5
21
330
1F
100
AcDbEntity
  8
0
100
AcDbBlockEnd
  0
BLOCK
  5
1C
330
1B
100
AcDbEntity
 67
     1
  8
0
100
AcDbBlockBegin
  2
*Paper_Space
 70
     0
 10
0.0
 20
0.0
 30
0.0
  3
*Paper_Space
  1

  0
ENDBLK
  5
1D
330
1B
100
AcDbEntity
 67
     1
  8
0
100
AcDbBlockEnd
  0
BLOCK
  5
24
330
23
100
AcDbEntity
  8
0
100
AcDbBlockBegin
  2
*Paper_Space0
 70
     0
 10
0.0
 20
0.0
 30
0.0
  3
*Paper_Space0
  1

  0
ENDBLK
  5
25
330
23
100
AcDbEntity
  8
0
100
AcDbBlockEnd
  0
BLOCK
  5
88
330
86
100
AcDbEntity
  8
0
100
AcDbBlockBegin
  2
block 2
 70
     0
 10
0.0
 20
0.0
 30
0.0
  3
block 2
  1

  0
SPLINE
  5
8A
330
86
100
AcDbEntity
  8
_U+30EC_U+30A4_U+30E4_U+30FC 1
370
     0
100
AcDbSpline
210
0.0
220
0.0
230
1.0
 70
    11
 71
     3
 72
    26
 73
    22
 74
     0
 42
0.0000000001
 43
0.0000000001
 12
1.0
 22
0.0
 32
0.0
 13
1.0
 23
0.0
 33
0.0
 40
0.0
 40
0.0
 40
0.0
 40
0.0
 40
1.0
 40
1.0
 40
1.0
 40
2.0
 40
2.0
 40
2.0
 40
3.0
 40
3.0
 40
3.0
 40
4.0
 40
4.0
 40
4.0
 40
5.0
 40
5.0
 40
5.0
 40
6.0
 40
6.0
 40
6.0
 40
7.0
 40
7.0
 40
7.0
 40
7.0
 10
111.2517794860759
 20
-119.9854410507328
 30
0.0
 10
111.2517794860759
 20
-119.9854410507328
 30
0.0
 10
110.1476263830534
 20
-119.9854410507328
 30
0.0
 10
110.1476263830534
 20
-119.9854410507328
 30
0.0
 10
110.1476263830534
 20
-119.9854410507328
 30
0.0
 10
110.1476263830534
 20
-120.3154811982197
 30
0.0
 10
110.1476263830534
 20
-120.3154811982197
 30
0.0
 10
110.1476263830534
 20
-120.3154811982197
 30
0.0
 10
109.9994872771876
 20
-120.3154811982197
 30
0.0
 10
109.9994872771876
 20
-120.3154811982197
 30
0.0
 10
109.9846733666011
 20
-119.9833739934417
 30
0.0
 10
109.8217203501487
 20
-119.9368652043908
 30
0.0
 10
109.7073431800384
 20
-119.9072373832176
 30
0.0
 10
109.7073431800384
 20
-119.9072373832176
 30
0.0
 10
109.7073431800384
 20
-119.7611653346431
 30
0.0
 10
109.7073431800384
 20
-119.7611653346431
 30
0.0
 10
109.7073431800384
 20
-119.7611653346431
 30
0.0
 10
111.2517794860759
 20
-119.7611653346431
 30
0.0
 10
111.2517794860759
 20
-119.7611653346431
 30
0.0
 10
111.2517794860759
 20
-119.7611653346431
 30
0.0
 10
111.2517794860759
 20
-119.9854410507328
 30
0.0
 10
111.2517794860759
 20
-119.9854410507328
 30
0.0
  0
HATCH
  5
8B
330
86
100
AcDbEntity
  8
_U+30EC_U+30A4_U+30E4_U+30FC 1
 62
   179
420
  2234388
100
AcDbHatch
 10
0.0
 20
0.0
 30
0.0
210
0.0
220
0.0
230
1.0
  2
SOLID
 70
     1
 71
     0
 91
        1
 92
        1
 93
        1
 72
     4
 94
        3
 73
     0
 74
     1
 95
       26
 96
       22
 40
0.0
 40
0.0
 40
0.0
 40
0.0
 40
1.0
 40
1.0
 40
1.0
 40
2.0
 40
2.0
 40
2.0
 40
3.0
 40
3.0
 40
3.0
 40
4.0
 40
4.0
 40
4.0
 40
5.0
 40
5.0
 40
5.0
 40
6.0
 40
6.0
 40
6.0
 40
7.0
 40
7.0
 40
7.0
 40
7.0
 10
111.2517794860759
 20
-119.9854410507328
 10
111.2517794860759
 20
-119.9854410507328
 10
110.1476263830534
 20
-119.9854410507328
 10
110.1476263830534
 20
-119.9854410507328
 10
110.1476263830534
 20
-119.9854410507328
 10
110.1476263830534
 20
-120.3154811982197
 10
110.1476263830534
 20
-120.3154811982197
 10
110.1476263830534
 20
-120.3154811982197
 10
109.9994872771876
 20
-120.3154811982197
 10
109.9994872771876
 20
-120.3154811982197
 10
109.9846733666011
 20
-119.9833739934417
 10
109.8217203501487
 20
-119.9368652043908
 10
109.7073431800384
 20
-119.9072373832176
 10
109.7073431800384
 20
-119.9072373832176
 10
109.7073431800384
 20
-119.7611653346431
 10
109.7073431800384
 20
-119.7611653346431
 10
109.7073431800384
 20
-119.7611653346431
 10
111.2517794860759
 20
-119.7611653346431
 10
111.2517794860759
 20
-119.7611653346431
 10
111.2517794860759
 20
-119.7611653346431
 10
111.2517794860759
 20
-119.9854410507328
 10
111.2517794860759
 20
-119.9854410507328
 97
        0
 97
        0
 75
     2
 76
     1
 98
        0
  0
ENDBLK
  5
89
330
86
100
AcDbEntity
  8
0
100
AcDbBlockEnd
  0
BLOCK
  5
96
330
94
100
AcDbEntity
  8
0
100
AcDbBlockBegin
  2
block 3
 70
     0
 10
0.0
 20
0.0
 30
0.0
  3
block 3
  1

  0
SPLINE
  5
98
330
94
100
AcDbEntity
  8
_U+30EC_U+30A4_U+30E4_U+30FC 1
370
     0
100
AcDbSpline
210
0.0
220
0.0
230
1.0
 70
    11
 71
     3
 72
    62
 73
    58
 74
     0
 42
0.0000000001
 43
0.0000000001
 12
1.0
 22
0.0
 32
0.0
 13
1.0
 23
0.0
 33
0.0
 40
0.0
 40
0.0
 40
0.0
 40
0.0
 40
1.0
 40
1.0
 40
1.0
 40
2.0
 40
2.0
 40
2.0
 40
3.0
 40
3.0
 40
3.0
 40
4.0
 40
4.0
 40
4.0
 40
5.0
 40
5.0
 40
5.0
 40
6.0
 40
6.0
 40
6.0
 40
7.0
 40
7.0
 40
7.0
 40
8.0
 40
8.0
 40
8.0
 40
9.0
 40
9.0
 40
9.0
 40
10.0
 40
10.0
 40
10.0
 40
11.0
 40
11.0
 40
11.0
 40
12.0
 40
12.0
 40
12.0
 40
13.0
 40
13.0
 40
13.0
 40
14.0
 40
14.0
 40
14.0
 40
15.0
 40
15.0
 40
15.0
 40
16.0
 40
16.0
 40
16.0
 40
17.0
 40
17.0
 40
17.0
 40
18.0
 40
18.0
 40
18.0
 40
19.0
 40
19.0
 40
19.0
 40
19.0
 10
111.3024223897091
 20
-135.4453070407914
 30
0.0
 10
111.3024223897091
 20
-135.5407361857329
 30
0.0
 10
111.2814073072491
 20
-135.7584662204007
 30
0.0
 10
111.0953721510456
 20
-135.8835231865152
 30
0.0
 10
110.9830620382265
 20
-135.9572482298996
 30
0.0
 10
110.8838432882513
 20
-135.9617268540304
 30
0.0
 10
110.7990939393141
 20
-135.9658609686127
 30
0.0
 10
110.7990939393141
 20
-135.9658609686127
 30
0.0
 10
110.7990939393141
 20
-135.7457193671052
 30
0.0
 10
110.7990939393141
 20
-135.7457193671052
 30
0.0
 10
110.873163492247
 20
-135.7436523098141
 30
0.0
 10
111.1077744947925
 20
-135.7333170233584
 30
0.0
 10
111.1077744947925
 20
-135.4497856649223
 30
0.0
 10
111.1077744947925
 20
-135.3123263550608
 30
0.0
 10
111.0381835659905
 20
-135.1597086250642
 30
0.0
 10
110.8097737353184
 20
-135.1597086250642
 30
0.0
 10
110.693329507917
 20
-135.1597086250642
 30
0.0
 10
110.6447536615749
 20
-135.1979491849505
 30
0.0
 10
110.6130587831106
 20
-135.2296440634148
 30
0.0
 10
110.5389892301778
 20
-135.3037136163477
 30
0.0
 10
110.5262423768823
 20
-135.4201578437491
 30
0.0
 10
110.5262423768823
 20
-135.4749348619646
 30
0.0
 10
110.5262423768823
 20
-135.494227396682
 30
0.0
 10
110.5283094341735
 20
-135.5300563897286
 30
0.0
 10
110.5324435487558
 20
-135.5576171536106
 30
0.0
 10
110.5324435487558
 20
-135.5576171536106
 30
0.0
 10
110.3377956538392
 20
-135.5576171536106
 30
0.0
 10
110.3377956538392
 20
-135.5576171536106
 30
0.0
 10
110.3443413352611
 20
-135.5193765937243
 30
0.0
 10
110.3464083925523
 20
-135.4773464288043
 30
0.0
 10
110.3464083925523
 20
-135.4708007473823
 30
0.0
 10
110.3464083925523
 20
-135.4053439331626
 30
0.0
 10
110.3250488005437
 20
-135.2065619236637
 30
0.0
 10
110.0883707407071
 20
-135.2065619236637
 30
0.0
 10
109.9106038136682
 20
-135.2065619236637
 30
0.0
 10
109.8554822859042
 20
-135.3374755521031
 30
0.0
 10
109.8554822859042
 20
-135.4477186076311
 30
0.0
 10
109.8554822859042
 20
-135.7119574313498
 30
0.0
 10
110.0883707407071
 20
-135.7205701700629
 30
0.0
 10
110.1600287268003
 20
-135.7247042846452
 30
0.0
 10
110.1600287268003
 20
-135.7247042846452
 30
0.0
 10
110.1600287268003
 20
-135.927964918275
 30
0.0
 10
110.1600287268003
 20
-135.927964918275
 30
0.0
 10
110.0353162702342
 20
-135.9193521795618
 30
0.0
 10
109.6587673336964
 20
-135.8917914156798
 30
0.0
 10
109.6587673336964
 20
-135.4349717543357
 30
0.0
 10
109.6587673336964
 20
-135.2106960382459
 30
0.0
 10
109.7858913571021
 20
-134.9695393542785
 30
0.0
 10
110.0818250592851
 20
-134.9695393542785
 30
0.0
 10
110.2682047250371
 20
-134.9695393542785
 30
0.0
 10
110.3505425071346
 20
-135.0646239896714
 30
0.0
 10
110.411865206772
 20
-135.1641872491951
 30
0.0
 10
110.439425970654
 20
-135.1028645495576
 30
0.0
 10
110.5196966954604
 20
-134.9209635079364
 30
0.0
 10
110.797026882023
 20
-134.9209635079364
 30
0.0
 10
111.1353352586745
 20
-134.9209635079364
 30
0.0
 10
111.3024223897091
 20
-135.1683213637774
 30
0.0
 10
111.3024223897091
 20
-135.4453070407914
 30
0.0
  0
HATCH
  5
99
330
94
100
AcDbEntity
  8
_U+30EC_U+30A4_U+30E4_U+30FC 1
 62
   179
420
  2234388
100
AcDbHatch
 10
0.0
 20
0.0
 30
0.0
210
0.0
220
0.0
230
1.0
  2
SOLID
 70
     1
 71
     0
 91
        1
 92
        1
 93
        1
 72
     4
 94
        3
 73
     0
 74
     1
 95
       62
 96
       58
 40
0.0
 40
0.0
 40
0.0
 40
0.0
 40
1.0
 40
1.0
 40
1.0
 40
2.0
 40
2.0
 40
2.0
 40
3.0
 40
3.0
 40
3.0
 40
4.0
 40
4.0
 40
4.0
 40
5.0
 40
5.0
 40
5.0
 40
6.0
 40
6.0
 40
6.0
 40
7.0
 40
7.0
 40
7.0
 40
8.0
 40
8.0
 40
8.0
 40
9.0
 40
9.0
 40
9.0
 40
10.0
 40
10.0
 40
10.0
 40
11.0
 40
11.0
 40
11.0
 40
12.0
 40
12.0
 40
12.0
 40
13.0
 40
13.0
 40
13.0
 40
14.0
 40
14.0
 40
14.0
 40
15.0
 40
15.0
 40
15.0
 40
16.0
 40
16.0
 40
16.0
 40
17.0
 40
17.0
 40
17.0
 40
18.0
 40
18.0
 40
18.0
 40
19.0
 40
19.0
 40
19.0
 40
19.0
 10
111.3024223897091
 20
-135.4453070407914
 10
111.3024223897091
 20
-135.5407361857329
 10
111.2814073072491
 20
-135.7584662204007
 10
111.0953721510456
 20
-135.8835231865152
 10
110.9830620382265
 20
-135.9572482298996
 10
110.8838432882513
 20
-135.9617268540304
 10
110.7990939393141
 20
-135.9658609686127
 10
110.7990939393141
 20
-135.9658609686127
 10
110.7990939393141
 20
-135.7457193671052
 10
110.7990939393141
 20
-135.7457193671052
 10
110.873163492247
 20
-135.7436523098141
 10
111.1077744947925
 20
-135.7333170233584
 10
111.1077744947925
 20
-135.4497856649223
 10
111.1077744947925
 20
-135.3123263550608
 10
111.0381835659905
 20
-135.1597086250642
 10
110.8097737353184
 20
-135.1597086250642
 10
110.693329507917
 20
-135.1597086250642
 10
110.6447536615749
 20
-135.1979491849505
 10
110.6130587831106
 20
-135.2296440634148
 10
110.5389892301778
 20
-135.3037136163477
 10
110.5262423768823
 20
-135.4201578437491
 10
110.5262423768823
 20
-135.4749348619646
 10
110.5262423768823
 20
-135.494227396682
 10
110.5283094341735
 20
-135.5300563897286
 10
110.5324435487558
 20
-135.5576171536106
 10
110.5324435487558
 20
-135.5576171536106
 10
110.3377956538392
 20
-135.5576171536106
 10
110.3377956538392
 20
-135.5576171536106
 10
110.3443413352611
 20
-135.5193765937243
 10
110.3464083925523
 20
-135.4773464288043
 10
110.3464083925523
 20
-135.4708007473823
 10
110.3464083925523
 20
-135.4053439331626
 10
110.3250488005437
 20
-135.2065619236637
 10
110.0883707407071
 20
-135.2065619236637
 10
109.9106038136682
 20
-135.2065619236637
 10
109.8554822859042
 20
-135.3374755521031
 10
109.8554822859042
 20
-135.4477186076311
 10
109.8554822859042
 20
-135.7119574313498
 10
110.0883707407071
 20
-135.7205701700629
 10
110.1600287268003
 20
-135.7247042846452
 10
110.1600287268003
 20
-135.7247042846452
 10
110.1600287268003
 20
-135.927964918275
 10
110.1600287268003
 20
-135.927964918275
 10
110.0353162702342
 20
-135.9193521795618
 10
109.6587673336964
 20
-135.8917914156798
 10
109.6587673336964
 20
-135.4349717543357
 10
109.6587673336964
 20
-135.2106960382459
 10
109.7858913571021
 20
-134.9695393542785
 10
110.0818250592851
 20
-134.9695393542785
 10
110.2682047250371
 20
-134.9695393542785
 10
110.3505425071346
 20
-135.0646239896714
 10
110.411865206772
 20
-135.1641872491951
 10
110.439425970654
 20
-135.1028645495576
 10
110.5196966954604
 20
-134.9209635079364
 10
110.797026882023
 20
-134.9209635079364
 10
111.1353352586745
 20
-134.9209635079364
 10
111.3024223897091
 20
-135.1683213637774
 10
111.3024223897091
 20
-135.4453070407914
 97
        0
 97
        0
 75
     2
 76
     1
 98
        0
  0
ENDBLK
  5
97
330
94
100
AcDbEntity
  8
0
100
AcDbBlockEnd
  0
BLOCK
  5
A8
330
A6
100
AcDbEntity
  8
0
100
AcDbBlockBegin
  2
block 4
 70
     0
 10
0.0
 20
0.0
 30
0.0
  3
block 4
  1

  0
SPLINE
  5
AA
330
A6
100
AcDbEntity
  8
_U+30EC_U+30A4_U+30E4_U+30FC 1
370
     0
100
AcDbSpline
210
0.0
220
0.0
230
1.0
 70
    11
 71
     3
 72
    26
 73
    22
 74
     0
 42
0.0000000001
 43
0.0000000001
 12
1.0
 22
0.0
 32
0.0
 13
1.0
 23
0.0
 33
0.0
 40
0.0
 40
0.0
 40
0.0
 40
0.0
 40
1.0
 40
1.0
 40
1.0
 40
2.0
 40
2.0
 40
2.0
 40
3.0
 40
3.0
 40
3.0
 40
4.0
 40
4.0
 40
4.0
 40
5.0
 40
5.0
 40
5.0
 40
6.0
 40
6.0
 40
6.0
 40
7.0
 40
7.0
 40
7.0
 40
7.0
 10
84.26031763301478
 20
-140.2908338407954
 30
0.0
 10
84.26031763301478
 20
-140.2908338407954
 30
0.0
 10
84.26031763301478
 20
-139.1866807377728
 30
0.0
 10
84.26031763301478
 20
-139.1866807377728
 30
0.0
 10
84.26031763301478
 20
-139.1866807377728
 30
0.0
 10
83.93027748552785
 20
-139.1866807377728
 30
0.0
 10
83.93027748552785
 20
-139.1866807377728
 30
0.0
 10
83.93027748552785
 20
-139.1866807377728
 30
0.0
 10
83.93027748552785
 20
-139.038541631907
 30
0.0
 10
83.93027748552785
 20
-139.038541631907
 30
0.0
 10
84.26238469030594
 20
-139.0237277213205
 30
0.0
 10
84.30889347935681
 20
-138.8607747048681
 30
0.0
 10
84.33852130052996
 20
-138.7467420443064
 30
0.0
 10
84.33852130052996
 20
-138.7467420443064
 30
0.0
 10
84.48459334910454
 20
-138.7467420443064
 30
0.0
 10
84.48459334910454
 20
-138.7467420443064
 30
0.0
 10
84.48459334910454
 20
-138.7467420443064
 30
0.0
 10
84.48459334910454
 20
-140.2908338407954
 30
0.0
 10
84.48459334910454
 20
-140.2908338407954
 30
0.0
 10
84.48459334910454
 20
-140.2908338407954
 30
0.0
 10
84.26031763301478
 20
-140.2908338407954
 30
0.0
 10
84.26031763301478
 20
-140.2908338407954
 30
0.0
  0
HATCH
  5
AB
330
A6
100
AcDbEntity
  8
_U+30EC_U+30A4_U+30E4_U+30FC 1
 62
   179
420
  2234388
100
AcDbHatch
 10
0.0
 20
0.0
 30
0.0
210
0.0
220
0.0
230
1.0
  2
SOLID
 70
     1
 71
     0
 91
        1
 92
        1
 93
        1
 72
     4
 94
        3
 73
     0
 74
     1
 95
       26
 96
       22
 40
0.0
 40
0.0
 40
0.0
 40
0.0
 40
1.0
 40
1.0
 40
1.0
 40
2.0
 40
2.0
 40
2.0
 40
3.0
 40
3.0
 40
3.0
 40
4.0
 40
4.0
 40
4.0
 40
5.0
 40
5.0
 40
5.0
 40
6.0
 40
6.0
 40
6.0
 40
7.0
 40
7.0
 40
7.0
 40
7.0
 10
84.26031763301478
 20
-140.2908338407954
 10
84.26031763301478
 20
-140.2908338407954
 10
84.26031763301478
 20
-139.1866807377728
 10
84.26031763301478
 20
-139.1866807377728
 10
84.26031763301478
 20
-139.1866807377728
 10
83.93027748552785
 20
-139.1866807377728
 10
83.93027748552785
 20
-139.1866807377728
 10
83.93027748552785
 20
-139.1866807377728
 10
83.93027748552785
 20
-139.038541631907
 10
83.93027748552785
 20
-139.038541631907
 10
84.26238469030594
 20
-139.0237277213205
 10
84.30889347935681
 20
-138.8607747048681
 10
84.33852130052996
 20
-138.7467420443064
 10
84.33852130052996
 20
-138.7467420443064
 10
84.48459334910454
 20
-138.7467420443064
 10
84.48459334910454
 20
-138.7467420443064
 10
84.48459334910454
 20
-138.7467420443064
 10
84.48459334910454
 20
-140.2908338407954
 10
84.48459334910454
 20
-140.2908338407954
 10
84.48459334910454
 20
-140.2908338407954
 10
84.26031763301478
 20
-140.2908338407954
 10
84.26031763301478
 20
-140.2908338407954
 97
        0
 97
        0
 75
     2
 76
     1
 98
        0
  0
SPLINE
  5
AC
330
A6
100
AcDbEntity
  8
_U+30EC_U+30A4_U+30E4_U+30FC 1
370
     0
100
AcDbSpline
210
0.0
220
0.0
230
1.0
 70
    11
 71
     3
 72
    29
 73
    25
 74
     0
 42
0.0000000001
 43
0.0000000001
 12
1.0
 22
0.0
 32
0.0
 13
1.0
 23
0.0
 33
0.0
 40
0.0
 40
0.0
 40
0.0
 40
0.0
 40
1.0
 40
1.0
 40
1.0
 40
2.0
 40
2.0
 40
2.0
 40
3.0
 40
3.0
 40
3.0
 40
4.0
 40
4.0
 40
4.0
 40
5.0
 40
5.0
 40
5.0
 40
6.0
 40
6.0
 40
6.0
 40
7.0
 40
7.0
 40
7.0
 40
8.0
 40
8.0
 40
8.0
 40
8.0
 10
85.88364662566451
 20
-140.1130669137565
 30
0.0
 10
85.77547062742767
 20
-140.3225287192597
 30
0.0
 10
85.6021823245196
 20
-140.3418212539771
 30
0.0
 10
85.48573809711816
 20
-140.3418212539771
 30
0.0
 10
85.32485213795698
 20
-140.3418212539771
 30
0.0
 10
85.18325871351321
 20
-140.2953124649262
 30
0.0
 10
85.08817407812032
 20
-140.1130669137565
 30
0.0
 10
84.9844767040143
 20
-139.9184190188398
 30
0.0
 10
84.96552867884543
 20
-139.6817409590032
 30
0.0
 10
84.96552867884543
 20
-139.5187879425509
 30
0.0
 10
84.96552867884543
 20
-139.3747829512674
 30
0.0
 10
84.98240964672316
 20
-139.1232909808442
 30
0.0
 10
85.08817407812032
 20
-138.9241644617967
 30
0.0
 10
85.19600556680864
 20
-138.7212483377155
 30
0.0
 10
85.35689152596981
 20
-138.6978216884158
 30
0.0
 10
85.48573809711816
 20
-138.6978216884158
 30
0.0
 10
85.64455699898816
 20
-138.6978216884158
 30
0.0
 10
85.78821748072309
 20
-138.7422634201756
 30
0.0
 10
85.88364662566451
 20
-138.9241644617967
 30
0.0
 10
85.9828653756397
 20
-139.1167452994222
 30
0.0
 10
86.0062920249394
 20
-139.3451551300943
 30
0.0
 10
86.0062920249394
 20
-139.5187879425509
 30
0.0
 10
86.0062920249394
 20
-139.6900091881678
 30
0.0
 10
85.98493243293085
 20
-139.9208305856795
 30
0.0
 10
85.88364662566451
 20
-140.1130669137565
 30
0.0
  0
SPLINE
  5
AD
330
A6
100
AcDbEntity
  8
_U+30EC_U+30A4_U+30E4_U+30FC 1
370
     0
100
AcDbSpline
210
0.0
220
0.0
230
1.0
 70
    11
 71
     3
 72
    17
 73
    13
 74
     0
 42
0.0000000001
 43
0.0000000001
 12
1.0
 22
0.0
 32
0.0
 13
1.0
 23
0.0
 33
0.0
 40
0.0
 40
0.0
 40
0.0
 40
0.0
 40
1.0
 40
1.0
 40
1.0
 40
2.0
 40
2.0
 40
2.0
 40
3.0
 40
3.0
 40
3.0
 40
4.0
 40
4.0
 40
4.0
 40
4.0
 10
85.48573809711816
 20
-138.8904025260413
 30
0.0
 10
85.23631318398607
 20
-138.8904025260413
 30
0.0
 10
85.18945988538667
 20
-139.1739338844773
 30
0.0
 10
85.18945988538667
 20
-139.5187879425509
 30
0.0
 10
85.18945988538667
 20
-139.8381482940335
 30
0.0
 10
85.22563338798179
 20
-140.1471733590604
 30
0.0
 10
85.48573809711816
 20
-140.1471733590604
 30
0.0
 10
85.73344046250762
 20
-140.1471733590604
 30
0.0
 10
85.78201630884963
 20
-139.8657090579155
 30
0.0
 10
85.78201630884963
 20
-139.5187879425509
 30
0.0
 10
85.78201630884963
 20
-139.1994275910682
 30
0.0
 10
85.74377574896337
 20
-138.8904025260413
 30
0.0
 10
85.48573809711816
 20
-138.8904025260413
 30
0.0
  0
HATCH
  5
AE
330
A6
100
AcDbEntity
  8
_U+30EC_U+30A4_U+30E4_U+30FC 1
 62
   179
420
  2234388
100
AcDbHatch
 10
0.0
 20
0.0
 30
0.0
210
0.0
220
0.0
230
1.0
  2
SOLID
 70
     1
 71
     0
 91
        2
 92
        1
 93
        1
 72
     4
 94
        3
 73
     0
 74
     1
 95
       29
 96
       25
 40
0.0
 40
0.0
 40
0.0
 40
0.0
 40
1.0
 40
1.0
 40
1.0
 40
2.0
 40
2.0
 40
2.0
 40
3.0
 40
3.0
 40
3.0
 40
4.0
 40
4.0
 40
4.0
 40
5.0
 40
5.0
 40
5.0
 40
6.0
 40
6.0
 40
6.0
 40
7.0
 40
7.0
 40
7.0
 40
8.0
 40
8.0
 40
8.0
 40
8.0
 10
85.88364662566451
 20
-140.1130669137565
 10
85.77547062742767
 20
-140.3225287192597
 10
85.6021823245196
 20
-140.3418212539771
 10
85.48573809711816
 20
-140.3418212539771
 10
85.32485213795698
 20
-140.3418212539771
 10
85.18325871351321
 20
-140.2953124649262
 10
85.08817407812032
 20
-140.1130669137565
 10
84.9844767040143
 20
-139.9184190188398
 10
84.96552867884543
 20
-139.6817409590032
 10
84.96552867884543
 20
-139.5187879425509
 10
84.96552867884543
 20
-139.3747829512674
 10
84.98240964672316
 20
-139.1232909808442
 10
85.08817407812032
 20
-138.9241644617967
 10
85.19600556680864
 20
-138.7212483377155
 10
85.35689152596981
 20
-138.6978216884158
 10
85.48573809711816
 20
-138.6978216884158
 10
85.64455699898816
 20
-138.6978216884158
 10
85.78821748072309
 20
-138.7422634201756
 10
85.88364662566451
 20
-138.9241644617967
 10
85.9828653756397
 20
-139.1167452994222
 10
86.0062920249394
 20
-139.3451551300943
 10
86.0062920249394
 20
-139.5187879425509
 10
86.0062920249394
 20
-139.6900091881678
 10
85.98493243293085
 20
-139.9208305856795
 10
85.88364662566451
 20
-140.1130669137565
 97
        0
 97
        0
 92
        1
 93
        1
 72
     4
 94
        3
 73
     0
 74
     1
 95
       17
 96
       13
 40
0.0
 40
0.0
 40
0.0
 40
0.0
 40
1.0
 40
1.0
 40
1.0
 40
2.0
 40
2.0
 40
2.0
 40
3.0
 40
3.0
 40
3.0
 40
4.0
 40
4.0
 40
4.0
 40
4.0
 10
85.48573809711816
 20
-138.8904025260413
 10
85.23631318398607
 20
-138.8904025260413
 10
85.18945988538667
 20
-139.1739338844773
 10
85.18945988538667
 20
-139.5187879425509
 10
85.18945988538667
 20
-139.8381482940335
 10
85.22563338798179
 20
-140.1471733590604
 10
85.48573809711816
 20
-140.1471733590604
 10
85.73344046250762
 20
-140.1471733590604
 10
85.78201630884963
 20
-139.8657090579155
 10
85.78201630884963
 20
-139.5187879425509
 10
85.78201630884963
 20
-139.1994275910682
 10
85.74377574896337
 20
-138.8904025260413
 10
85.48573809711816
 20
-138.8904025260413
 97
        0
 97
        0
 75
     2
 76
     1
 98
        0
  0
ENDBLK
  5
A9
330
A6
100
AcDbEntity
  8
0
100
AcDbBlockEnd
  0
BLOCK
  5
B9
330
B7
100
AcDbEntity
  8
0
100
AcDbBlockBegin
  2
block 5
 70
     0
 10
0.0
 20
0.0
 30
0.0
  3
block 5
  1

  0
SPLINE
  5
BB
330
B7
100
AcDbEntity
  8
_U+30EC_U+30A4_U+30E4_U+30FC 1
370
     0
100
AcDbSpline
210
0.0
220
0.0
230
1.0
 70
    11
 71
     3
 72
    26
 73
    22
 74
     0
 42
0.0000000001
 43
0.0000000001
 12
1.0
 22
0.0
 32
0.0
 13
1.0
 23
0.0
 33
0.0
 40
0.0
 40
0.0
 40
0.0
 40
0.0
 40
1.0
 40
1.0
 40
1.0
 40
2.0
 40
2.0
 40
2.0
 40
3.0
 40
3.0
 40
3.0
 40
4.0
 40
4.0
 40
4.0
 40
5.0
 40
5.0
 40
5.0
 40
6.0
 40
6.0
 40
6.0
 40
7.0
 40
7.0
 40
7.0
 40
7.0
 10
73.26030000338632
 20
-140.2908338407954
 30
0.0
 10
73.26030000338632
 20
-140.2908338407954
 30
0.0
 10
73.26030000338632
 20
-139.1866807377728
 30
0.0
 10
73.26030000338632
 20
-139.1866807377728
 30
0.0
 10
73.26030000338632
 20
-139.1866807377728
 30
0.0
 10
72.93025985589938
 20
-139.1866807377728
 30
0.0
 10
72.93025985589938
 20
-139.1866807377728
 30
0.0
 10
72.93025985589938
 20
-139.1866807377728
 30
0.0
 10
72.93025985589938
 20
-139.038541631907
 30
0.0
 10
72.93025985589938
 20
-139.038541631907
 30
0.0
 10
73.26236706067746
 20
-139.0237277213205
 30
0.0
 10
73.30887584972834
 20
-138.8607747048681
 30
0.0
 10
73.33850367090149
 20
-138.7467420443064
 30
0.0
 10
73.33850367090149
 20
-138.7467420443064
 30
0.0
 10
73.48457571947608
 20
-138.7467420443064
 30
0.0
 10
73.48457571947608
 20
-138.7467420443064
 30
0.0
 10
73.48457571947608
 20
-138.7467420443064
 30
0.0
 10
73.48457571947608
 20
-140.2908338407954
 30
0.0
 10
73.48457571947608
 20
-140.2908338407954
 30
0.0
 10
73.48457571947608
 20
-140.2908338407954
 30
0.0
 10
73.26030000338632
 20
-140.2908338407954
 30
0.0
 10
73.26030000338632
 20
-140.2908338407954
 30
0.0
  0
HATCH
  5
BC
330
B7
100
AcDbEntity
  8
_U+30EC_U+30A4_U+30E4_U+30FC 1
 62
   179
420
  2234388
100
AcDbHatch
 10
0.0
 20
0.0
 30
0.0
210
0.0
220
0.0
230
1.0
  2
SOLID
 70
     1
 71
     0
 91
        1
 92
        1
 93
        1
 72
     4
 94
        3
 73
     0
 74
     1
 95
       26
 96
       22
 40
0.0
 40
0.0
 40
0.0
 40
0.0
 40
1.0
 40
1.0
 40
1.0
 40
2.0
 40
2.0
 40
2.0
 40
3.0
 40
3.0
 40
3.0
 40
4.0
 40
4.0
 40
4.0
 40
5.0
 40
5.0
 40
5.0
 40
6.0
 40
6.0
 40
6.0
 40
7.0
 40
7.0
 40
7.0
 40
7.0
 10
73.26030000338632
 20
-140.2908338407954
 10
73.26030000338632
 20
-140.2908338407954
 10
73.26030000338632
 20
-139.1866807377728
 10
73.26030000338632
 20
-139.1866807377728
 10
73.26030000338632
 20
-139.1866807377728
 10
72.93025985589938
 20
-139.1866807377728
 10
72.93025985589938
 20
-139.1866807377728
 10
72.93025985589938
 20
-139.1866807377728
 10
72.93025985589938
 20
-139.038541631907
 10
72.93025985589938
 20
-139.038541631907
 10
73.26236706067746
 20
-139.0237277213205
 10
73.30887584972834
 20
-138.8607747048681
 10
73.33850367090149
 20
-138.7467420443064
 10
73.33850367090149
 20
-138.7467420443064
 10
73.48457571947608
 20
-138.7467420443064
 10
73.48457571947608
 20
-138.7467420443064
 10
73.48457571947608
 20
-138.7467420443064
 10
73.48457571947608
 20
-140.2908338407954
 10
73.48457571947608
 20
-140.2908338407954
 10
73.48457571947608
 20
-140.2908338407954
 10
73.26030000338632
 20
-140.2908338407954
 10
73.26030000338632
 20
-140.2908338407954
 97
        0
 97
        0
 75
     2
 76
     1
 98
        0
  0
SPLINE
  5
BD
330
B7
100
AcDbEntity
  8
_U+30EC_U+30A4_U+30E4_U+30FC 1
370
     0
100
AcDbSpline
210
0.0
220
0.0
230
1.0
 70
    11
 71
     3
 72
    44
 73
    40
 74
     0
 42
0.0000000001
 43
0.0000000001
 12
1.0
 22
0.0
 32
0.0
 13
1.0
 23
0.0
 33
0.0
 40
0.0
 40
0.0
 40
0.0
 40
0.0
 40
1.0
 40
1.0
 40
1.0
 40
2.0
 40
2.0
 40
2.0
 40
3.0
 40
3.0
 40
3.0
 40
4.0
 40
4.0
 40
4.0
 40
5.0
 40
5.0
 40
5.0
 40
6.0
 40
6.0
 40
6.0
 40
7.0
 40
7.0
 40
7.0
 40
8.0
 40
8.0
 40
8.0
 40
9.0
 40
9.0
 40
9.0
 40
10.0
 40
10.0
 40
10.0
 40
11.0
 40
11.0
 40
11.0
 40
12.0
 40
12.0
 40
12.0
 40
13.0
 40
13.0
 40
13.0
 40
13.0
 10
74.57891030036569
 20
-139.7093017228852
 30
0.0
 10
74.36100801092364
 20
-139.8677761152067
 30
0.0
 10
74.26781817804763
 20
-139.9418456681395
 30
0.0
 10
74.21924233170562
 20
-140.085850659423
 30
0.0
 10
74.21924233170562
 20
-140.085850659423
 30
0.0
 10
74.99766165659781
 20
-140.085850659423
 30
0.0
 10
74.99766165659781
 20
-140.085850659423
 30
0.0
 10
74.99766165659781
 20
-140.085850659423
 30
0.0
 10
74.99766165659781
 20
-140.2908338407954
 30
0.0
 10
74.99766165659781
 20
-140.2908338407954
 30
0.0
 10
74.99766165659781
 20
-140.2908338407954
 30
0.0
 10
73.96964516379926
 20
-140.2908338407954
 30
0.0
 10
73.96964516379926
 20
-140.2908338407954
 30
0.0
 10
74.00134004226356
 20
-139.9332329294264
 30
0.0
 10
74.06696911125756
 20
-139.8550292619113
 30
0.0
 10
74.45195853173423
 20
-139.5566839928886
 30
0.0
 10
74.70792912628829
 20
-139.3579019833897
 30
0.0
 10
74.77338594050805
 20
-139.2903781118788
 30
0.0
 10
74.77338594050805
 20
-139.1529188020173
 30
0.0
 10
74.77338594050805
 20
-139.0344075173248
 30
0.0
 10
74.7015556996406
 20
-138.9031493793367
 30
0.0
 10
74.50484074743282
 20
-138.9031493793367
 30
0.0
 10
74.2445637835222
 20
-138.9031493793367
 30
0.0
 10
74.23612329958334
 20
-139.1336262672999
 30
0.0
 10
74.23181693022677
 20
-139.2500704947014
 30
0.0
 10
74.23181693022677
 20
-139.2500704947014
 30
0.0
 10
74.00771346891126
 20
-139.2500704947014
 30
0.0
 10
74.00771346891126
 20
-139.2500704947014
 30
0.0
 10
74.01615395285013
 20
-139.1232909808442
 30
0.0
 10
74.02666149408014
 20
-139.010980868025
 30
0.0
 10
74.10710447366073
 20
-138.8924695833325
 30
0.0
 10
74.2170030196402
 20
-138.7319281337198
 30
0.0
 10
74.40321043061795
 20
-138.6978216884158
 30
0.0
 10
74.51965465801939
 20
-138.6978216884158
 30
0.0
 10
74.79681258980774
 20
-138.6978216884158
 30
0.0
 10
75.00403508324553
 20
-138.8821342968767
 30
0.0
 10
75.00403508324553
 20
-139.1549858593085
 30
0.0
 10
75.00403508324553
 20
-139.3833956899805
 30
0.0
 10
74.88776311061834
 20
-139.4829589495043
 30
0.0
 10
74.57891030036569
 20
-139.7093017228852
 30
0.0
  0
HATCH
  5
BE
330
B7
100
AcDbEntity
  8
_U+30EC_U+30A4_U+30E4_U+30FC 1
 62
   179
420
  2234388
100
AcDbHatch
 10
0.0
 20
0.0
 30
0.0
210
0.0
220
0.0
230
1.0
  2
SOLID
 70
     1
 71
     0
 91
        1
 92
        1
 93
        1
 72
     4
 94
        3
 73
     0
 74
     1
 95
       44
 96
       40
 40
0.0
 40
0.0
 40
0.0
 40
0.0
 40
1.0
 40
1.0
 40
1.0
 40
2.0
 40
2.0
 40
2.0
 40
3.0
 40
3.0
 40
3.0
 40
4.0
 40
4.0
 40
4.0
 40
5.0
 40
5.0
 40
5.0
 40
6.0
 40
6.0
 40
6.0
 40
7.0
 40
7.0
 40
7.0
 40
8.0
 40
8.0
 40
8.0
 40
9.0
 40
9.0
 40
9.0
 40
10.0
 40
10.0
 40
10.0
 40
11.0
 40
11.0
 40
11.0
 40
12.0
 40
12.0
 40
12.0
 40
13.0
 40
13.0
 40
13.0
 40
13.0
 10
74.57891030036569
 20
-139.7093017228852
 10
74.36100801092364
 20
-139.8677761152067
 10
74.26781817804763
 20
-139.9418456681395
 10
74.21924233170562
 20
-140.085850659423
 10
74.21924233170562
 20
-140.085850659423
 10
74.99766165659781
 20
-140.085850659423
 10
74.99766165659781
 20
-140.085850659423
 10
74.99766165659781
 20
-140.085850659423
 10
74.99766165659781
 20
-140.2908338407954
 10
74.99766165659781
 20
-140.2908338407954
 10
74.99766165659781
 20
-140.2908338407954
 10
73.96964516379926
 20
-140.2908338407954
 10
73.96964516379926
 20
-140.2908338407954
 10
74.00134004226356
 20
-139.9332329294264
 10
74.06696911125756
 20
-139.8550292619113
 10
74.45195853173423
 20
-139.5566839928886
 10
74.70792912628829
 20
-139.3579019833897
 10
74.77338594050805
 20
-139.2903781118788
 10
74.77338594050805
 20
-139.1529188020173
 10
74.77338594050805
 20
-139.0344075173248
 10
74.7015556996406
 20
-138.9031493793367
 10
74.50484074743282
 20
-138.9031493793367
 10
74.2445637835222
 20
-138.9031493793367
 10
74.23612329958334
 20
-139.1336262672999
 10
74.23181693022677
 20
-139.2500704947014
 10
74.23181693022677
 20
-139.2500704947014
 10
74.00771346891126
 20
-139.2500704947014
 10
74.00771346891126
 20
-139.2500704947014
 10
74.01615395285013
 20
-139.1232909808442
 10
74.02666149408014
 20
-139.010980868025
 10
74.10710447366073
 20
-138.8924695833325
 10
74.2170030196402
 20
-138.7319281337198
 10
74.40321043061795
 20
-138.6978216884158
 10
74.51965465801939
 20
-138.6978216884158
 10
74.79681258980774
 20
-138.6978216884158
 10
75.00403508324553
 20
-138.8821342968767
 10
75.00403508324553
 20
-139.1549858593085
 10
75.00403508324553
 20
-139.3833956899805
 10
74.88776311061834
 20
-139.4829589495043
 10
74.57891030036569
 20
-139.7093017228852
 97
        0
 97
        0
 75
     2
 76
     1
 98
        0
  0
ENDBLK
  5
BA
330
B7
100
AcDbEntity
  8
0
100
AcDbBlockEnd
  0
BLOCK
  5
C9
330
C7
100
AcDbEntity
  8
0
100
AcDbBlockBegin
  2
block 6
 70
     0
 10
0.0
 20
0.0
 30
0.0
  3
block 6
  1

  0
SPLINE
  5
CB
330
C7
100
AcDbEntity
  8
_U+30EC_U+30A4_U+30E4_U+30FC 1
370
     0
100
AcDbSpline
210
0.0
220
0.0
230
1.0
 70
    11
 71
     3
 72
    26
 73
    22
 74
     0
 42
0.0000000001
 43
0.0000000001
 12
1.0
 22
0.0
 32
0.0
 13
1.0
 23
0.0
 33
0.0
 40
0.0
 40
0.0
 40
0.0
 40
0.0
 40
1.0
 40
1.0
 40
1.0
 40
2.0
 40
2.0
 40
2.0
 40
3.0
 40
3.0
 40
3.0
 40
4.0
 40
4.0
 40
4.0
 40
5.0
 40
5.0
 40
5.0
 40
6.0
 40
6.0
 40
6.0
 40
7.0
 40
7.0
 40
7.0
 40
7.0
 10
111.2517794860759
 20
-129.5738308052802
 30
0.0
 10
111.2517794860759
 20
-129.5738308052802
 30
0.0
 10
110.1476263830534
 20
-129.5738308052802
 30
0.0
 10
110.1476263830534
 20
-129.5738308052802
 30
0.0
 10
110.1476263830534
 20
-129.5738308052802
 30
0.0
 10
110.1476263830534
 20
-129.9038709527671
 30
0.0
 10
110.1476263830534
 20
-129.9038709527671
 30
0.0
 10
110.1476263830534
 20
-129.9038709527671
 30
0.0
 10
109.9994872771876
 20
-129.9038709527671
 30
0.0
 10
109.9994872771876
 20
-129.9038709527671
 30
0.0
 10
109.9846733666011
 20
-129.571763747989
 30
0.0
 10
109.8217203501487
 20
-129.5252549589381
 30
0.0
 10
109.7073431800384
 20
-129.495627137765
 30
0.0
 10
109.7073431800384
 20
-129.495627137765
 30
0.0
 10
109.7073431800384
 20
-129.3495550891904
 30
0.0
 10
109.7073431800384
 20
-129.3495550891904
 30
0.0
 10
109.7073431800384
 20
-129.3495550891904
 30
0.0
 10
111.2517794860759
 20
-129.3495550891904
 30
0.0
 10
111.2517794860759
 20
-129.3495550891904
 30
0.0
 10
111.2517794860759
 20
-129.3495550891904
 30
0.0
 10
111.2517794860759
 20
-129.5738308052802
 30
0.0
 10
111.2517794860759
 20
-129.5738308052802
 30
0.0
  0
HATCH
  5
CC
330
C7
100
AcDbEntity
  8
_U+30EC_U+30A4_U+30E4_U+30FC 1
 62
   179
420
  2234388
100
AcDbHatch
 10
0.0
 20
0.0
 30
0.0
210
0.0
220
0.0
230
1.0
  2
SOLID
 70
     1
 71
     0
 91
        1
 92
        1
 93
        1
 72
     4
 94
        3
 73
     0
 74
     1
 95
       26
 96
       22
 40
0.0
 40
0.0
 40
0.0
 40
0.0
 40
1.0
 40
1.0
 40
1.0
 40
2.0
 40
2.0
 40
2.0
 40
3.0
 40
3.0
 40
3.0
 40
4.0
 40
4.0
 40
4.0
 40
5.0
 40
5.0
 40
5.0
 40
6.0
 40
6.0
 40
6.0
 40
7.0
 40
7.0
 40
7.0
 40
7.0
 10
111.2517794860759
 20
-129.5738308052802
 10
111.2517794860759
 20
-129.5738308052802
 10
110.1476263830534
 20
-129.5738308052802
 10
110.1476263830534
 20
-129.5738308052802
 10
110.1476263830534
 20
-129.5738308052802
 10
110.1476263830534
 20
-129.9038709527671
 10
110.1476263830534
 20
-129.9038709527671
 10
110.1476263830534
 20
-129.9038709527671
 10
109.9994872771876
 20
-129.9038709527671
 10
109.9994872771876
 20
-129.9038709527671
 10
109.9846733666011
 20
-129.571763747989
 10
109.8217203501487
 20
-129.5252549589381
 10
109.7073431800384
 20
-129.495627137765
 10
109.7073431800384
 20
-129.495627137765
 10
109.7073431800384
 20
-129.3495550891904
 10
109.7073431800384
 20
-129.3495550891904
 10
109.7073431800384
 20
-129.3495550891904
 10
111.2517794860759
 20
-129.3495550891904
 10
111.2517794860759
 20
-129.3495550891904
 10
111.2517794860759
 20
-129.3495550891904
 10
111.2517794860759
 20
-129.5738308052802
 10
111.2517794860759
 20
-129.5738308052802
 97
        0
 97
        0
 75
     2
 76
     1
 98
        0
  0
SPLINE
  5
CD
330
C7
100
AcDbEntity
  8
_U+30EC_U+30A4_U+30E4_U+30FC 1
370
     0
100
AcDbSpline
210
0.0
220
0.0
230
1.0
 70
    11
 71
     3
 72
    29
 73
    25
 74
     0
 42
0.0000000001
 43
0.0000000001
 12
1.0
 22
0.0
 32
0.0
 13
1.0
 23
0.0
 33
0.0
 40
0.0
 40
0.0
 40
0.0
 40
0.0
 40
1.0
 40
1.0
 40
1.0
 40
2.0
 40
2.0
 40
2.0
 40
3.0
 40
3.0
 40
3.0
 40
4.0
 40
4.0
 40
4.0
 40
5.0
 40
5.0
 40
5.0
 40
6.0
 40
6.0
 40
6.0
 40
7.0
 40
7.0
 40
7.0
 40
8.0
 40
8.0
 40
8.0
 40
8.0
 10
111.0740125590371
 20
-127.9505018126304
 30
0.0
 10
111.2834743645403
 20
-128.0586778108673
 30
0.0
 10
111.3024223897091
 20
-128.2319661137753
 30
0.0
 10
111.3024223897091
 20
-128.3484103411768
 30
0.0
 10
111.3024223897091
 20
-128.509296300338
 30
0.0
 10
111.2559136006582
 20
-128.6508897247817
 30
0.0
 10
111.0740125590371
 20
-128.7459743601746
 30
0.0
 10
110.8793646641204
 20
-128.8496717342806
 30
0.0
 10
110.6423420947353
 20
-128.8686197594495
 30
0.0
 10
110.4797335878315
 20
-128.8686197594495
 30
0.0
 10
110.335728596548
 20
-128.8686197594495
 30
0.0
 10
110.0838921165763
 20
-128.8517387915718
 30
0.0
 10
109.8851101070773
 20
-128.7459743601746
 30
0.0
 10
109.6821939829961
 20
-128.6381428714863
 30
0.0
 10
109.6587673336964
 20
-128.4772569123251
 30
0.0
 10
109.6587673336964
 20
-128.3484103411768
 30
0.0
 10
109.6587673336964
 20
-128.1895914393068
 30
0.0
 10
109.7032090654562
 20
-128.0459309575719
 30
0.0
 10
109.8851101070773
 20
-127.9505018126304
 30
0.0
 10
110.0776909447028
 20
-127.8512830626552
 30
0.0
 10
110.3061007753749
 20
-127.8278564133555
 30
0.0
 10
110.4797335878315
 20
-127.8278564133555
 30
0.0
 10
110.6509548334484
 20
-127.8278564133555
 30
0.0
 10
110.8814317214116
 20
-127.8492160053641
 30
0.0
 10
111.0740125590371
 20
-127.9505018126304
 30
0.0
  0
SPLINE
  5
CE
330
C7
100
AcDbEntity
  8
_U+30EC_U+30A4_U+30E4_U+30FC 1
370
     0
100
AcDbSpline
210
0.0
220
0.0
230
1.0
 70
    11
 71
     3
 72
    17
 73
    13
 74
     0
 42
0.0000000001
 43
0.0000000001
 12
1.0
 22
0.0
 32
0.0
 13
1.0
 23
0.0
 33
0.0
 40
0.0
 40
0.0
 40
0.0
 40
0.0
 40
1.0
 40
1.0
 40
1.0
 40
2.0
 40
2.0
 40
2.0
 40
3.0
 40
3.0
 40
3.0
 40
4.0
 40
4.0
 40
4.0
 40
4.0
 10
109.8513481713219
 20
-128.3484103411768
 30
0.0
 10
109.8513481713219
 20
-128.5978352543089
 30
0.0
 10
110.134879529758
 20
-128.6446885529083
 30
0.0
 10
110.4797335878315
 20
-128.6446885529083
 30
0.0
 10
110.7990939393141
 20
-128.6446885529083
 30
0.0
 10
111.1077744947925
 20
-128.6085150503131
 30
0.0
 10
111.1077744947925
 20
-128.3484103411768
 30
0.0
 10
111.1077744947925
 20
-128.1007079757873
 30
0.0
 10
110.8266547031961
 20
-128.0521321294453
 30
0.0
 10
110.4797335878315
 20
-128.0521321294453
 30
0.0
 10
110.1600287268003
 20
-128.0521321294453
 30
0.0
 10
109.8513481713219
 20
-128.0903726893316
 30
0.0
 10
109.8513481713219
 20
-128.3484103411768
 30
0.0
  0
HATCH
  5
CF
330
C7
100
AcDbEntity
  8
_U+30EC_U+30A4_U+30E4_U+30FC 1
 62
   179
420
  2234388
100
AcDbHatch
 10
0.0
 20
0.0
 30
0.0
210
0.0
220
0.0
230
1.0
  2
SOLID
 70
     1
 71
     0
 91
        2
 92
        1
 93
        1
 72
     4
 94
        3
 73
     0
 74
     1
 95
       29
 96
       25
 40
0.0
 40
0.0
 40
0.0
 40
0.0
 40
1.0
 40
1.0
 40
1.0
 40
2.0
 40
2.0
 40
2.0
 40
3.0
 40
3.0
 40
3.0
 40
4.0
 40
4.0
 40
4.0
 40
5.0
 40
5.0
 40
5.0
 40
6.0
 40
6.0
 40
6.0
 40
7.0
 40
7.0
 40
7.0
 40
8.0
 40
8.0
 40
8.0
 40
8.0
 10
111.0740125590371
 20
-127.9505018126304
 10
111.2834743645403
 20
-128.0586778108673
 10
111.3024223897091
 20
-128.2319661137753
 10
111.3024223897091
 20
-128.3484103411768
 10
111.3024223897091
 20
-128.509296300338
 10
111.2559136006582
 20
-128.6508897247817
 10
111.0740125590371
 20
-128.7459743601746
 10
110.8793646641204
 20
-128.8496717342806
 10
110.6423420947353
 20
-128.8686197594495
 10
110.4797335878315
 20
-128.8686197594495
 10
110.335728596548
 20
-128.8686197594495
 10
110.0838921165763
 20
-128.8517387915718
 10
109.8851101070773
 20
-128.7459743601746
 10
109.6821939829961
 20
-128.6381428714863
 10
109.6587673336964
 20
-128.4772569123251
 10
109.6587673336964
 20
-128.3484103411768
 10
109.6587673336964
 20
-128.1895914393068
 10
109.7032090654562
 20
-128.0459309575719
 10
109.8851101070773
 20
-127.9505018126304
 10
110.0776909447028
 20
-127.8512830626552
 10
110.3061007753749
 20
-127.8278564133555
 10
110.4797335878315
 20
-127.8278564133555
 10
110.6509548334484
 20
-127.8278564133555
 10
110.8814317214116
 20
-127.8492160053641
 10
111.0740125590371
 20
-127.9505018126304
 97
        0
 97
        0
 92
        1
 93
        1
 72
     4
 94
        3
 73
     0
 74
     1
 95
       17
 96
       13
 40
0.0
 40
0.0
 40
0.0
 40
0.0
 40
1.0
 40
1.0
 40
1.0
 40
2.0
 40
2.0
 40
2.0
 40
3.0
 40
3.0
 40
3.0
 40
4.0
 40
4.0
 40
4.0
 40
4.0
 10
109.8513481713219
 20
-128.3484103411768
 10
109.8513481713219
 20
-128.5978352543089
 10
110.134879529758
 20
-128.6446885529083
 10
110.4797335878315
 20
-128.6446885529083
 10
110.7990939393141
 20
-128.6446885529083
 10
111.1077744947925
 20
-128.6085150503131
 10
111.1077744947925
 20
-128.3484103411768
 10
111.1077744947925
 20
-128.1007079757873
 10
110.8266547031961
 20
-128.0521321294453
 10
110.4797335878315
 20
-128.0521321294453
 10
110.1600287268003
 20
-128.0521321294453
 10
109.8513481713219
 20
-128.0903726893316
 10
109.8513481713219
 20
-128.3484103411768
 97
        0
 97
        0
 75
     2
 76
     1
 98
        0
  0
ENDBLK
  5
CA
330
C7
100
AcDbEntity
  8
0
100
AcDbBlockEnd
  0
BLOCK
  5
DE
330
DC
100
AcDbEntity
  8
0
100
AcDbBlockBegin
  2
block 7
 70
     0
 10
0.0
 20
0.0
 30
0.0
  3
block 7
  1

  0
POLYLINE
  5
E0
330
DC
100
AcDbEntity
  8
_U+30EC_U+30A4_U+30E4_U+30FC 1
370
     0
100
AcDb2dPolyline
 66
     1
 10
0.0
 20
0.0
 30
0.0
  0
VERTEX
  5
E1
330
E0
100
AcDbEntity
  8
_U+30EC_U+30A4_U+30E4_U+30FC 1
370
     0
100
AcDbVertex
100
AcDb2dVertex
 10
87.6411620874647
 20
-117.944049720948
 30
0.0
  0
VERTEX
  5
E2
330
E0
100
AcDbEntity
  8
_U+30EC_U+30A4_U+30E4_U+30FC 1
370
     0
100
AcDbVertex
100
AcDb2dVertex
 10
87.6411620874647
 20
-118.2909708363127
 30
0.0
  0
VERTEX
  5
E3
330
E0
100
AcDbEntity
  8
_U+30EC_U+30A4_U+30E4_U+30FC 1
370
     0
100
AcDbVertex
100
AcDb2dVertex
 10
87.42343205279693
 20
-118.2909708363127
 30
0.0
  0
VERTEX
  5
E4
330
E0
100
AcDbEntity
  8
_U+30EC_U+30A4_U+30E4_U+30FC 1
370
     0
100
AcDbVertex
100
AcDb2dVertex
 10
87.42343205279693
 20
-117.944049720948
 30
0.0
  0
VERTEX
  5
E5
330
E0
100
AcDbEntity
  8
_U+30EC_U+30A4_U+30E4_U+30FC 1
370
     0
100
AcDbVertex
100
AcDb2dVertex
 10
86.76748587240536
 20
-117.944049720948
 30
0.0
  0
VERTEX
  5
E6
330
E0
100
AcDbEntity
  8
_U+30EC_U+30A4_U+30E4_U+30FC 1
370
     0
100
AcDbVertex
100
AcDb2dVertex
 10
86.76748587240536
 20
-117.7197740048583
 30
0.0
  0
VERTEX
  5
E7
330
E0
100
AcDbEntity
  8
_U+30EC_U+30A4_U+30E4_U+30FC 1
370
     0
100
AcDbVertex
100
AcDb2dVertex
 10
87.4465141925481
 20
-116.7467067850494
 30
0.0
  0
VERTEX
  5
E8
330
E0
100
AcDbEntity
  8
_U+30EC_U+30A4_U+30E4_U+30FC 1
370
     0
100
AcDbVertex
100
AcDb2dVertex
 10
87.6411620874647
 20
-116.7467067850494
 30
0.0
  0
VERTEX
  5
E9
330
E0
100
AcDbEntity
  8
_U+30EC_U+30A4_U+30E4_U+30FC 1
370
     0
100
AcDbVertex
100
AcDb2dVertex
 10
87.6411620874647
 20
-117.7450954566748
 30
0.0
  0
VERTEX
  5
EA
330
E0
100
AcDbEntity
  8
_U+30EC_U+30A4_U+30E4_U+30FC 1
370
     0
100
AcDbVertex
100
AcDb2dVertex
 10
87.84855683567676
 20
-117.7450954566748
 30
0.0
  0
VERTEX
  5
EB
330
E0
100
AcDbEntity
  8
_U+30EC_U+30A4_U+30E4_U+30FC 1
370
     0
100
AcDbVertex
100
AcDb2dVertex
 10
87.84855683567676
 20
-117.944049720948
 30
0.0
  0
VERTEX
  5
EC
330
E0
100
AcDbEntity
  8
_U+30EC_U+30A4_U+30E4_U+30FC 1
370
     0
100
AcDbVertex
100
AcDb2dVertex
 10
87.6411620874647
 20
-117.944049720948
 30
0.0
  0
SEQEND
  5
ED
330
E0
100
AcDbEntity
  8
_U+30EC_U+30A4_U+30E4_U+30FC 1
370
     0
  0
POLYLINE
  5
EE
330
DC
100
AcDbEntity
  8
_U+30EC_U+30A4_U+30E4_U+30FC 1
370
     0
100
AcDb2dPolyline
 66
     1
 10
0.0
 20
0.0
 30
0.0
  0
VERTEX
  5
EF
330
EE
100
AcDbEntity
  8
_U+30EC_U+30A4_U+30E4_U+30FC 1
370
     0
100
AcDbVertex
100
AcDb2dVertex
 10
87.42343205279693
 20
-117.0893215310575
 30
0.0
  0
VERTEX
  5
F0
330
EE
100
AcDbEntity
  8
_U+30EC_U+30A4_U+30E4_U+30FC 1
370
     0
100
AcDbVertex
100
AcDb2dVertex
 10
86.96626788190427
 20
-117.7450954566748
 30
0.0
  0
VERTEX
  5
F1
330
EE
100
AcDbEntity
  8
_U+30EC_U+30A4_U+30E4_U+30FC 1
370
     0
100
AcDbVertex
100
AcDb2dVertex
 10
87.42343205279693
 20
-117.7450954566748
 30
0.0
  0
VERTEX
  5
F2
330
EE
100
AcDbEntity
  8
_U+30EC_U+30A4_U+30E4_U+30FC 1
370
     0
100
AcDbVertex
100
AcDb2dVertex
 10
87.42343205279693
 20
-117.0893215310575
 30
0.0
  0
SEQEND
  5
F3
330
EE
100
AcDbEntity
  8
_U+30EC_U+30A4_U+30E4_U+30FC 1
370
     0
  0
HATCH
  5
F4
330
DC
100
AcDbEntity
  8
_U+30EC_U+30A4_U+30E4_U+30FC 1
 62
   179
420
  2234388
100
AcDbHatch
 10
0.0
 20
0.0
 30
0.0
210
0.0
220
0.0
230
1.0
  2
SOLID
 70
     1
 71
     0
 91
        2
 92
        1
 93
       11
 72
     1
 10
87.6411620874647
 20
-117.944049720948
 11
87.6411620874647
 21
-118.2909708363127
 72
     1
 10
87.6411620874647
 20
-118.2909708363127
 11
87.42343205279693
 21
-118.2909708363127
 72
     1
 10
87.42343205279693
 20
-118.2909708363127
 11
87.42343205279693
 21
-117.944049720948
 72
     1
 10
87.42343205279693
 20
-117.944049720948
 11
86.76748587240536
 21
-117.944049720948
 72
     1
 10
86.76748587240536
 20
-117.944049720948
 11
86.76748587240536
 21
-117.7197740048583
 72
     1
 10
86.76748587240536
 20
-117.7197740048583
 11
87.4465141925481
 21
-116.7467067850494
 72
     1
 10
87.4465141925481
 20
-116.7467067850494
 11
87.6411620874647
 21
-116.7467067850494
 72
     1
 10
87.6411620874647
 20
-116.7467067850494
 11
87.6411620874647
 21
-117.7450954566748
 72
     1
 10
87.6411620874647
 20
-117.7450954566748
 11
87.84855683567676
 21
-117.7450954566748
 72
     1
 10
87.84855683567676
 20
-117.7450954566748
 11
87.84855683567676
 21
-117.944049720948
 72
     1
 10
87.84855683567676
 20
-117.944049720948
 11
87.6411620874647
 21
-117.944049720948
 97
        0
 92
        1
 93
        3
 72
     1
 10
87.42343205279693
 20
-117.0893215310575
 11
86.96626788190427
 21
-117.7450954566748
 72
     1
 10
86.96626788190427
 20
-117.7450954566748
 11
87.42343205279693
 21
-117.7450954566748
 72
     1
 10
87.42343205279693
 20
-117.7450954566748
 11
87.42343205279693
 21
-117.0893215310575
 97
        0
 75
     2
 76
     1
 98
        0
  0
SPLINE
  5
F5
330
DC
100
AcDbEntity
  8
_U+30EC_U+30A4_U+30E4_U+30FC 1
370
     0
100
AcDbSpline
210
0.0
220
0.0
230
1.0
 70
    11
 71
     3
 72
    29
 73
    25
 74
     0
 42
0.0000000001
 43
0.0000000001
 12
1.0
 22
0.0
 32
0.0
 13
1.0
 23
0.0
 33
0.0
 40
0.0
 40
0.0
 40
0.0
 40
0.0
 40
1.0
 40
1.0
 40
1.0
 40
2.0
 40
2.0
 40
2.0
 40
3.0
 40
3.0
 40
3.0
 40
4.0
 40
4.0
 40
4.0
 40
5.0
 40
5.0
 40
5.0
 40
6.0
 40
6.0
 40
6.0
 40
7.0
 40
7.0
 40
7.0
 40
8.0
 40
8.0
 40
8.0
 40
8.0
 10
88.88380802899432
 20
-118.1132039092738
 30
0.0
 10
88.77563203075748
 20
-118.322665714777
 30
0.0
 10
88.60234372784942
 20
-118.3417859947201
 30
0.0
 10
88.48589950044797
 20
-118.3417859947201
 30
0.0
 10
88.32501354128681
 20
-118.3417859947201
 30
0.0
 10
88.18342011684304
 20
-118.2952772056692
 30
0.0
 10
88.08833548145014
 20
-118.1132039092738
 30
0.0
 10
87.98463810734413
 20
-117.9185560143572
 30
0.0
 10
87.96534557262672
 20
-117.6817056997462
 30
0.0
 10
87.96534557262672
 20
-117.5187526832939
 30
0.0
 10
87.96534557262672
 20
-117.3749199467847
 30
0.0
 10
87.98257105005297
 20
-117.1232557215872
 30
0.0
 10
88.08833548145014
 20
-116.9243014573141
 30
0.0
 10
88.19616697013846
 20
-116.7212130784586
 30
0.0
 10
88.35705292929963
 20
-116.6979586839332
 30
0.0
 10
88.48589950044797
 20
-116.6979586839332
 30
0.0
 10
88.64471840231799
 20
-116.6979586839332
 30
0.0
 10
88.7883788840529
 20
-116.7424004156929
 30
0.0
 10
88.88380802899432
 20
-116.9243014573141
 30
0.0
 10
88.98302677896953
 20
-117.1168822949395
 30
0.0
 10
89.00645342826923
 20
-117.3452921256116
 30
0.0
 10
89.00645342826923
 20
-117.5187526832939
 30
0.0
 10
89.00645342826923
 20
-117.6901461836851
 30
0.0
 10
88.98509383626067
 20
-117.9207953264226
 30
0.0
 10
88.88380802899432
 20
-118.1132039092738
 30
0.0
  0
SPLINE
  5
F6
330
DC
100
AcDbEntity
  8
_U+30EC_U+30A4_U+30E4_U+30FC 1
370
     0
100
AcDbSpline
210
0.0
220
0.0
230
1.0
 70
    11
 71
     3
 72
    17
 73
    13
 74
     0
 42
0.0000000001
 43
0.0000000001
 12
1.0
 22
0.0
 32
0.0
 13
1.0
 23
0.0
 33
0.0
 40
0.0
 40
0.0
 40
0.0
 40
0.0
 40
1.0
 40
1.0
 40
1.0
 40
2.0
 40
2.0
 40
2.0
 40
3.0
 40
3.0
 40
3.0
 40
4.0
 40
4.0
 40
4.0
 40
4.0
 10
88.48589950044797
 20
-116.8905395215586
 30
0.0
 10
88.23613007776736
 20
-116.8905395215586
 30
0.0
 10
88.18962128871648
 20
-117.1740708799947
 30
0.0
 10
88.18962128871648
 20
-117.5187526832939
 30
0.0
 10
88.18962128871648
 20
-117.8382852895509
 30
0.0
 10
88.22579479131161
 20
-118.1471380998035
 30
0.0
 10
88.48589950044797
 20
-118.1471380998035
 30
0.0
 10
88.73360186583744
 20
-118.1471380998035
 30
0.0
 10
88.78217771217946
 20
-117.8656737986586
 30
0.0
 10
88.78217771217946
 20
-117.5187526832939
 30
0.0
 10
88.78217771217946
 20
-117.1993923318113
 30
0.0
 10
88.74393715229319
 20
-116.8905395215586
 30
0.0
 10
88.48589950044797
 20
-116.8905395215586
 30
0.0
  0
HATCH
  5
F7
330
DC
100
AcDbEntity
  8
_U+30EC_U+30A4_U+30E4_U+30FC 1
 62
   179
420
  2234388
100
AcDbHatch
 10
0.0
 20
0.0
 30
0.0
210
0.0
220
0.0
230
1.0
  2
SOLID
 70
     1
 71
     0
 91
        2
 92
        1
 93
        1
 72
     4
 94
        3
 73
     0
 74
     1
 95
       29
 96
       25
 40
0.0
 40
0.0
 40
0.0
 40
0.0
 40
1.0
 40
1.0
 40
1.0
 40
2.0
 40
2.0
 40
2.0
 40
3.0
 40
3.0
 40
3.0
 40
4.0
 40
4.0
 40
4.0
 40
5.0
 40
5.0
 40
5.0
 40
6.0
 40
6.0
 40
6.0
 40
7.0
 40
7.0
 40
7.0
 40
8.0
 40
8.0
 40
8.0
 40
8.0
 10
88.88380802899432
 20
-118.1132039092738
 10
88.77563203075748
 20
-118.322665714777
 10
88.60234372784942
 20
-118.3417859947201
 10
88.48589950044797
 20
-118.3417859947201
 10
88.32501354128681
 20
-118.3417859947201
 10
88.18342011684304
 20
-118.2952772056692
 10
88.08833548145014
 20
-118.1132039092738
 10
87.98463810734413
 20
-117.9185560143572
 10
87.96534557262672
 20
-117.6817056997462
 10
87.96534557262672
 20
-117.5187526832939
 10
87.96534557262672
 20
-117.3749199467847
 10
87.98257105005297
 20
-117.1232557215872
 10
88.08833548145014
 20
-116.9243014573141
 10
88.19616697013846
 20
-116.7212130784586
 10
88.35705292929963
 20
-116.6979586839332
 10
88.48589950044797
 20
-116.6979586839332
 10
88.64471840231799
 20
-116.6979586839332
 10
88.7883788840529
 20
-116.7424004156929
 10
88.88380802899432
 20
-116.9243014573141
 10
88.98302677896953
 20
-117.1168822949395
 10
89.00645342826923
 20
-117.3452921256116
 10
89.00645342826923
 20
-117.5187526832939
 10
89.00645342826923
 20
-117.6901461836851
 10
88.98509383626067
 20
-117.9207953264226
 10
88.88380802899432
 20
-118.1132039092738
 97
        0
 97
        0
 92
        1
 93
        1
 72
     4
 94
        3
 73
     0
 74
     1
 95
       17
 96
       13
 40
0.0
 40
0.0
 40
0.0
 40
0.0
 40
1.0
 40
1.0
 40
1.0
 40
2.0
 40
2.0
 40
2.0
 40
3.0
 40
3.0
 40
3.0
 40
4.0
 40
4.0
 40
4.0
 40
4.0
 10
88.48589950044797
 20
-116.8905395215586
 10
88.23613007776736
 20
-116.8905395215586
 10
88.18962128871648
 20
-117.1740708799947
 10
88.18962128871648
 20
-117.5187526832939
 10
88.18962128871648
 20
-117.8382852895509
 10
88.22579479131161
 20
-118.1471380998035
 10
88.48589950044797
 20
-118.1471380998035
 10
88.73360186583744
 20
-118.1471380998035
 10
88.78217771217946
 20
-117.8656737986586
 10
88.78217771217946
 20
-117.5187526832939
 10
88.78217771217946
 20
-117.1993923318113
 10
88.74393715229319
 20
-116.8905395215586
 10
88.48589950044797
 20
-116.8905395215586
 97
        0
 97
        0
 75
     2
 76
     1
 98
        0
  0
ENDBLK
  5
DF
330
DC
100
AcDbEntity
  8
0
100
AcDbBlockEnd
  0
ENDSEC
  0
SECTION
  2
ENTITIES
  0
POLYLINE
  5
41
330
1F
100
AcDbEntity
  8
_U+30EC_U+30A4_U+30E4_U+30FC 1
 62
   179
420
  2234388
370
    25
100
AcDb2dPolyline
 66
     1
 10
0.0
 20
0.0
 30
0.0
  0
VERTEX
  5
42
330
41
100
AcDbEntity
  8
_U+30EC_U+30A4_U+30E4_U+30FC 1
 62
   179
420
  2234388
370
    25
100
AcDbVertex
100
AcDb2dVertex
 10
67.89698521224804
 20
-122.9358235803773
 30
0.0
  0
VERTEX
  5
43
330
41
100
AcDbEntity
  8
_U+30EC_U+30A4_U+30E4_U+30FC 1
 62
   179
420
  2234388
370
    25
100
AcDbVertex
100
AcDb2dVertex
 10
107.8972922473107
 20
-122.9358235803773
 30
0.0
  0
SEQEND
  5
44
330
41
100
AcDbEntity
  8
_U+30EC_U+30A4_U+30E4_U+30FC 1
 62
   179
420
  2234388
370
    25
  0
POLYLINE
  5
45
330
1F
100
AcDbEntity
  8
_U+30EC_U+30A4_U+30E4_U+30FC 1
 62
   179
420
  2234388
370
    25
100
AcDb2dPolyline
 66
     1
 10
0.0
 20
0.0
 30
0.0
  0
VERTEX
  5
46
330
45
100
AcDbEntity
  8
_U+30EC_U+30A4_U+30E4_U+30FC 1
 62
   179
420
  2234388
370
    25
100
AcDbVertex
100
AcDb2dVertex
 10
67.89698521224804
 20
-123.9355958023495
 30
0.0
  0
VERTEX
  5
47
330
45
100
AcDbEntity
  8
_U+30EC_U+30A4_U+30E4_U+30FC 1
 62
   179
420
  2234388
370
    25
100
AcDbVertex
100
AcDb2dVertex
 10
79.89693268388166
 20
-123.9355958023495
 30
0.0
  0
SEQEND
  5
48
330
45
100
AcDbEntity
  8
_U+30EC_U+30A4_U+30E4_U+30FC 1
 62
   179
420
  2234388
370
    25
  0
POLYLINE
  5
49
330
1F
100
AcDbEntity
  8
_U+30EC_U+30A4_U+30E4_U+30FC 1
 62
   179
420
  2234388
370
    25
100
AcDb2dPolyline
 66
     1
 10
0.0
 20
0.0
 30
0.0
  0
VERTEX
  5
4A
330
49
100
AcDbEntity
  8
_U+30EC_U+30A4_U+30E4_U+30FC 1
 62
   179
420
  2234388
370
    25
100
AcDbVertex
100
AcDb2dVertex
 10
107.8972922473107
 20
-123.9355958023495
 30
0.0
  0
VERTEX
  5
4B
330
49
100
AcDbEntity
  8
_U+30EC_U+30A4_U+30E4_U+30FC 1
 62
   179
420
  2234388
370
    25
100
AcDbVertex
100
AcDb2dVertex
 10
107.8972922473107
 20
-122.9358235803773
 30
0.0
  0
SEQEND
  5
4C
330
49
100
AcDbEntity
  8
_U+30EC_U+30A4_U+30E4_U+30FC 1
 62
   179
420
  2234388
370
    25
  0
POLYLINE
  5
4D
330
1F
100
AcDbEntity
  8
_U+30EC_U+30A4_U+30E4_U+30FC 1
 62
   179
420
  2234388
370
    25
100
AcDb2dPolyline
 66
     1
 10
0.0
 20
0.0
 30
0.0
  0
VERTEX
  5
4E
330
4D
100
AcDbEntity
  8
_U+30EC_U+30A4_U+30E4_U+30FC 1
 62
   179
420
  2234388
370
    25
100
AcDbVertex
100
AcDb2dVertex
 10
67.89698521224804
 20
-123.9355958023495
 30
0.0
  0
VERTEX
  5
4F
330
4D
100
AcDbEntity
  8
_U+30EC_U+30A4_U+30E4_U+30FC 1
 62
   179
420
  2234388
370
    25
100
AcDbVertex
100
AcDb2dVertex
 10
67.89698521224804
 20
-122.9358235803773
 30
0.0
  0
SEQEND
  5
50
330
4D
100
AcDbEntity
  8
_U+30EC_U+30A4_U+30E4_U+30FC 1
 62
   179
420
  2234388
370
    25
  0
POLYLINE
  5
51
330
1F
100
AcDbEntity
  8
_U+30EC_U+30A4_U+30E4_U+30FC 1
 62
   179
420
  2234388
370
    25
100
AcDb2dPolyline
 66
     1
 10
0.0
 20
0.0
 30
0.0
  0
VERTEX
  5
52
330
51
100
AcDbEntity
  8
_U+30EC_U+30A4_U+30E4_U+30FC 1
 62
   179
420
  2234388
370
    25
100
AcDbVertex
100
AcDb2dVertex
 10
79.89693268388166
 20
-136.9363388546545
 30
0.0
  0
VERTEX
  5
53
330
51
100
AcDbEntity
  8
_U+30EC_U+30A4_U+30E4_U+30FC 1
 62
   179
420
  2234388
370
    25
100
AcDbVertex
100
AcDb2dVertex
 10
79.89693268388166
 20
-123.9355958023495
 30
0.0
  0
SEQEND
  5
54
330
51
100
AcDbEntity
  8
_U+30EC_U+30A4_U+30E4_U+30FC 1
 62
   179
420
  2234388
370
    25
  0
POLYLINE
  5
55
330
1F
100
AcDbEntity
  8
_U+30EC_U+30A4_U+30E4_U+30FC 1
 62
   179
420
  2234388
370
    25
100
AcDb2dPolyline
 66
     1
 10
0.0
 20
0.0
 30
0.0
  0
VERTEX
  5
56
330
55
100
AcDbEntity
  8
_U+30EC_U+30A4_U+30E4_U+30FC 1
 62
   179
420
  2234388
370
    25
100
AcDbVertex
100
AcDb2dVertex
 10
88.89724606537564
 20
-133.9363519109602
 30
0.0
  0
VERTEX
  5
57
330
55
100
AcDbEntity
  8
_U+30EC_U+30A4_U+30E4_U+30FC 1
 62
   179
420
  2234388
370
    25
100
AcDbVertex
100
AcDb2dVertex
 10
89.89701826209155
 20
-133.9363519109602
 30
0.0
  0
SEQEND
  5
58
330
55
100
AcDbEntity
  8
_U+30EC_U+30A4_U+30E4_U+30FC 1
 62
   179
420
  2234388
370
    25
  0
POLYLINE
  5
59
330
1F
100
AcDbEntity
  8
_U+30EC_U+30A4_U+30E4_U+30FC 1
 62
   179
420
  2234388
370
    25
100
AcDb2dPolyline
 66
     1
 10
0.0
 20
0.0
 30
0.0
  0
VERTEX
  5
5A
330
59
100
AcDbEntity
  8
_U+30EC_U+30A4_U+30E4_U+30FC 1
 62
   179
420
  2234388
370
    25
100
AcDbVertex
100
AcDb2dVertex
 10
79.89693268388166
 20
-136.9363388546545
 30
0.0
  0
VERTEX
  5
5B
330
59
100
AcDbEntity
  8
_U+30EC_U+30A4_U+30E4_U+30FC 1
 62
   179
420
  2234388
370
    25
100
AcDbVertex
100
AcDb2dVertex
 10
89.89701826209155
 20
-136.9363388546545
 30
0.0
  0
SEQEND
  5
5C
330
59
100
AcDbEntity
  8
_U+30EC_U+30A4_U+30E4_U+30FC 1
 62
   179
420
  2234388
370
    25
  0
POLYLINE
  5
5D
330
1F
100
AcDbEntity
  8
_U+30EC_U+30A4_U+30E4_U+30FC 1
 62
   179
420
  2234388
370
    25
100
AcDb2dPolyline
 66
     1
 10
0.0
 20
0.0
 30
0.0
  0
VERTEX
  5
5E
330
5D
100
AcDbEntity
  8
_U+30EC_U+30A4_U+30E4_U+30FC 1
 62
   179
420
  2234388
370
    25
100
AcDbVertex
100
AcDb2dVertex
 10
80.79715099424851
 20
-135.9358963549047
 30
0.0
  0
VERTEX
  5
5F
330
5D
100
AcDbEntity
  8
_U+30EC_U+30A4_U+30E4_U+30FC 1
 62
   179
420
  2234388
370
    25
100
AcDbVertex
100
AcDb2dVertex
 10
88.89724606537564
 20
-135.9358963549047
 30
0.0
  0
SEQEND
  5
60
330
5D
100
AcDbEntity
  8
_U+30EC_U+30A4_U+30E4_U+30FC 1
 62
   179
420
  2234388
370
    25
  0
POLYLINE
  5
61
330
1F
100
AcDbEntity
  8
_U+30EC_U+30A4_U+30E4_U+30FC 1
 62
   179
420
  2234388
370
    25
100
AcDb2dPolyline
 66
     1
 10
0.0
 20
0.0
 30
0.0
  0
VERTEX
  5
62
330
61
100
AcDbEntity
  8
_U+30EC_U+30A4_U+30E4_U+30FC 1
 62
   179
420
  2234388
370
    25
100
AcDbVertex
100
AcDb2dVertex
 10
89.89701826209155
 20
-136.9363388546545
 30
0.0
  0
VERTEX
  5
63
330
61
100
AcDbEntity
  8
_U+30EC_U+30A4_U+30E4_U+30FC 1
 62
   179
420
  2234388
370
    25
100
AcDbVertex
100
AcDb2dVertex
 10
89.89701826209155
 20
-133.9363519109602
 30
0.0
  0
SEQEND
  5
64
330
61
100
AcDbEntity
  8
_U+30EC_U+30A4_U+30E4_U+30FC 1
 62
   179
420
  2234388
370
    25
  0
POLYLINE
  5
65
330
1F
100
AcDbEntity
  8
_U+30EC_U+30A4_U+30E4_U+30FC 1
 62
   179
420
  2234388
370
    25
100
AcDb2dPolyline
 66
     1
 10
0.0
 20
0.0
 30
0.0
  0
VERTEX
  5
66
330
65
100
AcDbEntity
  8
_U+30EC_U+30A4_U+30E4_U+30FC 1
 62
   179
420
  2234388
370
    25
100
AcDbVertex
100
AcDb2dVertex
 10
88.89724606537564
 20
-135.9358963549047
 30
0.0
  0
VERTEX
  5
67
330
65
100
AcDbEntity
  8
_U+30EC_U+30A4_U+30E4_U+30FC 1
 62
   179
420
  2234388
370
    25
100
AcDbVertex
100
AcDb2dVertex
 10
88.89724606537564
 20
-133.9363519109602
 30
0.0
  0
SEQEND
  5
68
330
65
100
AcDbEntity
  8
_U+30EC_U+30A4_U+30E4_U+30FC 1
 62
   179
420
  2234388
370
    25
  0
POLYLINE
  5
69
330
1F
100
AcDbEntity
  8
_U+30EC_U+30A4_U+30E4_U+30FC 1
 62
   179
420
  2234388
370
    25
100
AcDb2dPolyline
 66
     1
 10
0.0
 20
0.0
 30
0.0
  0
VERTEX
  5
6A
330
69
100
AcDbEntity
  8
_U+30EC_U+30A4_U+30E4_U+30FC 1
 62
   179
420
  2234388
370
    25
100
AcDbVertex
100
AcDb2dVertex
 10
80.79715099424851
 20
-135.9358963549047
 30
0.0
  0
VERTEX
  5
6B
330
69
100
AcDbEntity
  8
_U+30EC_U+30A4_U+30E4_U+30FC 1
 62
   179
420
  2234388
370
    25
100
AcDbVertex
100
AcDb2dVertex
 10
80.79715099424851
 20
-123.9355958023495
 30
0.0
  0
SEQEND
  5
6C
330
69
100
AcDbEntity
  8
_U+30EC_U+30A4_U+30E4_U+30FC 1
 62
   179
420
  2234388
370
    25
  0
SPLINE
  5
6D
330
1F
100
AcDbEntity
  8
_U+30EC_U+30A4_U+30E4_U+30FC 1
 62
   179
420
  2234388
370
     9
100
AcDbSpline
210
0.0
220
0.0
230
1.0
 70
    11
 71
     3
 72
    17
 73
    13
 74
     0
 42
0.0000000001
 43
0.0000000001
 12
1.0
 22
0.0
 32
0.0
 13
1.0
 23
0.0
 33
0.0
 40
0.0
 40
0.0
 40
0.0
 40
0.0
 40
1.0
 40
1.0
 40
1.0
 40
2.0
 40
2.0
 40
2.0
 40
3.0
 40
3.0
 40
3.0
 40
4.0
 40
4.0
 40
4.0
 40
4.0
 10
67.99721109411166
 20
-118.9364171924882
 30
0.0
 10
67.99721109411166
 20
-118.8812780258354
 30
0.0
 10
67.9524418774999
 20
-118.8365105258465
 30
0.0
 10
67.89698521224804
 20
-118.8365105258465
 30
0.0
 10
67.8418460469881
 20
-118.8365105258465
 30
0.0
 10
67.7970785481302
 20
-118.8812780258354
 30
0.0
 10
67.7970785481302
 20
-118.9364171924882
 30
0.0
 10
67.7970785481302
 20
-118.9918738591409
 30
0.0
 10
67.8418460469881
 20
-119.0366766369076
 30
0.0
 10
67.89698521224804
 20
-119.0366766369076
 30
0.0
 10
67.9524418774999
 20
-119.0366766369076
 30
0.0
 10
67.99721109411166
 20
-118.9918738591409
 30
0.0
 10
67.99721109411166
 20
-118.9364171924882
 30
0.0
  0
SPLINE
  5
6E
330
1F
100
AcDbEntity
  8
_U+30EC_U+30A4_U+30E4_U+30FC 1
 62
   179
420
  2234388
370
     9
100
AcDbSpline
210
0.0
220
0.0
230
1.0
 70
    11
 71
     3
 72
    17
 73
    13
 74
     0
 42
0.0000000001
 43
0.0000000001
 12
1.0
 22
0.0
 32
0.0
 13
1.0
 23
0.0
 33
0.0
 40
0.0
 40
0.0
 40
0.0
 40
0.0
 40
1.0
 40
1.0
 40
1.0
 40
2.0
 40
2.0
 40
2.0
 40
3.0
 40
3.0
 40
3.0
 40
4.0
 40
4.0
 40
4.0
 40
4.0
 10
107.9971989114286
 20
-118.9364171924882
 30
0.0
 10
107.9971989114286
 20
-118.8812780258354
 30
0.0
 10
107.9523961347938
 20
-118.8365105258465
 30
0.0
 10
107.8972922473107
 20
-118.8365105258465
 30
0.0
 10
107.8421530820508
 20
-118.8365105258465
 30
0.0
 10
107.7973855831929
 20
-118.8812780258354
 30
0.0
 10
107.7973855831929
 20
-118.9364171924882
 30
0.0
 10
107.7973855831929
 20
-118.9918738591409
 30
0.0
 10
107.8421530820508
 20
-119.0366766369076
 30
0.0
 10
107.8972922473107
 20
-119.0366766369076
 30
0.0
 10
107.9523961347938
 20
-119.0366766369076
 30
0.0
 10
107.9971989114286
 20
-118.9918738591409
 30
0.0
 10
107.9971989114286
 20
-118.9364171924882
 30
0.0
  0
SPLINE
  5
6F
330
1F
100
AcDbEntity
  8
_U+30EC_U+30A4_U+30E4_U+30FC 1
 62
   179
420
  2234388
370
     9
100
AcDbSpline
210
0.0
220
0.0
230
1.0
 70
    11
 71
     3
 72
    17
 73
    13
 74
     0
 42
0.0000000001
 43
0.0000000001
 12
1.0
 22
0.0
 32
0.0
 13
1.0
 23
0.0
 33
0.0
 40
0.0
 40
0.0
 40
0.0
 40
0.0
 40
1.0
 40
1.0
 40
1.0
 40
2.0
 40
2.0
 40
2.0
 40
3.0
 40
3.0
 40
3.0
 40
4.0
 40
4.0
 40
4.0
 40
4.0
 10
111.9973107538217
 20
-122.9358235803773
 30
0.0
 10
111.9973107538217
 20
-122.8806844137242
 30
0.0
 10
111.9525079771869
 20
-122.8359169137353
 30
0.0
 10
111.8974040897038
 20
-122.8359169137353
 30
0.0
 10
111.8422649244439
 20
-122.8359169137353
 30
0.0
 10
111.797497425586
 20
-122.8806844137242
 30
0.0
 10
111.797497425586
 20
-122.9358235803773
 30
0.0
 10
111.797497425586
 20
-122.9909274692522
 30
0.0
 10
111.8422649244439
 20
-123.0357302470189
 30
0.0
 10
111.8974040897038
 20
-123.0357302470189
 30
0.0
 10
111.9525079771869
 20
-123.0357302470189
 30
0.0
 10
111.9973107538217
 20
-122.9909274692522
 30
0.0
 10
111.9973107538217
 20
-122.9358235803773
 30
0.0
  0
SPLINE
  5
70
330
1F
100
AcDbEntity
  8
_U+30EC_U+30A4_U+30E4_U+30FC 1
 62
   179
420
  2234388
370
     9
100
AcDbSpline
210
0.0
220
0.0
230
1.0
 70
    11
 71
     3
 72
    17
 73
    13
 74
     0
 42
0.0000000001
 43
0.0000000001
 12
1.0
 22
0.0
 32
0.0
 13
1.0
 23
0.0
 33
0.0
 40
0.0
 40
0.0
 40
0.0
 40
0.0
 40
1.0
 40
1.0
 40
1.0
 40
2.0
 40
2.0
 40
2.0
 40
3.0
 40
3.0
 40
3.0
 40
4.0
 40
4.0
 40
4.0
 40
4.0
 10
111.9973107538217
 20
-123.9355958023495
 30
0.0
 10
111.9973107538217
 20
-123.8804566356964
 30
0.0
 10
111.9525079771869
 20
-123.8356891357079
 30
0.0
 10
111.8974040897038
 20
-123.8356891357079
 30
0.0
 10
111.8422649244439
 20
-123.8356891357079
 30
0.0
 10
111.797497425586
 20
-123.8804566356964
 30
0.0
 10
111.797497425586
 20
-123.9355958023495
 30
0.0
 10
111.797497425586
 20
-123.9910524690022
 30
0.0
 10
111.8422649244439
 20
-124.0358552467689
 30
0.0
 10
111.8974040897038
 20
-124.0358552467689
 30
0.0
 10
111.9525079771869
 20
-124.0358552467689
 30
0.0
 10
111.9973107538217
 20
-123.9910524690022
 30
0.0
 10
111.9973107538217
 20
-123.9355958023495
 30
0.0
  0
SPLINE
  5
71
330
1F
100
AcDbEntity
  8
_U+30EC_U+30A4_U+30E4_U+30FC 1
 62
   179
420
  2234388
370
     9
100
AcDbSpline
210
0.0
220
0.0
230
1.0
 70
    11
 71
     3
 72
    17
 73
    13
 74
     0
 42
0.0000000001
 43
0.0000000001
 12
1.0
 22
0.0
 32
0.0
 13
1.0
 23
0.0
 33
0.0
 40
0.0
 40
0.0
 40
0.0
 40
0.0
 40
1.0
 40
1.0
 40
1.0
 40
2.0
 40
2.0
 40
2.0
 40
3.0
 40
3.0
 40
3.0
 40
4.0
 40
4.0
 40
4.0
 40
4.0
 10
111.9973107538217
 20
-133.9363519109602
 30
0.0
 10
111.9973107538217
 20
-133.8805424665298
 30
0.0
 10
111.9525079771869
 20
-133.8357749665412
 30
0.0
 10
111.8974040897038
 20
-133.8357749665412
 30
0.0
 10
111.8422649244439
 20
-133.8357749665412
 30
0.0
 10
111.797497425586
 20
-133.8805424665298
 30
0.0
 10
111.797497425586
 20
-133.9363519109602
 30
0.0
 10
111.797497425586
 20
-133.9914910776133
 30
0.0
 10
111.8422649244439
 20
-134.0362585776018
 30
0.0
 10
111.8974040897038
 20
-134.0362585776018
 30
0.0
 10
111.9525079771869
 20
-134.0362585776018
 30
0.0
 10
111.9973107538217
 20
-133.9914910776133
 30
0.0
 10
111.9973107538217
 20
-133.9363519109602
 30
0.0
  0
SPLINE
  5
72
330
1F
100
AcDbEntity
  8
_U+30EC_U+30A4_U+30E4_U+30FC 1
 62
   179
420
  2234388
370
     9
100
AcDbSpline
210
0.0
220
0.0
230
1.0
 70
    11
 71
     3
 72
    17
 73
    13
 74
     0
 42
0.0000000001
 43
0.0000000001
 12
1.0
 22
0.0
 32
0.0
 13
1.0
 23
0.0
 33
0.0
 40
0.0
 40
0.0
 40
0.0
 40
0.0
 40
1.0
 40
1.0
 40
1.0
 40
2.0
 40
2.0
 40
2.0
 40
3.0
 40
3.0
 40
3.0
 40
4.0
 40
4.0
 40
4.0
 40
4.0
 10
111.9973107538217
 20
-136.9363388546545
 30
0.0
 10
111.9973107538217
 20
-136.8805294102241
 30
0.0
 10
111.9525079771869
 20
-136.8357619102356
 30
0.0
 10
111.8974040897038
 20
-136.8357619102356
 30
0.0
 10
111.8422649244439
 20
-136.8357619102356
 30
0.0
 10
111.797497425586
 20
-136.8805294102241
 30
0.0
 10
111.797497425586
 20
-136.9363388546545
 30
0.0
 10
111.797497425586
 20
-136.9914780213076
 30
0.0
 10
111.8422649244439
 20
-137.0362455212962
 30
0.0
 10
111.8974040897038
 20
-137.0362455212962
 30
0.0
 10
111.9525079771869
 20
-137.0362455212962
 30
0.0
 10
111.9973107538217
 20
-136.9914780213076
 30
0.0
 10
111.9973107538217
 20
-136.9363388546545
 30
0.0
  0
SPLINE
  5
73
330
1F
100
AcDbEntity
  8
_U+30EC_U+30A4_U+30E4_U+30FC 1
 62
   179
420
  2234388
370
     9
100
AcDbSpline
210
0.0
220
0.0
230
1.0
 70
    11
 71
     3
 72
    17
 73
    13
 74
     0
 42
0.0000000001
 43
0.0000000001
 12
1.0
 22
0.0
 32
0.0
 13
1.0
 23
0.0
 33
0.0
 40
0.0
 40
0.0
 40
0.0
 40
0.0
 40
1.0
 40
1.0
 40
1.0
 40
2.0
 40
2.0
 40
2.0
 40
3.0
 40
3.0
 40
3.0
 40
4.0
 40
4.0
 40
4.0
 40
4.0
 10
79.99719212576827
 20
-140.9360980203214
 30
0.0
 10
79.99719212576827
 20
-140.8809941314465
 30
0.0
 10
79.9523893491335
 20
-140.8361913536798
 30
0.0
 10
79.89693268388166
 20
-140.8361913536798
 30
0.0
 10
79.8417935186217
 20
-140.8361913536798
 30
0.0
 10
79.79702601976382
 20
-140.8809941314465
 30
0.0
 10
79.79702601976382
 20
-140.9360980203214
 30
0.0
 10
79.79702601976382
 20
-140.9912371869745
 30
0.0
 10
79.8417935186217
 20
-141.0360046869631
 30
0.0
 10
79.89693268388166
 20
-141.0360046869631
 30
0.0
 10
79.9523893491335
 20
-141.0360046869631
 30
0.0
 10
79.99719212576827
 20
-140.9912371869745
 30
0.0
 10
79.99719212576827
 20
-140.9360980203214
 30
0.0
  0
SPLINE
  5
74
330
1F
100
AcDbEntity
  8
_U+30EC_U+30A4_U+30E4_U+30FC 1
 62
   179
420
  2234388
370
     9
100
AcDbSpline
210
0.0
220
0.0
230
1.0
 70
    11
 71
     3
 72
    17
 73
    13
 74
     0
 42
0.0000000001
 43
0.0000000001
 12
1.0
 22
0.0
 32
0.0
 13
1.0
 23
0.0
 33
0.0
 40
0.0
 40
0.0
 40
0.0
 40
0.0
 40
1.0
 40
1.0
 40
1.0
 40
2.0
 40
2.0
 40
2.0
 40
3.0
 40
3.0
 40
3.0
 40
4.0
 40
4.0
 40
4.0
 40
4.0
 10
89.99727770397816
 20
-140.9360980203214
 30
0.0
 10
89.99727770397816
 20
-140.8809941314465
 30
0.0
 10
89.9524749273434
 20
-140.8361913536798
 30
0.0
 10
89.89701826209155
 20
-140.8361913536798
 30
0.0
 10
89.8418790968316
 20
-140.8361913536798
 30
0.0
 10
89.7971138664395
 20
-140.8809941314465
 30
0.0
 10
89.7971138664395
 20
-140.9360980203214
 30
0.0
 10
89.7971138664395
 20
-140.9912371869745
 30
0.0
 10
89.8418790968316
 20
-141.0360046869631
 30
0.0
 10
89.89701826209155
 20
-141.0360046869631
 30
0.0
 10
89.9524749273434
 20
-141.0360046869631
 30
0.0
 10
89.99727770397816
 20
-140.9912371869745
 30
0.0
 10
89.99727770397816
 20
-140.9360980203214
 30
0.0
  0
SPLINE
  5
75
330
1F
100
AcDbEntity
  8
_U+30EC_U+30A4_U+30E4_U+30FC 1
 62
   179
420
  2234388
370
     9
100
AcDbSpline
210
0.0
220
0.0
230
1.0
 70
    11
 71
     3
 72
    17
 73
    13
 74
     0
 42
0.0000000001
 43
0.0000000001
 12
1.0
 22
0.0
 32
0.0
 13
1.0
 23
0.0
 33
0.0
 40
0.0
 40
0.0
 40
0.0
 40
0.0
 40
1.0
 40
1.0
 40
1.0
 40
2.0
 40
2.0
 40
2.0
 40
3.0
 40
3.0
 40
3.0
 40
4.0
 40
4.0
 40
4.0
 40
4.0
 10
67.99721109411166
 20
-140.9360980203214
 30
0.0
 10
67.99721109411166
 20
-140.8809941314465
 30
0.0
 10
67.9524418774999
 20
-140.8361913536798
 30
0.0
 10
67.89698521224804
 20
-140.8361913536798
 30
0.0
 10
67.8418460469881
 20
-140.8361913536798
 30
0.0
 10
67.7970785481302
 20
-140.8809941314465
 30
0.0
 10
67.7970785481302
 20
-140.9360980203214
 30
0.0
 10
67.7970785481302
 20
-140.9912371869745
 30
0.0
 10
67.8418460469881
 20
-141.0360046869631
 30
0.0
 10
67.89698521224804
 20
-141.0360046869631
 30
0.0
 10
67.9524418774999
 20
-141.0360046869631
 30
0.0
 10
67.99721109411166
 20
-140.9912371869745
 30
0.0
 10
67.99721109411166
 20
-140.9360980203214
 30
0.0
  0
POLYLINE
  5
76
330
1F
100
AcDbEntity
  8
_U+30EC_U+30A4_U+30E4_U+30FC 1
 62
   179
420
  2234388
370
     9
100
AcDb2dPolyline
 66
     1
 10
0.0
 20
0.0
 30
0.0
  0
VERTEX
  5
77
330
76
100
AcDbEntity
  8
_U+30EC_U+30A4_U+30E4_U+30FC 1
 62
   179
420
  2234388
370
     9
100
AcDbVertex
100
AcDb2dVertex
 10
111.8974040897038
 20
-122.9358235803773
 30
0.0
  0
VERTEX
  5
78
330
76
100
AcDbEntity
  8
_U+30EC_U+30A4_U+30E4_U+30FC 1
 62
   179
420
  2234388
370
     9
100
AcDbVertex
100
AcDb2dVertex
 10
111.8974040897038
 20
-119.1661813590972
 30
0.0
  0
SEQEND
  5
79
330
76
100
AcDbEntity
  8
_U+30EC_U+30A4_U+30E4_U+30FC 1
 62
   179
420
  2234388
370
     9
  0
POLYLINE
  5
7A
330
1F
100
AcDbEntity
  8
_U+30EC_U+30A4_U+30E4_U+30FC 1
 62
   179
420
  2234388
370
     9
100
AcDb2dPolyline
 66
     1
 10
0.0
 20
0.0
 30
0.0
  0
VERTEX
  5
7B
330
7A
100
AcDbEntity
  8
_U+30EC_U+30A4_U+30E4_U+30FC 1
 62
   179
420
  2234388
370
     9
100
AcDbVertex
100
AcDb2dVertex
 10
111.8974040897038
 20
-122.9358235803773
 30
0.0
  0
VERTEX
  5
7C
330
7A
100
AcDbEntity
  8
_U+30EC_U+30A4_U+30E4_U+30FC 1
 62
   179
420
  2234388
370
     9
100
AcDbVertex
100
AcDb2dVertex
 10
111.8974040897038
 20
-123.9355958023495
 30
0.0
  0
SEQEND
  5
7D
330
7A
100
AcDbEntity
  8
_U+30EC_U+30A4_U+30E4_U+30FC 1
 62
   179
420
  2234388
370
     9
  0
POLYLINE
  5
7E
330
1F
100
AcDbEntity
  8
_U+30EC_U+30A4_U+30E4_U+30FC 1
 62
   179
420
  2234388
370
     9
100
AcDb2dPolyline
 66
     1
 10
0.0
 20
0.0
 30
0.0
  0
VERTEX
  5
7F
330
7E
100
AcDbEntity
  8
_U+30EC_U+30A4_U+30E4_U+30FC 1
 62
   179
420
  2234388
370
     9
100
AcDbVertex
100
AcDb2dVertex
 10
110.4373627380637
 20
-122.9358235803773
 30
0.0
  0
VERTEX
  5
80
330
7E
100
AcDbEntity
  8
_U+30EC_U+30A4_U+30E4_U+30FC 1
 62
   179
420
  2234388
370
     9
100
AcDbVertex
100
AcDb2dVertex
 10
112.8971410086429
 20
-122.9358235803773
 30
0.0
  0
SEQEND
  5
81
330
7E
100
AcDbEntity
  8
_U+30EC_U+30A4_U+30E4_U+30FC 1
 62
   179
420
  2234388
370
     9
  0
POLYLINE
  5
82
330
1F
100
AcDbEntity
  8
_U+30EC_U+30A4_U+30E4_U+30FC 1
 62
   179
420
  2234388
370
     9
100
AcDb2dPolyline
 66
     1
 10
0.0
 20
0.0
 30
0.0
  0
VERTEX
  5
83
330
82
100
AcDbEntity
  8
_U+30EC_U+30A4_U+30E4_U+30FC 1
 62
   179
420
  2234388
370
     9
100
AcDbVertex
100
AcDb2dVertex
 10
110.4373627380637
 20
-123.9355958023495
 30
0.0
  0
VERTEX
  5
84
330
82
100
AcDbEntity
  8
_U+30EC_U+30A4_U+30E4_U+30FC 1
 62
   179
420
  2234388
370
     9
100
AcDbVertex
100
AcDb2dVertex
 10
112.8971410086429
 20
-123.9355958023495
 30
0.0
  0
SEQEND
  5
85
330
82
100
AcDbEntity
  8
_U+30EC_U+30A4_U+30E4_U+30FC 1
 62
   179
420
  2234388
370
     9
  0
INSERT
  5
87
330
1F
100
AcDbEntity
  8
_U+30EC_U+30A4_U+30E4_U+30FC 1
100
AcDbBlockReference
  2
block 2
 10
0.0
 20
0.0
 30
0.0
  0
POLYLINE
  5
8C
330
1F
100
AcDbEntity
  8
_U+30EC_U+30A4_U+30E4_U+30FC 1
 62
   179
420
  2234388
370
     9
100
AcDb2dPolyline
 66
     1
 10
0.0
 20
0.0
 30
0.0
  0
VERTEX
  5
8D
330
8C
100
AcDbEntity
  8
_U+30EC_U+30A4_U+30E4_U+30FC 1
 62
   179
420
  2234388
370
     9
100
AcDbVertex
100
AcDb2dVertex
 10
111.8974040897038
 20
-136.9363388546545
 30
0.0
  0
VERTEX
  5
8E
330
8C
100
AcDbEntity
  8
_U+30EC_U+30A4_U+30E4_U+30FC 1
 62
   179
420
  2234388
370
     9
100
AcDbVertex
100
AcDb2dVertex
 10
111.8974040897038
 20
-133.9363519109602
 30
0.0
  0
SEQEND
  5
8F
330
8C
100
AcDbEntity
  8
_U+30EC_U+30A4_U+30E4_U+30FC 1
 62
   179
420
  2234388
370
     9
  0
POLYLINE
  5
90
330
1F
100
AcDbEntity
  8
_U+30EC_U+30A4_U+30E4_U+30FC 1
 62
   179
420
  2234388
370
     9
100
AcDb2dPolyline
 66
     1
 10
0.0
 20
0.0
 30
0.0
  0
VERTEX
  5
91
330
90
100
AcDbEntity
  8
_U+30EC_U+30A4_U+30E4_U+30FC 1
 62
   179
420
  2234388
370
     9
100
AcDbVertex
100
AcDb2dVertex
 10
92.4370887528445
 20
-136.9363388546545
 30
0.0
  0
VERTEX
  5
92
330
90
100
AcDbEntity
  8
_U+30EC_U+30A4_U+30E4_U+30FC 1
 62
   179
420
  2234388
370
     9
100
AcDbVertex
100
AcDb2dVertex
 10
112.8971410086429
 20
-136.9363388546545
 30
0.0
  0
SEQEND
  5
93
330
90
100
AcDbEntity
  8
_U+30EC_U+30A4_U+30E4_U+30FC 1
 62
   179
420
  2234388
370
     9
  0
INSERT
  5
95
330
1F
100
AcDbEntity
  8
_U+30EC_U+30A4_U+30E4_U+30FC 1
100
AcDbBlockReference
  2
block 3
 10
0.0
 20
0.0
 30
0.0
  0
POLYLINE
  5
9A
330
1F
100
AcDbEntity
  8
_U+30EC_U+30A4_U+30E4_U+30FC 1
 62
   179
420
  2234388
370
     9
100
AcDb2dPolyline
 66
     1
 10
0.0
 20
0.0
 30
0.0
  0
VERTEX
  5
9B
330
9A
100
AcDbEntity
  8
_U+30EC_U+30A4_U+30E4_U+30FC 1
 62
   179
420
  2234388
370
     9
100
AcDbVertex
100
AcDb2dVertex
 10
79.89693268388166
 20
-140.9360980203214
 30
0.0
  0
VERTEX
  5
9C
330
9A
100
AcDbEntity
  8
_U+30EC_U+30A4_U+30E4_U+30FC 1
 62
   179
420
  2234388
370
     9
100
AcDbVertex
100
AcDb2dVertex
 10
89.89701826209155
 20
-140.9360980203214
 30
0.0
  0
SEQEND
  5
9D
330
9A
100
AcDbEntity
  8
_U+30EC_U+30A4_U+30E4_U+30FC 1
 62
   179
420
  2234388
370
     9
  0
POLYLINE
  5
9E
330
1F
100
AcDbEntity
  8
_U+30EC_U+30A4_U+30E4_U+30FC 1
 62
   179
420
  2234388
370
     9
100
AcDb2dPolyline
 66
     1
 10
0.0
 20
0.0
 30
0.0
  0
VERTEX
  5
9F
330
9E
100
AcDbEntity
  8
_U+30EC_U+30A4_U+30E4_U+30FC 1
 62
   179
420
  2234388
370
     9
100
AcDbVertex
100
AcDb2dVertex
 10
79.89693268388166
 20
-139.4760566317977
 30
0.0
  0
VERTEX
  5
A0
330
9E
100
AcDbEntity
  8
_U+30EC_U+30A4_U+30E4_U+30FC 1
 62
   179
420
  2234388
370
     9
100
AcDbVertex
100
AcDb2dVertex
 10
79.89693268388166
 20
-141.935870242294
 30
0.0
  0
SEQEND
  5
A1
330
9E
100
AcDbEntity
  8
_U+30EC_U+30A4_U+30E4_U+30FC 1
 62
   179
420
  2234388
370
     9
  0
POLYLINE
  5
A2
330
1F
100
AcDbEntity
  8
_U+30EC_U+30A4_U+30E4_U+30FC 1
 62
   179
420
  2234388
370
     9
100
AcDb2dPolyline
 66
     1
 10
0.0
 20
0.0
 30
0.0
  0
VERTEX
  5
A3
330
A2
100
AcDbEntity
  8
_U+30EC_U+30A4_U+30E4_U+30FC 1
 62
   179
420
  2234388
370
     9
100
AcDbVertex
100
AcDb2dVertex
 10
89.89701826209155
 20
-139.4760566317977
 30
0.0
  0
VERTEX
  5
A4
330
A2
100
AcDbEntity
  8
_U+30EC_U+30A4_U+30E4_U+30FC 1
 62
   179
420
  2234388
370
     9
100
AcDbVertex
100
AcDb2dVertex
 10
89.89701826209155
 20
-141.935870242294
 30
0.0
  0
SEQEND
  5
A5
330
A2
100
AcDbEntity
  8
_U+30EC_U+30A4_U+30E4_U+30FC 1
 62
   179
420
  2234388
370
     9
  0
INSERT
  5
A7
330
1F
100
AcDbEntity
  8
_U+30EC_U+30A4_U+30E4_U+30FC 1
100
AcDbBlockReference
  2
block 4
 10
0.0
 20
0.0
 30
0.0
  0
POLYLINE
  5
AF
330
1F
100
AcDbEntity
  8
_U+30EC_U+30A4_U+30E4_U+30FC 1
 62
   179
420
  2234388
370
     9
100
AcDb2dPolyline
 66
     1
 10
0.0
 20
0.0
 30
0.0
  0
VERTEX
  5
B0
330
AF
100
AcDbEntity
  8
_U+30EC_U+30A4_U+30E4_U+30FC 1
 62
   179
420
  2234388
370
     9
100
AcDbVertex
100
AcDb2dVertex
 10
67.89698521224804
 20
-140.9360980203214
 30
0.0
  0
VERTEX
  5
B1
330
AF
100
AcDbEntity
  8
_U+30EC_U+30A4_U+30E4_U+30FC 1
 62
   179
420
  2234388
370
     9
100
AcDbVertex
100
AcDb2dVertex
 10
79.89693268388166
 20
-140.9360980203214
 30
0.0
  0
SEQEND
  5
B2
330
AF
100
AcDbEntity
  8
_U+30EC_U+30A4_U+30E4_U+30FC 1
 62
   179
420
  2234388
370
     9
  0
POLYLINE
  5
B3
330
1F
100
AcDbEntity
  8
_U+30EC_U+30A4_U+30E4_U+30FC 1
 62
   179
420
  2234388
370
     9
100
AcDb2dPolyline
 66
     1
 10
0.0
 20
0.0
 30
0.0
  0
VERTEX
  5
B4
330
B3
100
AcDbEntity
  8
_U+30EC_U+30A4_U+30E4_U+30FC 1
 62
   179
420
  2234388
370
     9
100
AcDbVertex
100
AcDb2dVertex
 10
67.89698521224804
 20
-126.4759838572701
 30
0.0
  0
VERTEX
  5
B5
330
B3
100
AcDbEntity
  8
_U+30EC_U+30A4_U+30E4_U+30FC 1
 62
   179
420
  2234388
370
     9
100
AcDbVertex
100
AcDb2dVertex
 10
67.89698521224804
 20
-141.935870242294
 30
0.0
  0
SEQEND
  5
B6
330
B3
100
AcDbEntity
  8
_U+30EC_U+30A4_U+30E4_U+30FC 1
 62
   179
420
  2234388
370
     9
  0
INSERT
  5
B8
330
1F
100
AcDbEntity
  8
_U+30EC_U+30A4_U+30E4_U+30FC 1
100
AcDbBlockReference
  2
block 5
 10
0.0
 20
0.0
 30
0.0
  0
POLYLINE
  5
BF
330
1F
100
AcDbEntity
  8
_U+30EC_U+30A4_U+30E4_U+30FC 1
 62
   179
420
  2234388
370
     9
100
AcDb2dPolyline
 66
     1
 10
0.0
 20
0.0
 30
0.0
  0
VERTEX
  5
C0
330
BF
100
AcDbEntity
  8
_U+30EC_U+30A4_U+30E4_U+30FC 1
 62
   179
420
  2234388
370
     9
100
AcDbVertex
100
AcDb2dVertex
 10
111.8974040897038
 20
-133.9363519109602
 30
0.0
  0
VERTEX
  5
C1
330
BF
100
AcDbEntity
  8
_U+30EC_U+30A4_U+30E4_U+30FC 1
 62
   179
420
  2234388
370
     9
100
AcDbVertex
100
AcDb2dVertex
 10
111.8974040897038
 20
-123.9355958023495
 30
0.0
  0
SEQEND
  5
C2
330
BF
100
AcDbEntity
  8
_U+30EC_U+30A4_U+30E4_U+30FC 1
 62
   179
420
  2234388
370
     9
  0
POLYLINE
  5
C3
330
1F
100
AcDbEntity
  8
_U+30EC_U+30A4_U+30E4_U+30FC 1
 62
   179
420
  2234388
370
     9
100
AcDb2dPolyline
 66
     1
 10
0.0
 20
0.0
 30
0.0
  0
VERTEX
  5
C4
330
C3
100
AcDbEntity
  8
_U+30EC_U+30A4_U+30E4_U+30FC 1
 62
   179
420
  2234388
370
     9
100
AcDbVertex
100
AcDb2dVertex
 10
92.4370887528445
 20
-133.9363519109602
 30
0.0
  0
VERTEX
  5
C5
330
C3
100
AcDbEntity
  8
_U+30EC_U+30A4_U+30E4_U+30FC 1
 62
   179
420
  2234388
370
     9
100
AcDbVertex
100
AcDb2dVertex
 10
112.8971410086429
 20
-133.9363519109602
 30
0.0
  0
SEQEND
  5
C6
330
C3
100
AcDbEntity
  8
_U+30EC_U+30A4_U+30E4_U+30FC 1
 62
   179
420
  2234388
370
     9
  0
INSERT
  5
C8
330
1F
100
AcDbEntity
  8
_U+30EC_U+30A4_U+30E4_U+30FC 1
100
AcDbBlockReference
  2
block 6
 10
0.0
 20
0.0
 30
0.0
  0
POLYLINE
  5
D0
330
1F
100
AcDbEntity
  8
_U+30EC_U+30A4_U+30E4_U+30FC 1
 62
   179
420
  2234388
370
     9
100
AcDb2dPolyline
 66
     1
 10
0.0
 20
0.0
 30
0.0
  0
VERTEX
  5
D1
330
D0
100
AcDbEntity
  8
_U+30EC_U+30A4_U+30E4_U+30FC 1
 62
   179
420
  2234388
370
     9
100
AcDbVertex
100
AcDb2dVertex
 10
67.89698521224804
 20
-118.9364171924882
 30
0.0
  0
VERTEX
  5
D2
330
D0
100
AcDbEntity
  8
_U+30EC_U+30A4_U+30E4_U+30FC 1
 62
   179
420
  2234388
370
     9
100
AcDbVertex
100
AcDb2dVertex
 10
107.8972922473107
 20
-118.9364171924882
 30
0.0
  0
SEQEND
  5
D3
330
D0
100
AcDbEntity
  8
_U+30EC_U+30A4_U+30E4_U+30FC 1
 62
   179
420
  2234388
370
     9
  0
POLYLINE
  5
D4
330
1F
100
AcDbEntity
  8
_U+30EC_U+30A4_U+30E4_U+30FC 1
 62
   179
420
  2234388
370
     9
100
AcDb2dPolyline
 66
     1
 10
0.0
 20
0.0
 30
0.0
  0
VERTEX
  5
D5
330
D4
100
AcDbEntity
  8
_U+30EC_U+30A4_U+30E4_U+30FC 1
 62
   179
420
  2234388
370
     9
100
AcDbVertex
100
AcDb2dVertex
 10
67.89698521224804
 20
-120.3962821921233
 30
0.0
  0
VERTEX
  5
D6
330
D4
100
AcDbEntity
  8
_U+30EC_U+30A4_U+30E4_U+30FC 1
 62
   179
420
  2234388
370
     9
100
AcDbVertex
100
AcDb2dVertex
 10
67.89698521224804
 20
-117.9366449705159
 30
0.0
  0
SEQEND
  5
D7
330
D4
100
AcDbEntity
  8
_U+30EC_U+30A4_U+30E4_U+30FC 1
 62
   179
420
  2234388
370
     9
  0
POLYLINE
  5
D8
330
1F
100
AcDbEntity
  8
_U+30EC_U+30A4_U+30E4_U+30FC 1
 62
   179
420
  2234388
370
     9
100
AcDb2dPolyline
 66
     1
 10
0.0
 20
0.0
 30
0.0
  0
VERTEX
  5
D9
330
D8
100
AcDbEntity
  8
_U+30EC_U+30A4_U+30E4_U+30FC 1
 62
   179
420
  2234388
370
     9
100
AcDbVertex
100
AcDb2dVertex
 10
107.8972922473107
 20
-120.3962821921233
 30
0.0
  0
VERTEX
  5
DA
330
D8
100
AcDbEntity
  8
_U+30EC_U+30A4_U+30E4_U+30FC 1
 62
   179
420
  2234388
370
     9
100
AcDbVertex
100
AcDb2dVertex
 10
107.8972922473107
 20
-117.9366449705159
 30
0.0
  0
SEQEND
  5
DB
330
D8
100
AcDbEntity
  8
_U+30EC_U+30A4_U+30E4_U+30FC 1
 62
   179
420
  2234388
370
     9
  0
INSERT
  5
DD
330
1F
100
AcDbEntity
  8
_U+30EC_U+30A4_U+30E4_U+30FC 1
100
AcDbBlockReference
  2
block 7
 10
0.0
 20
0.0
 30
0.0
  0
POLYLINE
  5
F8
330
1F
100
AcDbEntity
  8
_U+30EC_U+30A4_U+30E4_U+30FC 1
 62
     7
420
 16777215
370
    25
100
AcDb2dPolyline
 66
     1
 10
0.0
 20
0.0
 30
0.0
  0
VERTEX
  5
F9
330
F8
100
AcDbEntity
  8
_U+30EC_U+30A4_U+30E4_U+30FC 1
 62
     7
420
 16777215
370
    25
100
AcDbVertex
100
AcDb2dVertex
 10
80.79679821647973
 20
-123.9355958023495
 30
0.0
  0
VERTEX
  5
FA
330
F8
100
AcDbEntity
  8
_U+30EC_U+30A4_U+30E4_U+30FC 1
 62
     7
420
 16777215
370
    25
100
AcDbVertex
100
AcDb2dVertex
 10
97.09830613392694
 20
-123.9355958023495
 30
0.0
  0
SEQEND
  5
FB
330
F8
100
AcDbEntity
  8
_U+30EC_U+30A4_U+30E4_U+30FC 1
 62
     7
420
 16777215
370
    25
  0
POLYLINE
  5
FC
330
1F
100
AcDbEntity
  8
_U+30EC_U+30A4_U+30E4_U+30FC 1
 62
     7
420
 16777215
370
    25
100
AcDb2dPolyline
 66
     1
 10
0.0
 20
0.0
 30
0.0
  0
VERTEX
  5
FD
330
FC
100
AcDbEntity
  8
_U+30EC_U+30A4_U+30E4_U+30FC 1
 62
     7
420
 16777215
370
    25
100
AcDbVertex
100
AcDb2dVertex
 10
98.69543692651408
 20
-123.9355958023495
 30
0.0
  0
VERTEX
  5
FE
330
FC
100
AcDbEntity
  8
_U+30EC_U+30A4_U+30E4_U+30FC 1
 62
     7
420
 16777215
370
    25
100
AcDbVertex
100
AcDb2dVertex
 10
107.8972922473107
 20
-123.9355958023495
 30
0.0
  0
SEQEND
  5
FF
330
FC
100
AcDbEntity
  8
_U+30EC_U+30A4_U+30E4_U+30FC 1
 62
     7
420
 16777215
370
    25
  0
SPLINE
  5
100
330
1F
100
AcDbEntity
  8
_U+30EC_U+30A4_U+30E4_U+30FC 1
 62
     7
420
 16777215
370
    25
100
AcDbSpline
210
0.0
220
0.0
230
1.0
 70
     8
 71
     3
 72
     8
 73
     4
 74
     0
 42
0.0000000001
 43
0.0000000001
 12
1.0
 22
0.0
 32
0.0
 13
1.0
 23
0.0
 33
0.0
 40
0.0
 40
0.0
 40
0.0
 40
0.0
 40
1.0
 40
1.0
 40
1.0
 40
1.0
 10
98.0470666652776
 20
-124.1040471911963
 30
0.0
 10
98.21107304998235
 20
-124.1464158022968
 30
0.0
 10
98.38262887893892
 20
-124.1464158022968
 30
0.0
 10
98.54659998586678
 20
-124.1040471911963
 30
0.0
  0
SPLINE
  5
101
330
1F
100
AcDbEntity
  8
_U+30EC_U+30A4_U+30E4_U+30FC 1
 62
     7
420
 16777215
370
    25
100
AcDbSpline
210
0.0
220
0.0
230
1.0
 70
     8
 71
     3
 72
     8
 73
     4
 74
     0
 42
0.0000000001
 43
0.0000000001
 12
1.0
 22
0.0
 32
0.0
 13
1.0
 23
0.0
 33
0.0
 40
0.0
 40
0.0
 40
0.0
 40
0.0
 40
1.0
 40
1.0
 40
1.0
 40
1.0
 10
98.54659998586678
 20
-124.1040471911963
 30
0.0
 10
98.62583387273425
 20
-124.0837271912013
 30
0.0
 10
98.68443026012821
 20
-124.016875802329
 30
0.0
 10
98.69543692651408
 20
-123.9355958023495
 30
0.0
  0
SPLINE
  5
102
330
1F
100
AcDbEntity
  8
_U+30EC_U+30A4_U+30E4_U+30FC 1
 62
     7
420
 16777215
370
    25
100
AcDbSpline
210
0.0
220
0.0
230
1.0
 70
     8
 71
     3
 72
     8
 73
     4
 74
     0
 42
0.0000000001
 43
0.0000000001
 12
1.0
 22
0.0
 32
0.0
 13
1.0
 23
0.0
 33
0.0
 40
0.0
 40
0.0
 40
0.0
 40
0.0
 40
1.0
 40
1.0
 40
1.0
 40
1.0
 10
97.89685389133207
 20
-123.9104427468001
 30
0.0
 10
97.89685389133207
 20
-124.0017416356663
 30
0.0
 10
97.95820194532251
 20
-124.081328302313
 30
0.0
 10
98.0470666652776
 20
-124.1040471911963
 30
0.0
  0
SPLINE
  5
103
330
1F
100
AcDbEntity
  8
_U+30EC_U+30A4_U+30E4_U+30FC 1
 62
     7
420
 16777215
370
    25
100
AcDbSpline
210
0.0
220
0.0
230
1.0
 70
     8
 71
     3
 72
     8
 73
     4
 74
     0
 42
0.0000000001
 43
0.0000000001
 12
1.0
 22
0.0
 32
0.0
 13
1.0
 23
0.0
 33
0.0
 40
0.0
 40
0.0
 40
0.0
 40
0.0
 40
1.0
 40
1.0
 40
1.0
 40
1.0
 10
97.24643751903669
 20
-124.1040471911963
 30
0.0
 10
97.41041108675844
 20
-124.1464158022968
 30
0.0
 10
97.58267001045868
 20
-124.1464158022968
 30
0.0
 10
97.74664111738655
 20
-124.1040471911963
 30
0.0
  0
SPLINE
  5
104
330
1F
100
AcDbEntity
  8
_U+30EC_U+30A4_U+30E4_U+30FC 1
 62
     7
420
 16777215
370
    25
100
AcDbSpline
210
0.0
220
0.0
230
1.0
 70
     8
 71
     3
 72
     8
 73
     4
 74
     0
 42
0.0000000001
 43
0.0000000001
 12
1.0
 22
0.0
 32
0.0
 13
1.0
 23
0.0
 33
0.0
 40
0.0
 40
0.0
 40
0.0
 40
0.0
 40
1.0
 40
1.0
 40
1.0
 40
1.0
 10
97.09830613392694
 20
-123.9355958023495
 30
0.0
 10
97.10864252255213
 20
-124.016875802329
 30
0.0
 10
97.1678739099299
 20
-124.0837271912013
 30
0.0
 10
97.24643751903669
 20
-124.1040471911963
 30
0.0
  0
SPLINE
  5
105
330
1F
100
AcDbEntity
  8
_U+30EC_U+30A4_U+30E4_U+30FC 1
 62
     7
420
 16777215
370
    25
100
AcDbSpline
210
0.0
220
0.0
230
1.0
 70
     8
 71
     3
 72
     8
 73
     4
 74
     0
 42
0.0000000001
 43
0.0000000001
 12
1.0
 22
0.0
 32
0.0
 13
1.0
 23
0.0
 33
0.0
 40
0.0
 40
0.0
 40
0.0
 40
0.0
 40
1.0
 40
1.0
 40
1.0
 40
1.0
 10
97.74664111738655
 20
-124.1040471911963
 30
0.0
 10
97.83483555958095
 20
-124.081328302313
 30
0.0
 10
97.89685389133207
 20
-124.0017416356663
 30
0.0
 10
97.89685389133207
 20
-123.9104427468001
 30
0.0
  0
ENDSEC
  0
SECTION
  2
OBJECTS
  0
DICTIONARY
  5
C
330
0
100
AcDbDictionary
281
     1
  3
ACAD_GROUP
350
D
  3
ACAD_LAYOUT
350
1A
  3
ACAD_MATERIAL
350
3B
  3
ACAD_MLEADERSTYLE
350
107
  3
ACAD_MLINESTYLE
350
17
  3
ACAD_PLOTSETTINGS
350
19
  3
ACAD_PLOTSTYLENAME
350
E
  3
ACAD_TABLESTYLE
350
106
  3
ACAD_VISUALSTYLE
350
2A
  0
SUN
  5
3F
330
29
100
AcDbSun
 90
        1
290
     0
 63
     7
421
 16777215
 40
1.0
291
     1
 91
  2455826
 92
 54000000
292
     0
 70
     2
 71
   256
280
     1
  0
DICTIONARY
  5
D
102
{ACAD_REACTORS
330
C
102
}
330
C
100
AcDbDictionary
281
     1
  0
DICTIONARY
  5
1A
102
{ACAD_REACTORS
330
C
102
}
330
C
100
AcDbDictionary
281
     1
  3
Layout1
350
1E
  3
Layout2
350
26
  3
Model
350
22
  0
DICTIONARY
  5
3B
102
{ACAD_REACTORS
330
C
102
}
330
C
100
AcDbDictionary
281
     1
  3
ByBlock
350
3D
  3
ByLayer
350
3C
  3
Global
350
3E
  0
DICTIONARY
  5
107
102
{ACAD_REACTORS
330
C
102
}
330
C
100
AcDbDictionary
281
     1
  0
DICTIONARY
  5
17
102
{ACAD_REACTORS
330
C
102
}
330
C
100
AcDbDictionary
281
     1
  3
Standard
350
18
  0
DICTIONARY
  5
19
102
{ACAD_REACTORS
330
C
102
}
330
C
100
AcDbDictionary
281
     1
  0
ACDBDICTIONARYWDFLT
  5
E
102
{ACAD_REACTORS
330
C
102
}
330
C
100
AcDbDictionary
281
     1
  3
Normal
350
F
100
AcDbDictionaryWithDefault
340
F
  0
DICTIONARY
  5
106
102
{ACAD_REACTORS
330
C
102
}
330
C
100
AcDbDictionary
281
     1
  0
DICTIONARY
  5
2A
102
{ACAD_REACTORS
330
C
102
}
330
C
100
AcDbDictionary
281
     1
  3
2dWireframe
350
2F
  3
3D Hidden
350
31
  3
3dWireframe
350
30
  3
Basic
350
32
  3
Brighten
350
36
  3
ColorChange
350
3A
  3
Conceptual
350
34
  3
Dim
350
35
  3
Facepattern
350
39
  3
Flat
350
2B
  3
FlatWithEdges
350
2C
  3
Gouraud
350
2D
  3
GouraudWithEdges
350
2E
  3
Linepattern
350
38
  3
Realistic
350
33
  3
Thicken
350
37
  0
LAYOUT
  5
1E
102
{ACAD_REACTORS
330
1A
102
}
330
1A
100
AcDbPlotSettings
  1

  2
none_device
  4

  6

 40
0.0
 41
0.0
 42
0.0
 43
0.0
 44
0.0
 45
0.0
 46
0.0
 47
0.0
 48
0.0
 49
0.0
140
0.0
141
0.0
142
1.0
143
1.0
 70
   688
 72
     0
 73
     0
 74
     5
  7

 75
    16
 76
     0
 77
     2
 78
   300
147
1.0
148
0.0
149
0.0
100
AcDbLayout
  1
Layout1
 70
     1
 71
     1
 10
0.0
 20
0.0
 11
12.0
 21
9.0
 12
0.0
 22
0.0
 32
0.0
 14
1.000000000000000E+20
 24
1.000000000000000E+20
 34
1.000000000000000E+20
 15
-1.000000000000000E+20
 25
-1.000000000000000E+20
 35
-1.000000000000000E+20
146
0.0
 13
0.0
 23
0.0
 33
0.0
 16
1.0
 26
0.0
 36
0.0
 17
0.0
 27
1.0
 37
0.0
 76
     0
330
1B
  0
LAYOUT
  5
26
102
{ACAD_REACTORS
330
1A
102
}
330
1A
100
AcDbPlotSettings
  1

  2
none_device
  4

  6

 40
0.0
 41
0.0
 42
0.0
 43
0.0
 44
0.0
 45
0.0
 46
0.0
 47
0.0
 48
0.0
 49
0.0
140
0.0
141
0.0
142
1.0
143
1.0
 70
   688
 72
     0
 73
     0
 74
     5
  7

 75
    16
 76
     0
 77
     2
 78
   300
147
1.0
148
0.0
149
0.0
100
AcDbLayout
  1
Layout2
 70
     1
 71
     2
 10
0.0
 20
0.0
 11
0.0
 21
0.0
 12
0.0
 22
0.0
 32
0.0
 14
0.0
 24
0.0
 34
0.0
 15
0.0
 25
0.0
 35
0.0
146
0.0
 13
0.0
 23
0.0
 33
0.0
 16
1.0
 26
0.0
 36
0.0
 17
0.0
 27
1.0
 37
0.0
 76
     0
330
23
  0
LAYOUT
  5
22
102
{ACAD_REACTORS
330
1A
102
}
330
1A
100
AcDbPlotSettings
  1

  2
none_device
  4

  6

 40
0.0
 41
0.0
 42
0.0
 43
0.0
 44
0.0
 45
0.0
 46
0.0
 47
0.0
 48
0.0
 49
0.0
140
0.0
141
0.0
142
1.0
143
1.0
 70
  1712
 72
     0
 73
     0
 74
     0
  7

 75
     0
 76
     0
 77
     2
 78
   300
147
1.0
148
0.0
149
0.0
100
AcDbLayout
  1
Model
 70
     1
 71
     0
 10
0.0
 20
0.0
 11
12.0
 21
9.0
 12
0.0
 22
0.0
 32
0.0
 14
1.000000000000000E+20
 24
1.000000000000000E+20
 34
1.000000000000000E+20
 15
-1.000000000000000E+20
 25
-1.000000000000000E+20
 35
-1.000000000000000E+20
146
0.0
 13
0.0
 23
0.0
 33
0.0
 16
1.0
 26
0.0
 36
0.0
 17
0.0
 27
1.0
 37
0.0
 76
     0
330
1F
331
29
  0
MATERIAL
  5
3D
102
{ACAD_REACTORS
330
3B
102
}
330
3B
100
AcDbMaterial
  1
ByBlock
 72
     1
 94
      127
  0
MATERIAL
  5
3C
102
{ACAD_REACTORS
330
3B
102
}
330
3B
100
AcDbMaterial
  1
ByLayer
 72
     1
 94
      127
  0
MATERIAL
  5
3E
102
{ACAD_REACTORS
330
3B
102
}
330
3B
100
AcDbMaterial
  1
Global
 72
     1
 94
      127
  0
MLINESTYLE
  5
18
102
{ACAD_REACTORS
330
17
102
}
330
17
100
AcDbMlineStyle
  2
Standard
 70
     0
  3

 62
   256
 51
90.0
 52
90.0
 71
     2
 49
0.5
 62
   256
  6
BYLAYER
 49
-0.5
 62
   256
  6
BYLAYER
  0
ACDBPLACEHOLDER
  5
F
102
{ACAD_REACTORS
330
E
102
}
330
E
  0
VISUALSTYLE
  5
2F
102
{ACAD_REACTORS
330
2A
102
}
330
2A
100
AcDbVisualStyle
  2
2dWireframe
 70
     4
177
     2
291
     0
 71
     0
176
     1
 72
     2
176
     1
 73
     0
176
     1
 90
        0
176
     1
 40
-0.6
176
     1
 41
-30.0
176
     1
 62
     5
 63
     7
421
 16777215
176
     1
 74
     1
176
     1
 91
        4
176
     1
 64
     7
176
     1
 65
   257
176
     1
 75
     1
176
     1
175
     1
176
     1
 42
1.0
176
     1
 92
        0
176
     1
 66
   257
176
     1
 43
1.0
176
     1
 76
     1
176
     1
 77
     6
176
     1
 78
     2
176
     1
 67
     7
176
     1
 79
     5
176
     1
170
     0
176
     1
171
     0
176
     1
290
     0
176
     1
 93
        1
176
     1
 44
0.0
176
     1
173
     0
176
     1
  0
VISUALSTYLE
  5
31
102
{ACAD_REACTORS
330
2A
102
}
330
2A
100
AcDbVisualStyle
  2
3D Hidden
 70
     6
177
     2
291
     0
 71
     1
176
     1
 72
     2
176
     1
 73
     2
176
     1
 90
        0
176
     1
 40
-0.6
176
     1
 41
-30.0
176
     1
 62
     5
 63
     7
421
 16777215
176
     1
 74
     2
176
     1
 91
        2
176
     1
 64
     7
176
     1
 65
   257
176
     1
 75
     2
176
     1
175
     1
176
     1
 42
40.0
176
     1
 92
        0
176
     1
 66
   257
176
     1
 43
1.0
176
     1
 76
     1
176
     1
 77
     6
176
     1
 78
     2
176
     1
 67
     7
176
     1
 79
     3
176
     1
170
     0
176
     1
171
     0
176
     1
290
     0
176
     1
 93
        1
176
     1
 44
0.0
176
     1
173
     0
176
     1
  0
VISUALSTYLE
  5
30
102
{ACAD_REACTORS
330
2A
102
}
330
2A
100
AcDbVisualStyle
  2
3dWireframe
 70
     5
177
     2
291
     0
 71
     0
176
     1
 72
     2
176
     1
 73
     0
176
     1
 90
        0
176
     1
 40
-0.6
176
     1
 41
-30.0
176
     1
 62
     5
 63
     7
421
 16777215
176
     1
 74
     1
176
     1
 91
        4
176
     1
 64
     7
176
     1
 65
   257
176
     1
 75
     1
176
     1
175
     1
176
     1
 42
1.0
176
     1
 92
        0
176
     1
 66
   257
176
     1
 43
1.0
176
     1
 76
     1
176
     1
 77
     6
176
     1
 78
     2
176
     1
 67
     7
176
     1
 79
     5
176
     1
170
     0
176
     1
171
     0
176
     1
290
     0
176
     1
 93
        1
176
     1
 44
0.0
176
     1
173
     0
176
     1
  0
VISUALSTYLE
  5
32
102
{ACAD_REACTORS
330
2A
102
}
330
2A
100
AcDbVisualStyle
  2
Basic
 70
     7
177
     2
291
     1
 71
     1
176
     1
 72
     0
176
     1
 73
     1
176
     1
 90
        0
176
     1
 40
-0.6
176
     1
 41
-30.0
176
     1
 62
     5
 63
     7
421
 16777215
176
     1
 74
     0
176
     1
 91
        4
176
     1
 64
     7
176
     1
 65
   257
176
     1
 75
     1
176
     1
175
     1
176
     1
 42
1.0
176
     1
 92
        8
176
     1
 66
     7
176
     1
 43
1.0
176
     1
 76
     1
176
     1
 77
     6
176
     1
 78
     2
176
     1
 67
     7
176
     1
 79
     5
176
     1
170
     0
176
     1
171
     0
176
     1
290
     0
176
     1
 93
        1
176
     1
 44
0.0
176
     1
173
     0
176
     1
  0
VISUALSTYLE
  5
36
102
{ACAD_REACTORS
330
2A
102
}
330
2A
100
AcDbVisualStyle
  2
Brighten
 70
    12
177
     2
291
     1
 71
     2
176
     1
 72
     2
176
     1
 73
     0
176
     1
 90
        0
176
     1
 40
-0.6
176
     1
 41
-30.0
176
     1
 62
     5
 63
     7
421
 16777215
176
     1
 74
     1
176
     1
 91
        4
176
     1
 64
     7
176
     1
 65
   257
176
     1
 75
     1
176
     1
175
     1
176
     1
 42
1.0
176
     1
 92
        8
176
     1
 66
     7
176
     1
 43
1.0
176
     1
 76
     1
176
     1
 77
     6
176
     1
 78
     2
176
     1
 67
     7
176
     1
 79
     5
176
     1
170
     0
176
     1
171
     0
176
     1
290
     0
176
     1
 93
        1
176
     1
 44
50.0
176
     1
173
     0
176
     1
  0
VISUALSTYLE
  5
3A
102
{ACAD_REACTORS
330
2A
102
}
330
2A
100
AcDbVisualStyle
  2
ColorChange
 70
    16
177
     2
291
     1
 71
     2
176
     1
 72
     2
176
     1
 73
     3
176
     1
 90
        0
176
     1
 40
-0.6
176
     1
 41
-30.0
176
     1
 62
     5
 63
     8
421
  8421504
176
     1
 74
     1
176
     1
 91
        4
176
     1
 64
     7
176
     1
 65
   257
176
     1
 75
     1
176
     1
175
     1
176
     1
 42
1.0
176
     1
 92
        8
176
     1
 66
     8
424
  8421504
176
     1
 43
1.0
176
     1
 76
     1
176
     1
 77
     6
176
     1
 78
     2
176
     1
 67
     7
176
     1
 79
     5
176
     1
170
     0
176
     1
171
     0
176
     1
290
     0
176
     1
 93
        1
176
     1
 44
0.0
176
     1
173
     0
176
     1
  0
VISUALSTYLE
  5
34
102
{ACAD_REACTORS
330
2A
102
}
330
2A
100
AcDbVisualStyle
  2
Conceptual
 70
     9
177
     2
291
     0
 71
     3
176
     1
 72
     2
176
     1
 73
     0
176
     1
 90
        0
176
     1
 40
-0.6
176
     1
 41
-30.0
176
     1
 62
     5
 63
     7
421
 16777215
176
     1
 74
     2
176
     1
 91
        2
176
     1
 64
     7
176
     1
 65
   257
176
     1
 75
     1
176
     1
175
     1
176
     1
 42
40.0
176
     1
 92
        8
176
     1
 66
     7
176
     1
 43
1.0
176
     1
 76
     1
176
     1
 77
     6
176
     1
 78
     2
176
     1
 67
     7
176
     1
 79
     3
176
     1
170
     0
176
     1
171
     0
176
     1
290
     0
176
     1
 93
        1
176
     1
 44
0.0
176
     1
173
     0
176
     1
  0
VISUALSTYLE
  5
35
102
{ACAD_REACTORS
330
2A
102
}
330
2A
100
AcDbVisualStyle
  2
Dim
 70
    11
177
     2
291
     1
 71
     2
176
     1
 72
     2
176
     1
 73
     0
176
     1
 90
        0
176
     1
 40
-0.6
176
     1
 41
-30.0
176
     1
 62
     5
 63
     7
421
 16777215
176
     1
 74
     1
176
     1
 91
        4
176
     1
 64
     7
176
     1
 65
   257
176
     1
 75
     1
176
     1
175
     1
176
     1
 42
1.0
176
     1
 92
        8
176
     1
 66
     7
176
     1
 43
1.0
176
     1
 76
     1
176
     1
 77
     6
176
     1
 78
     2
176
     1
 67
     7
176
     1
 79
     5
176
     1
170
     0
176
     1
171
     0
176
     1
290
     0
176
     1
 93
        1
176
     1
 44
-50.0
176
     1
173
     0
176
     1
  0
VISUALSTYLE
  5
39
102
{ACAD_REACTORS
330
2A
102
}
330
2A
100
AcDbVisualStyle
  2
Facepattern
 70
    15
177
     2
291
     1
 71
     2
176
     1
 72
     2
176
     1
 73
     0
176
     1
 90
        0
176
     1
 40
-0.6
176
     1
 41
-30.0
176
     1
 62
     5
 63
     7
421
 16777215
176
     1
 74
     1
176
     1
 91
        4
176
     1
 64
     7
176
     1
 65
   257
176
     1
 75
     1
176
     1
175
     1
176
     1
 42
1.0
176
     1
 92
        8
176
     1
 66
     7
176
     1
 43
1.0
176
     1
 76
     1
176
     1
 77
     6
176
     1
 78
     2
176
     1
 67
     7
176
     1
 79
     5
176
     1
170
     0
176
     1
171
     0
176
     1
290
     0
176
     1
 93
        1
176
     1
 44
0.0
176
     1
173
     0
176
     1
  0
VISUALSTYLE
  5
2B
102
{ACAD_REACTORS
330
2A
102
}
330
2A
100
AcDbVisualStyle
  2
Flat
 70
     0
177
     2
291
     1
 71
     2
176
     1
 72
     1
176
     1
 73
     1
176
     1
 90
        2
176
     1
 40
-0.6
176
     1
 41
30.0
176
     1
 62
     5
 63
     7
421
 16777215
176
     1
 74
     0
176
     1
 91
        4
176
     1
 64
     7
176
     1
 65
   257
176
     1
 75
     1
176
     1
175
     1
176
     1
 42
1.0
176
     1
 92
        8
176
     1
 66
     7
176
     1
 43
1.0
176
     1
 76
     1
176
     1
 77
     6
176
     1
 78
     2
176
     1
 67
     7
176
     1
 79
     5
176
     1
170
     0
176
     1
171
     0
176
     1
290
     0
176
     1
 93
       13
176
     1
 44
0.0
176
     1
173
     0
176
     1
  0
VISUALSTYLE
  5
2C
102
{ACAD_REACTORS
330
2A
102
}
330
2A
100
AcDbVisualStyle
  2
FlatWithEdges
 70
     1
177
     2
291
     1
 71
     2
176
     1
 72
     1
176
     1
 73
     1
176
     1
 90
        2
176
     1
 40
-0.6
176
     1
 41
30.0
176
     1
 62
     5
 63
     7
421
 16777215
176
     1
 74
     1
176
     1
 91
        4
176
     1
 64
     7
176
     1
 65
   257
176
     1
 75
     1
176
     1
175
     1
176
     1
 42
1.0
176
     1
 92
        0
176
     1
 66
   257
176
     1
 43
1.0
176
     1
 76
     1
176
     1
 77
     6
176
     1
 78
     2
176
     1
 67
     7
176
     1
 79
     5
176
     1
170
     0
176
     1
171
     0
176
     1
290
     0
176
     1
 93
       13
176
     1
 44
0.0
176
     1
173
     0
176
     1
  0
VISUALSTYLE
  5
2D
102
{ACAD_REACTORS
330
2A
102
}
330
2A
100
AcDbVisualStyle
  2
Gouraud
 70
     2
177
     2
291
     1
 71
     2
176
     1
 72
     2
176
     1
 73
     1
176
     1
 90
        2
176
     1
 40
-0.6
176
     1
 41
30.0
176
     1
 62
     5
 63
     7
421
 16777215
176
     1
 74
     0
176
     1
 91
        4
176
     1
 64
     7
176
     1
 65
   257
176
     1
 75
     1
176
     1
175
     1
176
     1
 42
1.0
176
     1
 92
        0
176
     1
 66
     7
176
     1
 43
1.0
176
     1
 76
     1
176
     1
 77
     6
176
     1
 78
     2
176
     1
 67
     7
176
     1
 79
     5
176
     1
170
     0
176
     1
171
     0
176
     1
290
     0
176
     1
 93
       13
176
     1
 44
0.0
176
     1
173
     0
176
     1
  0
VISUALSTYLE
  5
2E
102
{ACAD_REACTORS
330
2A
102
}
330
2A
100
AcDbVisualStyle
  2
GouraudWithEdges
 70
     3
177
     2
291
     1
 71
     2
176
     1
 72
     2
176
     1
 73
     1
176
     1
 90
        2
176
     1
 40
-0.6
176
     1
 41
30.0
176
     1
 62
     5
 63
     7
421
 16777215
176
     1
 74
     1
176
     1
 91
        4
176
     1
 64
     7
176
     1
 65
   257
176
     1
 75
     1
176
     1
175
     1
176
     1
 42
1.0
176
     1
 92
        0
176
     1
 66
   257
176
     1
 43
1.0
176
     1
 76
     1
176
     1
 77
     6
176
     1
 78
     2
176
     1
 67
     7
176
     1
 79
     5
176
     1
170
     0
176
     1
171
     0
176
     1
290
     0
176
     1
 93
       13
176
     1
 44
0.0
176
     1
173
     0
176
     1
  0
VISUALSTYLE
  5
38
102
{ACAD_REACTORS
330
2A
102
}
330
2A
100
AcDbVisualStyle
  2
Linepattern
 70
    14
177
     2
291
     1
 71
     2
176
     1
 72
     2
176
     1
 73
     0
176
     1
 90
        0
176
     1
 40
-0.6
176
     1
 41
-30.0
176
     1
 62
     5
 63
     7
421
 16777215
176
     1
 74
     1
176
     1
 91
        4
176
     1
 64
     7
176
     1
 65
   257
176
     1
 75
     7
176
     1
175
     7
176
     1
 42
1.0
176
     1
 92
        8
176
     1
 66
     7
176
     1
 43
1.0
176
     1
 76
     1
176
     1
 77
     6
176
     1
 78
     2
176
     1
 67
     7
176
     1
 79
     5
176
     1
170
     0
176
     1
171
     0
176
     1
290
     0
176
     1
 93
        1
176
     1
 44
0.0
176
     1
173
     0
176
     1
  0
VISUALSTYLE
  5
33
102
{ACAD_REACTORS
330
2A
102
}
330
2A
100
AcDbVisualStyle
  2
Realistic
 70
     8
177
     2
291
     0
 71
     2
176
     1
 72
     2
176
     1
 73
     0
176
     1
 90
        0
176
     1
 40
-0.6
176
     1
 41
-30.0
176
     1
 62
     5
 63
     7
421
 16777215
176
     1
 74
     1
176
     1
 91
        0
176
     1
 64
     7
176
     1
 65
   257
176
     1
 75
     1
176
     1
175
     1
176
     1
 42
1.0
176
     1
 92
        8
176
     1
 66
     8
424
  7895160
176
     1
 43
1.0
176
     1
 76
     1
176
     1
 77
     6
176
     1
 78
     2
176
     1
 67
     7
176
     1
 79
     5
176
     1
170
     0
176
     1
171
     0
176
     1
290
     0
176
     1
 93
       13
176
     1
 44
0.0
176
     1
173
     0
176
     1
  0
VISUALSTYLE
  5
37
102
{ACAD_REACTORS
330
2A
102
}
330
2A
100
AcDbVisualStyle
  2
Thicken
 70
    13
177
     2
291
     1
 71
     2
176
     1
 72
     2
176
     1
 73
     0
176
     1
 90
        0
176
     1
 40
-0.6
176
     1
 41
-30.0
176
     1
 62
     5
 63
     7
421
 16777215
176
     1
 74
     1
176
     1
 91
        4
176
     1
 64
     7
176
     1
 65
   257
176
     1
 75
     1
176
     1
175
     1
176
     1
 42
1.0
176
     1
 92
       12
176
     1
 66
     7
176
     1
 43
1.0
176
     1
 76
     1
176
     1
 77
     6
176
     1
 78
     2
176
     1
 67
     7
176
     1
 79
     5
176
     1
170
     0
176
     1
171
     0
176
     1
290
     0
176
     1
 93
        1
176
     1
 44
0.0
176
     1
173
     0
176
     1
  0
ENDSEC
  0
EOF
