  0
SECTION
  2
HEADER
  9
$ACADVER
  1
AC1024
  9
$ACADMAINTVER
 70
     6
  9
$DWGCODEPAGE
  3
UNDEFINED
  9
$INSBASE
 10
0.0
 20
0.0
 30
0.0
  9
$EXTMIN
 10
1.000000000000000E+20
 20
1.000000000000000E+20
 30
1.000000000000000E+20
  9
$EXTMAX
 10
-1.000000000000000E+20
 20
-1.000000000000000E+20
 30
-1.000000000000000E+20
  9
$LIMMIN
 10
0.0
 20
0.0
  9
$LIMMAX
 10
12.0
 20
9.0
  9
$ORTHOMODE
 70
     0
  9
$REGENMODE
 70
     1
  9
$FILLMODE
 70
     1
  9
$QTEXTMODE
 70
     0
  9
$MIRRTEXT
 70
     1
  9
$LTSCALE
 40
1.0
  9
$ATTMODE
 70
     1
  9
$TEXTSIZE
 40
0.2
  9
$TRACEWID
 40
0.05
  9
$TEXTSTYLE
  7
Standard
  9
$CLAYER
  8
0
  9
$CELTYPE
  6
ByLayer
  9
$CECOLOR
 62
   256
  9
$CELTSCALE
 40
1.0
  9
$DISPSILH
 70
     0
  9
$DIMSCALE
 40
1.0
  9
$DIMASZ
 40
0.18
  9
$DIMEXO
 40
0.0625
  9
$DIMDLI
 40
0.38
  9
$DIMRND
 40
0.0
  9
$DIMDLE
 40
0.0
  9
$DIMEXE
 40
0.18
  9
$DIMTP
 40
0.0
  9
$DIMTM
 40
0.0
  9
$DIMTXT
 40
0.18
  9
$DIMCEN
 40
0.09
  9
$DIMTSZ
 40
0.0
  9
$DIMTOL
 70
     0
  9
$DIMLIM
 70
     0
  9
$DIMTIH
 70
     1
  9
$DIMTOH
 70
     1
  9
$DIMSE1
 70
     0
  9
$DIMSE2
 70
     0
  9
$DIMTAD
 70
     0
  9
$DIMZIN
 70
     0
  9
$DIMBLK
  1

  9
$DIMASO
 70
     1
  9
$DIMSHO
 70
     1
  9
$DIMPOST
  1

  9
$DIMAPOST
  1

  9
$DIMALT
 70
     0
  9
$DIMALTD
 70
     2
  9
$DIMALTF
 40
25.4
  9
$DIMLFAC
 40
1.0
  9
$DIMTOFL
 70
     0
  9
$DIMTVP
 40
0.0
  9
$DIMTIX
 70
     0
  9
$DIMSOXD
 70
     0
  9
$DIMSAH
 70
     0
  9
$DIMBLK1
  1

  9
$DIMBLK2
  1

  9
$DIMSTYLE
  2
Standard
  9
$DIMCLRD
 70
     0
  9
$DIMCLRE
 70
     0
  9
$DIMCLRT
 70
     0
  9
$DIMTFAC
 40
1.0
  9
$DIMGAP
 40
0.09
  9
$DIMJUST
 70
     0
  9
$DIMSD1
 70
     0
  9
$DIMSD2
 70
     0
  9
$DIMTOLJ
 70
     1
  9
$DIMTZIN
 70
     0
  9
$DIMALTZ
 70
     0
  9
$DIMALTTZ
 70
     0
  9
$DIMUPT
 70
     0
  9
$DIMDEC
 70
     4
  9
$DIMTDEC
 70
     4
  9
$DIMALTU
 70
     2
  9
$DIMALTTD
 70
     2
  9
$DIMTXSTY
  7
Standard
  9
$DIMAUNIT
 70
     0
  9
$DIMADEC
 70
     0
  9
$DIMALTRND
 40
0.0
  9
$DIMAZIN
 70
     0
  9
$DIMDSEP
 70
    46
  9
$DIMATFIT
 70
     3
  9
$DIMFRAC
 70
     0
  9
$DIMLDRBLK
  1

  9
$DIMLUNIT
 70
     2
  9
$DIMLWD
 70
    -2
  9
$DIMLWE
 70
    -2
  9
$DIMTMOVE
 70
     0
  9
$DIMFXL
 40
1.0
  9
$DIMFXLON
 70
     0
  9
$DIMJOGANG
 40
0.7853981633974483
  9
$DIMTFILL
 70
     0
  9
$DIMTFILLCLR
 70
     0
  9
$DIMARCSYM
 70
     0
  9
$DIMLTYPE
  6

  9
$DIMLTEX1
  6

  9
$DIMLTEX2
  6

  9
$DIMTXTDIRECTION
 70
     0
  9
$LUNITS
 70
     2
  9
$LUPREC
 70
     4
  9
$SKETCHINC
 40
0.1
  9
$FILLETRAD
 40
0.5
  9
$AUNITS
 70
     0
  9
$AUPREC
 70
     0
  9
$MENU
  1
.
  9
$ELEVATION
 40
0.0
  9
$PELEVATION
 40
0.0
  9
$THICKNESS
 40
0.0
  9
$LIMCHECK
 70
     0
  9
$CHAMFERA
 40
0.5
  9
$CHAMFERB
 40
0.5
  9
$CHAMFERC
 40
1.0
  9
$CHAMFERD
 40
0.0
  9
$SKPOLY
 70
     0
  9
$TDCREATE
 40
2457917.613067118
  9
$TDUCREATE
 40
2457917.23806713
  9
$TDUPDATE
 40
2457917.613067118
  9
$TDUUPDATE
 40
2457917.23806713
  9
$TDINDWG
 40
0.0000000116
  9
$TDUSRTIMER
 40
0.0000000116
  9
$USRTIMER
 70
     1
  9
$ANGBASE
 50
0.0
  9
$ANGDIR
 70
     0
  9
$PDMODE
 70
     0
  9
$PDSIZE
 40
0.0
  9
$PLINEWID
 40
0.0
  9
$SPLFRAME
 70
     0
  9
$SPLINETYPE
 70
     6
  9
$SPLINESEGS
 70
     8
  9
$HANDSEED
  5
E7
  9
$SURFTAB1
 70
     6
  9
$SURFTAB2
 70
     6
  9
$SURFTYPE
 70
     6
  9
$SURFU
 70
     6
  9
$SURFV
 70
     6
  9
$UCSBASE
  2

  9
$UCSNAME
  2

  9
$UCSORG
 10
0.0
 20
0.0
 30
0.0
  9
$UCSXDIR
 10
1.0
 20
0.0
 30
0.0
  9
$UCSYDIR
 10
0.0
 20
1.0
 30
0.0
  9
$UCSORTHOREF
  2

  9
$UCSORTHOVIEW
 70
     0
  9
$UCSORGTOP
 10
0.0
 20
0.0
 30
0.0
  9
$UCSORGBOTTOM
 10
0.0
 20
0.0
 30
0.0
  9
$UCSORGLEFT
 10
0.0
 20
0.0
 30
0.0
  9
$UCSORGRIGHT
 10
0.0
 20
0.0
 30
0.0
  9
$UCSORGFRONT
 10
0.0
 20
0.0
 30
0.0
  9
$UCSORGBACK
 10
0.0
 20
0.0
 30
0.0
  9
$PUCSBASE
  2

  9
$PUCSNAME
  2

  9
$PUCSORG
 10
0.0
 20
0.0
 30
0.0
  9
$PUCSXDIR
 10
1.0
 20
0.0
 30
0.0
  9
$PUCSYDIR
 10
0.0
 20
1.0
 30
0.0
  9
$PUCSORTHOREF
  2

  9
$PUCSORTHOVIEW
 70
     0
  9
$PUCSORGTOP
 10
0.0
 20
0.0
 30
0.0
  9
$PUCSORGBOTTOM
 10
0.0
 20
0.0
 30
0.0
  9
$PUCSORGLEFT
 10
0.0
 20
0.0
 30
0.0
  9
$PUCSORGRIGHT
 10
0.0
 20
0.0
 30
0.0
  9
$PUCSORGFRONT
 10
0.0
 20
0.0
 30
0.0
  9
$PUCSORGBACK
 10
0.0
 20
0.0
 30
0.0
  9
$USERI1
 70
     0
  9
$USERI2
 70
     0
  9
$USERI3
 70
     0
  9
$USERI4
 70
     0
  9
$USERI5
 70
     0
  9
$USERR1
 40
0.0
  9
$USERR2
 40
0.0
  9
$USERR3
 40
0.0
  9
$USERR4
 40
0.0
  9
$USERR5
 40
0.0
  9
$WORLDVIEW
 70
     1
  9
$SHADEDGE
 70
     3
  9
$SHADEDIF
 70
    70
  9
$TILEMODE
 70
     1
  9
$MAXACTVP
 70
    64
  9
$PINSBASE
 10
0.0
 20
0.0
 30
0.0
  9
$PLIMCHECK
 70
     0
  9
$PEXTMIN
 10
1.000000000000000E+20
 20
1.000000000000000E+20
 30
1.000000000000000E+20
  9
$PEXTMAX
 10
-1.000000000000000E+20
 20
-1.000000000000000E+20
 30
-1.000000000000000E+20
  9
$PLIMMIN
 10
0.0
 20
0.0
  9
$PLIMMAX
 10
12.0
 20
9.0
  9
$UNITMODE
 70
     0
  9
$VISRETAIN
 70
     1
  9
$PLINEGEN
 70
     0
  9
$PSLTSCALE
 70
     1
  9
$TREEDEPTH
 70
  3020
  9
$CMLSTYLE
  2
Standard
  9
$CMLJUST
 70
     0
  9
$CMLSCALE
 40
1.0
  9
$PROXYGRAPHICS
 70
     1
  9
$MEASUREMENT
 70
     0
  9
$CELWEIGHT
370
    -1
  9
$ENDCAPS
280
     0
  9
$JOINSTYLE
280
     0
  9
$LWDISPLAY
290
     1
  9
$INSUNITS
 70
     1
  9
$HYPERLINKBASE
  1

  9
$STYLESHEET
  1

  9
$XEDIT
290
     1
  9
$CEPSNTYPE
380
     0
  9
$PSTYLEMODE
290
     1
  9
$FINGERPRINTGUID
  2
{EC1490D5-CF95-4BE1-316A-459030CAB2F5}
  9
$VERSIONGUID
  2
{FAEB1C32-E019-11D5-929B-00C0DF256EC4}
  9
$EXTNAMES
290
     1
  9
$PSVPSCALE
 40
0.0
  9
$OLESTARTUP
290
     0
  9
$SORTENTS
280
   127
  9
$INDEXCTL
280
     0
  9
$HIDETEXT
280
     1
  9
$XCLIPFRAME
280
     2
  9
$HALOGAP
280
     0
  9
$OBSCOLOR
 70
   257
  9
$OBSLTYPE
280
     0
  9
$INTERSECTIONDISPLAY
280
     0
  9
$INTERSECTIONCOLOR
 70
   257
  9
$DIMASSOC
280
     2
  9
$PROJECTNAME
  1

  9
$CAMERADISPLAY
290
     0
  9
$LENSLENGTH
 40
50.0
  9
$CAMERAHEIGHT
 40
0.0
  9
$STEPSPERSEC
 40
2.0
  9
$STEPSIZE
 40
6.0
  9
$3DDWFPREC
 40
2.0
  9
$PSOLWIDTH
 40
0.25
  9
$PSOLHEIGHT
 40
4.0
  9
$LOFTANG1
 40
1.570796326794897
  9
$LOFTANG2
 40
1.570796326794897
  9
$LOFTMAG1
 40
0.0
  9
$LOFTMAG2
 40
0.0
  9
$LOFTPARAM
 70
     7
  9
$LOFTNORMALS
280
     1
  9
$LATITUDE
 40
37.795
  9
$LONGITUDE
 40
-122.394
  9
$NORTHDIRECTION
 40
0.0
  9
$TIMEZONE
 70
 -8000
  9
$LIGHTGLYPHDISPLAY
280
     1
  9
$TILEMODELIGHTSYNCH
280
     1
  9
$CMATERIAL
347
3C
  9
$SOLIDHIST
280
     1
  9
$SHOWHIST
280
     1
  9
$DWFFRAME
280
     2
  9
$DGNFRAME
280
     2
  9
$REALWORLDSCALE
290
     1
  9
$INTERFERECOLOR
 62
   256
  9
$CSHADOW
280
     0
  9
$SHADOWPLANELOCATION
 40
0.0
  0
ENDSEC
  0
SECTION
  2
CLASSES
  0
CLASS
  1
ACDBDICTIONARYWDFLT
  2
AcDbDictionaryWithDefault
  3
ObjectDBX Classes
 90
        0
 91
        4
280
     0
281
     0
  0
CLASS
  1
VISUALSTYLE
  2
AcDbVisualStyle
  3
ObjectDBX Classes
 90
     4095
 91
        4
280
     0
281
     0
  0
CLASS
  1
MATERIAL
  2
AcDbMaterial
  3
ObjectDBX Classes
 90
     1153
 91
        4
280
     0
281
     0
  0
CLASS
  1
SUN
  2
AcDbSun
  3
SCENEOE
 90
     1024
 91
        4
280
     0
281
     0
  0
ENDSEC
  0
SECTION
  2
TABLES
  0
TABLE
  2
VPORT
  5
8
330
0
100
AcDbSymbolTable
 70
     1
  0
VPORT
  5
29
330
8
100
AcDbSymbolTableRecord
100
AcDbViewportTableRecord
  2
*Active
 70
     0
 10
0.0
 20
0.0
 11
1.0
 21
1.0
 12
0.0
 22
0.0
 13
0.0
 23
0.0
 14
0.5
 24
0.5
 15
0.5
 25
0.5
 16
0.0
 26
0.0
 36
1.0
 17
91.00082462281999
 27
-128.4993055234307
 37
0.0
 40
256.9986110468615
 41
0.7081814508812795
 42
50.0
 43
0.0
 44
0.0
 50
0.0
 51
0.0
 71
     0
 72
   100
 73
     1
 74
     3
 75
     0
 76
     0
 77
     0
 78
     0
281
     0
 65
     1
110
0.0
120
0.0
130
0.0
111
1.0
121
0.0
131
0.0
112
0.0
122
1.0
132
0.0
 79
     0
146
0.0
 60
     3
 61
     5
292
     1
282
     1
141
0.0
142
0.0
 63
   250
361
3F
  0
ENDTAB
  0
TABLE
  2
LTYPE
  5
5
330
0
100
AcDbSymbolTable
 70
     1
  0
LTYPE
  5
14
330
5
100
AcDbSymbolTableRecord
100
AcDbLinetypeTableRecord
  2
ByBlock
 70
     0
  3

 72
    65
 73
     0
 40
0.0
  0
LTYPE
  5
15
330
5
100
AcDbSymbolTableRecord
100
AcDbLinetypeTableRecord
  2
ByLayer
 70
     0
  3

 72
    65
 73
     0
 40
0.0
  0
LTYPE
  5
16
330
5
100
AcDbSymbolTableRecord
100
AcDbLinetypeTableRecord
  2
Continuous
 70
     0
  3
Solid line
 72
    65
 73
     0
 40
0.0
  0
ENDTAB
  0
TABLE
  2
LAYER
  5
2
330
0
100
AcDbSymbolTable
 70
     2
  0
LAYER
  5
10
330
2
100
AcDbSymbolTableRecord
100
AcDbLayerTableRecord
  2
0
 70
     0
 62
     7
  6
Continuous
370
    -3
390
F
347
3E
  0
LAYER
  5
40
330
2
100
AcDbSymbolTableRecord
100
AcDbLayerTableRecord
  2
_U+30EC_U+30A4_U+30E4_U+30FC 1
 70
     0
 62
     7
  6
Continuous
370
    -3
390
F
347
3E
  0
ENDTAB
  0
TABLE
  2
STYLE
  5
3
330
0
100
AcDbSymbolTable
 70
     1
  0
STYLE
  5
11
330
3
100
AcDbSymbolTableRecord
100
AcDbTextStyleTableRecord
  2
Standard
 70
     0
 40
0.0
 41
1.0
 50
0.0
 71
     0
 42
0.2
  3
txt
  4

  0
ENDTAB
  0
TABLE
  2
VIEW
  5
6
330
0
100
AcDbSymbolTable
 70
     0
  0
ENDTAB
  0
TABLE
  2
UCS
  5
7
330
0
100
AcDbSymbolTable
 70
     0
  0
ENDTAB
  0
TABLE
  2
APPID
  5
9
330
0
100
AcDbSymbolTable
 70
     1
  0
APPID
  5
12
330
9
100
AcDbSymbolTableRecord
100
AcDbRegAppTableRecord
  2
ACAD
 70
     0
  0
ENDTAB
  0
TABLE
  2
DIMSTYLE
  5
A
330
0
100
AcDbSymbolTable
 70
     1
100
AcDbDimStyleTable
  0
DIMSTYLE
105
27
330
A
100
AcDbSymbolTableRecord
100
AcDbDimStyleTableRecord
  2
Standard
 70
     0
178
     0
340
11
  0
ENDTAB
  0
TABLE
  2
BLOCK_RECORD
  5
1
330
0
100
AcDbSymbolTable
 70
     7
  0
BLOCK_RECORD
  5
1F
330
1
100
AcDbSymbolTableRecord
100
AcDbBlockTableRecord
  2
*Model_Space
340
22
 70
     0
280
     1
281
     0
  0
BLOCK_RECORD
  5
1B
330
1
100
AcDbSymbolTableRecord
100
AcDbBlockTableRecord
  2
*Paper_Space
340
1E
 70
     0
280
     1
281
     0
  0
BLOCK_RECORD
  5
23
330
1
100
AcDbSymbolTableRecord
100
AcDbBlockTableRecord
  2
*Paper_Space0
340
26
 70
     0
280
     1
281
     0
  0
BLOCK_RECORD
  5
8A
330
1
100
AcDbSymbolTableRecord
100
AcDbBlockTableRecord
  2
block 2
340
0
102
{BLKREFS
331
8B
102
}
 70
     0
280
     1
281
     0
  0
BLOCK_RECORD
  5
98
330
1
100
AcDbSymbolTableRecord
100
AcDbBlockTableRecord
  2
block 3
340
0
102
{BLKREFS
331
99
102
}
 70
     0
280
     1
281
     0
  0
BLOCK_RECORD
  5
AA
330
1
100
AcDbSymbolTableRecord
100
AcDbBlockTableRecord
  2
block 4
340
0
102
{BLKREFS
331
AB
102
}
 70
     0
280
     1
281
     0
  0
BLOCK_RECORD
  5
BE
330
1
100
AcDbSymbolTableRecord
100
AcDbBlockTableRecord
  2
block 5
340
0
102
{BLKREFS
331
BF
102
}
 70
     0
280
     1
281
     0
  0
BLOCK_RECORD
  5
CF
330
1
100
AcDbSymbolTableRecord
100
AcDbBlockTableRecord
  2
block 6
340
0
102
{BLKREFS
331
D0
102
}
 70
     0
280
     1
281
     0
  0
BLOCK_RECORD
  5
DF
330
1
100
AcDbSymbolTableRecord
100
AcDbBlockTableRecord
  2
block 7
340
0
102
{BLKREFS
331
E0
102
}
 70
     0
280
     1
281
     0
  0
ENDTAB
  0
ENDSEC
  0
SECTION
  2
BLOCKS
  0
BLOCK
  5
20
330
1F
100
AcDbEntity
  8
0
100
AcDbBlockBegin
  2
*Model_Space
 70
     0
 10
0.0
 20
0.0
 30
0.0
  3
*Model_Space
  1

  0
ENDBLK
  5
21
330
1F
100
AcDbEntity
  8
0
100
AcDbBlockEnd
  0
BLOCK
  5
1C
330
1B
100
AcDbEntity
 67
     1
  8
0
100
AcDbBlockBegin
  2
*Paper_Space
 70
     0
 10
0.0
 20
0.0
 30
0.0
  3
*Paper_Space
  1

  0
ENDBLK
  5
1D
330
1B
100
AcDbEntity
 67
     1
  8
0
100
AcDbBlockEnd
  0
BLOCK
  5
24
330
23
100
AcDbEntity
  8
0
100
AcDbBlockBegin
  2
*Paper_Space0
 70
     0
 10
0.0
 20
0.0
 30
0.0
  3
*Paper_Space0
  1

  0
ENDBLK
  5
25
330
23
100
AcDbEntity
  8
0
100
AcDbBlockEnd
  0
BLOCK
  5
8C
330
8A
100
AcDbEntity
  8
0
100
AcDbBlockBegin
  2
block 2
 70
     0
 10
0.0
 20
0.0
 30
0.0
  3
block 2
  1

  0
SPLINE
  5
8E
330
8A
100
AcDbEntity
  8
_U+30EC_U+30A4_U+30E4_U+30FC 1
370
     0
100
AcDbSpline
210
0.0
220
0.0
230
1.0
 70
    11
 71
     3
 72
    26
 73
    22
 74
     0
 42
0.0000000001
 43
0.0000000001
 12
1.0
 22
0.0
 32
0.0
 13
1.0
 23
0.0
 33
0.0
 40
0.0
 40
0.0
 40
0.0
 40
0.0
 40
1.0
 40
1.0
 40
1.0
 40
2.0
 40
2.0
 40
2.0
 40
3.0
 40
3.0
 40
3.0
 40
4.0
 40
4.0
 40
4.0
 40
5.0
 40
5.0
 40
5.0
 40
6.0
 40
6.0
 40
6.0
 40
7.0
 40
7.0
 40
7.0
 40
7.0
 10
109.811385063693
 20
-121.2215413108405
 30
0.0
 10
109.811385063693
 20
-121.2215413108405
 30
0.0
 10
108.7072319606704
 20
-121.2215413108405
 30
0.0
 10
108.7072319606704
 20
-121.2215413108405
 30
0.0
 10
108.7072319606704
 20
-121.2215413108405
 30
0.0
 10
108.7072319606704
 20
-121.5515814583274
 30
0.0
 10
108.7072319606704
 20
-121.5515814583274
 30
0.0
 10
108.7072319606704
 20
-121.5515814583274
 30
0.0
 10
108.5590928548047
 20
-121.5515814583274
 30
0.0
 10
108.5590928548047
 20
-121.5515814583274
 30
0.0
 10
108.5442789442181
 20
-121.2194742535493
 30
0.0
 10
108.3813259277658
 20
-121.1729654644984
 30
0.0
 10
108.2669487576555
 20
-121.1433376433253
 30
0.0
 10
108.2669487576555
 20
-121.1433376433253
 30
0.0
 10
108.2669487576555
 20
-120.9972655947507
 30
0.0
 10
108.2669487576555
 20
-120.9972655947507
 30
0.0
 10
108.2669487576555
 20
-120.9972655947507
 30
0.0
 10
109.811385063693
 20
-120.9972655947507
 30
0.0
 10
109.811385063693
 20
-120.9972655947507
 30
0.0
 10
109.811385063693
 20
-120.9972655947507
 30
0.0
 10
109.811385063693
 20
-121.2215413108405
 30
0.0
 10
109.811385063693
 20
-121.2215413108405
 30
0.0
  0
HATCH
  5
8F
330
8A
100
AcDbEntity
  8
_U+30EC_U+30A4_U+30E4_U+30FC 1
 62
   179
420
  2234388
100
AcDbHatch
 10
0.0
 20
0.0
 30
0.0
210
0.0
220
0.0
230
1.0
  2
SOLID
 70
     1
 71
     0
 91
        1
 92
        1
 93
        1
 72
     4
 94
        3
 73
     0
 74
     1
 95
       26
 96
       22
 40
0.0
 40
0.0
 40
0.0
 40
0.0
 40
1.0
 40
1.0
 40
1.0
 40
2.0
 40
2.0
 40
2.0
 40
3.0
 40
3.0
 40
3.0
 40
4.0
 40
4.0
 40
4.0
 40
5.0
 40
5.0
 40
5.0
 40
6.0
 40
6.0
 40
6.0
 40
7.0
 40
7.0
 40
7.0
 40
7.0
 10
109.811385063693
 20
-121.2215413108405
 10
109.811385063693
 20
-121.2215413108405
 10
108.7072319606704
 20
-121.2215413108405
 10
108.7072319606704
 20
-121.2215413108405
 10
108.7072319606704
 20
-121.2215413108405
 10
108.7072319606704
 20
-121.5515814583274
 10
108.7072319606704
 20
-121.5515814583274
 10
108.7072319606704
 20
-121.5515814583274
 10
108.5590928548047
 20
-121.5515814583274
 10
108.5590928548047
 20
-121.5515814583274
 10
108.5442789442181
 20
-121.2194742535493
 10
108.3813259277658
 20
-121.1729654644984
 10
108.2669487576555
 20
-121.1433376433253
 10
108.2669487576555
 20
-121.1433376433253
 10
108.2669487576555
 20
-120.9972655947507
 10
108.2669487576555
 20
-120.9972655947507
 10
108.2669487576555
 20
-120.9972655947507
 10
109.811385063693
 20
-120.9972655947507
 10
109.811385063693
 20
-120.9972655947507
 10
109.811385063693
 20
-120.9972655947507
 10
109.811385063693
 20
-121.2215413108405
 10
109.811385063693
 20
-121.2215413108405
 97
        0
 97
        0
 75
     2
 76
     1
 98
        0
  0
ENDBLK
  5
8D
330
8A
100
AcDbEntity
  8
0
100
AcDbBlockEnd
  0
BLOCK
  5
9A
330
98
100
AcDbEntity
  8
0
100
AcDbBlockBegin
  2
block 3
 70
     0
 10
0.0
 20
0.0
 30
0.0
  3
block 3
  1

  0
SPLINE
  5
9C
330
98
100
AcDbEntity
  8
_U+30EC_U+30A4_U+30E4_U+30FC 1
370
     0
100
AcDbSpline
210
0.0
220
0.0
230
1.0
 70
    11
 71
     3
 72
    62
 73
    58
 74
     0
 42
0.0000000001
 43
0.0000000001
 12
1.0
 22
0.0
 32
0.0
 13
1.0
 23
0.0
 33
0.0
 40
0.0
 40
0.0
 40
0.0
 40
0.0
 40
1.0
 40
1.0
 40
1.0
 40
2.0
 40
2.0
 40
2.0
 40
3.0
 40
3.0
 40
3.0
 40
4.0
 40
4.0
 40
4.0
 40
5.0
 40
5.0
 40
5.0
 40
6.0
 40
6.0
 40
6.0
 40
7.0
 40
7.0
 40
7.0
 40
8.0
 40
8.0
 40
8.0
 40
9.0
 40
9.0
 40
9.0
 40
10.0
 40
10.0
 40
10.0
 40
11.0
 40
11.0
 40
11.0
 40
12.0
 40
12.0
 40
12.0
 40
13.0
 40
13.0
 40
13.0
 40
14.0
 40
14.0
 40
14.0
 40
15.0
 40
15.0
 40
15.0
 40
16.0
 40
16.0
 40
16.0
 40
17.0
 40
17.0
 40
17.0
 40
18.0
 40
18.0
 40
18.0
 40
19.0
 40
19.0
 40
19.0
 40
19.0
 10
109.8620279673262
 20
-133.6814181523436
 30
0.0
 10
109.8620279673262
 20
-133.776847297285
 30
0.0
 10
109.8410128848661
 20
-133.9945773319527
 30
0.0
 10
109.6549777286626
 20
-134.1196342980673
 30
0.0
 10
109.5426676158435
 20
-134.1933593414517
 30
0.0
 10
109.4434488658683
 20
-134.1978379655825
 30
0.0
 10
109.3586995169312
 20
-134.2019720801648
 30
0.0
 10
109.3586995169312
 20
-134.2019720801648
 30
0.0
 10
109.3586995169312
 20
-133.9818304786573
 30
0.0
 10
109.3586995169312
 20
-133.9818304786573
 30
0.0
 10
109.432769069864
 20
-133.9797634213662
 30
0.0
 10
109.6673800724095
 20
-133.9694281349104
 30
0.0
 10
109.6673800724095
 20
-133.6858967764744
 30
0.0
 10
109.6673800724095
 20
-133.5484374666129
 30
0.0
 10
109.5977891436075
 20
-133.3958197366163
 30
0.0
 10
109.3693793129354
 20
-133.3958197366163
 30
0.0
 10
109.252935085534
 20
-133.3958197366163
 30
0.0
 10
109.204359239192
 20
-133.4340602965026
 30
0.0
 10
109.1726643607277
 20
-133.4657551749669
 30
0.0
 10
109.0985948077948
 20
-133.5398247278998
 30
0.0
 10
109.0858479544994
 20
-133.6562689553012
 30
0.0
 10
109.0858479544994
 20
-133.7110459735167
 30
0.0
 10
109.0858479544994
 20
-133.7303385082341
 30
0.0
 10
109.0879150117905
 20
-133.7661675012807
 30
0.0
 10
109.0920491263728
 20
-133.7937282651627
 30
0.0
 10
109.0920491263728
 20
-133.7937282651627
 30
0.0
 10
108.8974012314562
 20
-133.7937282651627
 30
0.0
 10
108.8974012314562
 20
-133.7937282651627
 30
0.0
 10
108.9039469128782
 20
-133.7554877052764
 30
0.0
 10
108.9060139701693
 20
-133.7134575403564
 30
0.0
 10
108.9060139701693
 20
-133.7069118589344
 30
0.0
 10
108.9060139701693
 20
-133.6414550447146
 30
0.0
 10
108.8846543781608
 20
-133.4426730352157
 30
0.0
 10
108.6479763183241
 20
-133.4426730352157
 30
0.0
 10
108.4702093912852
 20
-133.4426730352157
 30
0.0
 10
108.4150878635212
 20
-133.5735866636552
 30
0.0
 10
108.4150878635212
 20
-133.6838297191832
 30
0.0
 10
108.4150878635212
 20
-133.9480685429019
 30
0.0
 10
108.6479763183241
 20
-133.956681281615
 30
0.0
 10
108.7196343044173
 20
-133.9608153961973
 30
0.0
 10
108.7196343044173
 20
-133.9608153961973
 30
0.0
 10
108.7196343044173
 20
-134.164076029827
 30
0.0
 10
108.7196343044173
 20
-134.164076029827
 30
0.0
 10
108.5949218478513
 20
-134.1554632911139
 30
0.0
 10
108.2183729113135
 20
-134.1279025272319
 30
0.0
 10
108.2183729113135
 20
-133.6710828658878
 30
0.0
 10
108.2183729113135
 20
-133.446807149798
 30
0.0
 10
108.3454969347192
 20
-133.2056504658305
 30
0.0
 10
108.6414306369021
 20
-133.2056504658305
 30
0.0
 10
108.8278103026542
 20
-133.2056504658305
 30
0.0
 10
108.9101480847516
 20
-133.3007351012234
 30
0.0
 10
108.9714707843891
 20
-133.4002983607471
 30
0.0
 10
108.9990315482711
 20
-133.3389756611097
 30
0.0
 10
109.0793022730774
 20
-133.1570746194885
 30
0.0
 10
109.35663245964
 20
-133.1570746194885
 30
0.0
 10
109.6949408362916
 20
-133.1570746194885
 30
0.0
 10
109.8620279673262
 20
-133.4044324753295
 30
0.0
 10
109.8620279673262
 20
-133.6814181523436
 30
0.0
  0
HATCH
  5
9D
330
98
100
AcDbEntity
  8
_U+30EC_U+30A4_U+30E4_U+30FC 1
 62
   179
420
  2234388
100
AcDbHatch
 10
0.0
 20
0.0
 30
0.0
210
0.0
220
0.0
230
1.0
  2
SOLID
 70
     1
 71
     0
 91
        1
 92
        1
 93
        1
 72
     4
 94
        3
 73
     0
 74
     1
 95
       62
 96
       58
 40
0.0
 40
0.0
 40
0.0
 40
0.0
 40
1.0
 40
1.0
 40
1.0
 40
2.0
 40
2.0
 40
2.0
 40
3.0
 40
3.0
 40
3.0
 40
4.0
 40
4.0
 40
4.0
 40
5.0
 40
5.0
 40
5.0
 40
6.0
 40
6.0
 40
6.0
 40
7.0
 40
7.0
 40
7.0
 40
8.0
 40
8.0
 40
8.0
 40
9.0
 40
9.0
 40
9.0
 40
10.0
 40
10.0
 40
10.0
 40
11.0
 40
11.0
 40
11.0
 40
12.0
 40
12.0
 40
12.0
 40
13.0
 40
13.0
 40
13.0
 40
14.0
 40
14.0
 40
14.0
 40
15.0
 40
15.0
 40
15.0
 40
16.0
 40
16.0
 40
16.0
 40
17.0
 40
17.0
 40
17.0
 40
18.0
 40
18.0
 40
18.0
 40
19.0
 40
19.0
 40
19.0
 40
19.0
 10
109.8620279673262
 20
-133.6814181523436
 10
109.8620279673262
 20
-133.776847297285
 10
109.8410128848661
 20
-133.9945773319527
 10
109.6549777286626
 20
-134.1196342980673
 10
109.5426676158435
 20
-134.1933593414517
 10
109.4434488658683
 20
-134.1978379655825
 10
109.3586995169312
 20
-134.2019720801648
 10
109.3586995169312
 20
-134.2019720801648
 10
109.3586995169312
 20
-133.9818304786573
 10
109.3586995169312
 20
-133.9818304786573
 10
109.432769069864
 20
-133.9797634213662
 10
109.6673800724095
 20
-133.9694281349104
 10
109.6673800724095
 20
-133.6858967764744
 10
109.6673800724095
 20
-133.5484374666129
 10
109.5977891436075
 20
-133.3958197366163
 10
109.3693793129354
 20
-133.3958197366163
 10
109.252935085534
 20
-133.3958197366163
 10
109.204359239192
 20
-133.4340602965026
 10
109.1726643607277
 20
-133.4657551749669
 10
109.0985948077948
 20
-133.5398247278998
 10
109.0858479544994
 20
-133.6562689553012
 10
109.0858479544994
 20
-133.7110459735167
 10
109.0858479544994
 20
-133.7303385082341
 10
109.0879150117905
 20
-133.7661675012807
 10
109.0920491263728
 20
-133.7937282651627
 10
109.0920491263728
 20
-133.7937282651627
 10
108.8974012314562
 20
-133.7937282651627
 10
108.8974012314562
 20
-133.7937282651627
 10
108.9039469128782
 20
-133.7554877052764
 10
108.9060139701693
 20
-133.7134575403564
 10
108.9060139701693
 20
-133.7069118589344
 10
108.9060139701693
 20
-133.6414550447146
 10
108.8846543781608
 20
-133.4426730352157
 10
108.6479763183241
 20
-133.4426730352157
 10
108.4702093912852
 20
-133.4426730352157
 10
108.4150878635212
 20
-133.5735866636552
 10
108.4150878635212
 20
-133.6838297191832
 10
108.4150878635212
 20
-133.9480685429019
 10
108.6479763183241
 20
-133.956681281615
 10
108.7196343044173
 20
-133.9608153961973
 10
108.7196343044173
 20
-133.9608153961973
 10
108.7196343044173
 20
-134.164076029827
 10
108.7196343044173
 20
-134.164076029827
 10
108.5949218478513
 20
-134.1554632911139
 10
108.2183729113135
 20
-134.1279025272319
 10
108.2183729113135
 20
-133.6710828658878
 10
108.2183729113135
 20
-133.446807149798
 10
108.3454969347192
 20
-133.2056504658305
 10
108.6414306369021
 20
-133.2056504658305
 10
108.8278103026542
 20
-133.2056504658305
 10
108.9101480847516
 20
-133.3007351012234
 10
108.9714707843891
 20
-133.4002983607471
 10
108.9990315482711
 20
-133.3389756611097
 10
109.0793022730774
 20
-133.1570746194885
 10
109.35663245964
 20
-133.1570746194885
 10
109.6949408362916
 20
-133.1570746194885
 10
109.8620279673262
 20
-133.4044324753295
 10
109.8620279673262
 20
-133.6814181523436
 97
        0
 97
        0
 75
     2
 76
     1
 98
        0
  0
ENDBLK
  5
9B
330
98
100
AcDbEntity
  8
0
100
AcDbBlockEnd
  0
BLOCK
  5
AC
330
AA
100
AcDbEntity
  8
0
100
AcDbBlockBegin
  2
block 4
 70
     0
 10
0.0
 20
0.0
 30
0.0
  3
block 4
  1

  0
SPLINE
  5
AE
330
AA
100
AcDbEntity
  8
_U+30EC_U+30A4_U+30E4_U+30FC 1
370
     0
100
AcDbSpline
210
0.0
220
0.0
230
1.0
 70
    11
 71
     3
 72
    62
 73
    58
 74
     0
 42
0.0000000001
 43
0.0000000001
 12
1.0
 22
0.0
 32
0.0
 13
1.0
 23
0.0
 33
0.0
 40
0.0
 40
0.0
 40
0.0
 40
0.0
 40
1.0
 40
1.0
 40
1.0
 40
2.0
 40
2.0
 40
2.0
 40
3.0
 40
3.0
 40
3.0
 40
4.0
 40
4.0
 40
4.0
 40
5.0
 40
5.0
 40
5.0
 40
6.0
 40
6.0
 40
6.0
 40
7.0
 40
7.0
 40
7.0
 40
8.0
 40
8.0
 40
8.0
 40
9.0
 40
9.0
 40
9.0
 40
10.0
 40
10.0
 40
10.0
 40
11.0
 40
11.0
 40
11.0
 40
12.0
 40
12.0
 40
12.0
 40
13.0
 40
13.0
 40
13.0
 40
14.0
 40
14.0
 40
14.0
 40
15.0
 40
15.0
 40
15.0
 40
16.0
 40
16.0
 40
16.0
 40
17.0
 40
17.0
 40
17.0
 40
18.0
 40
18.0
 40
18.0
 40
19.0
 40
19.0
 40
19.0
 40
19.0
 10
87.36073131496538
 20
-119.5775417452792
 30
0.0
 10
87.26530217002396
 20
-119.5775417452792
 30
0.0
 10
87.04757213535616
 20
-119.5563544080449
 30
0.0
 10
86.92251516924159
 20
-119.3701469970672
 30
0.0
 10
86.84879012585725
 20
-119.2580091390223
 30
0.0
 10
86.84431150172642
 20
-119.1586181342729
 30
0.0
 10
86.84017738714412
 20
-119.07404104011
 30
0.0
 10
86.84017738714412
 20
-119.07404104011
 30
0.0
 10
87.06031898865159
 20
-119.07404104011
 30
0.0
 10
87.06031898865159
 20
-119.07404104011
 30
0.0
 10
87.06238604594274
 20
-119.1481105930428
 30
0.0
 10
87.07272133239849
 20
-119.3828938503626
 30
0.0
 10
87.35625269083455
 20
-119.3828938503626
 30
0.0
 10
87.49371200069602
 20
-119.3828938503626
 30
0.0
 10
87.64632973069259
 20
-119.3131306667863
 30
0.0
 10
87.64632973069259
 20
-119.08454858134
 30
0.0
 10
87.64632973069259
 20
-118.9682766087128
 30
0.0
 10
87.60808917080631
 20
-118.9195285075965
 30
0.0
 10
87.57639429234202
 20
-118.8878336291322
 30
0.0
 10
87.50232473940915
 20
-118.8137640761993
 30
0.0
 10
87.3858805120077
 20
-118.8011894776782
 30
0.0
 10
87.33110349379223
 20
-118.8011894776782
 30
0.0
 10
87.31181095907483
 20
-118.8011894776782
 30
0.0
 10
87.27598196602823
 20
-118.8032565349693
 30
0.0
 10
87.24842120214623
 20
-118.8073906495516
 30
0.0
 10
87.24842120214623
 20
-118.8073906495516
 30
0.0
 10
87.24842120214623
 20
-118.612742754635
 30
0.0
 10
87.24842120214623
 20
-118.612742754635
 30
0.0
 10
87.28666176203251
 20
-118.6191161812827
 30
0.0
 10
87.32869192695256
 20
-118.6213554933481
 30
0.0
 10
87.33523760837453
 20
-118.6213554933481
 30
0.0
 10
87.40069442259427
 20
-118.6213554933481
 30
0.0
 10
87.59947643209318
 20
-118.6001681561139
 30
0.0
 10
87.59947643209318
 20
-118.3631455867287
 30
0.0
 10
87.59947643209318
 20
-118.185550914464
 30
0.0
 10
87.4685628036537
 20
-118.1304293867
 30
0.0
 10
87.35831974812571
 20
-118.1304293867
 30
0.0
 10
87.09408092440704
 20
-118.1304293867
 30
0.0
 10
87.08546818569391
 20
-118.3631455867287
 30
0.0
 10
87.08133407111161
 20
-118.4351480823704
 30
0.0
 10
87.08133407111161
 20
-118.4351480823704
 30
0.0
 10
86.87807343748187
 20
-118.4351480823704
 30
0.0
 10
86.87807343748187
 20
-118.4351480823704
 30
0.0
 10
86.886686176195
 20
-118.3102633710301
 30
0.0
 10
86.91424694007699
 20
-117.9337144344923
 30
0.0
 10
87.37106660142112
 20
-117.9337144344923
 30
0.0
 10
87.59534231751088
 20
-117.9337144344923
 30
0.0
 10
87.83649900147837
 20
-118.0606662031237
 30
0.0
 10
87.83649900147837
 20
-118.356772160081
 30
0.0
 10
87.83649900147837
 20
-118.5429795710587
 30
0.0
 10
87.74141436608548
 20
-118.6254896079304
 30
0.0
 10
87.64185110656176
 20
-118.6868123075679
 30
0.0
 10
87.70317380619922
 20
-118.7143730714499
 30
0.0
 10
87.8850748478204
 20
-118.7948160510305
 30
0.0
 10
87.8850748478204
 20
-119.0719739828188
 30
0.0
 10
87.8850748478204
 20
-119.4104546142446
 30
0.0
 10
87.63771699197946
 20
-119.5775417452792
 30
0.0
 10
87.36073131496538
 20
-119.5775417452792
 30
0.0
  0
HATCH
  5
AF
330
AA
100
AcDbEntity
  8
_U+30EC_U+30A4_U+30E4_U+30FC 1
 62
   179
420
  2234388
100
AcDbHatch
 10
0.0
 20
0.0
 30
0.0
210
0.0
220
0.0
230
1.0
  2
SOLID
 70
     1
 71
     0
 91
        1
 92
        1
 93
        1
 72
     4
 94
        3
 73
     0
 74
     1
 95
       62
 96
       58
 40
0.0
 40
0.0
 40
0.0
 40
0.0
 40
1.0
 40
1.0
 40
1.0
 40
2.0
 40
2.0
 40
2.0
 40
3.0
 40
3.0
 40
3.0
 40
4.0
 40
4.0
 40
4.0
 40
5.0
 40
5.0
 40
5.0
 40
6.0
 40
6.0
 40
6.0
 40
7.0
 40
7.0
 40
7.0
 40
8.0
 40
8.0
 40
8.0
 40
9.0
 40
9.0
 40
9.0
 40
10.0
 40
10.0
 40
10.0
 40
11.0
 40
11.0
 40
11.0
 40
12.0
 40
12.0
 40
12.0
 40
13.0
 40
13.0
 40
13.0
 40
14.0
 40
14.0
 40
14.0
 40
15.0
 40
15.0
 40
15.0
 40
16.0
 40
16.0
 40
16.0
 40
17.0
 40
17.0
 40
17.0
 40
18.0
 40
18.0
 40
18.0
 40
19.0
 40
19.0
 40
19.0
 40
19.0
 10
87.36073131496538
 20
-119.5775417452792
 10
87.26530217002396
 20
-119.5775417452792
 10
87.04757213535616
 20
-119.5563544080449
 10
86.92251516924159
 20
-119.3701469970672
 10
86.84879012585725
 20
-119.2580091390223
 10
86.84431150172642
 20
-119.1586181342729
 10
86.84017738714412
 20
-119.07404104011
 10
86.84017738714412
 20
-119.07404104011
 10
87.06031898865159
 20
-119.07404104011
 10
87.06031898865159
 20
-119.07404104011
 10
87.06238604594274
 20
-119.1481105930428
 10
87.07272133239849
 20
-119.3828938503626
 10
87.35625269083455
 20
-119.3828938503626
 10
87.49371200069602
 20
-119.3828938503626
 10
87.64632973069259
 20
-119.3131306667863
 10
87.64632973069259
 20
-119.08454858134
 10
87.64632973069259
 20
-118.9682766087128
 10
87.60808917080631
 20
-118.9195285075965
 10
87.57639429234202
 20
-118.8878336291322
 10
87.50232473940915
 20
-118.8137640761993
 10
87.3858805120077
 20
-118.8011894776782
 10
87.33110349379223
 20
-118.8011894776782
 10
87.31181095907483
 20
-118.8011894776782
 10
87.27598196602823
 20
-118.8032565349693
 10
87.24842120214623
 20
-118.8073906495516
 10
87.24842120214623
 20
-118.8073906495516
 10
87.24842120214623
 20
-118.612742754635
 10
87.24842120214623
 20
-118.612742754635
 10
87.28666176203251
 20
-118.6191161812827
 10
87.32869192695256
 20
-118.6213554933481
 10
87.33523760837453
 20
-118.6213554933481
 10
87.40069442259427
 20
-118.6213554933481
 10
87.59947643209318
 20
-118.6001681561139
 10
87.59947643209318
 20
-118.3631455867287
 10
87.59947643209318
 20
-118.185550914464
 10
87.4685628036537
 20
-118.1304293867
 10
87.35831974812571
 20
-118.1304293867
 10
87.09408092440704
 20
-118.1304293867
 10
87.08546818569391
 20
-118.3631455867287
 10
87.08133407111161
 20
-118.4351480823704
 10
87.08133407111161
 20
-118.4351480823704
 10
86.87807343748187
 20
-118.4351480823704
 10
86.87807343748187
 20
-118.4351480823704
 10
86.886686176195
 20
-118.3102633710301
 10
86.91424694007699
 20
-117.9337144344923
 10
87.37106660142112
 20
-117.9337144344923
 10
87.59534231751088
 20
-117.9337144344923
 10
87.83649900147837
 20
-118.0606662031237
 10
87.83649900147837
 20
-118.356772160081
 10
87.83649900147837
 20
-118.5429795710587
 10
87.74141436608548
 20
-118.6254896079304
 10
87.64185110656176
 20
-118.6868123075679
 10
87.70317380619922
 20
-118.7143730714499
 10
87.8850748478204
 20
-118.7948160510305
 10
87.8850748478204
 20
-119.0719739828188
 10
87.8850748478204
 20
-119.4104546142446
 10
87.63771699197946
 20
-119.5775417452792
 10
87.36073131496538
 20
-119.5775417452792
 97
        0
 97
        0
 75
     2
 76
     1
 98
        0
  0
SPLINE
  5
B0
330
AA
100
AcDbEntity
  8
_U+30EC_U+30A4_U+30E4_U+30FC 1
370
     0
100
AcDbSpline
210
0.0
220
0.0
230
1.0
 70
    11
 71
     3
 72
    26
 73
    22
 74
     0
 42
0.0000000001
 43
0.0000000001
 12
1.0
 22
0.0
 32
0.0
 13
1.0
 23
0.0
 33
0.0
 40
0.0
 40
0.0
 40
0.0
 40
0.0
 40
1.0
 40
1.0
 40
1.0
 40
2.0
 40
2.0
 40
2.0
 40
3.0
 40
3.0
 40
3.0
 40
4.0
 40
4.0
 40
4.0
 40
5.0
 40
5.0
 40
5.0
 40
6.0
 40
6.0
 40
6.0
 40
7.0
 40
7.0
 40
7.0
 40
7.0
 10
88.45696069837187
 20
-119.5267265868718
 30
0.0
 10
88.45696069837187
 20
-119.5267265868718
 30
0.0
 10
88.21993812898668
 20
-119.5267265868718
 30
0.0
 10
88.21993812898668
 20
-119.5267265868718
 30
0.0
 10
88.24543183557753
 20
-119.2178737766191
 30
0.0
 10
88.438012673203
 20
-118.6995591608633
 30
0.0
 10
88.84418943091396
 20
-118.1939913984029
 30
0.0
 10
88.84418943091396
 20
-118.1939913984029
 30
0.0
 10
88.0063422089012
 20
-118.1939913984029
 30
0.0
 10
88.0063422089012
 20
-118.1939913984029
 30
0.0
 10
88.0063422089012
 20
-118.1939913984029
 30
0.0
 10
88.0063422089012
 20
-117.9824625356086
 30
0.0
 10
88.0063422089012
 20
-117.9824625356086
 30
0.0
 10
88.0063422089012
 20
-117.9824625356086
 30
0.0
 10
89.08121200029915
 20
-117.9824625356086
 30
0.0
 10
89.08121200029915
 20
-117.9824625356086
 30
0.0
 10
89.08121200029915
 20
-117.9824625356086
 30
0.0
 10
89.08121200029915
 20
-118.1939913984029
 30
0.0
 10
89.08121200029915
 20
-118.1939913984029
 30
0.0
 10
88.75737302468566
 20
-118.4837239287124
 30
0.0
 10
88.49072263412732
 20
-119.0761080974011
 30
0.0
 10
88.45696069837187
 20
-119.5267265868718
 30
0.0
  0
HATCH
  5
B1
330
AA
100
AcDbEntity
  8
_U+30EC_U+30A4_U+30E4_U+30FC 1
 62
   179
420
  2234388
100
AcDbHatch
 10
0.0
 20
0.0
 30
0.0
210
0.0
220
0.0
230
1.0
  2
SOLID
 70
     1
 71
     0
 91
        1
 92
        1
 93
        1
 72
     4
 94
        3
 73
     0
 74
     1
 95
       26
 96
       22
 40
0.0
 40
0.0
 40
0.0
 40
0.0
 40
1.0
 40
1.0
 40
1.0
 40
2.0
 40
2.0
 40
2.0
 40
3.0
 40
3.0
 40
3.0
 40
4.0
 40
4.0
 40
4.0
 40
5.0
 40
5.0
 40
5.0
 40
6.0
 40
6.0
 40
6.0
 40
7.0
 40
7.0
 40
7.0
 40
7.0
 10
88.45696069837187
 20
-119.5267265868718
 10
88.45696069837187
 20
-119.5267265868718
 10
88.21993812898668
 20
-119.5267265868718
 10
88.21993812898668
 20
-119.5267265868718
 10
88.24543183557753
 20
-119.2178737766191
 10
88.438012673203
 20
-118.6995591608633
 10
88.84418943091396
 20
-118.1939913984029
 10
88.84418943091396
 20
-118.1939913984029
 10
88.0063422089012
 20
-118.1939913984029
 10
88.0063422089012
 20
-118.1939913984029
 10
88.0063422089012
 20
-118.1939913984029
 10
88.0063422089012
 20
-117.9824625356086
 10
88.0063422089012
 20
-117.9824625356086
 10
88.0063422089012
 20
-117.9824625356086
 10
89.08121200029915
 20
-117.9824625356086
 10
89.08121200029915
 20
-117.9824625356086
 10
89.08121200029915
 20
-117.9824625356086
 10
89.08121200029915
 20
-118.1939913984029
 10
89.08121200029915
 20
-118.1939913984029
 10
88.75737302468566
 20
-118.4837239287124
 10
88.49072263412732
 20
-119.0761080974011
 10
88.45696069837187
 20
-119.5267265868718
 97
        0
 97
        0
 75
     2
 76
     1
 98
        0
  0
ENDBLK
  5
AD
330
AA
100
AcDbEntity
  8
0
100
AcDbBlockEnd
  0
BLOCK
  5
C0
330
BE
100
AcDbEntity
  8
0
100
AcDbBlockBegin
  2
block 5
 70
     0
 10
0.0
 20
0.0
 30
0.0
  3
block 5
  1

  0
SPLINE
  5
C2
330
BE
100
AcDbEntity
  8
_U+30EC_U+30A4_U+30E4_U+30FC 1
370
     0
100
AcDbSpline
210
0.0
220
0.0
230
1.0
 70
    11
 71
     3
 72
    26
 73
    22
 74
     0
 42
0.0000000001
 43
0.0000000001
 12
1.0
 22
0.0
 32
0.0
 13
1.0
 23
0.0
 33
0.0
 40
0.0
 40
0.0
 40
0.0
 40
0.0
 40
1.0
 40
1.0
 40
1.0
 40
2.0
 40
2.0
 40
2.0
 40
3.0
 40
3.0
 40
3.0
 40
4.0
 40
4.0
 40
4.0
 40
5.0
 40
5.0
 40
5.0
 40
6.0
 40
6.0
 40
6.0
 40
7.0
 40
7.0
 40
7.0
 40
7.0
 10
85.82042912351018
 20
-138.5266004427989
 30
0.0
 10
85.82042912351018
 20
-138.5266004427989
 30
0.0
 10
85.82042912351018
 20
-137.4224473397763
 30
0.0
 10
85.82042912351018
 20
-137.4224473397763
 30
0.0
 10
85.82042912351018
 20
-137.4224473397763
 30
0.0
 10
85.49038897602324
 20
-137.4224473397763
 30
0.0
 10
85.49038897602324
 20
-137.4224473397763
 30
0.0
 10
85.49038897602324
 20
-137.4224473397763
 30
0.0
 10
85.49038897602324
 20
-137.2743082339106
 30
0.0
 10
85.49038897602324
 20
-137.2743082339106
 30
0.0
 10
85.82249618080132
 20
-137.259494323324
 30
0.0
 10
85.8690049698522
 20
-137.0965413068717
 30
0.0
 10
85.89863279102535
 20
-136.9825086463099
 30
0.0
 10
85.89863279102535
 20
-136.9825086463099
 30
0.0
 10
86.04470483959994
 20
-136.9825086463099
 30
0.0
 10
86.04470483959994
 20
-136.9825086463099
 30
0.0
 10
86.04470483959994
 20
-136.9825086463099
 30
0.0
 10
86.04470483959994
 20
-138.5266004427989
 30
0.0
 10
86.04470483959994
 20
-138.5266004427989
 30
0.0
 10
86.04470483959994
 20
-138.5266004427989
 30
0.0
 10
85.82042912351018
 20
-138.5266004427989
 30
0.0
 10
85.82042912351018
 20
-138.5266004427989
 30
0.0
  0
HATCH
  5
C3
330
BE
100
AcDbEntity
  8
_U+30EC_U+30A4_U+30E4_U+30FC 1
 62
   179
420
  2234388
100
AcDbHatch
 10
0.0
 20
0.0
 30
0.0
210
0.0
220
0.0
230
1.0
  2
SOLID
 70
     1
 71
     0
 91
        1
 92
        1
 93
        1
 72
     4
 94
        3
 73
     0
 74
     1
 95
       26
 96
       22
 40
0.0
 40
0.0
 40
0.0
 40
0.0
 40
1.0
 40
1.0
 40
1.0
 40
2.0
 40
2.0
 40
2.0
 40
3.0
 40
3.0
 40
3.0
 40
4.0
 40
4.0
 40
4.0
 40
5.0
 40
5.0
 40
5.0
 40
6.0
 40
6.0
 40
6.0
 40
7.0
 40
7.0
 40
7.0
 40
7.0
 10
85.82042912351018
 20
-138.5266004427989
 10
85.82042912351018
 20
-138.5266004427989
 10
85.82042912351018
 20
-137.4224473397763
 10
85.82042912351018
 20
-137.4224473397763
 10
85.82042912351018
 20
-137.4224473397763
 10
85.49038897602324
 20
-137.4224473397763
 10
85.49038897602324
 20
-137.4224473397763
 10
85.49038897602324
 20
-137.4224473397763
 10
85.49038897602324
 20
-137.2743082339106
 10
85.49038897602324
 20
-137.2743082339106
 10
85.82249618080132
 20
-137.259494323324
 10
85.8690049698522
 20
-137.0965413068717
 10
85.89863279102535
 20
-136.9825086463099
 10
85.89863279102535
 20
-136.9825086463099
 10
86.04470483959994
 20
-136.9825086463099
 10
86.04470483959994
 20
-136.9825086463099
 10
86.04470483959994
 20
-136.9825086463099
 10
86.04470483959994
 20
-138.5266004427989
 10
86.04470483959994
 20
-138.5266004427989
 10
86.04470483959994
 20
-138.5266004427989
 10
85.82042912351018
 20
-138.5266004427989
 10
85.82042912351018
 20
-138.5266004427989
 97
        0
 97
        0
 75
     2
 76
     1
 98
        0
  0
SPLINE
  5
C4
330
BE
100
AcDbEntity
  8
_U+30EC_U+30A4_U+30E4_U+30FC 1
370
     0
100
AcDbSpline
210
0.0
220
0.0
230
1.0
 70
    11
 71
     3
 72
    29
 73
    25
 74
     0
 42
0.0000000001
 43
0.0000000001
 12
1.0
 22
0.0
 32
0.0
 13
1.0
 23
0.0
 33
0.0
 40
0.0
 40
0.0
 40
0.0
 40
0.0
 40
1.0
 40
1.0
 40
1.0
 40
2.0
 40
2.0
 40
2.0
 40
3.0
 40
3.0
 40
3.0
 40
4.0
 40
4.0
 40
4.0
 40
5.0
 40
5.0
 40
5.0
 40
6.0
 40
6.0
 40
6.0
 40
7.0
 40
7.0
 40
7.0
 40
8.0
 40
8.0
 40
8.0
 40
8.0
 10
87.4437581161599
 20
-138.34883351576
 30
0.0
 10
87.33558211792305
 20
-138.5582953212632
 30
0.0
 10
87.16229381501499
 20
-138.5775878559806
 30
0.0
 10
87.04584958761355
 20
-138.5775878559806
 30
0.0
 10
86.88496362845237
 20
-138.5775878559806
 30
0.0
 10
86.7433702040086
 20
-138.5310790669297
 30
0.0
 10
86.6482855686157
 20
-138.34883351576
 30
0.0
 10
86.54458819450969
 20
-138.1541856208434
 30
0.0
 10
86.52564016934082
 20
-137.9175075610067
 30
0.0
 10
86.52564016934082
 20
-137.7545545445544
 30
0.0
 10
86.52564016934082
 20
-137.610549553271
 30
0.0
 10
86.54252113721854
 20
-137.3590575828478
 30
0.0
 10
86.6482855686157
 20
-137.1599310638003
 30
0.0
 10
86.75611705730402
 20
-136.9570149397191
 30
0.0
 10
86.9170030164652
 20
-136.9335882904194
 30
0.0
 10
87.04584958761355
 20
-136.9335882904194
 30
0.0
 10
87.20466848948355
 20
-136.9335882904194
 30
0.0
 10
87.34832897121848
 20
-136.9780300221791
 30
0.0
 10
87.4437581161599
 20
-137.1599310638003
 30
0.0
 10
87.54297686613509
 20
-137.3525119014258
 30
0.0
 10
87.56640351543479
 20
-137.5809217320978
 30
0.0
 10
87.56640351543479
 20
-137.7545545445544
 30
0.0
 10
87.56640351543479
 20
-137.9257757901713
 30
0.0
 10
87.54504392342625
 20
-138.1565971876831
 30
0.0
 10
87.4437581161599
 20
-138.34883351576
 30
0.0
  0
SPLINE
  5
C5
330
BE
100
AcDbEntity
  8
_U+30EC_U+30A4_U+30E4_U+30FC 1
370
     0
100
AcDbSpline
210
0.0
220
0.0
230
1.0
 70
    11
 71
     3
 72
    17
 73
    13
 74
     0
 42
0.0000000001
 43
0.0000000001
 12
1.0
 22
0.0
 32
0.0
 13
1.0
 23
0.0
 33
0.0
 40
0.0
 40
0.0
 40
0.0
 40
0.0
 40
1.0
 40
1.0
 40
1.0
 40
2.0
 40
2.0
 40
2.0
 40
3.0
 40
3.0
 40
3.0
 40
4.0
 40
4.0
 40
4.0
 40
4.0
 10
87.04584958761355
 20
-137.1261691280449
 30
0.0
 10
86.79642467448146
 20
-137.1261691280449
 30
0.0
 10
86.74957137588206
 20
-137.4097004864809
 30
0.0
 10
86.74957137588206
 20
-137.7545545445544
 30
0.0
 10
86.74957137588206
 20
-138.0739148960371
 30
0.0
 10
86.78574487847717
 20
-138.382939961064
 30
0.0
 10
87.04584958761355
 20
-138.382939961064
 30
0.0
 10
87.293551953003
 20
-138.382939961064
 30
0.0
 10
87.34212779934502
 20
-138.1014756599191
 30
0.0
 10
87.34212779934502
 20
-137.7545545445544
 30
0.0
 10
87.34212779934502
 20
-137.4351941930718
 30
0.0
 10
87.30388723945876
 20
-137.1261691280449
 30
0.0
 10
87.04584958761355
 20
-137.1261691280449
 30
0.0
  0
HATCH
  5
C6
330
BE
100
AcDbEntity
  8
_U+30EC_U+30A4_U+30E4_U+30FC 1
 62
   179
420
  2234388
100
AcDbHatch
 10
0.0
 20
0.0
 30
0.0
210
0.0
220
0.0
230
1.0
  2
SOLID
 70
     1
 71
     0
 91
        2
 92
        1
 93
        1
 72
     4
 94
        3
 73
     0
 74
     1
 95
       29
 96
       25
 40
0.0
 40
0.0
 40
0.0
 40
0.0
 40
1.0
 40
1.0
 40
1.0
 40
2.0
 40
2.0
 40
2.0
 40
3.0
 40
3.0
 40
3.0
 40
4.0
 40
4.0
 40
4.0
 40
5.0
 40
5.0
 40
5.0
 40
6.0
 40
6.0
 40
6.0
 40
7.0
 40
7.0
 40
7.0
 40
8.0
 40
8.0
 40
8.0
 40
8.0
 10
87.4437581161599
 20
-138.34883351576
 10
87.33558211792305
 20
-138.5582953212632
 10
87.16229381501499
 20
-138.5775878559806
 10
87.04584958761355
 20
-138.5775878559806
 10
86.88496362845237
 20
-138.5775878559806
 10
86.7433702040086
 20
-138.5310790669297
 10
86.6482855686157
 20
-138.34883351576
 10
86.54458819450969
 20
-138.1541856208434
 10
86.52564016934082
 20
-137.9175075610067
 10
86.52564016934082
 20
-137.7545545445544
 10
86.52564016934082
 20
-137.610549553271
 10
86.54252113721854
 20
-137.3590575828478
 10
86.6482855686157
 20
-137.1599310638003
 10
86.75611705730402
 20
-136.9570149397191
 10
86.9170030164652
 20
-136.9335882904194
 10
87.04584958761355
 20
-136.9335882904194
 10
87.20466848948355
 20
-136.9335882904194
 10
87.34832897121848
 20
-136.9780300221791
 10
87.4437581161599
 20
-137.1599310638003
 10
87.54297686613509
 20
-137.3525119014258
 10
87.56640351543479
 20
-137.5809217320978
 10
87.56640351543479
 20
-137.7545545445544
 10
87.56640351543479
 20
-137.9257757901713
 10
87.54504392342625
 20
-138.1565971876831
 10
87.4437581161599
 20
-138.34883351576
 97
        0
 97
        0
 92
        1
 93
        1
 72
     4
 94
        3
 73
     0
 74
     1
 95
       17
 96
       13
 40
0.0
 40
0.0
 40
0.0
 40
0.0
 40
1.0
 40
1.0
 40
1.0
 40
2.0
 40
2.0
 40
2.0
 40
3.0
 40
3.0
 40
3.0
 40
4.0
 40
4.0
 40
4.0
 40
4.0
 10
87.04584958761355
 20
-137.1261691280449
 10
86.79642467448146
 20
-137.1261691280449
 10
86.74957137588206
 20
-137.4097004864809
 10
86.74957137588206
 20
-137.7545545445544
 10
86.74957137588206
 20
-138.0739148960371
 10
86.78574487847717
 20
-138.382939961064
 10
87.04584958761355
 20
-138.382939961064
 10
87.293551953003
 20
-138.382939961064
 10
87.34212779934502
 20
-138.1014756599191
 10
87.34212779934502
 20
-137.7545545445544
 10
87.34212779934502
 20
-137.4351941930718
 10
87.30388723945876
 20
-137.1261691280449
 10
87.04584958761355
 20
-137.1261691280449
 97
        0
 97
        0
 75
     2
 76
     1
 98
        0
  0
ENDBLK
  5
C1
330
BE
100
AcDbEntity
  8
0
100
AcDbBlockEnd
  0
BLOCK
  5
D1
330
CF
100
AcDbEntity
  8
0
100
AcDbBlockBegin
  2
block 6
 70
     0
 10
0.0
 20
0.0
 30
0.0
  3
block 6
  1

  0
SPLINE
  5
D3
330
CF
100
AcDbEntity
  8
_U+30EC_U+30A4_U+30E4_U+30FC 1
370
     0
100
AcDbSpline
210
0.0
220
0.0
230
1.0
 70
    11
 71
     3
 72
    26
 73
    22
 74
     0
 42
0.0000000001
 43
0.0000000001
 12
1.0
 22
0.0
 32
0.0
 13
1.0
 23
0.0
 33
0.0
 40
0.0
 40
0.0
 40
0.0
 40
0.0
 40
1.0
 40
1.0
 40
1.0
 40
2.0
 40
2.0
 40
2.0
 40
3.0
 40
3.0
 40
3.0
 40
4.0
 40
4.0
 40
4.0
 40
5.0
 40
5.0
 40
5.0
 40
6.0
 40
6.0
 40
6.0
 40
7.0
 40
7.0
 40
7.0
 40
7.0
 10
74.8204114938817
 20
-138.5266004427989
 30
0.0
 10
74.8204114938817
 20
-138.5266004427989
 30
0.0
 10
74.8204114938817
 20
-137.4224473397763
 30
0.0
 10
74.8204114938817
 20
-137.4224473397763
 30
0.0
 10
74.8204114938817
 20
-137.4224473397763
 30
0.0
 10
74.49037134639477
 20
-137.4224473397763
 30
0.0
 10
74.49037134639477
 20
-137.4224473397763
 30
0.0
 10
74.49037134639477
 20
-137.4224473397763
 30
0.0
 10
74.49037134639477
 20
-137.2743082339106
 30
0.0
 10
74.49037134639477
 20
-137.2743082339106
 30
0.0
 10
74.82247855117285
 20
-137.259494323324
 30
0.0
 10
74.86898734022373
 20
-137.0965413068717
 30
0.0
 10
74.89861516139688
 20
-136.9825086463099
 30
0.0
 10
74.89861516139688
 20
-136.9825086463099
 30
0.0
 10
75.04468720997147
 20
-136.9825086463099
 30
0.0
 10
75.04468720997147
 20
-136.9825086463099
 30
0.0
 10
75.04468720997147
 20
-136.9825086463099
 30
0.0
 10
75.04468720997147
 20
-138.5266004427989
 30
0.0
 10
75.04468720997147
 20
-138.5266004427989
 30
0.0
 10
75.04468720997147
 20
-138.5266004427989
 30
0.0
 10
74.8204114938817
 20
-138.5266004427989
 30
0.0
 10
74.8204114938817
 20
-138.5266004427989
 30
0.0
  0
HATCH
  5
D4
330
CF
100
AcDbEntity
  8
_U+30EC_U+30A4_U+30E4_U+30FC 1
 62
   179
420
  2234388
100
AcDbHatch
 10
0.0
 20
0.0
 30
0.0
210
0.0
220
0.0
230
1.0
  2
SOLID
 70
     1
 71
     0
 91
        1
 92
        1
 93
        1
 72
     4
 94
        3
 73
     0
 74
     1
 95
       26
 96
       22
 40
0.0
 40
0.0
 40
0.0
 40
0.0
 40
1.0
 40
1.0
 40
1.0
 40
2.0
 40
2.0
 40
2.0
 40
3.0
 40
3.0
 40
3.0
 40
4.0
 40
4.0
 40
4.0
 40
5.0
 40
5.0
 40
5.0
 40
6.0
 40
6.0
 40
6.0
 40
7.0
 40
7.0
 40
7.0
 40
7.0
 10
74.8204114938817
 20
-138.5266004427989
 10
74.8204114938817
 20
-138.5266004427989
 10
74.8204114938817
 20
-137.4224473397763
 10
74.8204114938817
 20
-137.4224473397763
 10
74.8204114938817
 20
-137.4224473397763
 10
74.49037134639477
 20
-137.4224473397763
 10
74.49037134639477
 20
-137.4224473397763
 10
74.49037134639477
 20
-137.4224473397763
 10
74.49037134639477
 20
-137.2743082339106
 10
74.49037134639477
 20
-137.2743082339106
 10
74.82247855117285
 20
-137.259494323324
 10
74.86898734022373
 20
-137.0965413068717
 10
74.89861516139688
 20
-136.9825086463099
 10
74.89861516139688
 20
-136.9825086463099
 10
75.04468720997147
 20
-136.9825086463099
 10
75.04468720997147
 20
-136.9825086463099
 10
75.04468720997147
 20
-136.9825086463099
 10
75.04468720997147
 20
-138.5266004427989
 10
75.04468720997147
 20
-138.5266004427989
 10
75.04468720997147
 20
-138.5266004427989
 10
74.8204114938817
 20
-138.5266004427989
 10
74.8204114938817
 20
-138.5266004427989
 97
        0
 97
        0
 75
     2
 76
     1
 98
        0
  0
SPLINE
  5
D5
330
CF
100
AcDbEntity
  8
_U+30EC_U+30A4_U+30E4_U+30FC 1
370
     0
100
AcDbSpline
210
0.0
220
0.0
230
1.0
 70
    11
 71
     3
 72
    44
 73
    40
 74
     0
 42
0.0000000001
 43
0.0000000001
 12
1.0
 22
0.0
 32
0.0
 13
1.0
 23
0.0
 33
0.0
 40
0.0
 40
0.0
 40
0.0
 40
0.0
 40
1.0
 40
1.0
 40
1.0
 40
2.0
 40
2.0
 40
2.0
 40
3.0
 40
3.0
 40
3.0
 40
4.0
 40
4.0
 40
4.0
 40
5.0
 40
5.0
 40
5.0
 40
6.0
 40
6.0
 40
6.0
 40
7.0
 40
7.0
 40
7.0
 40
8.0
 40
8.0
 40
8.0
 40
9.0
 40
9.0
 40
9.0
 40
10.0
 40
10.0
 40
10.0
 40
11.0
 40
11.0
 40
11.0
 40
12.0
 40
12.0
 40
12.0
 40
13.0
 40
13.0
 40
13.0
 40
13.0
 10
76.13902179086108
 20
-137.9450683248888
 30
0.0
 10
75.92111950141903
 20
-138.1035427172102
 30
0.0
 10
75.82792966854302
 20
-138.1776122701431
 30
0.0
 10
75.779353822201
 20
-138.3216172614266
 30
0.0
 10
75.779353822201
 20
-138.3216172614266
 30
0.0
 10
76.5577731470932
 20
-138.3216172614266
 30
0.0
 10
76.5577731470932
 20
-138.3216172614266
 30
0.0
 10
76.5577731470932
 20
-138.3216172614266
 30
0.0
 10
76.5577731470932
 20
-138.5266004427989
 30
0.0
 10
76.5577731470932
 20
-138.5266004427989
 30
0.0
 10
76.5577731470932
 20
-138.5266004427989
 30
0.0
 10
75.52975665429464
 20
-138.5266004427989
 30
0.0
 10
75.52975665429464
 20
-138.5266004427989
 30
0.0
 10
75.56145153275895
 20
-138.16899953143
 30
0.0
 10
75.62708060175295
 20
-138.0907958639148
 30
0.0
 10
76.01207002222962
 20
-137.7924505948922
 30
0.0
 10
76.2680406167837
 20
-137.5936685853933
 30
0.0
 10
76.33349743100344
 20
-137.5261447138824
 30
0.0
 10
76.33349743100344
 20
-137.3886854040209
 30
0.0
 10
76.33349743100344
 20
-137.2701741193283
 30
0.0
 10
76.26166719013598
 20
-137.1389159813403
 30
0.0
 10
76.06495223792821
 20
-137.1389159813403
 30
0.0
 10
75.80467527401758
 20
-137.1389159813403
 30
0.0
 10
75.79623479007873
 20
-137.3693928693035
 30
0.0
 10
75.79192842072216
 20
-137.4858370967049
 30
0.0
 10
75.79192842072216
 20
-137.4858370967049
 30
0.0
 10
75.56782495940666
 20
-137.4858370967049
 30
0.0
 10
75.56782495940666
 20
-137.4858370967049
 30
0.0
 10
75.57626544334552
 20
-137.3590575828478
 30
0.0
 10
75.58677298457553
 20
-137.2467474700286
 30
0.0
 10
75.66721596415611
 20
-137.128236185336
 30
0.0
 10
75.77711451013559
 20
-136.9676947357234
 30
0.0
 10
75.96332192111333
 20
-136.9335882904194
 30
0.0
 10
76.07976614851478
 20
-136.9335882904194
 30
0.0
 10
76.35692408030313
 20
-136.9335882904194
 30
0.0
 10
76.56414657374091
 20
-137.1179008988803
 30
0.0
 10
76.56414657374091
 20
-137.390752461312
 30
0.0
 10
76.56414657374091
 20
-137.6191622919841
 30
0.0
 10
76.44787460111372
 20
-137.7187255515078
 30
0.0
 10
76.13902179086108
 20
-137.9450683248888
 30
0.0
  0
HATCH
  5
D6
330
CF
100
AcDbEntity
  8
_U+30EC_U+30A4_U+30E4_U+30FC 1
 62
   179
420
  2234388
100
AcDbHatch
 10
0.0
 20
0.0
 30
0.0
210
0.0
220
0.0
230
1.0
  2
SOLID
 70
     1
 71
     0
 91
        1
 92
        1
 93
        1
 72
     4
 94
        3
 73
     0
 74
     1
 95
       44
 96
       40
 40
0.0
 40
0.0
 40
0.0
 40
0.0
 40
1.0
 40
1.0
 40
1.0
 40
2.0
 40
2.0
 40
2.0
 40
3.0
 40
3.0
 40
3.0
 40
4.0
 40
4.0
 40
4.0
 40
5.0
 40
5.0
 40
5.0
 40
6.0
 40
6.0
 40
6.0
 40
7.0
 40
7.0
 40
7.0
 40
8.0
 40
8.0
 40
8.0
 40
9.0
 40
9.0
 40
9.0
 40
10.0
 40
10.0
 40
10.0
 40
11.0
 40
11.0
 40
11.0
 40
12.0
 40
12.0
 40
12.0
 40
13.0
 40
13.0
 40
13.0
 40
13.0
 10
76.13902179086108
 20
-137.9450683248888
 10
75.92111950141903
 20
-138.1035427172102
 10
75.82792966854302
 20
-138.1776122701431
 10
75.779353822201
 20
-138.3216172614266
 10
75.779353822201
 20
-138.3216172614266
 10
76.5577731470932
 20
-138.3216172614266
 10
76.5577731470932
 20
-138.3216172614266
 10
76.5577731470932
 20
-138.3216172614266
 10
76.5577731470932
 20
-138.5266004427989
 10
76.5577731470932
 20
-138.5266004427989
 10
76.5577731470932
 20
-138.5266004427989
 10
75.52975665429464
 20
-138.5266004427989
 10
75.52975665429464
 20
-138.5266004427989
 10
75.56145153275895
 20
-138.16899953143
 10
75.62708060175295
 20
-138.0907958639148
 10
76.01207002222962
 20
-137.7924505948922
 10
76.2680406167837
 20
-137.5936685853933
 10
76.33349743100344
 20
-137.5261447138824
 10
76.33349743100344
 20
-137.3886854040209
 10
76.33349743100344
 20
-137.2701741193283
 10
76.26166719013598
 20
-137.1389159813403
 10
76.06495223792821
 20
-137.1389159813403
 10
75.80467527401758
 20
-137.1389159813403
 10
75.79623479007873
 20
-137.3693928693035
 10
75.79192842072216
 20
-137.4858370967049
 10
75.79192842072216
 20
-137.4858370967049
 10
75.56782495940666
 20
-137.4858370967049
 10
75.56782495940666
 20
-137.4858370967049
 10
75.57626544334552
 20
-137.3590575828478
 10
75.58677298457553
 20
-137.2467474700286
 10
75.66721596415611
 20
-137.128236185336
 10
75.77711451013559
 20
-136.9676947357234
 10
75.96332192111333
 20
-136.9335882904194
 10
76.07976614851478
 20
-136.9335882904194
 10
76.35692408030313
 20
-136.9335882904194
 10
76.56414657374091
 20
-137.1179008988803
 10
76.56414657374091
 20
-137.390752461312
 10
76.56414657374091
 20
-137.6191622919841
 10
76.44787460111372
 20
-137.7187255515078
 10
76.13902179086108
 20
-137.9450683248888
 97
        0
 97
        0
 75
     2
 76
     1
 98
        0
  0
ENDBLK
  5
D2
330
CF
100
AcDbEntity
  8
0
100
AcDbBlockEnd
  0
BLOCK
  5
E1
330
DF
100
AcDbEntity
  8
0
100
AcDbBlockBegin
  2
block 7
 70
     0
 10
0.0
 20
0.0
 30
0.0
  3
block 7
  1

  0
SPLINE
  5
E3
330
DF
100
AcDbEntity
  8
_U+30EC_U+30A4_U+30E4_U+30FC 1
370
     0
100
AcDbSpline
210
0.0
220
0.0
230
1.0
 70
    11
 71
     3
 72
    26
 73
    22
 74
     0
 42
0.0000000001
 43
0.0000000001
 12
1.0
 22
0.0
 32
0.0
 13
1.0
 23
0.0
 33
0.0
 40
0.0
 40
0.0
 40
0.0
 40
0.0
 40
1.0
 40
1.0
 40
1.0
 40
2.0
 40
2.0
 40
2.0
 40
3.0
 40
3.0
 40
3.0
 40
4.0
 40
4.0
 40
4.0
 40
5.0
 40
5.0
 40
5.0
 40
6.0
 40
6.0
 40
6.0
 40
7.0
 40
7.0
 40
7.0
 40
7.0
 10
109.811385063693
 20
-128.7618217994068
 30
0.0
 10
109.811385063693
 20
-128.7618217994068
 30
0.0
 10
109.811385063693
 20
-128.998844368792
 30
0.0
 10
109.811385063693
 20
-128.998844368792
 30
0.0
 10
109.5023599986661
 20
-128.9733506622011
 30
0.0
 10
108.9842176376845
 20
-128.7807698245757
 30
0.0
 10
108.4784776204498
 20
-128.3745930668647
 30
0.0
 10
108.4784776204498
 20
-128.3745930668647
 30
0.0
 10
108.4784776204498
 20
-129.2124402888774
 30
0.0
 10
108.4784776204498
 20
-129.2124402888774
 30
0.0
 10
108.4784776204498
 20
-129.2124402888774
 30
0.0
 10
108.2669487576555
 20
-129.2124402888774
 30
0.0
 10
108.2669487576555
 20
-129.2124402888774
 30
0.0
 10
108.2669487576555
 20
-129.2124402888774
 30
0.0
 10
108.2669487576555
 20
-128.1375704974795
 30
0.0
 10
108.2669487576555
 20
-128.1375704974795
 30
0.0
 10
108.2669487576555
 20
-128.1375704974795
 30
0.0
 10
108.4784776204498
 20
-128.1375704974795
 30
0.0
 10
108.4784776204498
 20
-128.1375704974795
 30
0.0
 10
108.7685546603079
 20
-128.461409473093
 30
0.0
 10
109.3607665742223
 20
-128.7280598636513
 30
0.0
 10
109.811385063693
 20
-128.7618217994068
 30
0.0
  0
HATCH
  5
E4
330
DF
100
AcDbEntity
  8
_U+30EC_U+30A4_U+30E4_U+30FC 1
 62
   179
420
  2234388
100
AcDbHatch
 10
0.0
 20
0.0
 30
0.0
210
0.0
220
0.0
230
1.0
  2
SOLID
 70
     1
 71
     0
 91
        1
 92
        1
 93
        1
 72
     4
 94
        3
 73
     0
 74
     1
 95
       26
 96
       22
 40
0.0
 40
0.0
 40
0.0
 40
0.0
 40
1.0
 40
1.0
 40
1.0
 40
2.0
 40
2.0
 40
2.0
 40
3.0
 40
3.0
 40
3.0
 40
4.0
 40
4.0
 40
4.0
 40
5.0
 40
5.0
 40
5.0
 40
6.0
 40
6.0
 40
6.0
 40
7.0
 40
7.0
 40
7.0
 40
7.0
 10
109.811385063693
 20
-128.7618217994068
 10
109.811385063693
 20
-128.7618217994068
 10
109.811385063693
 20
-128.998844368792
 10
109.811385063693
 20
-128.998844368792
 10
109.5023599986661
 20
-128.9733506622011
 10
108.9842176376845
 20
-128.7807698245757
 10
108.4784776204498
 20
-128.3745930668647
 10
108.4784776204498
 20
-128.3745930668647
 10
108.4784776204498
 20
-129.2124402888774
 10
108.4784776204498
 20
-129.2124402888774
 10
108.4784776204498
 20
-129.2124402888774
 10
108.2669487576555
 20
-129.2124402888774
 10
108.2669487576555
 20
-129.2124402888774
 10
108.2669487576555
 20
-129.2124402888774
 10
108.2669487576555
 20
-128.1375704974795
 10
108.2669487576555
 20
-128.1375704974795
 10
108.2669487576555
 20
-128.1375704974795
 10
108.4784776204498
 20
-128.1375704974795
 10
108.4784776204498
 20
-128.1375704974795
 10
108.7685546603079
 20
-128.461409473093
 10
109.3607665742223
 20
-128.7280598636513
 10
109.811385063693
 20
-128.7618217994068
 97
        0
 97
        0
 75
     2
 76
     1
 98
        0
  0
ENDBLK
  5
E2
330
DF
100
AcDbEntity
  8
0
100
AcDbBlockEnd
  0
ENDSEC
  0
SECTION
  2
ENTITIES
  0
POLYLINE
  5
41
330
1F
100
AcDbEntity
  8
_U+30EC_U+30A4_U+30E4_U+30FC 1
 62
   179
420
  2234388
370
    25
100
AcDb2dPolyline
 66
     1
 10
0.0
 20
0.0
 30
0.0
  0
VERTEX
  5
42
330
41
100
AcDbEntity
  8
_U+30EC_U+30A4_U+30E4_U+30FC 1
 62
   179
420
  2234388
370
    25
100
AcDbVertex
100
AcDb2dVertex
 10
69.45777989465107
 20
-124.1719216356237
 30
0.0
  0
VERTEX
  5
43
330
41
100
AcDbEntity
  8
_U+30EC_U+30A4_U+30E4_U+30FC 1
 62
   179
420
  2234388
370
    25
100
AcDbVertex
100
AcDb2dVertex
 10
106.457923672921
 20
-124.1719216356237
 30
0.0
  0
SEQEND
  5
44
330
41
100
AcDbEntity
  8
_U+30EC_U+30A4_U+30E4_U+30FC 1
 62
   179
420
  2234388
370
    25
  0
POLYLINE
  5
45
330
1F
100
AcDbEntity
  8
_U+30EC_U+30A4_U+30E4_U+30FC 1
 62
   179
420
  2234388
370
    25
100
AcDb2dPolyline
 66
     1
 10
0.0
 20
0.0
 30
0.0
  0
VERTEX
  5
46
330
45
100
AcDbEntity
  8
_U+30EC_U+30A4_U+30E4_U+30FC 1
 62
   179
420
  2234388
370
    25
100
AcDbVertex
100
AcDb2dVertex
 10
69.45777989465107
 20
-125.1716938575959
 30
0.0
  0
VERTEX
  5
47
330
45
100
AcDbEntity
  8
_U+30EC_U+30A4_U+30E4_U+30FC 1
 62
   179
420
  2234388
370
    25
100
AcDbVertex
100
AcDb2dVertex
 10
81.45790375516907
 20
-125.1716938575959
 30
0.0
  0
SEQEND
  5
48
330
45
100
AcDbEntity
  8
_U+30EC_U+30A4_U+30E4_U+30FC 1
 62
   179
420
  2234388
370
    25
  0
POLYLINE
  5
49
330
1F
100
AcDbEntity
  8
_U+30EC_U+30A4_U+30E4_U+30FC 1
 62
   179
420
  2234388
370
    25
100
AcDb2dPolyline
 66
     1
 10
0.0
 20
0.0
 30
0.0
  0
VERTEX
  5
4A
330
49
100
AcDbEntity
  8
_U+30EC_U+30A4_U+30E4_U+30FC 1
 62
   179
420
  2234388
370
    25
100
AcDbVertex
100
AcDb2dVertex
 10
106.457923672921
 20
-125.1716938575959
 30
0.0
  0
VERTEX
  5
4B
330
49
100
AcDbEntity
  8
_U+30EC_U+30A4_U+30E4_U+30FC 1
 62
   179
420
  2234388
370
    25
100
AcDbVertex
100
AcDb2dVertex
 10
106.457923672921
 20
-124.1719216356237
 30
0.0
  0
SEQEND
  5
4C
330
49
100
AcDbEntity
  8
_U+30EC_U+30A4_U+30E4_U+30FC 1
 62
   179
420
  2234388
370
    25
  0
POLYLINE
  5
4D
330
1F
100
AcDbEntity
  8
_U+30EC_U+30A4_U+30E4_U+30FC 1
 62
   179
420
  2234388
370
    25
100
AcDb2dPolyline
 66
     1
 10
0.0
 20
0.0
 30
0.0
  0
VERTEX
  5
4E
330
4D
100
AcDbEntity
  8
_U+30EC_U+30A4_U+30E4_U+30FC 1
 62
   179
420
  2234388
370
    25
100
AcDbVertex
100
AcDb2dVertex
 10
82.35776928776716
 20
-125.1716938575959
 30
0.0
  0
VERTEX
  5
4F
330
4D
100
AcDbEntity
  8
_U+30EC_U+30A4_U+30E4_U+30FC 1
 62
   179
420
  2234388
370
    25
100
AcDbVertex
100
AcDb2dVertex
 10
106.457923672921
 20
-125.1716938575959
 30
0.0
  0
SEQEND
  5
50
330
4D
100
AcDbEntity
  8
_U+30EC_U+30A4_U+30E4_U+30FC 1
 62
   179
420
  2234388
370
    25
  0
POLYLINE
  5
51
330
1F
100
AcDbEntity
  8
_U+30EC_U+30A4_U+30E4_U+30FC 1
 62
   179
420
  2234388
370
    25
100
AcDb2dPolyline
 66
     1
 10
0.0
 20
0.0
 30
0.0
  0
VERTEX
  5
52
330
51
100
AcDbEntity
  8
_U+30EC_U+30A4_U+30E4_U+30FC 1
 62
   179
420
  2234388
370
    25
100
AcDbVertex
100
AcDb2dVertex
 10
69.45777989465107
 20
-125.1716938575959
 30
0.0
  0
VERTEX
  5
53
330
51
100
AcDbEntity
  8
_U+30EC_U+30A4_U+30E4_U+30FC 1
 62
   179
420
  2234388
370
    25
100
AcDbVertex
100
AcDb2dVertex
 10
69.45777989465107
 20
-124.1719216356237
 30
0.0
  0
SEQEND
  5
54
330
51
100
AcDbEntity
  8
_U+30EC_U+30A4_U+30E4_U+30FC 1
 62
   179
420
  2234388
370
    25
  0
POLYLINE
  5
55
330
1F
100
AcDbEntity
  8
_U+30EC_U+30A4_U+30E4_U+30FC 1
 62
   179
420
  2234388
370
    25
100
AcDb2dPolyline
 66
     1
 10
0.0
 20
0.0
 30
0.0
  0
VERTEX
  5
56
330
55
100
AcDbEntity
  8
_U+30EC_U+30A4_U+30E4_U+30FC 1
 62
   179
420
  2234388
370
    25
100
AcDbVertex
100
AcDb2dVertex
 10
81.45790375516907
 20
-135.1724499662066
 30
0.0
  0
VERTEX
  5
57
330
55
100
AcDbEntity
  8
_U+30EC_U+30A4_U+30E4_U+30FC 1
 62
   179
420
  2234388
370
    25
100
AcDbVertex
100
AcDb2dVertex
 10
81.45790375516907
 20
-125.1716938575959
 30
0.0
  0
SEQEND
  5
58
330
55
100
AcDbEntity
  8
_U+30EC_U+30A4_U+30E4_U+30FC 1
 62
   179
420
  2234388
370
    25
  0
POLYLINE
  5
59
330
1F
100
AcDbEntity
  8
_U+30EC_U+30A4_U+30E4_U+30FC 1
 62
   179
420
  2234388
370
    25
100
AcDb2dPolyline
 66
     1
 10
0.0
 20
0.0
 30
0.0
  0
VERTEX
  5
5A
330
59
100
AcDbEntity
  8
_U+30EC_U+30A4_U+30E4_U+30FC 1
 62
   179
420
  2234388
370
    25
100
AcDbVertex
100
AcDb2dVertex
 10
90.45786664405226
 20
-132.1724630225123
 30
0.0
  0
VERTEX
  5
5B
330
59
100
AcDbEntity
  8
_U+30EC_U+30A4_U+30E4_U+30FC 1
 62
   179
420
  2234388
370
    25
100
AcDbVertex
100
AcDb2dVertex
 10
91.45763886602448
 20
-132.1724630225123
 30
0.0
  0
SEQEND
  5
5C
330
59
100
AcDbEntity
  8
_U+30EC_U+30A4_U+30E4_U+30FC 1
 62
   179
420
  2234388
370
    25
  0
POLYLINE
  5
5D
330
1F
100
AcDbEntity
  8
_U+30EC_U+30A4_U+30E4_U+30FC 1
 62
   179
420
  2234388
370
    25
100
AcDb2dPolyline
 66
     1
 10
0.0
 20
0.0
 30
0.0
  0
VERTEX
  5
5E
330
5D
100
AcDbEntity
  8
_U+30EC_U+30A4_U+30E4_U+30FC 1
 62
   179
420
  2234388
370
    25
100
AcDbVertex
100
AcDb2dVertex
 10
81.45790375516907
 20
-135.1724499662066
 30
0.0
  0
VERTEX
  5
5F
330
5D
100
AcDbEntity
  8
_U+30EC_U+30A4_U+30E4_U+30FC 1
 62
   179
420
  2234388
370
    25
100
AcDbVertex
100
AcDb2dVertex
 10
91.45763886602448
 20
-135.1724499662066
 30
0.0
  0
SEQEND
  5
60
330
5D
100
AcDbEntity
  8
_U+30EC_U+30A4_U+30E4_U+30FC 1
 62
   179
420
  2234388
370
    25
  0
POLYLINE
  5
61
330
1F
100
AcDbEntity
  8
_U+30EC_U+30A4_U+30E4_U+30FC 1
 62
   179
420
  2234388
370
    25
100
AcDb2dPolyline
 66
     1
 10
0.0
 20
0.0
 30
0.0
  0
VERTEX
  5
62
330
61
100
AcDbEntity
  8
_U+30EC_U+30A4_U+30E4_U+30FC 1
 62
   179
420
  2234388
370
    25
100
AcDbVertex
100
AcDb2dVertex
 10
82.35776928776716
 20
-134.1720074664567
 30
0.0
  0
VERTEX
  5
63
330
61
100
AcDbEntity
  8
_U+30EC_U+30A4_U+30E4_U+30FC 1
 62
   179
420
  2234388
370
    25
100
AcDbVertex
100
AcDb2dVertex
 10
90.45786664405226
 20
-134.1720074664567
 30
0.0
  0
SEQEND
  5
64
330
61
100
AcDbEntity
  8
_U+30EC_U+30A4_U+30E4_U+30FC 1
 62
   179
420
  2234388
370
    25
  0
POLYLINE
  5
65
330
1F
100
AcDbEntity
  8
_U+30EC_U+30A4_U+30E4_U+30FC 1
 62
   179
420
  2234388
370
    25
100
AcDb2dPolyline
 66
     1
 10
0.0
 20
0.0
 30
0.0
  0
VERTEX
  5
66
330
65
100
AcDbEntity
  8
_U+30EC_U+30A4_U+30E4_U+30FC 1
 62
   179
420
  2234388
370
    25
100
AcDbVertex
100
AcDb2dVertex
 10
91.45763886602448
 20
-135.1724499662066
 30
0.0
  0
VERTEX
  5
67
330
65
100
AcDbEntity
  8
_U+30EC_U+30A4_U+30E4_U+30FC 1
 62
   179
420
  2234388
370
    25
100
AcDbVertex
100
AcDb2dVertex
 10
91.45763886602448
 20
-132.1724630225123
 30
0.0
  0
SEQEND
  5
68
330
65
100
AcDbEntity
  8
_U+30EC_U+30A4_U+30E4_U+30FC 1
 62
   179
420
  2234388
370
    25
  0
POLYLINE
  5
69
330
1F
100
AcDbEntity
  8
_U+30EC_U+30A4_U+30E4_U+30FC 1
 62
   179
420
  2234388
370
    25
100
AcDb2dPolyline
 66
     1
 10
0.0
 20
0.0
 30
0.0
  0
VERTEX
  5
6A
330
69
100
AcDbEntity
  8
_U+30EC_U+30A4_U+30E4_U+30FC 1
 62
   179
420
  2234388
370
    25
100
AcDbVertex
100
AcDb2dVertex
 10
90.45786664405226
 20
-134.1720074664567
 30
0.0
  0
VERTEX
  5
6B
330
69
100
AcDbEntity
  8
_U+30EC_U+30A4_U+30E4_U+30FC 1
 62
   179
420
  2234388
370
    25
100
AcDbVertex
100
AcDb2dVertex
 10
90.45786664405226
 20
-132.1724630225123
 30
0.0
  0
SEQEND
  5
6C
330
69
100
AcDbEntity
  8
_U+30EC_U+30A4_U+30E4_U+30FC 1
 62
   179
420
  2234388
370
    25
  0
POLYLINE
  5
6D
330
1F
100
AcDbEntity
  8
_U+30EC_U+30A4_U+30E4_U+30FC 1
 62
   179
420
  2234388
370
    25
100
AcDb2dPolyline
 66
     1
 10
0.0
 20
0.0
 30
0.0
  0
VERTEX
  5
6E
330
6D
100
AcDbEntity
  8
_U+30EC_U+30A4_U+30E4_U+30FC 1
 62
   179
420
  2234388
370
    25
100
AcDbVertex
100
AcDb2dVertex
 10
82.35776928776716
 20
-134.1720074664567
 30
0.0
  0
VERTEX
  5
6F
330
6D
100
AcDbEntity
  8
_U+30EC_U+30A4_U+30E4_U+30FC 1
 62
   179
420
  2234388
370
    25
100
AcDbVertex
100
AcDb2dVertex
 10
82.35776928776716
 20
-125.1716938575959
 30
0.0
  0
SEQEND
  5
70
330
6D
100
AcDbEntity
  8
_U+30EC_U+30A4_U+30E4_U+30FC 1
 62
   179
420
  2234388
370
    25
  0
SPLINE
  5
71
330
1F
100
AcDbEntity
  8
_U+30EC_U+30A4_U+30E4_U+30FC 1
 62
   179
420
  2234388
370
     9
100
AcDbSpline
210
0.0
220
0.0
230
1.0
 70
    11
 71
     3
 72
    17
 73
    13
 74
     0
 42
0.0000000001
 43
0.0000000001
 12
1.0
 22
0.0
 32
0.0
 13
1.0
 23
0.0
 33
0.0
 40
0.0
 40
0.0
 40
0.0
 40
0.0
 40
1.0
 40
1.0
 40
1.0
 40
2.0
 40
2.0
 40
2.0
 40
3.0
 40
3.0
 40
3.0
 40
4.0
 40
4.0
 40
4.0
 40
4.0
 10
69.55786294765329
 20
-120.1719860810683
 30
0.0
 10
69.55786294765329
 20
-120.116882192193
 30
0.0
 10
69.51306017101854
 20
-120.0720794144263
 30
0.0
 10
69.45777989465107
 20
-120.0720794144263
 30
0.0
 10
69.40264072939112
 20
-120.0720794144263
 30
0.0
 10
69.35787498266038
 20
-120.116882192193
 30
0.0
 10
69.35787498266038
 20
-120.1719860810683
 30
0.0
 10
69.35787498266038
 20
-120.227442747721
 30
0.0
 10
69.40264072939112
 20
-120.2722455254877
 30
0.0
 10
69.45777989465107
 20
-120.2722455254877
 30
0.0
 10
69.51306017101854
 20
-120.2722455254877
 30
0.0
 10
69.55786294765329
 20
-120.227442747721
 30
0.0
 10
69.55786294765329
 20
-120.1719860810683
 30
0.0
  0
SPLINE
  5
72
330
1F
100
AcDbEntity
  8
_U+30EC_U+30A4_U+30E4_U+30FC 1
 62
   179
420
  2234388
370
     9
100
AcDbSpline
210
0.0
220
0.0
230
1.0
 70
    11
 71
     3
 72
    17
 73
    13
 74
     0
 42
0.0000000001
 43
0.0000000001
 12
1.0
 22
0.0
 32
0.0
 13
1.0
 23
0.0
 33
0.0
 40
0.0
 40
0.0
 40
0.0
 40
0.0
 40
1.0
 40
1.0
 40
1.0
 40
2.0
 40
2.0
 40
2.0
 40
3.0
 40
3.0
 40
3.0
 40
4.0
 40
4.0
 40
4.0
 40
4.0
 10
106.5578303370388
 20
-120.1719860810683
 30
0.0
 10
106.5578303370388
 20
-120.116882192193
 30
0.0
 10
106.5130628381809
 20
-120.0720794144263
 30
0.0
 10
106.457923672921
 20
-120.0720794144263
 30
0.0
 10
106.4024670076691
 20
-120.0720794144263
 30
0.0
 10
106.3576642310344
 20
-120.116882192193
 30
0.0
 10
106.3576642310344
 20
-120.1719860810683
 30
0.0
 10
106.3576642310344
 20
-120.227442747721
 30
0.0
 10
106.4024670076691
 20
-120.2722455254877
 30
0.0
 10
106.457923672921
 20
-120.2722455254877
 30
0.0
 10
106.5130628381809
 20
-120.2722455254877
 30
0.0
 10
106.5578303370388
 20
-120.227442747721
 30
0.0
 10
106.5578303370388
 20
-120.1719860810683
 30
0.0
  0
SPLINE
  5
73
330
1F
100
AcDbEntity
  8
_U+30EC_U+30A4_U+30E4_U+30FC 1
 62
   179
420
  2234388
370
     9
100
AcDbSpline
210
0.0
220
0.0
230
1.0
 70
    11
 71
     3
 72
    17
 73
    13
 74
     0
 42
0.0000000001
 43
0.0000000001
 12
1.0
 22
0.0
 32
0.0
 13
1.0
 23
0.0
 33
0.0
 40
0.0
 40
0.0
 40
0.0
 40
0.0
 40
1.0
 40
1.0
 40
1.0
 40
2.0
 40
2.0
 40
2.0
 40
3.0
 40
3.0
 40
3.0
 40
4.0
 40
4.0
 40
4.0
 40
4.0
 10
110.5579421794319
 20
-124.1719216356237
 30
0.0
 10
110.5579421794319
 20
-124.116782468971
 30
0.0
 10
110.5131394027972
 20
-124.0720149689821
 30
0.0
 10
110.4576827375453
 20
-124.0720149689821
 30
0.0
 10
110.4025435722854
 20
-124.0720149689821
 30
0.0
 10
110.3577760734275
 20
-124.116782468971
 30
0.0
 10
110.3577760734275
 20
-124.1719216356237
 30
0.0
 10
110.3577760734275
 20
-124.227025524499
 30
0.0
 10
110.4025435722854
 20
-124.2718283022654
 30
0.0
 10
110.4576827375453
 20
-124.2718283022654
 30
0.0
 10
110.5131394027972
 20
-124.2718283022654
 30
0.0
 10
110.5579421794319
 20
-124.227025524499
 30
0.0
 10
110.5579421794319
 20
-124.1719216356237
 30
0.0
  0
SPLINE
  5
74
330
1F
100
AcDbEntity
  8
_U+30EC_U+30A4_U+30E4_U+30FC 1
 62
   179
420
  2234388
370
     9
100
AcDbSpline
210
0.0
220
0.0
230
1.0
 70
    11
 71
     3
 72
    17
 73
    13
 74
     0
 42
0.0000000001
 43
0.0000000001
 12
1.0
 22
0.0
 32
0.0
 13
1.0
 23
0.0
 33
0.0
 40
0.0
 40
0.0
 40
0.0
 40
0.0
 40
1.0
 40
1.0
 40
1.0
 40
2.0
 40
2.0
 40
2.0
 40
3.0
 40
3.0
 40
3.0
 40
4.0
 40
4.0
 40
4.0
 40
4.0
 10
110.5579421794319
 20
-125.1716938575959
 30
0.0
 10
110.5579421794319
 20
-125.1165546909432
 30
0.0
 10
110.5131394027972
 20
-125.0717871909543
 30
0.0
 10
110.4576827375453
 20
-125.0717871909543
 30
0.0
 10
110.4025435722854
 20
-125.0717871909543
 30
0.0
 10
110.3577760734275
 20
-125.1165546909432
 30
0.0
 10
110.3577760734275
 20
-125.1716938575959
 30
0.0
 10
110.3577760734275
 20
-125.2271505242486
 30
0.0
 10
110.4025435722854
 20
-125.2719533020153
 30
0.0
 10
110.4576827375453
 20
-125.2719533020153
 30
0.0
 10
110.5131394027972
 20
-125.2719533020153
 30
0.0
 10
110.5579421794319
 20
-125.2271505242486
 30
0.0
 10
110.5579421794319
 20
-125.1716938575959
 30
0.0
  0
SPLINE
  5
75
330
1F
100
AcDbEntity
  8
_U+30EC_U+30A4_U+30E4_U+30FC 1
 62
   179
420
  2234388
370
     9
100
AcDbSpline
210
0.0
220
0.0
230
1.0
 70
    11
 71
     3
 72
    17
 73
    13
 74
     0
 42
0.0000000001
 43
0.0000000001
 12
1.0
 22
0.0
 32
0.0
 13
1.0
 23
0.0
 33
0.0
 40
0.0
 40
0.0
 40
0.0
 40
0.0
 40
1.0
 40
1.0
 40
1.0
 40
2.0
 40
2.0
 40
2.0
 40
3.0
 40
3.0
 40
3.0
 40
4.0
 40
4.0
 40
4.0
 40
4.0
 10
110.5579421794319
 20
-132.1724630225123
 30
0.0
 10
110.5579421794319
 20
-132.1166535780818
 30
0.0
 10
110.5131394027972
 20
-132.0718860780933
 30
0.0
 10
110.4576827375453
 20
-132.0718860780933
 30
0.0
 10
110.4025435722854
 20
-132.0718860780933
 30
0.0
 10
110.3577760734275
 20
-132.1166535780818
 30
0.0
 10
110.3577760734275
 20
-132.1724630225123
 30
0.0
 10
110.3577760734275
 20
-132.2276021891654
 30
0.0
 10
110.4025435722854
 20
-132.2723696891539
 30
0.0
 10
110.4576827375453
 20
-132.2723696891539
 30
0.0
 10
110.5131394027972
 20
-132.2723696891539
 30
0.0
 10
110.5579421794319
 20
-132.2276021891654
 30
0.0
 10
110.5579421794319
 20
-132.1724630225123
 30
0.0
  0
SPLINE
  5
76
330
1F
100
AcDbEntity
  8
_U+30EC_U+30A4_U+30E4_U+30FC 1
 62
   179
420
  2234388
370
     9
100
AcDbSpline
210
0.0
220
0.0
230
1.0
 70
    11
 71
     3
 72
    17
 73
    13
 74
     0
 42
0.0000000001
 43
0.0000000001
 12
1.0
 22
0.0
 32
0.0
 13
1.0
 23
0.0
 33
0.0
 40
0.0
 40
0.0
 40
0.0
 40
0.0
 40
1.0
 40
1.0
 40
1.0
 40
2.0
 40
2.0
 40
2.0
 40
3.0
 40
3.0
 40
3.0
 40
4.0
 40
4.0
 40
4.0
 40
4.0
 10
110.5579421794319
 20
-135.1724499662066
 30
0.0
 10
110.5579421794319
 20
-135.1166405217762
 30
0.0
 10
110.5131394027972
 20
-135.0718730217876
 30
0.0
 10
110.4576827375453
 20
-135.0718730217876
 30
0.0
 10
110.4025435722854
 20
-135.0718730217876
 30
0.0
 10
110.3577760734275
 20
-135.1166405217762
 30
0.0
 10
110.3577760734275
 20
-135.1724499662066
 30
0.0
 10
110.3577760734275
 20
-135.2275891328597
 30
0.0
 10
110.4025435722854
 20
-135.2723566328483
 30
0.0
 10
110.4576827375453
 20
-135.2723566328483
 30
0.0
 10
110.5131394027972
 20
-135.2723566328483
 30
0.0
 10
110.5579421794319
 20
-135.2275891328597
 30
0.0
 10
110.5579421794319
 20
-135.1724499662066
 30
0.0
  0
SPLINE
  5
77
330
1F
100
AcDbEntity
  8
_U+30EC_U+30A4_U+30E4_U+30FC 1
 62
   179
420
  2234388
370
     9
100
AcDbSpline
210
0.0
220
0.0
230
1.0
 70
    11
 71
     3
 72
    17
 73
    13
 74
     0
 42
0.0000000001
 43
0.0000000001
 12
1.0
 22
0.0
 32
0.0
 13
1.0
 23
0.0
 33
0.0
 40
0.0
 40
0.0
 40
0.0
 40
0.0
 40
1.0
 40
1.0
 40
1.0
 40
2.0
 40
2.0
 40
2.0
 40
3.0
 40
3.0
 40
3.0
 40
4.0
 40
4.0
 40
4.0
 40
4.0
 10
81.55781041928691
 20
-139.1722091318735
 30
0.0
 10
81.55781041928691
 20
-139.1171052429986
 30
0.0
 10
81.51300764265214
 20
-139.0723024652319
 30
0.0
 10
81.45790375516907
 20
-139.0723024652319
 30
0.0
 10
81.40276664631584
 20
-139.0723024652319
 30
0.0
 10
81.35799709105125
 20
-139.1171052429986
 30
0.0
 10
81.35799709105125
 20
-139.1722091318735
 30
0.0
 10
81.35799709105125
 20
-139.2273482985266
 30
0.0
 10
81.40276664631584
 20
-139.2721157985152
 30
0.0
 10
81.45790375516907
 20
-139.2721157985152
 30
0.0
 10
81.51300764265214
 20
-139.2721157985152
 30
0.0
 10
81.55781041928691
 20
-139.2273482985266
 30
0.0
 10
81.55781041928691
 20
-139.1722091318735
 30
0.0
  0
SPLINE
  5
78
330
1F
100
AcDbEntity
  8
_U+30EC_U+30A4_U+30E4_U+30FC 1
 62
   179
420
  2234388
370
     9
100
AcDbSpline
210
0.0
220
0.0
230
1.0
 70
    11
 71
     3
 72
    17
 73
    13
 74
     0
 42
0.0000000001
 43
0.0000000001
 12
1.0
 22
0.0
 32
0.0
 13
1.0
 23
0.0
 33
0.0
 40
0.0
 40
0.0
 40
0.0
 40
0.0
 40
1.0
 40
1.0
 40
1.0
 40
2.0
 40
2.0
 40
2.0
 40
3.0
 40
3.0
 40
3.0
 40
4.0
 40
4.0
 40
4.0
 40
4.0
 10
91.5578959974968
 20
-139.1722091318735
 30
0.0
 10
91.5578959974968
 20
-139.1171052429986
 30
0.0
 10
91.51309322086205
 20
-139.0723024652319
 30
0.0
 10
91.45763886602448
 20
-139.0723024652319
 30
0.0
 10
91.40253266812712
 20
-139.0723024652319
 30
0.0
 10
91.35772989149235
 20
-139.1171052429986
 30
0.0
 10
91.35772989149235
 20
-139.1722091318735
 30
0.0
 10
91.35772989149235
 20
-139.2273482985266
 30
0.0
 10
91.40253266812712
 20
-139.2721157985152
 30
0.0
 10
91.45763886602448
 20
-139.2721157985152
 30
0.0
 10
91.51309322086205
 20
-139.2721157985152
 30
0.0
 10
91.5578959974968
 20
-139.2273482985266
 30
0.0
 10
91.5578959974968
 20
-139.1722091318735
 30
0.0
  0
SPLINE
  5
79
330
1F
100
AcDbEntity
  8
_U+30EC_U+30A4_U+30E4_U+30FC 1
 62
   179
420
  2234388
370
     9
100
AcDbSpline
210
0.0
220
0.0
230
1.0
 70
    11
 71
     3
 72
    17
 73
    13
 74
     0
 42
0.0000000001
 43
0.0000000001
 12
1.0
 22
0.0
 32
0.0
 13
1.0
 23
0.0
 33
0.0
 40
0.0
 40
0.0
 40
0.0
 40
0.0
 40
1.0
 40
1.0
 40
1.0
 40
2.0
 40
2.0
 40
2.0
 40
3.0
 40
3.0
 40
3.0
 40
4.0
 40
4.0
 40
4.0
 40
4.0
 10
69.55786294765329
 20
-139.1722091318735
 30
0.0
 10
69.55786294765329
 20
-139.1171052429986
 30
0.0
 10
69.51306017101854
 20
-139.0723024652319
 30
0.0
 10
69.45777989465107
 20
-139.0723024652319
 30
0.0
 10
69.40264072939112
 20
-139.0723024652319
 30
0.0
 10
69.35787498266038
 20
-139.1171052429986
 30
0.0
 10
69.35787498266038
 20
-139.1722091318735
 30
0.0
 10
69.35787498266038
 20
-139.2273482985266
 30
0.0
 10
69.40264072939112
 20
-139.2721157985152
 30
0.0
 10
69.45777989465107
 20
-139.2721157985152
 30
0.0
 10
69.51306017101854
 20
-139.2721157985152
 30
0.0
 10
69.55786294765329
 20
-139.2273482985266
 30
0.0
 10
69.55786294765329
 20
-139.1722091318735
 30
0.0
  0
POLYLINE
  5
7A
330
1F
100
AcDbEntity
  8
_U+30EC_U+30A4_U+30E4_U+30FC 1
 62
   179
420
  2234388
370
     9
100
AcDb2dPolyline
 66
     1
 10
0.0
 20
0.0
 30
0.0
  0
VERTEX
  5
7B
330
7A
100
AcDbEntity
  8
_U+30EC_U+30A4_U+30E4_U+30FC 1
 62
   179
420
  2234388
370
     9
100
AcDbVertex
100
AcDb2dVertex
 10
110.4576827375453
 20
-124.1719216356237
 30
0.0
  0
VERTEX
  5
7C
330
7A
100
AcDbEntity
  8
_U+30EC_U+30A4_U+30E4_U+30FC 1
 62
   179
420
  2234388
370
     9
100
AcDbVertex
100
AcDb2dVertex
 10
110.4576827375453
 20
-120.4017855254552
 30
0.0
  0
SEQEND
  5
7D
330
7A
100
AcDbEntity
  8
_U+30EC_U+30A4_U+30E4_U+30FC 1
 62
   179
420
  2234388
370
     9
  0
POLYLINE
  5
7E
330
1F
100
AcDbEntity
  8
_U+30EC_U+30A4_U+30E4_U+30FC 1
 62
   179
420
  2234388
370
     9
100
AcDb2dPolyline
 66
     1
 10
0.0
 20
0.0
 30
0.0
  0
VERTEX
  5
7F
330
7E
100
AcDbEntity
  8
_U+30EC_U+30A4_U+30E4_U+30FC 1
 62
   179
420
  2234388
370
     9
100
AcDbVertex
100
AcDb2dVertex
 10
110.4576827375453
 20
-124.1719216356237
 30
0.0
  0
VERTEX
  5
80
330
7E
100
AcDbEntity
  8
_U+30EC_U+30A4_U+30E4_U+30FC 1
 62
   179
420
  2234388
370
     9
100
AcDbVertex
100
AcDb2dVertex
 10
110.4576827375453
 20
-125.1716938575959
 30
0.0
  0
SEQEND
  5
81
330
7E
100
AcDbEntity
  8
_U+30EC_U+30A4_U+30E4_U+30FC 1
 62
   179
420
  2234388
370
     9
  0
POLYLINE
  5
82
330
1F
100
AcDbEntity
  8
_U+30EC_U+30A4_U+30E4_U+30FC 1
 62
   179
420
  2234388
370
     9
100
AcDb2dPolyline
 66
     1
 10
0.0
 20
0.0
 30
0.0
  0
VERTEX
  5
83
330
82
100
AcDbEntity
  8
_U+30EC_U+30A4_U+30E4_U+30FC 1
 62
   179
420
  2234388
370
     9
100
AcDbVertex
100
AcDb2dVertex
 10
108.9976413859052
 20
-124.1719216356237
 30
0.0
  0
VERTEX
  5
84
330
82
100
AcDbEntity
  8
_U+30EC_U+30A4_U+30E4_U+30FC 1
 62
   179
420
  2234388
370
     9
100
AcDbVertex
100
AcDb2dVertex
 10
111.45780771203
 20
-124.1719216356237
 30
0.0
  0
SEQEND
  5
85
330
82
100
AcDbEntity
  8
_U+30EC_U+30A4_U+30E4_U+30FC 1
 62
   179
420
  2234388
370
     9
  0
POLYLINE
  5
86
330
1F
100
AcDbEntity
  8
_U+30EC_U+30A4_U+30E4_U+30FC 1
 62
   179
420
  2234388
370
     9
100
AcDb2dPolyline
 66
     1
 10
0.0
 20
0.0
 30
0.0
  0
VERTEX
  5
87
330
86
100
AcDbEntity
  8
_U+30EC_U+30A4_U+30E4_U+30FC 1
 62
   179
420
  2234388
370
     9
100
AcDbVertex
100
AcDb2dVertex
 10
108.9976413859052
 20
-125.1716938575959
 30
0.0
  0
VERTEX
  5
88
330
86
100
AcDbEntity
  8
_U+30EC_U+30A4_U+30E4_U+30FC 1
 62
   179
420
  2234388
370
     9
100
AcDbVertex
100
AcDb2dVertex
 10
111.45780771203
 20
-125.1716938575959
 30
0.0
  0
SEQEND
  5
89
330
86
100
AcDbEntity
  8
_U+30EC_U+30A4_U+30E4_U+30FC 1
 62
   179
420
  2234388
370
     9
  0
INSERT
  5
8B
330
1F
100
AcDbEntity
  8
_U+30EC_U+30A4_U+30E4_U+30FC 1
100
AcDbBlockReference
  2
block 2
 10
0.0
 20
0.0
 30
0.0
  0
POLYLINE
  5
90
330
1F
100
AcDbEntity
  8
_U+30EC_U+30A4_U+30E4_U+30FC 1
 62
   179
420
  2234388
370
     9
100
AcDb2dPolyline
 66
     1
 10
0.0
 20
0.0
 30
0.0
  0
VERTEX
  5
91
330
90
100
AcDbEntity
  8
_U+30EC_U+30A4_U+30E4_U+30FC 1
 62
   179
420
  2234388
370
     9
100
AcDbVertex
100
AcDb2dVertex
 10
110.4576827375453
 20
-135.1724499662066
 30
0.0
  0
VERTEX
  5
92
330
90
100
AcDbEntity
  8
_U+30EC_U+30A4_U+30E4_U+30FC 1
 62
   179
420
  2234388
370
     9
100
AcDbVertex
100
AcDb2dVertex
 10
110.4576827375453
 20
-132.1724630225123
 30
0.0
  0
SEQEND
  5
93
330
90
100
AcDbEntity
  8
_U+30EC_U+30A4_U+30E4_U+30FC 1
 62
   179
420
  2234388
370
     9
  0
POLYLINE
  5
94
330
1F
100
AcDbEntity
  8
_U+30EC_U+30A4_U+30E4_U+30FC 1
 62
   179
420
  2234388
370
     9
100
AcDb2dPolyline
 66
     1
 10
0.0
 20
0.0
 30
0.0
  0
VERTEX
  5
95
330
94
100
AcDbEntity
  8
_U+30EC_U+30A4_U+30E4_U+30FC 1
 62
   179
420
  2234388
370
     9
100
AcDbVertex
100
AcDb2dVertex
 10
93.99770704636315
 20
-135.1724499662066
 30
0.0
  0
VERTEX
  5
96
330
94
100
AcDbEntity
  8
_U+30EC_U+30A4_U+30E4_U+30FC 1
 62
   179
420
  2234388
370
     9
100
AcDbVertex
100
AcDb2dVertex
 10
111.45780771203
 20
-135.1724499662066
 30
0.0
  0
SEQEND
  5
97
330
94
100
AcDbEntity
  8
_U+30EC_U+30A4_U+30E4_U+30FC 1
 62
   179
420
  2234388
370
     9
  0
INSERT
  5
99
330
1F
100
AcDbEntity
  8
_U+30EC_U+30A4_U+30E4_U+30FC 1
100
AcDbBlockReference
  2
block 3
 10
0.0
 20
0.0
 30
0.0
  0
POLYLINE
  5
9E
330
1F
100
AcDbEntity
  8
_U+30EC_U+30A4_U+30E4_U+30FC 1
 62
   179
420
  2234388
370
     9
100
AcDb2dPolyline
 66
     1
 10
0.0
 20
0.0
 30
0.0
  0
VERTEX
  5
9F
330
9E
100
AcDbEntity
  8
_U+30EC_U+30A4_U+30E4_U+30FC 1
 62
   179
420
  2234388
370
     9
100
AcDbVertex
100
AcDb2dVertex
 10
69.45777989465107
 20
-120.1719860810683
 30
0.0
  0
VERTEX
  5
A0
330
9E
100
AcDbEntity
  8
_U+30EC_U+30A4_U+30E4_U+30FC 1
 62
   179
420
  2234388
370
     9
100
AcDbVertex
100
AcDb2dVertex
 10
106.457923672921
 20
-120.1719860810683
 30
0.0
  0
SEQEND
  5
A1
330
9E
100
AcDbEntity
  8
_U+30EC_U+30A4_U+30E4_U+30FC 1
 62
   179
420
  2234388
370
     9
  0
POLYLINE
  5
A2
330
1F
100
AcDbEntity
  8
_U+30EC_U+30A4_U+30E4_U+30FC 1
 62
   179
420
  2234388
370
     9
100
AcDb2dPolyline
 66
     1
 10
0.0
 20
0.0
 30
0.0
  0
VERTEX
  5
A3
330
A2
100
AcDbEntity
  8
_U+30EC_U+30A4_U+30E4_U+30FC 1
 62
   179
420
  2234388
370
     9
100
AcDbVertex
100
AcDb2dVertex
 10
69.45777989465107
 20
-121.6318510807031
 30
0.0
  0
VERTEX
  5
A4
330
A2
100
AcDbEntity
  8
_U+30EC_U+30A4_U+30E4_U+30FC 1
 62
   179
420
  2234388
370
     9
100
AcDbVertex
100
AcDb2dVertex
 10
69.45777989465107
 20
-119.1720374702068
 30
0.0
  0
SEQEND
  5
A5
330
A2
100
AcDbEntity
  8
_U+30EC_U+30A4_U+30E4_U+30FC 1
 62
   179
420
  2234388
370
     9
  0
POLYLINE
  5
A6
330
1F
100
AcDbEntity
  8
_U+30EC_U+30A4_U+30E4_U+30FC 1
 62
   179
420
  2234388
370
     9
100
AcDb2dPolyline
 66
     1
 10
0.0
 20
0.0
 30
0.0
  0
VERTEX
  5
A7
330
A6
100
AcDbEntity
  8
_U+30EC_U+30A4_U+30E4_U+30FC 1
 62
   179
420
  2234388
370
     9
100
AcDbVertex
100
AcDb2dVertex
 10
106.457923672921
 20
-121.6318510807031
 30
0.0
  0
VERTEX
  5
A8
330
A6
100
AcDbEntity
  8
_U+30EC_U+30A4_U+30E4_U+30FC 1
 62
   179
420
  2234388
370
     9
100
AcDbVertex
100
AcDb2dVertex
 10
106.457923672921
 20
-119.1720374702068
 30
0.0
  0
SEQEND
  5
A9
330
A6
100
AcDbEntity
  8
_U+30EC_U+30A4_U+30E4_U+30FC 1
 62
   179
420
  2234388
370
     9
  0
INSERT
  5
AB
330
1F
100
AcDbEntity
  8
_U+30EC_U+30A4_U+30E4_U+30FC 1
100
AcDbBlockReference
  2
block 4
 10
0.0
 20
0.0
 30
0.0
  0
POLYLINE
  5
B2
330
1F
100
AcDbEntity
  8
_U+30EC_U+30A4_U+30E4_U+30FC 1
 62
   179
420
  2234388
370
     9
100
AcDb2dPolyline
 66
     1
 10
0.0
 20
0.0
 30
0.0
  0
VERTEX
  5
B3
330
B2
100
AcDbEntity
  8
_U+30EC_U+30A4_U+30E4_U+30FC 1
 62
   179
420
  2234388
370
     9
100
AcDbVertex
100
AcDb2dVertex
 10
81.45790375516907
 20
-139.1722091318735
 30
0.0
  0
VERTEX
  5
B4
330
B2
100
AcDbEntity
  8
_U+30EC_U+30A4_U+30E4_U+30FC 1
 62
   179
420
  2234388
370
     9
100
AcDbVertex
100
AcDb2dVertex
 10
91.45763886602448
 20
-139.1722091318735
 30
0.0
  0
SEQEND
  5
B5
330
B2
100
AcDbEntity
  8
_U+30EC_U+30A4_U+30E4_U+30FC 1
 62
   179
420
  2234388
370
     9
  0
POLYLINE
  5
B6
330
1F
100
AcDbEntity
  8
_U+30EC_U+30A4_U+30E4_U+30FC 1
 62
   179
420
  2234388
370
     9
100
AcDb2dPolyline
 66
     1
 10
0.0
 20
0.0
 30
0.0
  0
VERTEX
  5
B7
330
B6
100
AcDbEntity
  8
_U+30EC_U+30A4_U+30E4_U+30FC 1
 62
   179
420
  2234388
370
     9
100
AcDbVertex
100
AcDb2dVertex
 10
81.45790375516907
 20
-137.7121677433498
 30
0.0
  0
VERTEX
  5
B8
330
B6
100
AcDbEntity
  8
_U+30EC_U+30A4_U+30E4_U+30FC 1
 62
   179
420
  2234388
370
     9
100
AcDbVertex
100
AcDb2dVertex
 10
81.45790375516907
 20
-140.1719813538461
 30
0.0
  0
SEQEND
  5
B9
330
B6
100
AcDbEntity
  8
_U+30EC_U+30A4_U+30E4_U+30FC 1
 62
   179
420
  2234388
370
     9
  0
POLYLINE
  5
BA
330
1F
100
AcDbEntity
  8
_U+30EC_U+30A4_U+30E4_U+30FC 1
 62
   179
420
  2234388
370
     9
100
AcDb2dPolyline
 66
     1
 10
0.0
 20
0.0
 30
0.0
  0
VERTEX
  5
BB
330
BA
100
AcDbEntity
  8
_U+30EC_U+30A4_U+30E4_U+30FC 1
 62
   179
420
  2234388
370
     9
100
AcDbVertex
100
AcDb2dVertex
 10
91.45763886602448
 20
-137.7121677433498
 30
0.0
  0
VERTEX
  5
BC
330
BA
100
AcDbEntity
  8
_U+30EC_U+30A4_U+30E4_U+30FC 1
 62
   179
420
  2234388
370
     9
100
AcDbVertex
100
AcDb2dVertex
 10
91.45763886602448
 20
-140.1719813538461
 30
0.0
  0
SEQEND
  5
BD
330
BA
100
AcDbEntity
  8
_U+30EC_U+30A4_U+30E4_U+30FC 1
 62
   179
420
  2234388
370
     9
  0
INSERT
  5
BF
330
1F
100
AcDbEntity
  8
_U+30EC_U+30A4_U+30E4_U+30FC 1
100
AcDbBlockReference
  2
block 5
 10
0.0
 20
0.0
 30
0.0
  0
POLYLINE
  5
C7
330
1F
100
AcDbEntity
  8
_U+30EC_U+30A4_U+30E4_U+30FC 1
 62
   179
420
  2234388
370
     9
100
AcDb2dPolyline
 66
     1
 10
0.0
 20
0.0
 30
0.0
  0
VERTEX
  5
C8
330
C7
100
AcDbEntity
  8
_U+30EC_U+30A4_U+30E4_U+30FC 1
 62
   179
420
  2234388
370
     9
100
AcDbVertex
100
AcDb2dVertex
 10
69.45777989465107
 20
-139.1722091318735
 30
0.0
  0
VERTEX
  5
C9
330
C7
100
AcDbEntity
  8
_U+30EC_U+30A4_U+30E4_U+30FC 1
 62
   179
420
  2234388
370
     9
100
AcDbVertex
100
AcDb2dVertex
 10
81.45790375516907
 20
-139.1722091318735
 30
0.0
  0
SEQEND
  5
CA
330
C7
100
AcDbEntity
  8
_U+30EC_U+30A4_U+30E4_U+30FC 1
 62
   179
420
  2234388
370
     9
  0
POLYLINE
  5
CB
330
1F
100
AcDbEntity
  8
_U+30EC_U+30A4_U+30E4_U+30FC 1
 62
   179
420
  2234388
370
     9
100
AcDb2dPolyline
 66
     1
 10
0.0
 20
0.0
 30
0.0
  0
VERTEX
  5
CC
330
CB
100
AcDbEntity
  8
_U+30EC_U+30A4_U+30E4_U+30FC 1
 62
   179
420
  2234388
370
     9
100
AcDbVertex
100
AcDb2dVertex
 10
69.45777989465107
 20
-127.7122583014054
 30
0.0
  0
VERTEX
  5
CD
330
CB
100
AcDbEntity
  8
_U+30EC_U+30A4_U+30E4_U+30FC 1
 62
   179
420
  2234388
370
     9
100
AcDbVertex
100
AcDb2dVertex
 10
69.45777989465107
 20
-140.1719813538461
 30
0.0
  0
SEQEND
  5
CE
330
CB
100
AcDbEntity
  8
_U+30EC_U+30A4_U+30E4_U+30FC 1
 62
   179
420
  2234388
370
     9
  0
INSERT
  5
D0
330
1F
100
AcDbEntity
  8
_U+30EC_U+30A4_U+30E4_U+30FC 1
100
AcDbBlockReference
  2
block 6
 10
0.0
 20
0.0
 30
0.0
  0
POLYLINE
  5
D7
330
1F
100
AcDbEntity
  8
_U+30EC_U+30A4_U+30E4_U+30FC 1
 62
   179
420
  2234388
370
     9
100
AcDb2dPolyline
 66
     1
 10
0.0
 20
0.0
 30
0.0
  0
VERTEX
  5
D8
330
D7
100
AcDbEntity
  8
_U+30EC_U+30A4_U+30E4_U+30FC 1
 62
   179
420
  2234388
370
     9
100
AcDbVertex
100
AcDb2dVertex
 10
110.4576827375453
 20
-132.1724630225123
 30
0.0
  0
VERTEX
  5
D9
330
D7
100
AcDbEntity
  8
_U+30EC_U+30A4_U+30E4_U+30FC 1
 62
   179
420
  2234388
370
     9
100
AcDbVertex
100
AcDb2dVertex
 10
110.4576827375453
 20
-125.1716938575959
 30
0.0
  0
SEQEND
  5
DA
330
D7
100
AcDbEntity
  8
_U+30EC_U+30A4_U+30E4_U+30FC 1
 62
   179
420
  2234388
370
     9
  0
POLYLINE
  5
DB
330
1F
100
AcDbEntity
  8
_U+30EC_U+30A4_U+30E4_U+30FC 1
 62
   179
420
  2234388
370
     9
100
AcDb2dPolyline
 66
     1
 10
0.0
 20
0.0
 30
0.0
  0
VERTEX
  5
DC
330
DB
100
AcDbEntity
  8
_U+30EC_U+30A4_U+30E4_U+30FC 1
 62
   179
420
  2234388
370
     9
100
AcDbVertex
100
AcDb2dVertex
 10
93.99770704636315
 20
-132.1724630225123
 30
0.0
  0
VERTEX
  5
DD
330
DB
100
AcDbEntity
  8
_U+30EC_U+30A4_U+30E4_U+30FC 1
 62
   179
420
  2234388
370
     9
100
AcDbVertex
100
AcDb2dVertex
 10
111.45780771203
 20
-132.1724630225123
 30
0.0
  0
SEQEND
  5
DE
330
DB
100
AcDbEntity
  8
_U+30EC_U+30A4_U+30E4_U+30FC 1
 62
   179
420
  2234388
370
     9
  0
INSERT
  5
E0
330
1F
100
AcDbEntity
  8
_U+30EC_U+30A4_U+30E4_U+30FC 1
100
AcDbBlockReference
  2
block 7
 10
0.0
 20
0.0
 30
0.0
  0
ENDSEC
  0
SECTION
  2
OBJECTS
  0
DICTIONARY
  5
C
330
0
100
AcDbDictionary
281
     1
  3
ACAD_GROUP
350
D
  3
ACAD_LAYOUT
350
1A
  3
ACAD_MATERIAL
350
3B
  3
ACAD_MLEADERSTYLE
350
E6
  3
ACAD_MLINESTYLE
350
17
  3
ACAD_PLOTSETTINGS
350
19
  3
ACAD_PLOTSTYLENAME
350
E
  3
ACAD_TABLESTYLE
350
E5
  3
ACAD_VISUALSTYLE
350
2A
  0
SUN
  5
3F
330
29
100
AcDbSun
 90
        1
290
     0
 63
     7
421
 16777215
 40
1.0
291
     1
 91
  2455826
 92
 54000000
292
     0
 70
     2
 71
   256
280
     1
  0
DICTIONARY
  5
D
102
{ACAD_REACTORS
330
C
102
}
330
C
100
AcDbDictionary
281
     1
  0
DICTIONARY
  5
1A
102
{ACAD_REACTORS
330
C
102
}
330
C
100
AcDbDictionary
281
     1
  3
Layout1
350
1E
  3
Layout2
350
26
  3
Model
350
22
  0
DICTIONARY
  5
3B
102
{ACAD_REACTORS
330
C
102
}
330
C
100
AcDbDictionary
281
     1
  3
ByBlock
350
3D
  3
ByLayer
350
3C
  3
Global
350
3E
  0
DICTIONARY
  5
E6
102
{ACAD_REACTORS
330
C
102
}
330
C
100
AcDbDictionary
281
     1
  0
DICTIONARY
  5
17
102
{ACAD_REACTORS
330
C
102
}
330
C
100
AcDbDictionary
281
     1
  3
Standard
350
18
  0
DICTIONARY
  5
19
102
{ACAD_REACTORS
330
C
102
}
330
C
100
AcDbDictionary
281
     1
  0
ACDBDICTIONARYWDFLT
  5
E
102
{ACAD_REACTORS
330
C
102
}
330
C
100
AcDbDictionary
281
     1
  3
Normal
350
F
100
AcDbDictionaryWithDefault
340
F
  0
DICTIONARY
  5
E5
102
{ACAD_REACTORS
330
C
102
}
330
C
100
AcDbDictionary
281
     1
  0
DICTIONARY
  5
2A
102
{ACAD_REACTORS
330
C
102
}
330
C
100
AcDbDictionary
281
     1
  3
2dWireframe
350
2F
  3
3D Hidden
350
31
  3
3dWireframe
350
30
  3
Basic
350
32
  3
Brighten
350
36
  3
ColorChange
350
3A
  3
Conceptual
350
34
  3
Dim
350
35
  3
Facepattern
350
39
  3
Flat
350
2B
  3
FlatWithEdges
350
2C
  3
Gouraud
350
2D
  3
GouraudWithEdges
350
2E
  3
Linepattern
350
38
  3
Realistic
350
33
  3
Thicken
350
37
  0
LAYOUT
  5
1E
102
{ACAD_REACTORS
330
1A
102
}
330
1A
100
AcDbPlotSettings
  1

  2
none_device
  4

  6

 40
0.0
 41
0.0
 42
0.0
 43
0.0
 44
0.0
 45
0.0
 46
0.0
 47
0.0
 48
0.0
 49
0.0
140
0.0
141
0.0
142
1.0
143
1.0
 70
   688
 72
     0
 73
     0
 74
     5
  7

 75
    16
 76
     0
 77
     2
 78
   300
147
1.0
148
0.0
149
0.0
100
AcDbLayout
  1
Layout1
 70
     1
 71
     1
 10
0.0
 20
0.0
 11
12.0
 21
9.0
 12
0.0
 22
0.0
 32
0.0
 14
1.000000000000000E+20
 24
1.000000000000000E+20
 34
1.000000000000000E+20
 15
-1.000000000000000E+20
 25
-1.000000000000000E+20
 35
-1.000000000000000E+20
146
0.0
 13
0.0
 23
0.0
 33
0.0
 16
1.0
 26
0.0
 36
0.0
 17
0.0
 27
1.0
 37
0.0
 76
     0
330
1B
  0
LAYOUT
  5
26
102
{ACAD_REACTORS
330
1A
102
}
330
1A
100
AcDbPlotSettings
  1

  2
none_device
  4

  6

 40
0.0
 41
0.0
 42
0.0
 43
0.0
 44
0.0
 45
0.0
 46
0.0
 47
0.0
 48
0.0
 49
0.0
140
0.0
141
0.0
142
1.0
143
1.0
 70
   688
 72
     0
 73
     0
 74
     5
  7

 75
    16
 76
     0
 77
     2
 78
   300
147
1.0
148
0.0
149
0.0
100
AcDbLayout
  1
Layout2
 70
     1
 71
     2
 10
0.0
 20
0.0
 11
0.0
 21
0.0
 12
0.0
 22
0.0
 32
0.0
 14
0.0
 24
0.0
 34
0.0
 15
0.0
 25
0.0
 35
0.0
146
0.0
 13
0.0
 23
0.0
 33
0.0
 16
1.0
 26
0.0
 36
0.0
 17
0.0
 27
1.0
 37
0.0
 76
     0
330
23
  0
LAYOUT
  5
22
102
{ACAD_REACTORS
330
1A
102
}
330
1A
100
AcDbPlotSettings
  1

  2
none_device
  4

  6

 40
0.0
 41
0.0
 42
0.0
 43
0.0
 44
0.0
 45
0.0
 46
0.0
 47
0.0
 48
0.0
 49
0.0
140
0.0
141
0.0
142
1.0
143
1.0
 70
  1712
 72
     0
 73
     0
 74
     0
  7

 75
     0
 76
     0
 77
     2
 78
   300
147
1.0
148
0.0
149
0.0
100
AcDbLayout
  1
Model
 70
     1
 71
     0
 10
0.0
 20
0.0
 11
12.0
 21
9.0
 12
0.0
 22
0.0
 32
0.0
 14
1.000000000000000E+20
 24
1.000000000000000E+20
 34
1.000000000000000E+20
 15
-1.000000000000000E+20
 25
-1.000000000000000E+20
 35
-1.000000000000000E+20
146
0.0
 13
0.0
 23
0.0
 33
0.0
 16
1.0
 26
0.0
 36
0.0
 17
0.0
 27
1.0
 37
0.0
 76
     0
330
1F
331
29
  0
MATERIAL
  5
3D
102
{ACAD_REACTORS
330
3B
102
}
330
3B
100
AcDbMaterial
  1
ByBlock
 72
     1
 94
      127
  0
MATERIAL
  5
3C
102
{ACAD_REACTORS
330
3B
102
}
330
3B
100
AcDbMaterial
  1
ByLayer
 72
     1
 94
      127
  0
MATERIAL
  5
3E
102
{ACAD_REACTORS
330
3B
102
}
330
3B
100
AcDbMaterial
  1
Global
 72
     1
 94
      127
  0
MLINESTYLE
  5
18
102
{ACAD_REACTORS
330
17
102
}
330
17
100
AcDbMlineStyle
  2
Standard
 70
     0
  3

 62
   256
 51
90.0
 52
90.0
 71
     2
 49
0.5
 62
   256
  6
BYLAYER
 49
-0.5
 62
   256
  6
BYLAYER
  0
ACDBPLACEHOLDER
  5
F
102
{ACAD_REACTORS
330
E
102
}
330
E
  0
VISUALSTYLE
  5
2F
102
{ACAD_REACTORS
330
2A
102
}
330
2A
100
AcDbVisualStyle
  2
2dWireframe
 70
     4
177
     2
291
     0
 71
     0
176
     1
 72
     2
176
     1
 73
     0
176
     1
 90
        0
176
     1
 40
-0.6
176
     1
 41
-30.0
176
     1
 62
     5
 63
     7
421
 16777215
176
     1
 74
     1
176
     1
 91
        4
176
     1
 64
     7
176
     1
 65
   257
176
     1
 75
     1
176
     1
175
     1
176
     1
 42
1.0
176
     1
 92
        0
176
     1
 66
   257
176
     1
 43
1.0
176
     1
 76
     1
176
     1
 77
     6
176
     1
 78
     2
176
     1
 67
     7
176
     1
 79
     5
176
     1
170
     0
176
     1
171
     0
176
     1
290
     0
176
     1
 93
        1
176
     1
 44
0.0
176
     1
173
     0
176
     1
  0
VISUALSTYLE
  5
31
102
{ACAD_REACTORS
330
2A
102
}
330
2A
100
AcDbVisualStyle
  2
3D Hidden
 70
     6
177
     2
291
     0
 71
     1
176
     1
 72
     2
176
     1
 73
     2
176
     1
 90
        0
176
     1
 40
-0.6
176
     1
 41
-30.0
176
     1
 62
     5
 63
     7
421
 16777215
176
     1
 74
     2
176
     1
 91
        2
176
     1
 64
     7
176
     1
 65
   257
176
     1
 75
     2
176
     1
175
     1
176
     1
 42
40.0
176
     1
 92
        0
176
     1
 66
   257
176
     1
 43
1.0
176
     1
 76
     1
176
     1
 77
     6
176
     1
 78
     2
176
     1
 67
     7
176
     1
 79
     3
176
     1
170
     0
176
     1
171
     0
176
     1
290
     0
176
     1
 93
        1
176
     1
 44
0.0
176
     1
173
     0
176
     1
  0
VISUALSTYLE
  5
30
102
{ACAD_REACTORS
330
2A
102
}
330
2A
100
AcDbVisualStyle
  2
3dWireframe
 70
     5
177
     2
291
     0
 71
     0
176
     1
 72
     2
176
     1
 73
     0
176
     1
 90
        0
176
     1
 40
-0.6
176
     1
 41
-30.0
176
     1
 62
     5
 63
     7
421
 16777215
176
     1
 74
     1
176
     1
 91
        4
176
     1
 64
     7
176
     1
 65
   257
176
     1
 75
     1
176
     1
175
     1
176
     1
 42
1.0
176
     1
 92
        0
176
     1
 66
   257
176
     1
 43
1.0
176
     1
 76
     1
176
     1
 77
     6
176
     1
 78
     2
176
     1
 67
     7
176
     1
 79
     5
176
     1
170
     0
176
     1
171
     0
176
     1
290
     0
176
     1
 93
        1
176
     1
 44
0.0
176
     1
173
     0
176
     1
  0
VISUALSTYLE
  5
32
102
{ACAD_REACTORS
330
2A
102
}
330
2A
100
AcDbVisualStyle
  2
Basic
 70
     7
177
     2
291
     1
 71
     1
176
     1
 72
     0
176
     1
 73
     1
176
     1
 90
        0
176
     1
 40
-0.6
176
     1
 41
-30.0
176
     1
 62
     5
 63
     7
421
 16777215
176
     1
 74
     0
176
     1
 91
        4
176
     1
 64
     7
176
     1
 65
   257
176
     1
 75
     1
176
     1
175
     1
176
     1
 42
1.0
176
     1
 92
        8
176
     1
 66
     7
176
     1
 43
1.0
176
     1
 76
     1
176
     1
 77
     6
176
     1
 78
     2
176
     1
 67
     7
176
     1
 79
     5
176
     1
170
     0
176
     1
171
     0
176
     1
290
     0
176
     1
 93
        1
176
     1
 44
0.0
176
     1
173
     0
176
     1
  0
VISUALSTYLE
  5
36
102
{ACAD_REACTORS
330
2A
102
}
330
2A
100
AcDbVisualStyle
  2
Brighten
 70
    12
177
     2
291
     1
 71
     2
176
     1
 72
     2
176
     1
 73
     0
176
     1
 90
        0
176
     1
 40
-0.6
176
     1
 41
-30.0
176
     1
 62
     5
 63
     7
421
 16777215
176
     1
 74
     1
176
     1
 91
        4
176
     1
 64
     7
176
     1
 65
   257
176
     1
 75
     1
176
     1
175
     1
176
     1
 42
1.0
176
     1
 92
        8
176
     1
 66
     7
176
     1
 43
1.0
176
     1
 76
     1
176
     1
 77
     6
176
     1
 78
     2
176
     1
 67
     7
176
     1
 79
     5
176
     1
170
     0
176
     1
171
     0
176
     1
290
     0
176
     1
 93
        1
176
     1
 44
50.0
176
     1
173
     0
176
     1
  0
VISUALSTYLE
  5
3A
102
{ACAD_REACTORS
330
2A
102
}
330
2A
100
AcDbVisualStyle
  2
ColorChange
 70
    16
177
     2
291
     1
 71
     2
176
     1
 72
     2
176
     1
 73
     3
176
     1
 90
        0
176
     1
 40
-0.6
176
     1
 41
-30.0
176
     1
 62
     5
 63
     8
421
  8421504
176
     1
 74
     1
176
     1
 91
        4
176
     1
 64
     7
176
     1
 65
   257
176
     1
 75
     1
176
     1
175
     1
176
     1
 42
1.0
176
     1
 92
        8
176
     1
 66
     8
424
  8421504
176
     1
 43
1.0
176
     1
 76
     1
176
     1
 77
     6
176
     1
 78
     2
176
     1
 67
     7
176
     1
 79
     5
176
     1
170
     0
176
     1
171
     0
176
     1
290
     0
176
     1
 93
        1
176
     1
 44
0.0
176
     1
173
     0
176
     1
  0
VISUALSTYLE
  5
34
102
{ACAD_REACTORS
330
2A
102
}
330
2A
100
AcDbVisualStyle
  2
Conceptual
 70
     9
177
     2
291
     0
 71
     3
176
     1
 72
     2
176
     1
 73
     0
176
     1
 90
        0
176
     1
 40
-0.6
176
     1
 41
-30.0
176
     1
 62
     5
 63
     7
421
 16777215
176
     1
 74
     2
176
     1
 91
        2
176
     1
 64
     7
176
     1
 65
   257
176
     1
 75
     1
176
     1
175
     1
176
     1
 42
40.0
176
     1
 92
        8
176
     1
 66
     7
176
     1
 43
1.0
176
     1
 76
     1
176
     1
 77
     6
176
     1
 78
     2
176
     1
 67
     7
176
     1
 79
     3
176
     1
170
     0
176
     1
171
     0
176
     1
290
     0
176
     1
 93
        1
176
     1
 44
0.0
176
     1
173
     0
176
     1
  0
VISUALSTYLE
  5
35
102
{ACAD_REACTORS
330
2A
102
}
330
2A
100
AcDbVisualStyle
  2
Dim
 70
    11
177
     2
291
     1
 71
     2
176
     1
 72
     2
176
     1
 73
     0
176
     1
 90
        0
176
     1
 40
-0.6
176
     1
 41
-30.0
176
     1
 62
     5
 63
     7
421
 16777215
176
     1
 74
     1
176
     1
 91
        4
176
     1
 64
     7
176
     1
 65
   257
176
     1
 75
     1
176
     1
175
     1
176
     1
 42
1.0
176
     1
 92
        8
176
     1
 66
     7
176
     1
 43
1.0
176
     1
 76
     1
176
     1
 77
     6
176
     1
 78
     2
176
     1
 67
     7
176
     1
 79
     5
176
     1
170
     0
176
     1
171
     0
176
     1
290
     0
176
     1
 93
        1
176
     1
 44
-50.0
176
     1
173
     0
176
     1
  0
VISUALSTYLE
  5
39
102
{ACAD_REACTORS
330
2A
102
}
330
2A
100
AcDbVisualStyle
  2
Facepattern
 70
    15
177
     2
291
     1
 71
     2
176
     1
 72
     2
176
     1
 73
     0
176
     1
 90
        0
176
     1
 40
-0.6
176
     1
 41
-30.0
176
     1
 62
     5
 63
     7
421
 16777215
176
     1
 74
     1
176
     1
 91
        4
176
     1
 64
     7
176
     1
 65
   257
176
     1
 75
     1
176
     1
175
     1
176
     1
 42
1.0
176
     1
 92
        8
176
     1
 66
     7
176
     1
 43
1.0
176
     1
 76
     1
176
     1
 77
     6
176
     1
 78
     2
176
     1
 67
     7
176
     1
 79
     5
176
     1
170
     0
176
     1
171
     0
176
     1
290
     0
176
     1
 93
        1
176
     1
 44
0.0
176
     1
173
     0
176
     1
  0
VISUALSTYLE
  5
2B
102
{ACAD_REACTORS
330
2A
102
}
330
2A
100
AcDbVisualStyle
  2
Flat
 70
     0
177
     2
291
     1
 71
     2
176
     1
 72
     1
176
     1
 73
     1
176
     1
 90
        2
176
     1
 40
-0.6
176
     1
 41
30.0
176
     1
 62
     5
 63
     7
421
 16777215
176
     1
 74
     0
176
     1
 91
        4
176
     1
 64
     7
176
     1
 65
   257
176
     1
 75
     1
176
     1
175
     1
176
     1
 42
1.0
176
     1
 92
        8
176
     1
 66
     7
176
     1
 43
1.0
176
     1
 76
     1
176
     1
 77
     6
176
     1
 78
     2
176
     1
 67
     7
176
     1
 79
     5
176
     1
170
     0
176
     1
171
     0
176
     1
290
     0
176
     1
 93
       13
176
     1
 44
0.0
176
     1
173
     0
176
     1
  0
VISUALSTYLE
  5
2C
102
{ACAD_REACTORS
330
2A
102
}
330
2A
100
AcDbVisualStyle
  2
FlatWithEdges
 70
     1
177
     2
291
     1
 71
     2
176
     1
 72
     1
176
     1
 73
     1
176
     1
 90
        2
176
     1
 40
-0.6
176
     1
 41
30.0
176
     1
 62
     5
 63
     7
421
 16777215
176
     1
 74
     1
176
     1
 91
        4
176
     1
 64
     7
176
     1
 65
   257
176
     1
 75
     1
176
     1
175
     1
176
     1
 42
1.0
176
     1
 92
        0
176
     1
 66
   257
176
     1
 43
1.0
176
     1
 76
     1
176
     1
 77
     6
176
     1
 78
     2
176
     1
 67
     7
176
     1
 79
     5
176
     1
170
     0
176
     1
171
     0
176
     1
290
     0
176
     1
 93
       13
176
     1
 44
0.0
176
     1
173
     0
176
     1
  0
VISUALSTYLE
  5
2D
102
{ACAD_REACTORS
330
2A
102
}
330
2A
100
AcDbVisualStyle
  2
Gouraud
 70
     2
177
     2
291
     1
 71
     2
176
     1
 72
     2
176
     1
 73
     1
176
     1
 90
        2
176
     1
 40
-0.6
176
     1
 41
30.0
176
     1
 62
     5
 63
     7
421
 16777215
176
     1
 74
     0
176
     1
 91
        4
176
     1
 64
     7
176
     1
 65
   257
176
     1
 75
     1
176
     1
175
     1
176
     1
 42
1.0
176
     1
 92
        0
176
     1
 66
     7
176
     1
 43
1.0
176
     1
 76
     1
176
     1
 77
     6
176
     1
 78
     2
176
     1
 67
     7
176
     1
 79
     5
176
     1
170
     0
176
     1
171
     0
176
     1
290
     0
176
     1
 93
       13
176
     1
 44
0.0
176
     1
173
     0
176
     1
  0
VISUALSTYLE
  5
2E
102
{ACAD_REACTORS
330
2A
102
}
330
2A
100
AcDbVisualStyle
  2
GouraudWithEdges
 70
     3
177
     2
291
     1
 71
     2
176
     1
 72
     2
176
     1
 73
     1
176
     1
 90
        2
176
     1
 40
-0.6
176
     1
 41
30.0
176
     1
 62
     5
 63
     7
421
 16777215
176
     1
 74
     1
176
     1
 91
        4
176
     1
 64
     7
176
     1
 65
   257
176
     1
 75
     1
176
     1
175
     1
176
     1
 42
1.0
176
     1
 92
        0
176
     1
 66
   257
176
     1
 43
1.0
176
     1
 76
     1
176
     1
 77
     6
176
     1
 78
     2
176
     1
 67
     7
176
     1
 79
     5
176
     1
170
     0
176
     1
171
     0
176
     1
290
     0
176
     1
 93
       13
176
     1
 44
0.0
176
     1
173
     0
176
     1
  0
VISUALSTYLE
  5
38
102
{ACAD_REACTORS
330
2A
102
}
330
2A
100
AcDbVisualStyle
  2
Linepattern
 70
    14
177
     2
291
     1
 71
     2
176
     1
 72
     2
176
     1
 73
     0
176
     1
 90
        0
176
     1
 40
-0.6
176
     1
 41
-30.0
176
     1
 62
     5
 63
     7
421
 16777215
176
     1
 74
     1
176
     1
 91
        4
176
     1
 64
     7
176
     1
 65
   257
176
     1
 75
     7
176
     1
175
     7
176
     1
 42
1.0
176
     1
 92
        8
176
     1
 66
     7
176
     1
 43
1.0
176
     1
 76
     1
176
     1
 77
     6
176
     1
 78
     2
176
     1
 67
     7
176
     1
 79
     5
176
     1
170
     0
176
     1
171
     0
176
     1
290
     0
176
     1
 93
        1
176
     1
 44
0.0
176
     1
173
     0
176
     1
  0
VISUALSTYLE
  5
33
102
{ACAD_REACTORS
330
2A
102
}
330
2A
100
AcDbVisualStyle
  2
Realistic
 70
     8
177
     2
291
     0
 71
     2
176
     1
 72
     2
176
     1
 73
     0
176
     1
 90
        0
176
     1
 40
-0.6
176
     1
 41
-30.0
176
     1
 62
     5
 63
     7
421
 16777215
176
     1
 74
     1
176
     1
 91
        0
176
     1
 64
     7
176
     1
 65
   257
176
     1
 75
     1
176
     1
175
     1
176
     1
 42
1.0
176
     1
 92
        8
176
     1
 66
     8
424
  7895160
176
     1
 43
1.0
176
     1
 76
     1
176
     1
 77
     6
176
     1
 78
     2
176
     1
 67
     7
176
     1
 79
     5
176
     1
170
     0
176
     1
171
     0
176
     1
290
     0
176
     1
 93
       13
176
     1
 44
0.0
176
     1
173
     0
176
     1
  0
VISUALSTYLE
  5
37
102
{ACAD_REACTORS
330
2A
102
}
330
2A
100
AcDbVisualStyle
  2
Thicken
 70
    13
177
     2
291
     1
 71
     2
176
     1
 72
     2
176
     1
 73
     0
176
     1
 90
        0
176
     1
 40
-0.6
176
     1
 41
-30.0
176
     1
 62
     5
 63
     7
421
 16777215
176
     1
 74
     1
176
     1
 91
        4
176
     1
 64
     7
176
     1
 65
   257
176
     1
 75
     1
176
     1
175
     1
176
     1
 42
1.0
176
     1
 92
       12
176
     1
 66
     7
176
     1
 43
1.0
176
     1
 76
     1
176
     1
 77
     6
176
     1
 78
     2
176
     1
 67
     7
176
     1
 79
     5
176
     1
170
     0
176
     1
171
     0
176
     1
290
     0
176
     1
 93
        1
176
     1
 44
0.0
176
     1
173
     0
176
     1
  0
ENDSEC
  0
EOF
