  0
SECTION
  2
HEADER
  9
$ACADVER
  1
AC1024
  9
$ACADMAINTVER
 70
     6
  9
$DWGCODEPAGE
  3
UNDEFINED
  9
$INSBASE
 10
0.0
 20
0.0
 30
0.0
  9
$EXTMIN
 10
1.000000000000000E+20
 20
1.000000000000000E+20
 30
1.000000000000000E+20
  9
$EXTMAX
 10
-1.000000000000000E+20
 20
-1.000000000000000E+20
 30
-1.000000000000000E+20
  9
$LIMMIN
 10
0.0
 20
0.0
  9
$LIMMAX
 10
12.0
 20
9.0
  9
$ORTHOMODE
 70
     0
  9
$REGENMODE
 70
     1
  9
$FILLMODE
 70
     1
  9
$QTEXTMODE
 70
     0
  9
$MIRRTEXT
 70
     1
  9
$LTSCALE
 40
1.0
  9
$ATTMODE
 70
     1
  9
$TEXTSIZE
 40
0.2
  9
$TRACEWID
 40
0.05
  9
$TEXTSTYLE
  7
Standard
  9
$CLAYER
  8
0
  9
$CELTYPE
  6
ByLayer
  9
$CECOLOR
 62
   256
  9
$CELTSCALE
 40
1.0
  9
$DISPSILH
 70
     0
  9
$DIMSCALE
 40
1.0
  9
$DIMASZ
 40
0.18
  9
$DIMEXO
 40
0.0625
  9
$DIMDLI
 40
0.38
  9
$DIMRND
 40
0.0
  9
$DIMDLE
 40
0.0
  9
$DIMEXE
 40
0.18
  9
$DIMTP
 40
0.0
  9
$DIMTM
 40
0.0
  9
$DIMTXT
 40
0.18
  9
$DIMCEN
 40
0.09
  9
$DIMTSZ
 40
0.0
  9
$DIMTOL
 70
     0
  9
$DIMLIM
 70
     0
  9
$DIMTIH
 70
     1
  9
$DIMTOH
 70
     1
  9
$DIMSE1
 70
     0
  9
$DIMSE2
 70
     0
  9
$DIMTAD
 70
     0
  9
$DIMZIN
 70
     0
  9
$DIMBLK
  1

  9
$DIMASO
 70
     1
  9
$DIMSHO
 70
     1
  9
$DIMPOST
  1

  9
$DIMAPOST
  1

  9
$DIMALT
 70
     0
  9
$DIMALTD
 70
     2
  9
$DIMALTF
 40
25.4
  9
$DIMLFAC
 40
1.0
  9
$DIMTOFL
 70
     0
  9
$DIMTVP
 40
0.0
  9
$DIMTIX
 70
     0
  9
$DIMSOXD
 70
     0
  9
$DIMSAH
 70
     0
  9
$DIMBLK1
  1

  9
$DIMBLK2
  1

  9
$DIMSTYLE
  2
Standard
  9
$DIMCLRD
 70
     0
  9
$DIMCLRE
 70
     0
  9
$DIMCLRT
 70
     0
  9
$DIMTFAC
 40
1.0
  9
$DIMGAP
 40
0.09
  9
$DIMJUST
 70
     0
  9
$DIMSD1
 70
     0
  9
$DIMSD2
 70
     0
  9
$DIMTOLJ
 70
     1
  9
$DIMTZIN
 70
     0
  9
$DIMALTZ
 70
     0
  9
$DIMALTTZ
 70
     0
  9
$DIMUPT
 70
     0
  9
$DIMDEC
 70
     4
  9
$DIMTDEC
 70
     4
  9
$DIMALTU
 70
     2
  9
$DIMALTTD
 70
     2
  9
$DIMTXSTY
  7
Standard
  9
$DIMAUNIT
 70
     0
  9
$DIMADEC
 70
     0
  9
$DIMALTRND
 40
0.0
  9
$DIMAZIN
 70
     0
  9
$DIMDSEP
 70
    46
  9
$DIMATFIT
 70
     3
  9
$DIMFRAC
 70
     0
  9
$DIMLDRBLK
  1

  9
$DIMLUNIT
 70
     2
  9
$DIMLWD
 70
    -2
  9
$DIMLWE
 70
    -2
  9
$DIMTMOVE
 70
     0
  9
$DIMFXL
 40
1.0
  9
$DIMFXLON
 70
     0
  9
$DIMJOGANG
 40
0.7853981633974483
  9
$DIMTFILL
 70
     0
  9
$DIMTFILLCLR
 70
     0
  9
$DIMARCSYM
 70
     0
  9
$DIMLTYPE
  6

  9
$DIMLTEX1
  6

  9
$DIMLTEX2
  6

  9
$DIMTXTDIRECTION
 70
     0
  9
$LUNITS
 70
     2
  9
$LUPREC
 70
     4
  9
$SKETCHINC
 40
0.1
  9
$FILLETRAD
 40
0.5
  9
$AUNITS
 70
     0
  9
$AUPREC
 70
     0
  9
$MENU
  1
.
  9
$ELEVATION
 40
0.0
  9
$PELEVATION
 40
0.0
  9
$THICKNESS
 40
0.0
  9
$LIMCHECK
 70
     0
  9
$CHAMFERA
 40
0.5
  9
$CHAMFERB
 40
0.5
  9
$CHAMFERC
 40
1.0
  9
$CHAMFERD
 40
0.0
  9
$SKPOLY
 70
     0
  9
$TDCREATE
 40
2457917.613043982
  9
$TDUCREATE
 40
2457917.238043982
  9
$TDUPDATE
 40
2457917.613043982
  9
$TDUUPDATE
 40
2457917.238043982
  9
$TDINDWG
 40
0.0000000116
  9
$TDUSRTIMER
 40
0.0000000116
  9
$USRTIMER
 70
     1
  9
$ANGBASE
 50
0.0
  9
$ANGDIR
 70
     0
  9
$PDMODE
 70
     0
  9
$PDSIZE
 40
0.0
  9
$PLINEWID
 40
0.0
  9
$SPLFRAME
 70
     0
  9
$SPLINETYPE
 70
     6
  9
$SPLINESEGS
 70
     8
  9
$HANDSEED
  5
FC
  9
$SURFTAB1
 70
     6
  9
$SURFTAB2
 70
     6
  9
$SURFTYPE
 70
     6
  9
$SURFU
 70
     6
  9
$SURFV
 70
     6
  9
$UCSBASE
  2

  9
$UCSNAME
  2

  9
$UCSORG
 10
0.0
 20
0.0
 30
0.0
  9
$UCSXDIR
 10
1.0
 20
0.0
 30
0.0
  9
$UCSYDIR
 10
0.0
 20
1.0
 30
0.0
  9
$UCSORTHOREF
  2

  9
$UCSORTHOVIEW
 70
     0
  9
$UCSORGTOP
 10
0.0
 20
0.0
 30
0.0
  9
$UCSORGBOTTOM
 10
0.0
 20
0.0
 30
0.0
  9
$UCSORGLEFT
 10
0.0
 20
0.0
 30
0.0
  9
$UCSORGRIGHT
 10
0.0
 20
0.0
 30
0.0
  9
$UCSORGFRONT
 10
0.0
 20
0.0
 30
0.0
  9
$UCSORGBACK
 10
0.0
 20
0.0
 30
0.0
  9
$PUCSBASE
  2

  9
$PUCSNAME
  2

  9
$PUCSORG
 10
0.0
 20
0.0
 30
0.0
  9
$PUCSXDIR
 10
1.0
 20
0.0
 30
0.0
  9
$PUCSYDIR
 10
0.0
 20
1.0
 30
0.0
  9
$PUCSORTHOREF
  2

  9
$PUCSORTHOVIEW
 70
     0
  9
$PUCSORGTOP
 10
0.0
 20
0.0
 30
0.0
  9
$PUCSORGBOTTOM
 10
0.0
 20
0.0
 30
0.0
  9
$PUCSORGLEFT
 10
0.0
 20
0.0
 30
0.0
  9
$PUCSORGRIGHT
 10
0.0
 20
0.0
 30
0.0
  9
$PUCSORGFRONT
 10
0.0
 20
0.0
 30
0.0
  9
$PUCSORGBACK
 10
0.0
 20
0.0
 30
0.0
  9
$USERI1
 70
     0
  9
$USERI2
 70
     0
  9
$USERI3
 70
     0
  9
$USERI4
 70
     0
  9
$USERI5
 70
     0
  9
$USERR1
 40
0.0
  9
$USERR2
 40
0.0
  9
$USERR3
 40
0.0
  9
$USERR4
 40
0.0
  9
$USERR5
 40
0.0
  9
$WORLDVIEW
 70
     1
  9
$SHADEDGE
 70
     3
  9
$SHADEDIF
 70
    70
  9
$TILEMODE
 70
     1
  9
$MAXACTVP
 70
    64
  9
$PINSBASE
 10
0.0
 20
0.0
 30
0.0
  9
$PLIMCHECK
 70
     0
  9
$PEXTMIN
 10
1.000000000000000E+20
 20
1.000000000000000E+20
 30
1.000000000000000E+20
  9
$PEXTMAX
 10
-1.000000000000000E+20
 20
-1.000000000000000E+20
 30
-1.000000000000000E+20
  9
$PLIMMIN
 10
0.0
 20
0.0
  9
$PLIMMAX
 10
12.0
 20
9.0
  9
$UNITMODE
 70
     0
  9
$VISRETAIN
 70
     1
  9
$PLINEGEN
 70
     0
  9
$PSLTSCALE
 70
     1
  9
$TREEDEPTH
 70
  3020
  9
$CMLSTYLE
  2
Standard
  9
$CMLJUST
 70
     0
  9
$CMLSCALE
 40
1.0
  9
$PROXYGRAPHICS
 70
     1
  9
$MEASUREMENT
 70
     0
  9
$CELWEIGHT
370
    -1
  9
$ENDCAPS
280
     0
  9
$JOINSTYLE
280
     0
  9
$LWDISPLAY
290
     1
  9
$INSUNITS
 70
     1
  9
$HYPERLINKBASE
  1

  9
$STYLESHEET
  1

  9
$XEDIT
290
     1
  9
$CEPSNTYPE
380
     0
  9
$PSTYLEMODE
290
     1
  9
$FINGERPRINTGUID
  2
{D6B4BCBF-2B4C-8644-4DCB-A077C3C31712}
  9
$VERSIONGUID
  2
{FAEB1C32-E019-11D5-929B-00C0DF256EC4}
  9
$EXTNAMES
290
     1
  9
$PSVPSCALE
 40
0.0
  9
$OLESTARTUP
290
     0
  9
$SORTENTS
280
   127
  9
$INDEXCTL
280
     0
  9
$HIDETEXT
280
     1
  9
$XCLIPFRAME
280
     2
  9
$HALOGAP
280
     0
  9
$OBSCOLOR
 70
   257
  9
$OBSLTYPE
280
     0
  9
$INTERSECTIONDISPLAY
280
     0
  9
$INTERSECTIONCOLOR
 70
   257
  9
$DIMASSOC
280
     2
  9
$PROJECTNAME
  1

  9
$CAMERADISPLAY
290
     0
  9
$LENSLENGTH
 40
50.0
  9
$CAMERAHEIGHT
 40
0.0
  9
$STEPSPERSEC
 40
2.0
  9
$STEPSIZE
 40
6.0
  9
$3DDWFPREC
 40
2.0
  9
$PSOLWIDTH
 40
0.25
  9
$PSOLHEIGHT
 40
4.0
  9
$LOFTANG1
 40
1.570796326794897
  9
$LOFTANG2
 40
1.570796326794897
  9
$LOFTMAG1
 40
0.0
  9
$LOFTMAG2
 40
0.0
  9
$LOFTPARAM
 70
     7
  9
$LOFTNORMALS
280
     1
  9
$LATITUDE
 40
37.795
  9
$LONGITUDE
 40
-122.394
  9
$NORTHDIRECTION
 40
0.0
  9
$TIMEZONE
 70
 -8000
  9
$LIGHTGLYPHDISPLAY
280
     1
  9
$TILEMODELIGHTSYNCH
280
     1
  9
$CMATERIAL
347
3C
  9
$SOLIDHIST
280
     1
  9
$SHOWHIST
280
     1
  9
$DWFFRAME
280
     2
  9
$DGNFRAME
280
     2
  9
$REALWORLDSCALE
290
     1
  9
$INTERFERECOLOR
 62
   256
  9
$CSHADOW
280
     0
  9
$SHADOWPLANELOCATION
 40
0.0
  0
ENDSEC
  0
SECTION
  2
CLASSES
  0
CLASS
  1
ACDBDICTIONARYWDFLT
  2
AcDbDictionaryWithDefault
  3
ObjectDBX Classes
 90
        0
 91
        4
280
     0
281
     0
  0
CLASS
  1
VISUALSTYLE
  2
AcDbVisualStyle
  3
ObjectDBX Classes
 90
     4095
 91
        4
280
     0
281
     0
  0
CLASS
  1
MATERIAL
  2
AcDbMaterial
  3
ObjectDBX Classes
 90
     1153
 91
        4
280
     0
281
     0
  0
CLASS
  1
SUN
  2
AcDbSun
  3
SCENEOE
 90
     1024
 91
        4
280
     0
281
     0
  0
ENDSEC
  0
SECTION
  2
TABLES
  0
TABLE
  2
VPORT
  5
8
330
0
100
AcDbSymbolTable
 70
     1
  0
VPORT
  5
29
330
8
100
AcDbSymbolTableRecord
100
AcDbViewportTableRecord
  2
*Active
 70
     0
 10
0.0
 20
0.0
 11
1.0
 21
1.0
 12
0.0
 22
0.0
 13
0.0
 23
0.0
 14
0.5
 24
0.5
 15
0.5
 25
0.5
 16
0.0
 26
0.0
 36
1.0
 17
91.00082462281999
 27
-128.4993055234307
 37
0.0
 40
256.9986110468615
 41
0.7081814508812795
 42
50.0
 43
0.0
 44
0.0
 50
0.0
 51
0.0
 71
     0
 72
   100
 73
     1
 74
     3
 75
     0
 76
     0
 77
     0
 78
     0
281
     0
 65
     1
110
0.0
120
0.0
130
0.0
111
1.0
121
0.0
131
0.0
112
0.0
122
1.0
132
0.0
 79
     0
146
0.0
 60
     3
 61
     5
292
     1
282
     1
141
0.0
142
0.0
 63
   250
361
3F
  0
ENDTAB
  0
TABLE
  2
LTYPE
  5
5
330
0
100
AcDbSymbolTable
 70
     1
  0
LTYPE
  5
14
330
5
100
AcDbSymbolTableRecord
100
AcDbLinetypeTableRecord
  2
ByBlock
 70
     0
  3

 72
    65
 73
     0
 40
0.0
  0
LTYPE
  5
15
330
5
100
AcDbSymbolTableRecord
100
AcDbLinetypeTableRecord
  2
ByLayer
 70
     0
  3

 72
    65
 73
     0
 40
0.0
  0
LTYPE
  5
16
330
5
100
AcDbSymbolTableRecord
100
AcDbLinetypeTableRecord
  2
Continuous
 70
     0
  3
Solid line
 72
    65
 73
     0
 40
0.0
  0
ENDTAB
  0
TABLE
  2
LAYER
  5
2
330
0
100
AcDbSymbolTable
 70
     2
  0
LAYER
  5
10
330
2
100
AcDbSymbolTableRecord
100
AcDbLayerTableRecord
  2
0
 70
     0
 62
     7
  6
Continuous
370
    -3
390
F
347
3E
  0
LAYER
  5
40
330
2
100
AcDbSymbolTableRecord
100
AcDbLayerTableRecord
  2
_U+30EC_U+30A4_U+30E4_U+30FC 1
 70
     0
 62
     7
  6
Continuous
370
    -3
390
F
347
3E
  0
ENDTAB
  0
TABLE
  2
STYLE
  5
3
330
0
100
AcDbSymbolTable
 70
     1
  0
STYLE
  5
11
330
3
100
AcDbSymbolTableRecord
100
AcDbTextStyleTableRecord
  2
Standard
 70
     0
 40
0.0
 41
1.0
 50
0.0
 71
     0
 42
0.2
  3
txt
  4

  0
ENDTAB
  0
TABLE
  2
VIEW
  5
6
330
0
100
AcDbSymbolTable
 70
     0
  0
ENDTAB
  0
TABLE
  2
UCS
  5
7
330
0
100
AcDbSymbolTable
 70
     0
  0
ENDTAB
  0
TABLE
  2
APPID
  5
9
330
0
100
AcDbSymbolTable
 70
     1
  0
APPID
  5
12
330
9
100
AcDbSymbolTableRecord
100
AcDbRegAppTableRecord
  2
ACAD
 70
     0
  0
ENDTAB
  0
TABLE
  2
DIMSTYLE
  5
A
330
0
100
AcDbSymbolTable
 70
     1
100
AcDbDimStyleTable
  0
DIMSTYLE
105
27
330
A
100
AcDbSymbolTableRecord
100
AcDbDimStyleTableRecord
  2
Standard
 70
     0
178
     0
340
11
  0
ENDTAB
  0
TABLE
  2
BLOCK_RECORD
  5
1
330
0
100
AcDbSymbolTable
 70
     7
  0
BLOCK_RECORD
  5
1F
330
1
100
AcDbSymbolTableRecord
100
AcDbBlockTableRecord
  2
*Model_Space
340
22
 70
     0
280
     1
281
     0
  0
BLOCK_RECORD
  5
1B
330
1
100
AcDbSymbolTableRecord
100
AcDbBlockTableRecord
  2
*Paper_Space
340
1E
 70
     0
280
     1
281
     0
  0
BLOCK_RECORD
  5
23
330
1
100
AcDbSymbolTableRecord
100
AcDbBlockTableRecord
  2
*Paper_Space0
340
26
 70
     0
280
     1
281
     0
  0
BLOCK_RECORD
  5
9A
330
1
100
AcDbSymbolTableRecord
100
AcDbBlockTableRecord
  2
block 2
340
0
102
{BLKREFS
331
9B
102
}
 70
     0
280
     1
281
     0
  0
BLOCK_RECORD
  5
A8
330
1
100
AcDbSymbolTableRecord
100
AcDbBlockTableRecord
  2
block 3
340
0
102
{BLKREFS
331
A9
102
}
 70
     0
280
     1
281
     0
  0
BLOCK_RECORD
  5
BA
330
1
100
AcDbSymbolTableRecord
100
AcDbBlockTableRecord
  2
block 4
340
0
102
{BLKREFS
331
BB
102
}
 70
     0
280
     1
281
     0
  0
BLOCK_RECORD
  5
CB
330
1
100
AcDbSymbolTableRecord
100
AcDbBlockTableRecord
  2
block 5
340
0
102
{BLKREFS
331
CC
102
}
 70
     0
280
     1
281
     0
  0
BLOCK_RECORD
  5
DD
330
1
100
AcDbSymbolTableRecord
100
AcDbBlockTableRecord
  2
block 6
340
0
102
{BLKREFS
331
DE
102
}
 70
     0
280
     1
281
     0
  0
BLOCK_RECORD
  5
F2
330
1
100
AcDbSymbolTableRecord
100
AcDbBlockTableRecord
  2
block 7
340
0
102
{BLKREFS
331
F3
102
}
 70
     0
280
     1
281
     0
  0
ENDTAB
  0
ENDSEC
  0
SECTION
  2
BLOCKS
  0
BLOCK
  5
20
330
1F
100
AcDbEntity
  8
0
100
AcDbBlockBegin
  2
*Model_Space
 70
     0
 10
0.0
 20
0.0
 30
0.0
  3
*Model_Space
  1

  0
ENDBLK
  5
21
330
1F
100
AcDbEntity
  8
0
100
AcDbBlockEnd
  0
BLOCK
  5
1C
330
1B
100
AcDbEntity
 67
     1
  8
0
100
AcDbBlockBegin
  2
*Paper_Space
 70
     0
 10
0.0
 20
0.0
 30
0.0
  3
*Paper_Space
  1

  0
ENDBLK
  5
1D
330
1B
100
AcDbEntity
 67
     1
  8
0
100
AcDbBlockEnd
  0
BLOCK
  5
24
330
23
100
AcDbEntity
  8
0
100
AcDbBlockBegin
  2
*Paper_Space0
 70
     0
 10
0.0
 20
0.0
 30
0.0
  3
*Paper_Space0
  1

  0
ENDBLK
  5
25
330
23
100
AcDbEntity
  8
0
100
AcDbBlockEnd
  0
BLOCK
  5
9C
330
9A
100
AcDbEntity
  8
0
100
AcDbBlockBegin
  2
block 2
 70
     0
 10
0.0
 20
0.0
 30
0.0
  3
block 2
  1

  0
SPLINE
  5
9E
330
9A
100
AcDbEntity
  8
_U+30EC_U+30A4_U+30E4_U+30FC 1
370
     0
100
AcDbSpline
210
0.0
220
0.0
230
1.0
 70
    11
 71
     3
 72
    26
 73
    22
 74
     0
 42
0.0000000001
 43
0.0000000001
 12
1.0
 22
0.0
 32
0.0
 13
1.0
 23
0.0
 33
0.0
 40
0.0
 40
0.0
 40
0.0
 40
0.0
 40
1.0
 40
1.0
 40
1.0
 40
2.0
 40
2.0
 40
2.0
 40
3.0
 40
3.0
 40
3.0
 40
4.0
 40
4.0
 40
4.0
 40
5.0
 40
5.0
 40
5.0
 40
6.0
 40
6.0
 40
6.0
 40
7.0
 40
7.0
 40
7.0
 40
7.0
 10
105.8271321350015
 20
-121.8623290710969
 30
0.0
 10
105.8271321350015
 20
-121.8623290710969
 30
0.0
 10
104.722979031979
 20
-121.8623290710969
 30
0.0
 10
104.722979031979
 20
-121.8623290710969
 30
0.0
 10
104.722979031979
 20
-121.8623290710969
 30
0.0
 10
104.722979031979
 20
-122.214762339238
 30
0.0
 10
104.722979031979
 20
-122.214762339238
 30
0.0
 10
104.722979031979
 20
-122.214762339238
 30
0.0
 10
104.5748399261132
 20
-122.214762339238
 30
0.0
 10
104.5748399261132
 20
-122.214762339238
 30
0.0
 10
104.5600260155267
 20
-121.8599175042573
 30
0.0
 10
104.3970729990744
 20
-121.8103081292697
 30
0.0
 10
104.2826958289641
 20
-121.7786132508053
 30
0.0
 10
104.2826958289641
 20
-121.7786132508053
 30
0.0
 10
104.2826958289641
 20
-121.6225504253235
 30
0.0
 10
104.2826958289641
 20
-121.6225504253235
 30
0.0
 10
104.2826958289641
 20
-121.6225504253235
 30
0.0
 10
105.8271321350015
 20
-121.6225504253235
 30
0.0
 10
105.8271321350015
 20
-121.6225504253235
 30
0.0
 10
105.8271321350015
 20
-121.6225504253235
 30
0.0
 10
105.8271321350015
 20
-121.8623290710969
 30
0.0
 10
105.8271321350015
 20
-121.8623290710969
 30
0.0
  0
HATCH
  5
9F
330
9A
100
AcDbEntity
  8
_U+30EC_U+30A4_U+30E4_U+30FC 1
 62
   179
420
  2234388
100
AcDbHatch
 10
0.0
 20
0.0
 30
0.0
210
0.0
220
0.0
230
1.0
  2
SOLID
 70
     1
 71
     0
 91
        1
 92
        1
 93
        1
 72
     4
 94
        3
 73
     0
 74
     1
 95
       26
 96
       22
 40
0.0
 40
0.0
 40
0.0
 40
0.0
 40
1.0
 40
1.0
 40
1.0
 40
2.0
 40
2.0
 40
2.0
 40
3.0
 40
3.0
 40
3.0
 40
4.0
 40
4.0
 40
4.0
 40
5.0
 40
5.0
 40
5.0
 40
6.0
 40
6.0
 40
6.0
 40
7.0
 40
7.0
 40
7.0
 40
7.0
 10
105.8271321350015
 20
-121.8623290710969
 10
105.8271321350015
 20
-121.8623290710969
 10
104.722979031979
 20
-121.8623290710969
 10
104.722979031979
 20
-121.8623290710969
 10
104.722979031979
 20
-121.8623290710969
 10
104.722979031979
 20
-122.214762339238
 10
104.722979031979
 20
-122.214762339238
 10
104.722979031979
 20
-122.214762339238
 10
104.5748399261132
 20
-122.214762339238
 10
104.5748399261132
 20
-122.214762339238
 10
104.5600260155267
 20
-121.8599175042573
 10
104.3970729990744
 20
-121.8103081292697
 10
104.2826958289641
 20
-121.7786132508053
 10
104.2826958289641
 20
-121.7786132508053
 10
104.2826958289641
 20
-121.6225504253235
 10
104.2826958289641
 20
-121.6225504253235
 10
104.2826958289641
 20
-121.6225504253235
 10
105.8271321350015
 20
-121.6225504253235
 10
105.8271321350015
 20
-121.6225504253235
 10
105.8271321350015
 20
-121.6225504253235
 10
105.8271321350015
 20
-121.8623290710969
 10
105.8271321350015
 20
-121.8623290710969
 97
        0
 97
        0
 75
     2
 76
     1
 98
        0
  0
ENDBLK
  5
9D
330
9A
100
AcDbEntity
  8
0
100
AcDbBlockEnd
  0
BLOCK
  5
AA
330
A8
100
AcDbEntity
  8
0
100
AcDbBlockBegin
  2
block 3
 70
     0
 10
0.0
 20
0.0
 30
0.0
  3
block 3
  1

  0
SPLINE
  5
AC
330
A8
100
AcDbEntity
  8
_U+30EC_U+30A4_U+30E4_U+30FC 1
370
     0
100
AcDbSpline
210
0.0
220
0.0
230
1.0
 70
    11
 71
     3
 72
    62
 73
    58
 74
     0
 42
0.0000000001
 43
0.0000000001
 12
1.0
 22
0.0
 32
0.0
 13
1.0
 23
0.0
 33
0.0
 40
0.0
 40
0.0
 40
0.0
 40
0.0
 40
1.0
 40
1.0
 40
1.0
 40
2.0
 40
2.0
 40
2.0
 40
3.0
 40
3.0
 40
3.0
 40
4.0
 40
4.0
 40
4.0
 40
5.0
 40
5.0
 40
5.0
 40
6.0
 40
6.0
 40
6.0
 40
7.0
 40
7.0
 40
7.0
 40
8.0
 40
8.0
 40
8.0
 40
9.0
 40
9.0
 40
9.0
 40
10.0
 40
10.0
 40
10.0
 40
11.0
 40
11.0
 40
11.0
 40
12.0
 40
12.0
 40
12.0
 40
13.0
 40
13.0
 40
13.0
 40
14.0
 40
14.0
 40
14.0
 40
15.0
 40
15.0
 40
15.0
 40
16.0
 40
16.0
 40
16.0
 40
17.0
 40
17.0
 40
17.0
 40
18.0
 40
18.0
 40
18.0
 40
19.0
 40
19.0
 40
19.0
 40
19.0
 10
105.8777750386347
 20
-136.7916503564271
 30
0.0
 10
105.8777750386347
 20
-136.893280673242
 30
0.0
 10
105.8567599561747
 20
-137.1261691280449
 30
0.0
 10
105.6707247999712
 20
-137.259494323324
 30
0.0
 10
105.5584146871521
 20
-137.3387315194848
 30
0.0
 10
105.4591959371769
 20
-137.3432101436156
 30
0.0
 10
105.3744465882397
 20
-137.3476887677464
 30
0.0
 10
105.3744465882397
 20
-137.3476887677464
 30
0.0
 10
105.3744465882397
 20
-137.1127332556524
 30
0.0
 10
105.3744465882397
 20
-137.1127332556524
 30
0.0
 10
105.4485161411726
 20
-137.1103216888127
 30
0.0
 10
105.6831271437181
 20
-137.0989528737114
 30
0.0
 10
105.6831271437181
 20
-136.7961289805579
 30
0.0
 10
105.6831271437181
 20
-136.6490234033377
 30
0.0
 10
105.6135362149161
 20
-136.486414896434
 30
0.0
 10
105.385126384244
 20
-136.486414896434
 30
0.0
 10
105.2686821568426
 20
-136.486414896434
 30
0.0
 10
105.2201063105005
 20
-136.5270670231599
 30
0.0
 10
105.1884114320362
 20
-136.5608289589154
 30
0.0
 10
105.1143418791034
 20
-136.6400661550761
 30
0.0
 10
105.1015950258079
 20
-136.7644341020936
 30
0.0
 10
105.1015950258079
 20
-136.8233452348914
 30
0.0
 10
105.1015950258079
 20
-136.8436712982544
 30
0.0
 10
105.1036620830991
 20
-136.8819118581406
 30
0.0
 10
105.1077961976814
 20
-136.9115396793138
 30
0.0
 10
105.1077961976814
 20
-136.9115396793138
 30
0.0
 10
104.9131483027648
 20
-136.9115396793138
 30
0.0
 10
104.9131483027648
 20
-136.9115396793138
 30
0.0
 10
104.9196939841868
 20
-136.8708875525878
 30
0.0
 10
104.9217610414779
 20
-136.8254122921825
 30
0.0
 10
104.9217610414779
 20
-136.8188666107606
 30
0.0
 10
104.9217610414779
 20
-136.7485866628615
 30
0.0
 10
104.9004014494693
 20
-136.5360242714216
 30
0.0
 10
104.6637233896327
 20
-136.5360242714216
 30
0.0
 10
104.4859564625938
 20
-136.5360242714216
 30
0.0
 10
104.4308349348298
 20
-136.6762396576712
 30
0.0
 10
104.4308349348298
 20
-136.7937174137182
 30
0.0
 10
104.4308349348298
 20
-137.0765597530573
 30
0.0
 10
104.6637233896327
 20
-137.0855170013189
 30
0.0
 10
104.7353813757259
 20
-137.0899956254497
 30
0.0
 10
104.7353813757259
 20
-137.0899956254497
 30
0.0
 10
104.7353813757259
 20
-137.3070366410205
 30
0.0
 10
104.7353813757259
 20
-137.3070366410205
 30
0.0
 10
104.6106689191598
 20
-137.2980793927588
 30
0.0
 10
104.234119982622
 20
-137.2687960811342
 30
0.0
 10
104.234119982622
 20
-136.7802815413258
 30
0.0
 10
104.234119982622
 20
-136.5405028955524
 30
0.0
 10
104.3612440060277
 20
-136.2828097532557
 30
0.0
 10
104.6571777082107
 20
-136.2828097532557
 30
0.0
 10
104.8435573739627
 20
-136.2828097532557
 30
0.0
 10
104.9258951560602
 20
-136.3847845796191
 30
0.0
 10
104.9872178556977
 20
-136.4908935205648
 30
0.0
 10
105.0147786195796
 20
-136.425436706345
 30
0.0
 10
105.095049344386
 20
-136.2307888114284
 30
0.0
 10
105.3723795309486
 20
-136.2307888114284
 30
0.0
 10
105.7106879076001
 20
-136.2307888114284
 30
0.0
 10
105.8777750386347
 20
-136.4953721446956
 30
0.0
 10
105.8777750386347
 20
-136.7916503564271
 30
0.0
  0
HATCH
  5
AD
330
A8
100
AcDbEntity
  8
_U+30EC_U+30A4_U+30E4_U+30FC 1
 62
   179
420
  2234388
100
AcDbHatch
 10
0.0
 20
0.0
 30
0.0
210
0.0
220
0.0
230
1.0
  2
SOLID
 70
     1
 71
     0
 91
        1
 92
        1
 93
        1
 72
     4
 94
        3
 73
     0
 74
     1
 95
       62
 96
       58
 40
0.0
 40
0.0
 40
0.0
 40
0.0
 40
1.0
 40
1.0
 40
1.0
 40
2.0
 40
2.0
 40
2.0
 40
3.0
 40
3.0
 40
3.0
 40
4.0
 40
4.0
 40
4.0
 40
5.0
 40
5.0
 40
5.0
 40
6.0
 40
6.0
 40
6.0
 40
7.0
 40
7.0
 40
7.0
 40
8.0
 40
8.0
 40
8.0
 40
9.0
 40
9.0
 40
9.0
 40
10.0
 40
10.0
 40
10.0
 40
11.0
 40
11.0
 40
11.0
 40
12.0
 40
12.0
 40
12.0
 40
13.0
 40
13.0
 40
13.0
 40
14.0
 40
14.0
 40
14.0
 40
15.0
 40
15.0
 40
15.0
 40
16.0
 40
16.0
 40
16.0
 40
17.0
 40
17.0
 40
17.0
 40
18.0
 40
18.0
 40
18.0
 40
19.0
 40
19.0
 40
19.0
 40
19.0
 10
105.8777750386347
 20
-136.7916503564271
 10
105.8777750386347
 20
-136.893280673242
 10
105.8567599561747
 20
-137.1261691280449
 10
105.6707247999712
 20
-137.259494323324
 10
105.5584146871521
 20
-137.3387315194848
 10
105.4591959371769
 20
-137.3432101436156
 10
105.3744465882397
 20
-137.3476887677464
 10
105.3744465882397
 20
-137.3476887677464
 10
105.3744465882397
 20
-137.1127332556524
 10
105.3744465882397
 20
-137.1127332556524
 10
105.4485161411726
 20
-137.1103216888127
 10
105.6831271437181
 20
-137.0989528737114
 10
105.6831271437181
 20
-136.7961289805579
 10
105.6831271437181
 20
-136.6490234033377
 10
105.6135362149161
 20
-136.486414896434
 10
105.385126384244
 20
-136.486414896434
 10
105.2686821568426
 20
-136.486414896434
 10
105.2201063105005
 20
-136.5270670231599
 10
105.1884114320362
 20
-136.5608289589154
 10
105.1143418791034
 20
-136.6400661550761
 10
105.1015950258079
 20
-136.7644341020936
 10
105.1015950258079
 20
-136.8233452348914
 10
105.1015950258079
 20
-136.8436712982544
 10
105.1036620830991
 20
-136.8819118581406
 10
105.1077961976814
 20
-136.9115396793138
 10
105.1077961976814
 20
-136.9115396793138
 10
104.9131483027648
 20
-136.9115396793138
 10
104.9131483027648
 20
-136.9115396793138
 10
104.9196939841868
 20
-136.8708875525878
 10
104.9217610414779
 20
-136.8254122921825
 10
104.9217610414779
 20
-136.8188666107606
 10
104.9217610414779
 20
-136.7485866628615
 10
104.9004014494693
 20
-136.5360242714216
 10
104.6637233896327
 20
-136.5360242714216
 10
104.4859564625938
 20
-136.5360242714216
 10
104.4308349348298
 20
-136.6762396576712
 10
104.4308349348298
 20
-136.7937174137182
 10
104.4308349348298
 20
-137.0765597530573
 10
104.6637233896327
 20
-137.0855170013189
 10
104.7353813757259
 20
-137.0899956254497
 10
104.7353813757259
 20
-137.0899956254497
 10
104.7353813757259
 20
-137.3070366410205
 10
104.7353813757259
 20
-137.3070366410205
 10
104.6106689191598
 20
-137.2980793927588
 10
104.234119982622
 20
-137.2687960811342
 10
104.234119982622
 20
-136.7802815413258
 10
104.234119982622
 20
-136.5405028955524
 10
104.3612440060277
 20
-136.2828097532557
 10
104.6571777082107
 20
-136.2828097532557
 10
104.8435573739627
 20
-136.2828097532557
 10
104.9258951560602
 20
-136.3847845796191
 10
104.9872178556977
 20
-136.4908935205648
 10
105.0147786195796
 20
-136.425436706345
 10
105.095049344386
 20
-136.2307888114284
 10
105.3723795309486
 20
-136.2307888114284
 10
105.7106879076001
 20
-136.2307888114284
 10
105.8777750386347
 20
-136.4953721446956
 10
105.8777750386347
 20
-136.7916503564271
 97
        0
 97
        0
 75
     2
 76
     1
 98
        0
  0
ENDBLK
  5
AB
330
A8
100
AcDbEntity
  8
0
100
AcDbBlockEnd
  0
BLOCK
  5
BC
330
BA
100
AcDbEntity
  8
0
100
AcDbBlockBegin
  2
block 4
 70
     0
 10
0.0
 20
0.0
 30
0.0
  3
block 4
  1

  0
SPLINE
  5
BE
330
BA
100
AcDbEntity
  8
_U+30EC_U+30A4_U+30E4_U+30FC 1
370
     0
100
AcDbSpline
210
0.0
220
0.0
230
1.0
 70
    11
 71
     3
 72
    26
 73
    22
 74
     0
 42
0.0000000001
 43
0.0000000001
 12
1.0
 22
0.0
 32
0.0
 13
1.0
 23
0.0
 33
0.0
 40
0.0
 40
0.0
 40
0.0
 40
0.0
 40
1.0
 40
1.0
 40
1.0
 40
2.0
 40
2.0
 40
2.0
 40
3.0
 40
3.0
 40
3.0
 40
4.0
 40
4.0
 40
4.0
 40
5.0
 40
5.0
 40
5.0
 40
6.0
 40
6.0
 40
6.0
 40
7.0
 40
7.0
 40
7.0
 40
7.0
 10
77.86036375006616
 20
-141.6347655895913
 30
0.0
 10
77.86036375006616
 20
-141.6347655895913
 30
0.0
 10
77.86036375006616
 20
-140.5302679770202
 30
0.0
 10
77.86036375006616
 20
-140.5302679770202
 30
0.0
 10
77.86036375006616
 20
-140.5302679770202
 30
0.0
 10
77.50758597237657
 20
-140.5302679770202
 30
0.0
 10
77.50758597237657
 20
-140.5302679770202
 30
0.0
 10
77.50758597237657
 20
-140.5302679770202
 30
0.0
 10
77.50758597237657
 20
-140.3821288711545
 30
0.0
 10
77.50758597237657
 20
-140.3821288711545
 30
0.0
 10
77.86260306213157
 20
-140.3676594701164
 30
0.0
 10
77.91238469189344
 20
-140.2043619441156
 30
0.0
 10
77.94407957035773
 20
-140.0899847740053
 30
0.0
 10
77.94407957035773
 20
-140.0899847740053
 30
0.0
 10
78.09997014106528
 20
-140.0899847740053
 30
0.0
 10
78.09997014106528
 20
-140.0899847740053
 30
0.0
 10
78.09997014106528
 20
-140.0899847740053
 30
0.0
 10
78.09997014106528
 20
-141.6347655895913
 30
0.0
 10
78.09997014106528
 20
-141.6347655895913
 30
0.0
 10
78.09997014106528
 20
-141.6347655895913
 30
0.0
 10
77.86036375006616
 20
-141.6347655895913
 30
0.0
 10
77.86036375006616
 20
-141.6347655895913
 30
0.0
  0
HATCH
  5
BF
330
BA
100
AcDbEntity
  8
_U+30EC_U+30A4_U+30E4_U+30FC 1
 62
   179
420
  2234388
100
AcDbHatch
 10
0.0
 20
0.0
 30
0.0
210
0.0
220
0.0
230
1.0
  2
SOLID
 70
     1
 71
     0
 91
        1
 92
        1
 93
        1
 72
     4
 94
        3
 73
     0
 74
     1
 95
       26
 96
       22
 40
0.0
 40
0.0
 40
0.0
 40
0.0
 40
1.0
 40
1.0
 40
1.0
 40
2.0
 40
2.0
 40
2.0
 40
3.0
 40
3.0
 40
3.0
 40
4.0
 40
4.0
 40
4.0
 40
5.0
 40
5.0
 40
5.0
 40
6.0
 40
6.0
 40
6.0
 40
7.0
 40
7.0
 40
7.0
 40
7.0
 10
77.86036375006616
 20
-141.6347655895913
 10
77.86036375006616
 20
-141.6347655895913
 10
77.86036375006616
 20
-140.5302679770202
 10
77.86036375006616
 20
-140.5302679770202
 10
77.86036375006616
 20
-140.5302679770202
 10
77.50758597237657
 20
-140.5302679770202
 10
77.50758597237657
 20
-140.5302679770202
 10
77.50758597237657
 20
-140.5302679770202
 10
77.50758597237657
 20
-140.3821288711545
 10
77.50758597237657
 20
-140.3821288711545
 10
77.86260306213157
 20
-140.3676594701164
 10
77.91238469189344
 20
-140.2043619441156
 10
77.94407957035773
 20
-140.0899847740053
 10
77.94407957035773
 20
-140.0899847740053
 10
78.09997014106528
 20
-140.0899847740053
 10
78.09997014106528
 20
-140.0899847740053
 10
78.09997014106528
 20
-140.0899847740053
 10
78.09997014106528
 20
-141.6347655895913
 10
78.09997014106528
 20
-141.6347655895913
 10
78.09997014106528
 20
-141.6347655895913
 10
77.86036375006616
 20
-141.6347655895913
 10
77.86036375006616
 20
-141.6347655895913
 97
        0
 97
        0
 75
     2
 76
     1
 98
        0
  0
SPLINE
  5
C0
330
BA
100
AcDbEntity
  8
_U+30EC_U+30A4_U+30E4_U+30FC 1
370
     0
100
AcDbSpline
210
0.0
220
0.0
230
1.0
 70
    11
 71
     3
 72
    29
 73
    25
 74
     0
 42
0.0000000001
 43
0.0000000001
 12
1.0
 22
0.0
 32
0.0
 13
1.0
 23
0.0
 33
0.0
 40
0.0
 40
0.0
 40
0.0
 40
0.0
 40
1.0
 40
1.0
 40
1.0
 40
2.0
 40
2.0
 40
2.0
 40
3.0
 40
3.0
 40
3.0
 40
4.0
 40
4.0
 40
4.0
 40
5.0
 40
5.0
 40
5.0
 40
6.0
 40
6.0
 40
6.0
 40
7.0
 40
7.0
 40
7.0
 40
8.0
 40
8.0
 40
8.0
 40
8.0
 10
79.59514158166373
 20
-141.4569986625524
 30
0.0
 10
79.47990313768211
 20
-141.6664604680556
 30
0.0
 10
79.29455700057567
 20
-141.685063983676
 30
0.0
 10
79.17018905355815
 20
-141.685063983676
 30
0.0
 10
78.99827878884419
 20
-141.685063983676
 30
0.0
 10
78.84686684226746
 20
-141.6388997041736
 30
0.0
 10
78.74506427067833
 20
-141.4569986625524
 30
0.0
 10
78.63430445082754
 20
-141.2620062580873
 30
0.0
 10
78.61397838746457
 20
-141.0256727077991
 30
0.0
 10
78.61397838746457
 20
-140.8623751817983
 30
0.0
 10
78.61397838746457
 20
-140.7183701905149
 30
0.0
 10
78.63206513876213
 20
-140.4668782200916
 30
0.0
 10
78.74506427067833
 20
-140.2677517010442
 30
0.0
 10
78.8604749694342
 20
-140.064835576963
 30
0.0
 10
79.0322129793739
 20
-140.0417534372118
 30
0.0
 10
79.17018905355815
 20
-140.0417534372118
 30
0.0
 10
79.33968775143244
 20
-140.0417534372118
 30
0.0
 10
79.49351126484885
 20
-140.085850659423
 30
0.0
 10
79.59514158166373
 20
-140.2677517010442
 30
0.0
 10
79.70142277738367
 20
-140.4606770482182
 30
0.0
 10
79.72622746487747
 20
-140.6887423693417
 30
0.0
 10
79.72622746487747
 20
-140.8623751817983
 30
0.0
 10
79.72622746487747
 20
-141.0339409369637
 30
0.0
 10
79.70366208944908
 20
-141.2640733153784
 30
0.0
 10
79.59514158166373
 20
-141.4569986625524
 30
0.0
  0
SPLINE
  5
C1
330
BA
100
AcDbEntity
  8
_U+30EC_U+30A4_U+30E4_U+30FC 1
370
     0
100
AcDbSpline
210
0.0
220
0.0
230
1.0
 70
    11
 71
     3
 72
    17
 73
    13
 74
     0
 42
0.0000000001
 43
0.0000000001
 12
1.0
 22
0.0
 32
0.0
 13
1.0
 23
0.0
 33
0.0
 40
0.0
 40
0.0
 40
0.0
 40
0.0
 40
1.0
 40
1.0
 40
1.0
 40
2.0
 40
2.0
 40
2.0
 40
3.0
 40
3.0
 40
3.0
 40
4.0
 40
4.0
 40
4.0
 40
4.0
 10
79.17018905355815
 20
-140.2339897652887
 30
0.0
 10
78.90336640822555
 20
-140.2339897652887
 30
0.0
 10
78.85358477846368
 20
-140.5178656332733
 30
0.0
 10
78.85358477846368
 20
-140.8623751817983
 30
0.0
 10
78.85358477846368
 20
-141.1820800428295
 30
0.0
 10
78.89199759312423
 20
-141.4907605983079
 30
0.0
 10
79.17018905355815
 20
-141.4907605983079
 30
0.0
 10
79.43460013205107
 20
-141.4907605983079
 30
0.0
 10
79.48662107387835
 20
-141.2096408067115
 30
0.0
 10
79.48662107387835
 20
-140.8623751817983
 30
0.0
 10
79.48662107387835
 20
-140.5426703207671
 30
0.0
 10
79.4459689471524
 20
-140.2339897652887
 30
0.0
 10
79.17018905355815
 20
-140.2339897652887
 30
0.0
  0
HATCH
  5
C2
330
BA
100
AcDbEntity
  8
_U+30EC_U+30A4_U+30E4_U+30FC 1
 62
   179
420
  2234388
100
AcDbHatch
 10
0.0
 20
0.0
 30
0.0
210
0.0
220
0.0
230
1.0
  2
SOLID
 70
     1
 71
     0
 91
        2
 92
        1
 93
        1
 72
     4
 94
        3
 73
     0
 74
     1
 95
       29
 96
       25
 40
0.0
 40
0.0
 40
0.0
 40
0.0
 40
1.0
 40
1.0
 40
1.0
 40
2.0
 40
2.0
 40
2.0
 40
3.0
 40
3.0
 40
3.0
 40
4.0
 40
4.0
 40
4.0
 40
5.0
 40
5.0
 40
5.0
 40
6.0
 40
6.0
 40
6.0
 40
7.0
 40
7.0
 40
7.0
 40
8.0
 40
8.0
 40
8.0
 40
8.0
 10
79.59514158166373
 20
-141.4569986625524
 10
79.47990313768211
 20
-141.6664604680556
 10
79.29455700057567
 20
-141.685063983676
 10
79.17018905355815
 20
-141.685063983676
 10
78.99827878884419
 20
-141.685063983676
 10
78.84686684226746
 20
-141.6388997041736
 10
78.74506427067833
 20
-141.4569986625524
 10
78.63430445082754
 20
-141.2620062580873
 10
78.61397838746457
 20
-141.0256727077991
 10
78.61397838746457
 20
-140.8623751817983
 10
78.61397838746457
 20
-140.7183701905149
 10
78.63206513876213
 20
-140.4668782200916
 10
78.74506427067833
 20
-140.2677517010442
 10
78.8604749694342
 20
-140.064835576963
 10
79.0322129793739
 20
-140.0417534372118
 10
79.17018905355815
 20
-140.0417534372118
 10
79.33968775143244
 20
-140.0417534372118
 10
79.49351126484885
 20
-140.085850659423
 10
79.59514158166373
 20
-140.2677517010442
 10
79.70142277738367
 20
-140.4606770482182
 10
79.72622746487747
 20
-140.6887423693417
 10
79.72622746487747
 20
-140.8623751817983
 10
79.72622746487747
 20
-141.0339409369637
 10
79.70366208944908
 20
-141.2640733153784
 10
79.59514158166373
 20
-141.4569986625524
 97
        0
 97
        0
 92
        1
 93
        1
 72
     4
 94
        3
 73
     0
 74
     1
 95
       17
 96
       13
 40
0.0
 40
0.0
 40
0.0
 40
0.0
 40
1.0
 40
1.0
 40
1.0
 40
2.0
 40
2.0
 40
2.0
 40
3.0
 40
3.0
 40
3.0
 40
4.0
 40
4.0
 40
4.0
 40
4.0
 10
79.17018905355815
 20
-140.2339897652887
 10
78.90336640822555
 20
-140.2339897652887
 10
78.85358477846368
 20
-140.5178656332733
 10
78.85358477846368
 20
-140.8623751817983
 10
78.85358477846368
 20
-141.1820800428295
 10
78.89199759312423
 20
-141.4907605983079
 10
79.17018905355815
 20
-141.4907605983079
 10
79.43460013205107
 20
-141.4907605983079
 10
79.48662107387835
 20
-141.2096408067115
 10
79.48662107387835
 20
-140.8623751817983
 10
79.48662107387835
 20
-140.5426703207671
 10
79.4459689471524
 20
-140.2339897652887
 10
79.17018905355815
 20
-140.2339897652887
 97
        0
 97
        0
 75
     2
 76
     1
 98
        0
  0
ENDBLK
  5
BD
330
BA
100
AcDbEntity
  8
0
100
AcDbBlockEnd
  0
BLOCK
  5
CD
330
CB
100
AcDbEntity
  8
0
100
AcDbBlockBegin
  2
block 5
 70
     0
 10
0.0
 20
0.0
 30
0.0
  3
block 5
  1

  0
SPLINE
  5
CF
330
CB
100
AcDbEntity
  8
_U+30EC_U+30A4_U+30E4_U+30FC 1
370
     0
100
AcDbSpline
210
0.0
220
0.0
230
1.0
 70
    11
 71
     3
 72
    53
 73
    49
 74
     0
 42
0.0000000001
 43
0.0000000001
 12
1.0
 22
0.0
 32
0.0
 13
1.0
 23
0.0
 33
0.0
 40
0.0
 40
0.0
 40
0.0
 40
0.0
 40
1.0
 40
1.0
 40
1.0
 40
2.0
 40
2.0
 40
2.0
 40
3.0
 40
3.0
 40
3.0
 40
4.0
 40
4.0
 40
4.0
 40
5.0
 40
5.0
 40
5.0
 40
6.0
 40
6.0
 40
6.0
 40
7.0
 40
7.0
 40
7.0
 40
8.0
 40
8.0
 40
8.0
 40
9.0
 40
9.0
 40
9.0
 40
10.0
 40
10.0
 40
10.0
 40
11.0
 40
11.0
 40
11.0
 40
12.0
 40
12.0
 40
12.0
 40
13.0
 40
13.0
 40
13.0
 40
14.0
 40
14.0
 40
14.0
 40
15.0
 40
15.0
 40
15.0
 40
16.0
 40
16.0
 40
16.0
 40
16.0
 10
86.02093368075171
 20
-141.685063983676
 30
0.0
 10
85.93721786046014
 20
-141.685063983676
 30
0.0
 10
85.82869735267478
 20
-141.6685275253468
 30
0.0
 10
85.72017684488941
 20
-141.6051377684182
 30
0.0
 10
85.53483070778296
 20
-141.4948947128902
 30
0.0
 10
85.51226533235457
 20
-141.3639810844507
 30
0.0
 10
85.49176701421734
 20
-141.2558050862138
 30
0.0
 10
85.49176701421734
 20
-141.2558050862138
 30
0.0
 10
85.72930634792532
 20
-141.2558050862138
 30
0.0
 10
85.72930634792532
 20
-141.2558050862138
 30
0.0
 10
85.78804522594882
 20
-141.4549316052613
 30
0.0
 10
85.9236097332934
 20
-141.4845594264344
 30
0.0
 10
86.02317299281712
 20
-141.4845594264344
 30
0.0
 10
86.17234562732844
 20
-141.4845594264344
 30
0.0
 10
86.3351263890065
 20
-141.3846516573622
 30
0.0
 10
86.3351263890065
 20
-141.1524522216563
 30
0.0
 10
86.3351263890065
 20
-140.8961371175538
 30
0.0
 10
86.14289006092956
 20
-140.8265461887517
 30
0.0
 10
86.01404348978122
 20
-140.8265461887517
 30
0.0
 10
85.98010929925151
 20
-140.8265461887517
 30
0.0
 10
85.82869735267478
 20
-140.8265461887517
 30
0.0
 10
85.73378497205614
 20
-140.9553927599
 30
0.0
 10
85.73378497205614
 20
-140.9553927599
 30
0.0
 10
85.54602726811002
 20
-140.9367892442797
 30
0.0
 10
85.54602726811002
 20
-140.9367892442797
 30
0.0
 10
85.54602726811002
 20
-140.9367892442797
 30
0.0
 10
85.67487383925837
 20
-140.0899847740053
 30
0.0
 10
85.67487383925837
 20
-140.0899847740053
 30
0.0
 10
85.67487383925837
 20
-140.0899847740053
 30
0.0
 10
86.5068643989462
 20
-140.0899847740053
 30
0.0
 10
86.5068643989462
 20
-140.0899847740053
 30
0.0
 10
86.5068643989462
 20
-140.0899847740053
 30
0.0
 10
86.5068643989462
 20
-140.2849771784704
 30
0.0
 10
86.5068643989462
 20
-140.2849771784704
 30
0.0
 10
86.5068643989462
 20
-140.2849771784704
 30
0.0
 10
85.84902341603775
 20
-140.2849771784704
 30
0.0
 10
85.84902341603775
 20
-140.2849771784704
 30
0.0
 10
85.84902341603775
 20
-140.2849771784704
 30
0.0
 10
85.77891572291291
 20
-140.7080349040591
 30
0.0
 10
85.77891572291291
 20
-140.7080349040591
 30
0.0
 10
85.84454479190693
 20
-140.6742729683037
 30
0.0
 10
85.93273923632933
 20
-140.6336208415777
 30
0.0
 10
86.05934649541226
 20
-140.6336208415777
 30
0.0
 10
86.33064776487568
 20
-140.6336208415777
 30
0.0
 10
86.58386228304154
 20
-140.8203450168783
 30
0.0
 10
86.58386228304154
 20
-141.1331596869389
 30
0.0
 10
86.58386228304154
 20
-141.450797490679
 30
0.0
 10
86.34425589204241
 20
-141.685063983676
 30
0.0
 10
86.02093368075171
 20
-141.685063983676
 30
0.0
  0
HATCH
  5
D0
330
CB
100
AcDbEntity
  8
_U+30EC_U+30A4_U+30E4_U+30FC 1
 62
   179
420
  2234388
100
AcDbHatch
 10
0.0
 20
0.0
 30
0.0
210
0.0
220
0.0
230
1.0
  2
SOLID
 70
     1
 71
     0
 91
        1
 92
        1
 93
        1
 72
     4
 94
        3
 73
     0
 74
     1
 95
       53
 96
       49
 40
0.0
 40
0.0
 40
0.0
 40
0.0
 40
1.0
 40
1.0
 40
1.0
 40
2.0
 40
2.0
 40
2.0
 40
3.0
 40
3.0
 40
3.0
 40
4.0
 40
4.0
 40
4.0
 40
5.0
 40
5.0
 40
5.0
 40
6.0
 40
6.0
 40
6.0
 40
7.0
 40
7.0
 40
7.0
 40
8.0
 40
8.0
 40
8.0
 40
9.0
 40
9.0
 40
9.0
 40
10.0
 40
10.0
 40
10.0
 40
11.0
 40
11.0
 40
11.0
 40
12.0
 40
12.0
 40
12.0
 40
13.0
 40
13.0
 40
13.0
 40
14.0
 40
14.0
 40
14.0
 40
15.0
 40
15.0
 40
15.0
 40
16.0
 40
16.0
 40
16.0
 40
16.0
 10
86.02093368075171
 20
-141.685063983676
 10
85.93721786046014
 20
-141.685063983676
 10
85.82869735267478
 20
-141.6685275253468
 10
85.72017684488941
 20
-141.6051377684182
 10
85.53483070778296
 20
-141.4948947128902
 10
85.51226533235457
 20
-141.3639810844507
 10
85.49176701421734
 20
-141.2558050862138
 10
85.49176701421734
 20
-141.2558050862138
 10
85.72930634792532
 20
-141.2558050862138
 10
85.72930634792532
 20
-141.2558050862138
 10
85.78804522594882
 20
-141.4549316052613
 10
85.9236097332934
 20
-141.4845594264344
 10
86.02317299281712
 20
-141.4845594264344
 10
86.17234562732844
 20
-141.4845594264344
 10
86.3351263890065
 20
-141.3846516573622
 10
86.3351263890065
 20
-141.1524522216563
 10
86.3351263890065
 20
-140.8961371175538
 10
86.14289006092956
 20
-140.8265461887517
 10
86.01404348978122
 20
-140.8265461887517
 10
85.98010929925151
 20
-140.8265461887517
 10
85.82869735267478
 20
-140.8265461887517
 10
85.73378497205614
 20
-140.9553927599
 10
85.73378497205614
 20
-140.9553927599
 10
85.54602726811002
 20
-140.9367892442797
 10
85.54602726811002
 20
-140.9367892442797
 10
85.54602726811002
 20
-140.9367892442797
 10
85.67487383925837
 20
-140.0899847740053
 10
85.67487383925837
 20
-140.0899847740053
 10
85.67487383925837
 20
-140.0899847740053
 10
86.5068643989462
 20
-140.0899847740053
 10
86.5068643989462
 20
-140.0899847740053
 10
86.5068643989462
 20
-140.0899847740053
 10
86.5068643989462
 20
-140.2849771784704
 10
86.5068643989462
 20
-140.2849771784704
 10
86.5068643989462
 20
-140.2849771784704
 10
85.84902341603775
 20
-140.2849771784704
 10
85.84902341603775
 20
-140.2849771784704
 10
85.84902341603775
 20
-140.2849771784704
 10
85.77891572291291
 20
-140.7080349040591
 10
85.77891572291291
 20
-140.7080349040591
 10
85.84454479190693
 20
-140.6742729683037
 10
85.93273923632933
 20
-140.6336208415777
 10
86.05934649541226
 20
-140.6336208415777
 10
86.33064776487568
 20
-140.6336208415777
 10
86.58386228304154
 20
-140.8203450168783
 10
86.58386228304154
 20
-141.1331596869389
 10
86.58386228304154
 20
-141.450797490679
 10
86.34425589204241
 20
-141.685063983676
 10
86.02093368075171
 20
-141.685063983676
 97
        0
 97
        0
 75
     2
 76
     1
 98
        0
  0
ENDBLK
  5
CE
330
CB
100
AcDbEntity
  8
0
100
AcDbBlockEnd
  0
BLOCK
  5
DF
330
DD
100
AcDbEntity
  8
0
100
AcDbBlockBegin
  2
block 6
 70
     0
 10
0.0
 20
0.0
 30
0.0
  3
block 6
  1

  0
SPLINE
  5
E1
330
DD
100
AcDbEntity
  8
_U+30EC_U+30A4_U+30E4_U+30FC 1
370
     0
100
AcDbSpline
210
0.0
220
0.0
230
1.0
 70
    11
 71
     3
 72
    62
 73
    58
 74
     0
 42
0.0000000001
 43
0.0000000001
 12
1.0
 22
0.0
 32
0.0
 13
1.0
 23
0.0
 33
0.0
 40
0.0
 40
0.0
 40
0.0
 40
0.0
 40
1.0
 40
1.0
 40
1.0
 40
2.0
 40
2.0
 40
2.0
 40
3.0
 40
3.0
 40
3.0
 40
4.0
 40
4.0
 40
4.0
 40
5.0
 40
5.0
 40
5.0
 40
6.0
 40
6.0
 40
6.0
 40
7.0
 40
7.0
 40
7.0
 40
8.0
 40
8.0
 40
8.0
 40
9.0
 40
9.0
 40
9.0
 40
10.0
 40
10.0
 40
10.0
 40
11.0
 40
11.0
 40
11.0
 40
12.0
 40
12.0
 40
12.0
 40
13.0
 40
13.0
 40
13.0
 40
14.0
 40
14.0
 40
14.0
 40
15.0
 40
15.0
 40
15.0
 40
16.0
 40
16.0
 40
16.0
 40
17.0
 40
17.0
 40
17.0
 40
18.0
 40
18.0
 40
18.0
 40
19.0
 40
19.0
 40
19.0
 40
19.0
 10
87.90316159911796
 20
-116.685384085412
 30
0.0
 10
87.80153128230309
 20
-116.685384085412
 30
0.0
 10
87.5686428275002
 20
-116.6641967481777
 30
0.0
 10
87.43531763222103
 20
-116.4779893372
 30
0.0
 10
87.3560804360603
 20
-116.3658514791551
 30
0.0
 10
87.35160181192947
 20
-116.2664604744056
 30
0.0
 10
87.34712318779864
 20
-116.1818833802427
 30
0.0
 10
87.34712318779864
 20
-116.1818833802427
 30
0.0
 10
87.58207869989268
 20
-116.1818833802427
 30
0.0
 10
87.58207869989268
 20
-116.1818833802427
 30
0.0
 10
87.58449026673236
 20
-116.2559529331756
 30
0.0
 10
87.59585908183368
 20
-116.4907361904954
 30
0.0
 10
87.89868297498714
 20
-116.4907361904954
 30
0.0
 10
88.04578855220731
 20
-116.4907361904954
 30
0.0
 10
88.20839705911109
 20
-116.4209730069191
 30
0.0
 10
88.20839705911109
 20
-116.1923909214727
 30
0.0
 10
88.20839705911109
 20
-116.0761189488456
 30
0.0
 10
88.16774493238515
 20
-116.0273708477293
 30
0.0
 10
88.1339829966297
 20
-115.995675969265
 30
0.0
 10
88.05474580046895
 20
-115.9216064163321
 30
0.0
 10
87.93037785345143
 20
-115.9090318178109
 30
0.0
 10
87.87146672065367
 20
-115.9090318178109
 30
0.0
 10
87.85114065729068
 20
-115.9090318178109
 30
0.0
 10
87.81290009740442
 20
-115.9110988751021
 30
0.0
 10
87.78327227623127
 20
-115.9152329896844
 30
0.0
 10
87.78327227623127
 20
-115.9152329896844
 30
0.0
 10
87.78327227623127
 20
-115.7205850947678
 30
0.0
 10
87.78327227623127
 20
-115.7205850947678
 30
0.0
 10
87.82392440295722
 20
-115.7269585214155
 30
0.0
 10
87.86939966336251
 20
-115.7291978334809
 30
0.0
 10
87.87594534478448
 20
-115.7291978334809
 30
0.0
 10
87.9462252926836
 20
-115.7291978334809
 30
0.0
 10
88.1587876841235
 20
-115.7080104962466
 30
0.0
 10
88.1587876841235
 20
-115.4709879268614
 30
0.0
 10
88.1587876841235
 20
-115.2933932545968
 30
0.0
 10
88.01857229787383
 20
-115.2382717268328
 30
0.0
 10
87.90109454182681
 20
-115.2382717268328
 30
0.0
 10
87.6182522024878
 20
-115.2382717268328
 30
0.0
 10
87.60929495422616
 20
-115.4709879268614
 30
0.0
 10
87.60481633009533
 20
-115.5429904225032
 30
0.0
 10
87.60481633009533
 20
-115.5429904225032
 30
0.0
 10
87.38777531452459
 20
-115.5429904225032
 30
0.0
 10
87.38777531452459
 20
-115.5429904225032
 30
0.0
 10
87.39673256278624
 20
-115.4181057111628
 30
0.0
 10
87.42601587441087
 20
-115.041556774625
 30
0.0
 10
87.91453041421929
 20
-115.041556774625
 30
0.0
 10
88.15430905999267
 20
-115.041556774625
 30
0.0
 10
88.41200220228936
 20
-115.1685085432565
 30
0.0
 10
88.41200220228936
 20
-115.4646145002137
 30
0.0
 10
88.41200220228936
 20
-115.6508219111915
 30
0.0
 10
88.31002737592597
 20
-115.7333319480632
 30
0.0
 10
88.20391843498028
 20
-115.7946546477007
 30
0.0
 10
88.26937524920002
 20
-115.8222154115826
 30
0.0
 10
88.46402314411664
 20
-115.9026583911632
 30
0.0
 10
88.46402314411664
 20
-116.1798163229516
 30
0.0
 10
88.46402314411664
 20
-116.5182969543774
 30
0.0
 10
88.19943981084946
 20
-116.685384085412
 30
0.0
 10
87.90316159911796
 20
-116.685384085412
 30
0.0
  0
HATCH
  5
E2
330
DD
100
AcDbEntity
  8
_U+30EC_U+30A4_U+30E4_U+30FC 1
 62
   179
420
  2234388
100
AcDbHatch
 10
0.0
 20
0.0
 30
0.0
210
0.0
220
0.0
230
1.0
  2
SOLID
 70
     1
 71
     0
 91
        1
 92
        1
 93
        1
 72
     4
 94
        3
 73
     0
 74
     1
 95
       62
 96
       58
 40
0.0
 40
0.0
 40
0.0
 40
0.0
 40
1.0
 40
1.0
 40
1.0
 40
2.0
 40
2.0
 40
2.0
 40
3.0
 40
3.0
 40
3.0
 40
4.0
 40
4.0
 40
4.0
 40
5.0
 40
5.0
 40
5.0
 40
6.0
 40
6.0
 40
6.0
 40
7.0
 40
7.0
 40
7.0
 40
8.0
 40
8.0
 40
8.0
 40
9.0
 40
9.0
 40
9.0
 40
10.0
 40
10.0
 40
10.0
 40
11.0
 40
11.0
 40
11.0
 40
12.0
 40
12.0
 40
12.0
 40
13.0
 40
13.0
 40
13.0
 40
14.0
 40
14.0
 40
14.0
 40
15.0
 40
15.0
 40
15.0
 40
16.0
 40
16.0
 40
16.0
 40
17.0
 40
17.0
 40
17.0
 40
18.0
 40
18.0
 40
18.0
 40
19.0
 40
19.0
 40
19.0
 40
19.0
 10
87.90316159911796
 20
-116.685384085412
 10
87.80153128230309
 20
-116.685384085412
 10
87.5686428275002
 20
-116.6641967481777
 10
87.43531763222103
 20
-116.4779893372
 10
87.3560804360603
 20
-116.3658514791551
 10
87.35160181192947
 20
-116.2664604744056
 10
87.34712318779864
 20
-116.1818833802427
 10
87.34712318779864
 20
-116.1818833802427
 10
87.58207869989268
 20
-116.1818833802427
 10
87.58207869989268
 20
-116.1818833802427
 10
87.58449026673236
 20
-116.2559529331756
 10
87.59585908183368
 20
-116.4907361904954
 10
87.89868297498714
 20
-116.4907361904954
 10
88.04578855220731
 20
-116.4907361904954
 10
88.20839705911109
 20
-116.4209730069191
 10
88.20839705911109
 20
-116.1923909214727
 10
88.20839705911109
 20
-116.0761189488456
 10
88.16774493238515
 20
-116.0273708477293
 10
88.1339829966297
 20
-115.995675969265
 10
88.05474580046895
 20
-115.9216064163321
 10
87.93037785345143
 20
-115.9090318178109
 10
87.87146672065367
 20
-115.9090318178109
 10
87.85114065729068
 20
-115.9090318178109
 10
87.81290009740442
 20
-115.9110988751021
 10
87.78327227623127
 20
-115.9152329896844
 10
87.78327227623127
 20
-115.9152329896844
 10
87.78327227623127
 20
-115.7205850947678
 10
87.78327227623127
 20
-115.7205850947678
 10
87.82392440295722
 20
-115.7269585214155
 10
87.86939966336251
 20
-115.7291978334809
 10
87.87594534478448
 20
-115.7291978334809
 10
87.9462252926836
 20
-115.7291978334809
 10
88.1587876841235
 20
-115.7080104962466
 10
88.1587876841235
 20
-115.4709879268614
 10
88.1587876841235
 20
-115.2933932545968
 10
88.01857229787383
 20
-115.2382717268328
 10
87.90109454182681
 20
-115.2382717268328
 10
87.6182522024878
 20
-115.2382717268328
 10
87.60929495422616
 20
-115.4709879268614
 10
87.60481633009533
 20
-115.5429904225032
 10
87.60481633009533
 20
-115.5429904225032
 10
87.38777531452459
 20
-115.5429904225032
 10
87.38777531452459
 20
-115.5429904225032
 10
87.39673256278624
 20
-115.4181057111628
 10
87.42601587441087
 20
-115.041556774625
 10
87.91453041421929
 20
-115.041556774625
 10
88.15430905999267
 20
-115.041556774625
 10
88.41200220228936
 20
-115.1685085432565
 10
88.41200220228936
 20
-115.4646145002137
 10
88.41200220228936
 20
-115.6508219111915
 10
88.31002737592597
 20
-115.7333319480632
 10
88.20391843498028
 20
-115.7946546477007
 10
88.26937524920002
 20
-115.8222154115826
 10
88.46402314411664
 20
-115.9026583911632
 10
88.46402314411664
 20
-116.1798163229516
 10
88.46402314411664
 20
-116.5182969543774
 10
88.19943981084946
 20
-116.685384085412
 10
87.90316159911796
 20
-116.685384085412
 97
        0
 97
        0
 75
     2
 76
     1
 98
        0
  0
SPLINE
  5
E3
330
DD
100
AcDbEntity
  8
_U+30EC_U+30A4_U+30E4_U+30FC 1
370
     0
100
AcDbSpline
210
0.0
220
0.0
230
1.0
 70
    11
 71
     3
 72
    29
 73
    25
 74
     0
 42
0.0000000001
 43
0.0000000001
 12
1.0
 22
0.0
 32
0.0
 13
1.0
 23
0.0
 33
0.0
 40
0.0
 40
0.0
 40
0.0
 40
0.0
 40
1.0
 40
1.0
 40
1.0
 40
2.0
 40
2.0
 40
2.0
 40
3.0
 40
3.0
 40
3.0
 40
4.0
 40
4.0
 40
4.0
 40
5.0
 40
5.0
 40
5.0
 40
6.0
 40
6.0
 40
6.0
 40
7.0
 40
7.0
 40
7.0
 40
8.0
 40
8.0
 40
8.0
 40
8.0
 10
89.59504799192416
 20
-116.4568019999657
 30
0.0
 10
89.4796372931683
 20
-116.6662638054689
 30
0.0
 10
89.29429115606185
 20
-116.685384085412
 30
0.0
 10
89.16992320904433
 20
-116.685384085412
 30
0.0
 10
88.99835745387888
 20
-116.685384085412
 30
0.0
 10
88.8467732525279
 20
-116.6388752963611
 30
0.0
 10
88.74514293571302
 20
-116.4568019999657
 30
0.0
 10
88.63421086108798
 20
-116.262154105049
 30
0.0
 10
88.613884797725
 20
-116.0253037904381
 30
0.0
 10
88.613884797725
 20
-115.8623507739858
 30
0.0
 10
88.613884797725
 20
-115.7185180374766
 30
0.0
 10
88.63214380379682
 20
-115.4668538122791
 30
0.0
 10
88.74514293571302
 20
-115.2678995480059
 30
0.0
 10
88.86020912492037
 20
-115.0648111691505
 30
0.0
 10
89.03211938963433
 20
-115.041556774625
 30
0.0
 10
89.16992320904433
 20
-115.041556774625
 30
0.0
 10
89.33976641646714
 20
-115.041556774625
 30
0.0
 10
89.49341767510928
 20
-115.0859985063848
 30
0.0
 10
89.59504799192416
 20
-115.2678995480059
 30
0.0
 10
89.70150144241838
 20
-115.4604803856314
 30
0.0
 10
89.72630612991217
 20
-115.6888902163035
 30
0.0
 10
89.72630612991217
 20
-115.8623507739858
 30
0.0
 10
89.72630612991217
 20
-116.033744274377
 30
0.0
 10
89.70356849970953
 20
-116.2643934171145
 30
0.0
 10
89.59504799192416
 20
-116.4568019999657
 30
0.0
  0
SPLINE
  5
E4
330
DD
100
AcDbEntity
  8
_U+30EC_U+30A4_U+30E4_U+30FC 1
370
     0
100
AcDbSpline
210
0.0
220
0.0
230
1.0
 70
    11
 71
     3
 72
    17
 73
    13
 74
     0
 42
0.0000000001
 43
0.0000000001
 12
1.0
 22
0.0
 32
0.0
 13
1.0
 23
0.0
 33
0.0
 40
0.0
 40
0.0
 40
0.0
 40
0.0
 40
1.0
 40
1.0
 40
1.0
 40
2.0
 40
2.0
 40
2.0
 40
3.0
 40
3.0
 40
3.0
 40
4.0
 40
4.0
 40
4.0
 40
4.0
 10
89.16992320904433
 20
-115.2341376122505
 30
0.0
 10
88.90327281848599
 20
-115.2341376122505
 30
0.0
 10
88.85366344349839
 20
-115.5176689706866
 30
0.0
 10
88.85366344349839
 20
-115.8623507739858
 30
0.0
 10
88.85366344349839
 20
-116.1818833802427
 30
0.0
 10
88.89190400338467
 20
-116.4907361904954
 30
0.0
 10
89.16992320904433
 20
-116.4907361904954
 30
0.0
 10
89.43450654231151
 20
-116.4907361904954
 30
0.0
 10
89.48652748413879
 20
-116.2092718893505
 30
0.0
 10
89.48652748413879
 20
-115.8623507739858
 30
0.0
 10
89.48652748413879
 20
-115.5429904225032
 30
0.0
 10
89.44587535741285
 20
-115.2341376122505
 30
0.0
 10
89.16992320904433
 20
-115.2341376122505
 30
0.0
  0
HATCH
  5
E5
330
DD
100
AcDbEntity
  8
_U+30EC_U+30A4_U+30E4_U+30FC 1
 62
   179
420
  2234388
100
AcDbHatch
 10
0.0
 20
0.0
 30
0.0
210
0.0
220
0.0
230
1.0
  2
SOLID
 70
     1
 71
     0
 91
        2
 92
        1
 93
        1
 72
     4
 94
        3
 73
     0
 74
     1
 95
       29
 96
       25
 40
0.0
 40
0.0
 40
0.0
 40
0.0
 40
1.0
 40
1.0
 40
1.0
 40
2.0
 40
2.0
 40
2.0
 40
3.0
 40
3.0
 40
3.0
 40
4.0
 40
4.0
 40
4.0
 40
5.0
 40
5.0
 40
5.0
 40
6.0
 40
6.0
 40
6.0
 40
7.0
 40
7.0
 40
7.0
 40
8.0
 40
8.0
 40
8.0
 40
8.0
 10
89.59504799192416
 20
-116.4568019999657
 10
89.4796372931683
 20
-116.6662638054689
 10
89.29429115606185
 20
-116.685384085412
 10
89.16992320904433
 20
-116.685384085412
 10
88.99835745387888
 20
-116.685384085412
 10
88.8467732525279
 20
-116.6388752963611
 10
88.74514293571302
 20
-116.4568019999657
 10
88.63421086108798
 20
-116.262154105049
 10
88.613884797725
 20
-116.0253037904381
 10
88.613884797725
 20
-115.8623507739858
 10
88.613884797725
 20
-115.7185180374766
 10
88.63214380379682
 20
-115.4668538122791
 10
88.74514293571302
 20
-115.2678995480059
 10
88.86020912492037
 20
-115.0648111691505
 10
89.03211938963433
 20
-115.041556774625
 10
89.16992320904433
 20
-115.041556774625
 10
89.33976641646714
 20
-115.041556774625
 10
89.49341767510928
 20
-115.0859985063848
 10
89.59504799192416
 20
-115.2678995480059
 10
89.70150144241838
 20
-115.4604803856314
 10
89.72630612991217
 20
-115.6888902163035
 10
89.72630612991217
 20
-115.8623507739858
 10
89.72630612991217
 20
-116.033744274377
 10
89.70356849970953
 20
-116.2643934171145
 10
89.59504799192416
 20
-116.4568019999657
 97
        0
 97
        0
 92
        1
 93
        1
 72
     4
 94
        3
 73
     0
 74
     1
 95
       17
 96
       13
 40
0.0
 40
0.0
 40
0.0
 40
0.0
 40
1.0
 40
1.0
 40
1.0
 40
2.0
 40
2.0
 40
2.0
 40
3.0
 40
3.0
 40
3.0
 40
4.0
 40
4.0
 40
4.0
 40
4.0
 10
89.16992320904433
 20
-115.2341376122505
 10
88.90327281848599
 20
-115.2341376122505
 10
88.85366344349839
 20
-115.5176689706866
 10
88.85366344349839
 20
-115.8623507739858
 10
88.85366344349839
 20
-116.1818833802427
 10
88.89190400338467
 20
-116.4907361904954
 10
89.16992320904433
 20
-116.4907361904954
 10
89.43450654231151
 20
-116.4907361904954
 10
89.48652748413879
 20
-116.2092718893505
 10
89.48652748413879
 20
-115.8623507739858
 10
89.48652748413879
 20
-115.5429904225032
 10
89.44587535741285
 20
-115.2341376122505
 10
89.16992320904433
 20
-115.2341376122505
 97
        0
 97
        0
 75
     2
 76
     1
 98
        0
  0
ENDBLK
  5
E0
330
DD
100
AcDbEntity
  8
0
100
AcDbBlockEnd
  0
BLOCK
  5
F4
330
F2
100
AcDbEntity
  8
0
100
AcDbBlockBegin
  2
block 7
 70
     0
 10
0.0
 20
0.0
 30
0.0
  3
block 7
  1

  0
SPLINE
  5
F6
330
F2
100
AcDbEntity
  8
_U+30EC_U+30A4_U+30E4_U+30FC 1
370
     0
100
AcDbSpline
210
0.0
220
0.0
230
1.0
 70
    11
 71
     3
 72
    26
 73
    22
 74
     0
 42
0.0000000001
 43
0.0000000001
 12
1.0
 22
0.0
 32
0.0
 13
1.0
 23
0.0
 33
0.0
 40
0.0
 40
0.0
 40
0.0
 40
0.0
 40
1.0
 40
1.0
 40
1.0
 40
2.0
 40
2.0
 40
2.0
 40
3.0
 40
3.0
 40
3.0
 40
4.0
 40
4.0
 40
4.0
 40
5.0
 40
5.0
 40
5.0
 40
6.0
 40
6.0
 40
6.0
 40
7.0
 40
7.0
 40
7.0
 40
7.0
 10
105.8271321350015
 20
-129.4635877497522
 30
0.0
 10
105.8271321350015
 20
-129.4635877497522
 30
0.0
 10
104.722979031979
 20
-129.4635877497522
 30
0.0
 10
104.722979031979
 20
-129.4635877497522
 30
0.0
 10
104.722979031979
 20
-129.4635877497522
 30
0.0
 10
104.722979031979
 20
-129.8160210178932
 30
0.0
 10
104.722979031979
 20
-129.8160210178932
 30
0.0
 10
104.722979031979
 20
-129.8160210178932
 30
0.0
 10
104.5748399261132
 20
-129.8160210178932
 30
0.0
 10
104.5748399261132
 20
-129.8160210178932
 30
0.0
 10
104.5600260155267
 20
-129.4611761829125
 30
0.0
 10
104.3970729990744
 20
-129.4115668079249
 30
0.0
 10
104.2826958289641
 20
-129.3798719294606
 30
0.0
 10
104.2826958289641
 20
-129.3798719294606
 30
0.0
 10
104.2826958289641
 20
-129.2238091039788
 30
0.0
 10
104.2826958289641
 20
-129.2238091039788
 30
0.0
 10
104.2826958289641
 20
-129.2238091039788
 30
0.0
 10
105.8271321350015
 20
-129.2238091039788
 30
0.0
 10
105.8271321350015
 20
-129.2238091039788
 30
0.0
 10
105.8271321350015
 20
-129.2238091039788
 30
0.0
 10
105.8271321350015
 20
-129.4635877497522
 30
0.0
 10
105.8271321350015
 20
-129.4635877497522
 30
0.0
  0
HATCH
  5
F7
330
F2
100
AcDbEntity
  8
_U+30EC_U+30A4_U+30E4_U+30FC 1
 62
   179
420
  2234388
100
AcDbHatch
 10
0.0
 20
0.0
 30
0.0
210
0.0
220
0.0
230
1.0
  2
SOLID
 70
     1
 71
     0
 91
        1
 92
        1
 93
        1
 72
     4
 94
        3
 73
     0
 74
     1
 95
       26
 96
       22
 40
0.0
 40
0.0
 40
0.0
 40
0.0
 40
1.0
 40
1.0
 40
1.0
 40
2.0
 40
2.0
 40
2.0
 40
3.0
 40
3.0
 40
3.0
 40
4.0
 40
4.0
 40
4.0
 40
5.0
 40
5.0
 40
5.0
 40
6.0
 40
6.0
 40
6.0
 40
7.0
 40
7.0
 40
7.0
 40
7.0
 10
105.8271321350015
 20
-129.4635877497522
 10
105.8271321350015
 20
-129.4635877497522
 10
104.722979031979
 20
-129.4635877497522
 10
104.722979031979
 20
-129.4635877497522
 10
104.722979031979
 20
-129.4635877497522
 10
104.722979031979
 20
-129.8160210178932
 10
104.722979031979
 20
-129.8160210178932
 10
104.722979031979
 20
-129.8160210178932
 10
104.5748399261132
 20
-129.8160210178932
 10
104.5748399261132
 20
-129.8160210178932
 10
104.5600260155267
 20
-129.4611761829125
 10
104.3970729990744
 20
-129.4115668079249
 10
104.2826958289641
 20
-129.3798719294606
 10
104.2826958289641
 20
-129.3798719294606
 10
104.2826958289641
 20
-129.2238091039788
 10
104.2826958289641
 20
-129.2238091039788
 10
104.2826958289641
 20
-129.2238091039788
 10
105.8271321350015
 20
-129.2238091039788
 10
105.8271321350015
 20
-129.2238091039788
 10
105.8271321350015
 20
-129.2238091039788
 10
105.8271321350015
 20
-129.4635877497522
 10
105.8271321350015
 20
-129.4635877497522
 97
        0
 97
        0
 75
     2
 76
     1
 98
        0
  0
SPLINE
  5
F8
330
F2
100
AcDbEntity
  8
_U+30EC_U+30A4_U+30E4_U+30FC 1
370
     0
100
AcDbSpline
210
0.0
220
0.0
230
1.0
 70
    11
 71
     3
 72
    62
 73
    58
 74
     0
 42
0.0000000001
 43
0.0000000001
 12
1.0
 22
0.0
 32
0.0
 13
1.0
 23
0.0
 33
0.0
 40
0.0
 40
0.0
 40
0.0
 40
0.0
 40
1.0
 40
1.0
 40
1.0
 40
2.0
 40
2.0
 40
2.0
 40
3.0
 40
3.0
 40
3.0
 40
4.0
 40
4.0
 40
4.0
 40
5.0
 40
5.0
 40
5.0
 40
6.0
 40
6.0
 40
6.0
 40
7.0
 40
7.0
 40
7.0
 40
8.0
 40
8.0
 40
8.0
 40
9.0
 40
9.0
 40
9.0
 40
10.0
 40
10.0
 40
10.0
 40
11.0
 40
11.0
 40
11.0
 40
12.0
 40
12.0
 40
12.0
 40
13.0
 40
13.0
 40
13.0
 40
14.0
 40
14.0
 40
14.0
 40
15.0
 40
15.0
 40
15.0
 40
16.0
 40
16.0
 40
16.0
 40
17.0
 40
17.0
 40
17.0
 40
18.0
 40
18.0
 40
18.0
 40
19.0
 40
19.0
 40
19.0
 40
19.0
 10
105.8777750386347
 20
-128.1627196945218
 30
0.0
 10
105.8777750386347
 20
-128.2643500113367
 30
0.0
 10
105.8567599561747
 20
-128.4972384661396
 30
0.0
 10
105.6707247999712
 20
-128.6305636614188
 30
0.0
 10
105.5584146871521
 20
-128.7098008575795
 30
0.0
 10
105.4591959371769
 20
-128.7142794817103
 30
0.0
 10
105.3744465882397
 20
-128.7187581058411
 30
0.0
 10
105.3744465882397
 20
-128.7187581058411
 30
0.0
 10
105.3744465882397
 20
-128.4838025937471
 30
0.0
 10
105.3744465882397
 20
-128.4838025937471
 30
0.0
 10
105.4485161411726
 20
-128.4813910269074
 30
0.0
 10
105.6831271437181
 20
-128.4700222118061
 30
0.0
 10
105.6831271437181
 20
-128.1671983186527
 30
0.0
 10
105.6831271437181
 20
-128.0200927414325
 30
0.0
 10
105.6135362149161
 20
-127.8574842345287
 30
0.0
 10
105.385126384244
 20
-127.8574842345287
 30
0.0
 10
105.2686821568426
 20
-127.8574842345287
 30
0.0
 10
105.2201063105005
 20
-127.8981363612546
 30
0.0
 10
105.1884114320362
 20
-127.9322428065586
 30
0.0
 10
105.1143418791034
 20
-128.0111354931708
 30
0.0
 10
105.1015950258079
 20
-128.1355034401884
 30
0.0
 10
105.1015950258079
 20
-128.1944145729861
 30
0.0
 10
105.1015950258079
 20
-128.2147406363491
 30
0.0
 10
105.1036620830991
 20
-128.2529811962354
 30
0.0
 10
105.1077961976814
 20
-128.2826090174085
 30
0.0
 10
105.1077961976814
 20
-128.2826090174085
 30
0.0
 10
104.9131483027648
 20
-128.2826090174085
 30
0.0
 10
104.9131483027648
 20
-128.2826090174085
 30
0.0
 10
104.9196939841868
 20
-128.2419568906826
 30
0.0
 10
104.9217610414779
 20
-128.1964816302773
 30
0.0
 10
104.9217610414779
 20
-128.1899359488553
 30
0.0
 10
104.9217610414779
 20
-128.1196560009562
 30
0.0
 10
104.9004014494693
 20
-127.9070936095163
 30
0.0
 10
104.6637233896327
 20
-127.9070936095163
 30
0.0
 10
104.4859564625938
 20
-127.9070936095163
 30
0.0
 10
104.4308349348298
 20
-128.0473089957659
 30
0.0
 10
104.4308349348298
 20
-128.164786751813
 30
0.0
 10
104.4308349348298
 20
-128.447629091152
 30
0.0
 10
104.6637233896327
 20
-128.4565863394136
 30
0.0
 10
104.7353813757259
 20
-128.4610649635445
 30
0.0
 10
104.7353813757259
 20
-128.4610649635445
 30
0.0
 10
104.7353813757259
 20
-128.6781059791152
 30
0.0
 10
104.7353813757259
 20
-128.6781059791152
 30
0.0
 10
104.6106689191598
 20
-128.6691487308535
 30
0.0
 10
104.234119982622
 20
-128.6398654192289
 30
0.0
 10
104.234119982622
 20
-128.1513508794205
 30
0.0
 10
104.234119982622
 20
-127.9115722336471
 30
0.0
 10
104.3612440060277
 20
-127.6538790913504
 30
0.0
 10
104.6571777082107
 20
-127.6538790913504
 30
0.0
 10
104.8435573739627
 20
-127.6538790913504
 30
0.0
 10
104.9258951560602
 20
-127.7558539177138
 30
0.0
 10
104.9872178556977
 20
-127.8619628586595
 30
0.0
 10
105.0147786195796
 20
-127.7965060444398
 30
0.0
 10
105.095049344386
 20
-127.6018581495232
 30
0.0
 10
105.3723795309486
 20
-127.6018581495232
 30
0.0
 10
105.7106879076001
 20
-127.6018581495232
 30
0.0
 10
105.8777750386347
 20
-127.8664414827903
 30
0.0
 10
105.8777750386347
 20
-128.1627196945218
 30
0.0
  0
HATCH
  5
F9
330
F2
100
AcDbEntity
  8
_U+30EC_U+30A4_U+30E4_U+30FC 1
 62
   179
420
  2234388
100
AcDbHatch
 10
0.0
 20
0.0
 30
0.0
210
0.0
220
0.0
230
1.0
  2
SOLID
 70
     1
 71
     0
 91
        1
 92
        1
 93
        1
 72
     4
 94
        3
 73
     0
 74
     1
 95
       62
 96
       58
 40
0.0
 40
0.0
 40
0.0
 40
0.0
 40
1.0
 40
1.0
 40
1.0
 40
2.0
 40
2.0
 40
2.0
 40
3.0
 40
3.0
 40
3.0
 40
4.0
 40
4.0
 40
4.0
 40
5.0
 40
5.0
 40
5.0
 40
6.0
 40
6.0
 40
6.0
 40
7.0
 40
7.0
 40
7.0
 40
8.0
 40
8.0
 40
8.0
 40
9.0
 40
9.0
 40
9.0
 40
10.0
 40
10.0
 40
10.0
 40
11.0
 40
11.0
 40
11.0
 40
12.0
 40
12.0
 40
12.0
 40
13.0
 40
13.0
 40
13.0
 40
14.0
 40
14.0
 40
14.0
 40
15.0
 40
15.0
 40
15.0
 40
16.0
 40
16.0
 40
16.0
 40
17.0
 40
17.0
 40
17.0
 40
18.0
 40
18.0
 40
18.0
 40
19.0
 40
19.0
 40
19.0
 40
19.0
 10
105.8777750386347
 20
-128.1627196945218
 10
105.8777750386347
 20
-128.2643500113367
 10
105.8567599561747
 20
-128.4972384661396
 10
105.6707247999712
 20
-128.6305636614188
 10
105.5584146871521
 20
-128.7098008575795
 10
105.4591959371769
 20
-128.7142794817103
 10
105.3744465882397
 20
-128.7187581058411
 10
105.3744465882397
 20
-128.7187581058411
 10
105.3744465882397
 20
-128.4838025937471
 10
105.3744465882397
 20
-128.4838025937471
 10
105.4485161411726
 20
-128.4813910269074
 10
105.6831271437181
 20
-128.4700222118061
 10
105.6831271437181
 20
-128.1671983186527
 10
105.6831271437181
 20
-128.0200927414325
 10
105.6135362149161
 20
-127.8574842345287
 10
105.385126384244
 20
-127.8574842345287
 10
105.2686821568426
 20
-127.8574842345287
 10
105.2201063105005
 20
-127.8981363612546
 10
105.1884114320362
 20
-127.9322428065586
 10
105.1143418791034
 20
-128.0111354931708
 10
105.1015950258079
 20
-128.1355034401884
 10
105.1015950258079
 20
-128.1944145729861
 10
105.1015950258079
 20
-128.2147406363491
 10
105.1036620830991
 20
-128.2529811962354
 10
105.1077961976814
 20
-128.2826090174085
 10
105.1077961976814
 20
-128.2826090174085
 10
104.9131483027648
 20
-128.2826090174085
 10
104.9131483027648
 20
-128.2826090174085
 10
104.9196939841868
 20
-128.2419568906826
 10
104.9217610414779
 20
-128.1964816302773
 10
104.9217610414779
 20
-128.1899359488553
 10
104.9217610414779
 20
-128.1196560009562
 10
104.9004014494693
 20
-127.9070936095163
 10
104.6637233896327
 20
-127.9070936095163
 10
104.4859564625938
 20
-127.9070936095163
 10
104.4308349348298
 20
-128.0473089957659
 10
104.4308349348298
 20
-128.164786751813
 10
104.4308349348298
 20
-128.447629091152
 10
104.6637233896327
 20
-128.4565863394136
 10
104.7353813757259
 20
-128.4610649635445
 10
104.7353813757259
 20
-128.4610649635445
 10
104.7353813757259
 20
-128.6781059791152
 10
104.7353813757259
 20
-128.6781059791152
 10
104.6106689191598
 20
-128.6691487308535
 10
104.234119982622
 20
-128.6398654192289
 10
104.234119982622
 20
-128.1513508794205
 10
104.234119982622
 20
-127.9115722336471
 10
104.3612440060277
 20
-127.6538790913504
 10
104.6571777082107
 20
-127.6538790913504
 10
104.8435573739627
 20
-127.6538790913504
 10
104.9258951560602
 20
-127.7558539177138
 10
104.9872178556977
 20
-127.8619628586595
 10
105.0147786195796
 20
-127.7965060444398
 10
105.095049344386
 20
-127.6018581495232
 10
105.3723795309486
 20
-127.6018581495232
 10
105.7106879076001
 20
-127.6018581495232
 10
105.8777750386347
 20
-127.8664414827903
 10
105.8777750386347
 20
-128.1627196945218
 97
        0
 97
        0
 75
     2
 76
     1
 98
        0
  0
ENDBLK
  5
F5
330
F2
100
AcDbEntity
  8
0
100
AcDbBlockEnd
  0
ENDSEC
  0
SECTION
  2
ENTITIES
  0
POLYLINE
  5
41
330
1F
100
AcDbEntity
  8
_U+30EC_U+30A4_U+30E4_U+30FC 1
370
     0
100
AcDb2dPolyline
 66
     1
 10
0.0
 20
0.0
 30
0.0
  0
VERTEX
  5
42
330
41
100
AcDbEntity
  8
_U+30EC_U+30A4_U+30E4_U+30FC 1
370
     0
100
AcDbVertex
100
AcDb2dVertex
 10
73.54142951269071
 20
-122.2803977472078
 30
0.0
  0
VERTEX
  5
43
330
41
100
AcDbEntity
  8
_U+30EC_U+30A4_U+30E4_U+30FC 1
370
     0
100
AcDbVertex
100
AcDb2dVertex
 10
83.54183259089251
 20
-122.2803977472078
 30
0.0
  0
VERTEX
  5
44
330
41
100
AcDbEntity
  8
_U+30EC_U+30A4_U+30E4_U+30FC 1
370
     0
100
AcDbVertex
100
AcDb2dVertex
 10
83.54183259089251
 20
-138.2806338543187
 30
0.0
  0
VERTEX
  5
45
330
41
100
AcDbEntity
  8
_U+30EC_U+30A4_U+30E4_U+30FC 1
370
     0
100
AcDbVertex
100
AcDb2dVertex
 10
88.54136385223273
 20
-138.2806338543187
 30
0.0
  0
VERTEX
  5
46
330
41
100
AcDbEntity
  8
_U+30EC_U+30A4_U+30E4_U+30FC 1
370
     0
100
AcDbVertex
100
AcDb2dVertex
 10
88.54136385223273
 20
-135.2806469106244
 30
0.0
  0
VERTEX
  5
47
330
41
100
AcDbEntity
  8
_U+30EC_U+30A4_U+30E4_U+30FC 1
370
     0
100
AcDbVertex
100
AcDb2dVertex
 10
87.54159165551683
 20
-135.2806469106244
 30
0.0
  0
VERTEX
  5
48
330
41
100
AcDbEntity
  8
_U+30EC_U+30A4_U+30E4_U+30FC 1
370
     0
100
AcDbVertex
100
AcDb2dVertex
 10
87.54159165551683
 20
-137.2808616323462
 30
0.0
  0
VERTEX
  5
49
330
41
100
AcDbEntity
  8
_U+30EC_U+30A4_U+30E4_U+30FC 1
370
     0
100
AcDbVertex
100
AcDb2dVertex
 10
84.44169812349058
 20
-137.2808616323462
 30
0.0
  0
VERTEX
  5
4A
330
41
100
AcDbEntity
  8
_U+30EC_U+30A4_U+30E4_U+30FC 1
370
     0
100
AcDbVertex
100
AcDb2dVertex
 10
84.44169812349058
 20
-122.2803977472078
 30
0.0
  0
VERTEX
  5
4B
330
41
100
AcDbEntity
  8
_U+30EC_U+30A4_U+30E4_U+30FC 1
370
     0
100
AcDbVertex
100
AcDb2dVertex
 10
103.5412981917747
 20
-122.2803977472078
 30
0.0
  0
VERTEX
  5
4C
330
41
100
AcDbEntity
  8
_U+30EC_U+30A4_U+30E4_U+30FC 1
370
     0
100
AcDbVertex
100
AcDb2dVertex
 10
103.5412981917747
 20
-121.2806255252353
 30
0.0
  0
VERTEX
  5
4D
330
41
100
AcDbEntity
  8
_U+30EC_U+30A4_U+30E4_U+30FC 1
370
     0
100
AcDbVertex
100
AcDb2dVertex
 10
73.54142951269071
 20
-121.2806255252353
 30
0.0
  0
VERTEX
  5
4E
330
41
100
AcDbEntity
  8
_U+30EC_U+30A4_U+30E4_U+30FC 1
370
     0
100
AcDbVertex
100
AcDb2dVertex
 10
73.54142951269071
 20
-122.2803977472078
 30
0.0
  0
SEQEND
  5
50
330
41
100
AcDbEntity
  8
_U+30EC_U+30A4_U+30E4_U+30FC 1
370
     0
  0
HATCH
  5
4F
330
1F
100
AcDbEntity
  8
_U+30EC_U+30A4_U+30E4_U+30FC 1
 62
   253
420
 11711154
100
AcDbHatch
 10
0.0
 20
0.0
 30
0.0
210
0.0
220
0.0
230
1.0
  2
SOLID
 70
     1
 71
     0
 91
        1
 92
        1
 93
       12
 72
     1
 10
73.54142951269071
 20
-122.2803977472078
 11
83.54183259089251
 21
-122.2803977472078
 72
     1
 10
83.54183259089251
 20
-122.2803977472078
 11
83.54183259089251
 21
-138.2806338543187
 72
     1
 10
83.54183259089251
 20
-138.2806338543187
 11
88.54136385223273
 21
-138.2806338543187
 72
     1
 10
88.54136385223273
 20
-138.2806338543187
 11
88.54136385223273
 21
-135.2806469106244
 72
     1
 10
88.54136385223273
 20
-135.2806469106244
 11
87.54159165551683
 21
-135.2806469106244
 72
     1
 10
87.54159165551683
 20
-135.2806469106244
 11
87.54159165551683
 21
-137.2808616323462
 72
     1
 10
87.54159165551683
 20
-137.2808616323462
 11
84.44169812349058
 21
-137.2808616323462
 72
     1
 10
84.44169812349058
 20
-137.2808616323462
 11
84.44169812349058
 21
-122.2803977472078
 72
     1
 10
84.44169812349058
 20
-122.2803977472078
 11
103.5412981917747
 21
-122.2803977472078
 72
     1
 10
103.5412981917747
 20
-122.2803977472078
 11
103.5412981917747
 21
-121.2806255252353
 72
     1
 10
103.5412981917747
 20
-121.2806255252353
 11
73.54142951269071
 21
-121.2806255252353
 72
     1
 10
73.54142951269071
 20
-121.2806255252353
 11
73.54142951269071
 21
-122.2803977472078
 97
        0
 75
     2
 76
     1
 98
        0
  0
POLYLINE
  5
51
330
1F
100
AcDbEntity
  8
_U+30EC_U+30A4_U+30E4_U+30FC 1
 62
   179
420
  2234388
370
    25
100
AcDb2dPolyline
 66
     1
 10
0.0
 20
0.0
 30
0.0
  0
VERTEX
  5
52
330
51
100
AcDbEntity
  8
_U+30EC_U+30A4_U+30E4_U+30FC 1
 62
   179
420
  2234388
370
    25
100
AcDbVertex
100
AcDb2dVertex
 10
73.54142951269071
 20
-121.2806255252353
 30
0.0
  0
VERTEX
  5
53
330
51
100
AcDbEntity
  8
_U+30EC_U+30A4_U+30E4_U+30FC 1
 62
   179
420
  2234388
370
    25
100
AcDbVertex
100
AcDb2dVertex
 10
103.5412981917747
 20
-121.2806255252353
 30
0.0
  0
SEQEND
  5
54
330
51
100
AcDbEntity
  8
_U+30EC_U+30A4_U+30E4_U+30FC 1
 62
   179
420
  2234388
370
    25
  0
POLYLINE
  5
55
330
1F
100
AcDbEntity
  8
_U+30EC_U+30A4_U+30E4_U+30FC 1
 62
   179
420
  2234388
370
    25
100
AcDb2dPolyline
 66
     1
 10
0.0
 20
0.0
 30
0.0
  0
VERTEX
  5
56
330
55
100
AcDbEntity
  8
_U+30EC_U+30A4_U+30E4_U+30FC 1
 62
   179
420
  2234388
370
    25
100
AcDbVertex
100
AcDb2dVertex
 10
73.54142951269071
 20
-122.2803977472078
 30
0.0
  0
VERTEX
  5
57
330
55
100
AcDbEntity
  8
_U+30EC_U+30A4_U+30E4_U+30FC 1
 62
   179
420
  2234388
370
    25
100
AcDbVertex
100
AcDb2dVertex
 10
83.54183259089251
 20
-122.2803977472078
 30
0.0
  0
SEQEND
  5
58
330
55
100
AcDbEntity
  8
_U+30EC_U+30A4_U+30E4_U+30FC 1
 62
   179
420
  2234388
370
    25
  0
POLYLINE
  5
59
330
1F
100
AcDbEntity
  8
_U+30EC_U+30A4_U+30E4_U+30FC 1
 62
   179
420
  2234388
370
    25
100
AcDb2dPolyline
 66
     1
 10
0.0
 20
0.0
 30
0.0
  0
VERTEX
  5
5A
330
59
100
AcDbEntity
  8
_U+30EC_U+30A4_U+30E4_U+30FC 1
 62
   179
420
  2234388
370
    25
100
AcDbVertex
100
AcDb2dVertex
 10
103.5412981917747
 20
-122.2803977472078
 30
0.0
  0
VERTEX
  5
5B
330
59
100
AcDbEntity
  8
_U+30EC_U+30A4_U+30E4_U+30FC 1
 62
   179
420
  2234388
370
    25
100
AcDbVertex
100
AcDb2dVertex
 10
103.5412981917747
 20
-121.2806255252353
 30
0.0
  0
SEQEND
  5
5C
330
59
100
AcDbEntity
  8
_U+30EC_U+30A4_U+30E4_U+30FC 1
 62
   179
420
  2234388
370
    25
  0
POLYLINE
  5
5D
330
1F
100
AcDbEntity
  8
_U+30EC_U+30A4_U+30E4_U+30FC 1
 62
   179
420
  2234388
370
    25
100
AcDb2dPolyline
 66
     1
 10
0.0
 20
0.0
 30
0.0
  0
VERTEX
  5
5E
330
5D
100
AcDbEntity
  8
_U+30EC_U+30A4_U+30E4_U+30FC 1
 62
   179
420
  2234388
370
    25
100
AcDbVertex
100
AcDb2dVertex
 10
84.44169812349058
 20
-122.2803977472078
 30
0.0
  0
VERTEX
  5
5F
330
5D
100
AcDbEntity
  8
_U+30EC_U+30A4_U+30E4_U+30FC 1
 62
   179
420
  2234388
370
    25
100
AcDbVertex
100
AcDb2dVertex
 10
103.5412981917747
 20
-122.2803977472078
 30
0.0
  0
SEQEND
  5
60
330
5D
100
AcDbEntity
  8
_U+30EC_U+30A4_U+30E4_U+30FC 1
 62
   179
420
  2234388
370
    25
  0
POLYLINE
  5
61
330
1F
100
AcDbEntity
  8
_U+30EC_U+30A4_U+30E4_U+30FC 1
 62
   179
420
  2234388
370
    25
100
AcDb2dPolyline
 66
     1
 10
0.0
 20
0.0
 30
0.0
  0
VERTEX
  5
62
330
61
100
AcDbEntity
  8
_U+30EC_U+30A4_U+30E4_U+30FC 1
 62
   179
420
  2234388
370
    25
100
AcDbVertex
100
AcDb2dVertex
 10
73.54142951269071
 20
-122.2803977472078
 30
0.0
  0
VERTEX
  5
63
330
61
100
AcDbEntity
  8
_U+30EC_U+30A4_U+30E4_U+30FC 1
 62
   179
420
  2234388
370
    25
100
AcDbVertex
100
AcDb2dVertex
 10
73.54142951269071
 20
-121.2806255252353
 30
0.0
  0
SEQEND
  5
64
330
61
100
AcDbEntity
  8
_U+30EC_U+30A4_U+30E4_U+30FC 1
 62
   179
420
  2234388
370
    25
  0
POLYLINE
  5
65
330
1F
100
AcDbEntity
  8
_U+30EC_U+30A4_U+30E4_U+30FC 1
 62
   179
420
  2234388
370
    25
100
AcDb2dPolyline
 66
     1
 10
0.0
 20
0.0
 30
0.0
  0
VERTEX
  5
66
330
65
100
AcDbEntity
  8
_U+30EC_U+30A4_U+30E4_U+30FC 1
 62
   179
420
  2234388
370
    25
100
AcDbVertex
100
AcDb2dVertex
 10
83.54183259089251
 20
-138.2806338543187
 30
0.0
  0
VERTEX
  5
67
330
65
100
AcDbEntity
  8
_U+30EC_U+30A4_U+30E4_U+30FC 1
 62
   179
420
  2234388
370
    25
100
AcDbVertex
100
AcDb2dVertex
 10
83.54183259089251
 20
-122.2803977472078
 30
0.0
  0
SEQEND
  5
68
330
65
100
AcDbEntity
  8
_U+30EC_U+30A4_U+30E4_U+30FC 1
 62
   179
420
  2234388
370
    25
  0
POLYLINE
  5
69
330
1F
100
AcDbEntity
  8
_U+30EC_U+30A4_U+30E4_U+30FC 1
 62
   179
420
  2234388
370
    25
100
AcDb2dPolyline
 66
     1
 10
0.0
 20
0.0
 30
0.0
  0
VERTEX
  5
6A
330
69
100
AcDbEntity
  8
_U+30EC_U+30A4_U+30E4_U+30FC 1
 62
   179
420
  2234388
370
    25
100
AcDbVertex
100
AcDb2dVertex
 10
87.54159165551683
 20
-135.2806469106244
 30
0.0
  0
VERTEX
  5
6B
330
69
100
AcDbEntity
  8
_U+30EC_U+30A4_U+30E4_U+30FC 1
 62
   179
420
  2234388
370
    25
100
AcDbVertex
100
AcDb2dVertex
 10
88.54136385223273
 20
-135.2806469106244
 30
0.0
  0
SEQEND
  5
6C
330
69
100
AcDbEntity
  8
_U+30EC_U+30A4_U+30E4_U+30FC 1
 62
   179
420
  2234388
370
    25
  0
POLYLINE
  5
6D
330
1F
100
AcDbEntity
  8
_U+30EC_U+30A4_U+30E4_U+30FC 1
 62
   179
420
  2234388
370
    25
100
AcDb2dPolyline
 66
     1
 10
0.0
 20
0.0
 30
0.0
  0
VERTEX
  5
6E
330
6D
100
AcDbEntity
  8
_U+30EC_U+30A4_U+30E4_U+30FC 1
 62
   179
420
  2234388
370
    25
100
AcDbVertex
100
AcDb2dVertex
 10
83.54183259089251
 20
-138.2806338543187
 30
0.0
  0
VERTEX
  5
6F
330
6D
100
AcDbEntity
  8
_U+30EC_U+30A4_U+30E4_U+30FC 1
 62
   179
420
  2234388
370
    25
100
AcDbVertex
100
AcDb2dVertex
 10
88.54136385223273
 20
-138.2806338543187
 30
0.0
  0
SEQEND
  5
70
330
6D
100
AcDbEntity
  8
_U+30EC_U+30A4_U+30E4_U+30FC 1
 62
   179
420
  2234388
370
    25
  0
POLYLINE
  5
71
330
1F
100
AcDbEntity
  8
_U+30EC_U+30A4_U+30E4_U+30FC 1
 62
   179
420
  2234388
370
    25
100
AcDb2dPolyline
 66
     1
 10
0.0
 20
0.0
 30
0.0
  0
VERTEX
  5
72
330
71
100
AcDbEntity
  8
_U+30EC_U+30A4_U+30E4_U+30FC 1
 62
   179
420
  2234388
370
    25
100
AcDbVertex
100
AcDb2dVertex
 10
84.44169812349058
 20
-137.2808616323462
 30
0.0
  0
VERTEX
  5
73
330
71
100
AcDbEntity
  8
_U+30EC_U+30A4_U+30E4_U+30FC 1
 62
   179
420
  2234388
370
    25
100
AcDbVertex
100
AcDb2dVertex
 10
87.54159165551683
 20
-137.2808616323462
 30
0.0
  0
SEQEND
  5
74
330
71
100
AcDbEntity
  8
_U+30EC_U+30A4_U+30E4_U+30FC 1
 62
   179
420
  2234388
370
    25
  0
POLYLINE
  5
75
330
1F
100
AcDbEntity
  8
_U+30EC_U+30A4_U+30E4_U+30FC 1
 62
   179
420
  2234388
370
    25
100
AcDb2dPolyline
 66
     1
 10
0.0
 20
0.0
 30
0.0
  0
VERTEX
  5
76
330
75
100
AcDbEntity
  8
_U+30EC_U+30A4_U+30E4_U+30FC 1
 62
   179
420
  2234388
370
    25
100
AcDbVertex
100
AcDb2dVertex
 10
88.54136385223273
 20
-138.2806338543187
 30
0.0
  0
VERTEX
  5
77
330
75
100
AcDbEntity
  8
_U+30EC_U+30A4_U+30E4_U+30FC 1
 62
   179
420
  2234388
370
    25
100
AcDbVertex
100
AcDb2dVertex
 10
88.54136385223273
 20
-135.2806469106244
 30
0.0
  0
SEQEND
  5
78
330
75
100
AcDbEntity
  8
_U+30EC_U+30A4_U+30E4_U+30FC 1
 62
   179
420
  2234388
370
    25
  0
POLYLINE
  5
79
330
1F
100
AcDbEntity
  8
_U+30EC_U+30A4_U+30E4_U+30FC 1
 62
   179
420
  2234388
370
    25
100
AcDb2dPolyline
 66
     1
 10
0.0
 20
0.0
 30
0.0
  0
VERTEX
  5
7A
330
79
100
AcDbEntity
  8
_U+30EC_U+30A4_U+30E4_U+30FC 1
 62
   179
420
  2234388
370
    25
100
AcDbVertex
100
AcDb2dVertex
 10
87.54159165551683
 20
-137.2808616323462
 30
0.0
  0
VERTEX
  5
7B
330
79
100
AcDbEntity
  8
_U+30EC_U+30A4_U+30E4_U+30FC 1
 62
   179
420
  2234388
370
    25
100
AcDbVertex
100
AcDb2dVertex
 10
87.54159165551683
 20
-135.2806469106244
 30
0.0
  0
SEQEND
  5
7C
330
79
100
AcDbEntity
  8
_U+30EC_U+30A4_U+30E4_U+30FC 1
 62
   179
420
  2234388
370
    25
  0
POLYLINE
  5
7D
330
1F
100
AcDbEntity
  8
_U+30EC_U+30A4_U+30E4_U+30FC 1
 62
   179
420
  2234388
370
    25
100
AcDb2dPolyline
 66
     1
 10
0.0
 20
0.0
 30
0.0
  0
VERTEX
  5
7E
330
7D
100
AcDbEntity
  8
_U+30EC_U+30A4_U+30E4_U+30FC 1
 62
   179
420
  2234388
370
    25
100
AcDbVertex
100
AcDb2dVertex
 10
84.44169812349058
 20
-137.2808616323462
 30
0.0
  0
VERTEX
  5
7F
330
7D
100
AcDbEntity
  8
_U+30EC_U+30A4_U+30E4_U+30FC 1
 62
   179
420
  2234388
370
    25
100
AcDbVertex
100
AcDb2dVertex
 10
84.44169812349058
 20
-122.2803977472078
 30
0.0
  0
SEQEND
  5
80
330
7D
100
AcDbEntity
  8
_U+30EC_U+30A4_U+30E4_U+30FC 1
 62
   179
420
  2234388
370
    25
  0
SPLINE
  5
81
330
1F
100
AcDbEntity
  8
_U+30EC_U+30A4_U+30E4_U+30FC 1
 62
   179
420
  2234388
370
     9
100
AcDbSpline
210
0.0
220
0.0
230
1.0
 70
    11
 71
     3
 72
    17
 73
    13
 74
     0
 42
0.0000000001
 43
0.0000000001
 12
1.0
 22
0.0
 32
0.0
 13
1.0
 23
0.0
 33
0.0
 40
0.0
 40
0.0
 40
0.0
 40
0.0
 40
1.0
 40
1.0
 40
1.0
 40
2.0
 40
2.0
 40
2.0
 40
3.0
 40
3.0
 40
3.0
 40
4.0
 40
4.0
 40
4.0
 40
4.0
 10
73.64133617680855
 20
-117.280513581791
 30
0.0
 10
73.64133617680855
 20
-117.2254096929157
 30
0.0
 10
73.59653340017378
 20
-117.1806069151493
 30
0.0
 10
73.54142951269071
 20
-117.1806069151493
 30
0.0
 10
73.48629034743077
 20
-117.1806069151493
 30
0.0
 10
73.44152284857287
 20
-117.2254096929157
 30
0.0
 10
73.44152284857287
 20
-117.280513581791
 30
0.0
 10
73.44152284857287
 20
-117.3356527484437
 30
0.0
 10
73.48629034743077
 20
-117.3804202484326
 30
0.0
 10
73.54142951269071
 20
-117.3804202484326
 30
0.0
 10
73.59653340017378
 20
-117.3804202484326
 30
0.0
 10
73.64133617680855
 20
-117.3356527484437
 30
0.0
 10
73.64133617680855
 20
-117.280513581791
 30
0.0
  0
SPLINE
  5
82
330
1F
100
AcDbEntity
  8
_U+30EC_U+30A4_U+30E4_U+30FC 1
 62
   179
420
  2234388
370
     9
100
AcDbSpline
210
0.0
220
0.0
230
1.0
 70
    11
 71
     3
 72
    17
 73
    13
 74
     0
 42
0.0000000001
 43
0.0000000001
 12
1.0
 22
0.0
 32
0.0
 13
1.0
 23
0.0
 33
0.0
 40
0.0
 40
0.0
 40
0.0
 40
0.0
 40
1.0
 40
1.0
 40
1.0
 40
2.0
 40
2.0
 40
2.0
 40
3.0
 40
3.0
 40
3.0
 40
4.0
 40
4.0
 40
4.0
 40
4.0
 10
103.6419104114301
 20
-117.280513581791
 30
0.0
 10
103.6419104114301
 20
-117.2254096929157
 30
0.0
 10
103.5971076347954
 20
-117.1806069151493
 30
0.0
 10
103.5412981917747
 20
-117.1806069151493
 30
0.0
 10
103.4861943042917
 20
-117.1806069151493
 30
0.0
 10
103.4413915276569
 20
-117.2254096929157
 30
0.0
 10
103.4413915276569
 20
-117.280513581791
 30
0.0
 10
103.4413915276569
 20
-117.3356527484437
 30
0.0
 10
103.4861943042917
 20
-117.3804202484326
 30
0.0
 10
103.5412981917747
 20
-117.3804202484326
 30
0.0
 10
103.5971076347954
 20
-117.3804202484326
 30
0.0
 10
103.6419104114301
 20
-117.3356527484437
 30
0.0
 10
103.6419104114301
 20
-117.280513581791
 30
0.0
  0
SPLINE
  5
83
330
1F
100
AcDbEntity
  8
_U+30EC_U+30A4_U+30E4_U+30FC 1
 62
   179
420
  2234388
370
     9
100
AcDbSpline
210
0.0
220
0.0
230
1.0
 70
    11
 71
     3
 72
    17
 73
    13
 74
     0
 42
0.0000000001
 43
0.0000000001
 12
1.0
 22
0.0
 32
0.0
 13
1.0
 23
0.0
 33
0.0
 40
0.0
 40
0.0
 40
0.0
 40
0.0
 40
1.0
 40
1.0
 40
1.0
 40
2.0
 40
2.0
 40
2.0
 40
3.0
 40
3.0
 40
3.0
 40
4.0
 40
4.0
 40
4.0
 40
4.0
 10
107.6416721953119
 20
-121.2806255252353
 30
0.0
 10
107.6416721953119
 20
-121.2254863585825
 30
0.0
 10
107.5968694175452
 20
-121.1807188585937
 30
0.0
 10
107.5417628119366
 20
-121.1807188585937
 30
0.0
 10
107.4866236466767
 20
-121.1807188585937
 30
0.0
 10
107.4418561478188
 20
-121.2254863585825
 30
0.0
 10
107.4418561478188
 20
-121.2806255252353
 30
0.0
 10
107.4418561478188
 20
-121.3357294141105
 30
0.0
 10
107.4866236466767
 20
-121.3805321918772
 30
0.0
 10
107.5417628119366
 20
-121.3805321918772
 30
0.0
 10
107.5968694175452
 20
-121.3805321918772
 30
0.0
 10
107.6416721953119
 20
-121.3357294141105
 30
0.0
 10
107.6416721953119
 20
-121.2806255252353
 30
0.0
  0
SPLINE
  5
84
330
1F
100
AcDbEntity
  8
_U+30EC_U+30A4_U+30E4_U+30FC 1
 62
   179
420
  2234388
370
     9
100
AcDbSpline
210
0.0
220
0.0
230
1.0
 70
    11
 71
     3
 72
    17
 73
    13
 74
     0
 42
0.0000000001
 43
0.0000000001
 12
1.0
 22
0.0
 32
0.0
 13
1.0
 23
0.0
 33
0.0
 40
0.0
 40
0.0
 40
0.0
 40
0.0
 40
1.0
 40
1.0
 40
1.0
 40
2.0
 40
2.0
 40
2.0
 40
3.0
 40
3.0
 40
3.0
 40
4.0
 40
4.0
 40
4.0
 40
4.0
 10
107.6416721953119
 20
-122.2803977472078
 30
0.0
 10
107.6416721953119
 20
-122.2252585805548
 30
0.0
 10
107.5968694175452
 20
-122.1804910805659
 30
0.0
 10
107.5417628119366
 20
-122.1804910805659
 30
0.0
 10
107.4866236466767
 20
-122.1804910805659
 30
0.0
 10
107.4418561478188
 20
-122.2252585805548
 30
0.0
 10
107.4418561478188
 20
-122.2803977472078
 30
0.0
 10
107.4418561478188
 20
-122.3358544138605
 30
0.0
 10
107.4866236466767
 20
-122.3806571916272
 30
0.0
 10
107.5417628119366
 20
-122.3806571916272
 30
0.0
 10
107.5968694175452
 20
-122.3806571916272
 30
0.0
 10
107.6416721953119
 20
-122.3358544138605
 30
0.0
 10
107.6416721953119
 20
-122.2803977472078
 30
0.0
  0
SPLINE
  5
85
330
1F
100
AcDbEntity
  8
_U+30EC_U+30A4_U+30E4_U+30FC 1
 62
   179
420
  2234388
370
     9
100
AcDbSpline
210
0.0
220
0.0
230
1.0
 70
    11
 71
     3
 72
    17
 73
    13
 74
     0
 42
0.0000000001
 43
0.0000000001
 12
1.0
 22
0.0
 32
0.0
 13
1.0
 23
0.0
 33
0.0
 40
0.0
 40
0.0
 40
0.0
 40
0.0
 40
1.0
 40
1.0
 40
1.0
 40
2.0
 40
2.0
 40
2.0
 40
3.0
 40
3.0
 40
3.0
 40
4.0
 40
4.0
 40
4.0
 40
4.0
 10
107.6416721953119
 20
-135.2806469106244
 30
0.0
 10
107.6416721953119
 20
-135.2255077439713
 30
0.0
 10
107.5968694175452
 20
-135.1807402439827
 30
0.0
 10
107.5417628119366
 20
-135.1807402439827
 30
0.0
 10
107.4866236466767
 20
-135.1807402439827
 30
0.0
 10
107.4418561478188
 20
-135.2255077439713
 30
0.0
 10
107.4418561478188
 20
-135.2806469106244
 30
0.0
 10
107.4418561478188
 20
-135.3357507994993
 30
0.0
 10
107.4866236466767
 20
-135.380553577266
 30
0.0
 10
107.5417628119366
 20
-135.380553577266
 30
0.0
 10
107.5968694175452
 20
-135.380553577266
 30
0.0
 10
107.6416721953119
 20
-135.3357507994993
 30
0.0
 10
107.6416721953119
 20
-135.2806469106244
 30
0.0
  0
SPLINE
  5
86
330
1F
100
AcDbEntity
  8
_U+30EC_U+30A4_U+30E4_U+30FC 1
 62
   179
420
  2234388
370
     9
100
AcDbSpline
210
0.0
220
0.0
230
1.0
 70
    11
 71
     3
 72
    17
 73
    13
 74
     0
 42
0.0000000001
 43
0.0000000001
 12
1.0
 22
0.0
 32
0.0
 13
1.0
 23
0.0
 33
0.0
 40
0.0
 40
0.0
 40
0.0
 40
0.0
 40
1.0
 40
1.0
 40
1.0
 40
2.0
 40
2.0
 40
2.0
 40
3.0
 40
3.0
 40
3.0
 40
4.0
 40
4.0
 40
4.0
 40
4.0
 10
107.6416721953119
 20
-138.2806338543187
 30
0.0
 10
107.6416721953119
 20
-138.2254946876656
 30
0.0
 10
107.5968694175452
 20
-138.1807271876771
 30
0.0
 10
107.5417628119366
 20
-138.1807271876771
 30
0.0
 10
107.4866236466767
 20
-138.1807271876771
 30
0.0
 10
107.4418561478188
 20
-138.2254946876656
 30
0.0
 10
107.4418561478188
 20
-138.2806338543187
 30
0.0
 10
107.4418561478188
 20
-138.3357377431936
 30
0.0
 10
107.4866236466767
 20
-138.3805405209604
 30
0.0
 10
107.5417628119366
 20
-138.3805405209604
 30
0.0
 10
107.5968694175452
 20
-138.3805405209604
 30
0.0
 10
107.6416721953119
 20
-138.3357377431936
 30
0.0
 10
107.6416721953119
 20
-138.2806338543187
 30
0.0
  0
SPLINE
  5
87
330
1F
100
AcDbEntity
  8
_U+30EC_U+30A4_U+30E4_U+30FC 1
 62
   179
420
  2234388
370
     9
100
AcDbSpline
210
0.0
220
0.0
230
1.0
 70
    11
 71
     3
 72
    17
 73
    13
 74
     0
 42
0.0000000001
 43
0.0000000001
 12
1.0
 22
0.0
 32
0.0
 13
1.0
 23
0.0
 33
0.0
 40
0.0
 40
0.0
 40
0.0
 40
0.0
 40
1.0
 40
1.0
 40
1.0
 40
2.0
 40
2.0
 40
2.0
 40
3.0
 40
3.0
 40
3.0
 40
4.0
 40
4.0
 40
4.0
 40
4.0
 10
83.64173925501035
 20
-142.2803930199856
 30
0.0
 10
83.64173925501035
 20
-142.2252538533325
 30
0.0
 10
83.59697175615246
 20
-142.180486353344
 30
0.0
 10
83.54183259089251
 20
-142.180486353344
 30
0.0
 10
83.48672870340944
 20
-142.180486353344
 30
0.0
 10
83.44192592677467
 20
-142.2252538533325
 30
0.0
 10
83.44192592677467
 20
-142.2803930199856
 30
0.0
 10
83.44192592677467
 20
-142.3362024644161
 30
0.0
 10
83.48672870340944
 20
-142.3802996866272
 30
0.0
 10
83.54183259089251
 20
-142.3802996866272
 30
0.0
 10
83.59697175615246
 20
-142.3802996866272
 30
0.0
 10
83.64173925501035
 20
-142.3362024644161
 30
0.0
 10
83.64173925501035
 20
-142.2803930199856
 30
0.0
  0
SPLINE
  5
88
330
1F
100
AcDbEntity
  8
_U+30EC_U+30A4_U+30E4_U+30FC 1
 62
   179
420
  2234388
370
     9
100
AcDbSpline
210
0.0
220
0.0
230
1.0
 70
    11
 71
     3
 72
    17
 73
    13
 74
     0
 42
0.0000000001
 43
0.0000000001
 12
1.0
 22
0.0
 32
0.0
 13
1.0
 23
0.0
 33
0.0
 40
0.0
 40
0.0
 40
0.0
 40
0.0
 40
1.0
 40
1.0
 40
1.0
 40
2.0
 40
2.0
 40
2.0
 40
3.0
 40
3.0
 40
3.0
 40
4.0
 40
4.0
 40
4.0
 40
4.0
 10
88.64127051635056
 20
-142.2803930199856
 30
0.0
 10
88.64127051635056
 20
-142.2252538533325
 30
0.0
 10
88.5964677397158
 20
-142.180486353344
 30
0.0
 10
88.54136385223273
 20
-142.180486353344
 30
0.0
 10
88.48622468697278
 20
-142.180486353344
 30
0.0
 10
88.4414571881149
 20
-142.2252538533325
 30
0.0
 10
88.4414571881149
 20
-142.2803930199856
 30
0.0
 10
88.4414571881149
 20
-142.3362024644161
 30
0.0
 10
88.48622468697278
 20
-142.3802996866272
 30
0.0
 10
88.54136385223273
 20
-142.3802996866272
 30
0.0
 10
88.5964677397158
 20
-142.3802996866272
 30
0.0
 10
88.64127051635056
 20
-142.3362024644161
 30
0.0
 10
88.64127051635056
 20
-142.2803930199856
 30
0.0
  0
SPLINE
  5
89
330
1F
100
AcDbEntity
  8
_U+30EC_U+30A4_U+30E4_U+30FC 1
 62
   179
420
  2234388
370
     9
100
AcDbSpline
210
0.0
220
0.0
230
1.0
 70
    11
 71
     3
 72
    17
 73
    13
 74
     0
 42
0.0000000001
 43
0.0000000001
 12
1.0
 22
0.0
 32
0.0
 13
1.0
 23
0.0
 33
0.0
 40
0.0
 40
0.0
 40
0.0
 40
0.0
 40
1.0
 40
1.0
 40
1.0
 40
2.0
 40
2.0
 40
2.0
 40
3.0
 40
3.0
 40
3.0
 40
4.0
 40
4.0
 40
4.0
 40
4.0
 10
73.64133617680855
 20
-142.2803930199856
 30
0.0
 10
73.64133617680855
 20
-142.2252538533325
 30
0.0
 10
73.59653340017378
 20
-142.180486353344
 30
0.0
 10
73.54142951269071
 20
-142.180486353344
 30
0.0
 10
73.48629034743077
 20
-142.180486353344
 30
0.0
 10
73.44152284857287
 20
-142.2252538533325
 30
0.0
 10
73.44152284857287
 20
-142.2803930199856
 30
0.0
 10
73.44152284857287
 20
-142.3362024644161
 30
0.0
 10
73.48629034743077
 20
-142.3802996866272
 30
0.0
 10
73.54142951269071
 20
-142.3802996866272
 30
0.0
 10
73.59653340017378
 20
-142.3802996866272
 30
0.0
 10
73.64133617680855
 20
-142.3362024644161
 30
0.0
 10
73.64133617680855
 20
-142.2803930199856
 30
0.0
  0
POLYLINE
  5
8A
330
1F
100
AcDbEntity
  8
_U+30EC_U+30A4_U+30E4_U+30FC 1
 62
   179
420
  2234388
370
     9
100
AcDb2dPolyline
 66
     1
 10
0.0
 20
0.0
 30
0.0
  0
VERTEX
  5
8B
330
8A
100
AcDbEntity
  8
_U+30EC_U+30A4_U+30E4_U+30FC 1
 62
   179
420
  2234388
370
     9
100
AcDbVertex
100
AcDb2dVertex
 10
107.5417628119366
 20
-121.2806255252353
 30
0.0
  0
VERTEX
  5
8C
330
8A
100
AcDbEntity
  8
_U+30EC_U+30A4_U+30E4_U+30FC 1
 62
   179
420
  2234388
370
     9
100
AcDbVertex
100
AcDb2dVertex
 10
107.5417628119366
 20
-117.5103130261779
 30
0.0
  0
SEQEND
  5
8D
330
8A
100
AcDbEntity
  8
_U+30EC_U+30A4_U+30E4_U+30FC 1
 62
   179
420
  2234388
370
     9
  0
POLYLINE
  5
8E
330
1F
100
AcDbEntity
  8
_U+30EC_U+30A4_U+30E4_U+30FC 1
 62
   179
420
  2234388
370
     9
100
AcDb2dPolyline
 66
     1
 10
0.0
 20
0.0
 30
0.0
  0
VERTEX
  5
8F
330
8E
100
AcDbEntity
  8
_U+30EC_U+30A4_U+30E4_U+30FC 1
 62
   179
420
  2234388
370
     9
100
AcDbVertex
100
AcDb2dVertex
 10
107.5417628119366
 20
-121.2806255252353
 30
0.0
  0
VERTEX
  5
90
330
8E
100
AcDbEntity
  8
_U+30EC_U+30A4_U+30E4_U+30FC 1
 62
   179
420
  2234388
370
     9
100
AcDbVertex
100
AcDb2dVertex
 10
107.5417628119366
 20
-122.2803977472078
 30
0.0
  0
SEQEND
  5
91
330
8E
100
AcDbEntity
  8
_U+30EC_U+30A4_U+30E4_U+30FC 1
 62
   179
420
  2234388
370
     9
  0
POLYLINE
  5
92
330
1F
100
AcDbEntity
  8
_U+30EC_U+30A4_U+30E4_U+30FC 1
 62
   179
420
  2234388
370
     9
100
AcDb2dPolyline
 66
     1
 10
0.0
 20
0.0
 30
0.0
  0
VERTEX
  5
93
330
92
100
AcDbEntity
  8
_U+30EC_U+30A4_U+30E4_U+30FC 1
 62
   179
420
  2234388
370
     9
100
AcDbVertex
100
AcDb2dVertex
 10
106.0817214602965
 20
-121.2806255252353
 30
0.0
  0
VERTEX
  5
94
330
92
100
AcDbEntity
  8
_U+30EC_U+30A4_U+30E4_U+30FC 1
 62
   179
420
  2234388
370
     9
100
AcDbVertex
100
AcDb2dVertex
 10
108.5415350086525
 20
-121.2806255252353
 30
0.0
  0
SEQEND
  5
95
330
92
100
AcDbEntity
  8
_U+30EC_U+30A4_U+30E4_U+30FC 1
 62
   179
420
  2234388
370
     9
  0
POLYLINE
  5
96
330
1F
100
AcDbEntity
  8
_U+30EC_U+30A4_U+30E4_U+30FC 1
 62
   179
420
  2234388
370
     9
100
AcDb2dPolyline
 66
     1
 10
0.0
 20
0.0
 30
0.0
  0
VERTEX
  5
97
330
96
100
AcDbEntity
  8
_U+30EC_U+30A4_U+30E4_U+30FC 1
 62
   179
420
  2234388
370
     9
100
AcDbVertex
100
AcDb2dVertex
 10
106.0817214602965
 20
-122.2803977472078
 30
0.0
  0
VERTEX
  5
98
330
96
100
AcDbEntity
  8
_U+30EC_U+30A4_U+30E4_U+30FC 1
 62
   179
420
  2234388
370
     9
100
AcDbVertex
100
AcDb2dVertex
 10
108.5415350086525
 20
-122.2803977472078
 30
0.0
  0
SEQEND
  5
99
330
96
100
AcDbEntity
  8
_U+30EC_U+30A4_U+30E4_U+30FC 1
 62
   179
420
  2234388
370
     9
  0
INSERT
  5
9B
330
1F
100
AcDbEntity
  8
_U+30EC_U+30A4_U+30E4_U+30FC 1
100
AcDbBlockReference
  2
block 2
 10
0.0
 20
0.0
 30
0.0
  0
POLYLINE
  5
A0
330
1F
100
AcDbEntity
  8
_U+30EC_U+30A4_U+30E4_U+30FC 1
 62
   179
420
  2234388
370
     9
100
AcDb2dPolyline
 66
     1
 10
0.0
 20
0.0
 30
0.0
  0
VERTEX
  5
A1
330
A0
100
AcDbEntity
  8
_U+30EC_U+30A4_U+30E4_U+30FC 1
 62
   179
420
  2234388
370
     9
100
AcDbVertex
100
AcDb2dVertex
 10
107.5417628119366
 20
-138.2806338543187
 30
0.0
  0
VERTEX
  5
A2
330
A0
100
AcDbEntity
  8
_U+30EC_U+30A4_U+30E4_U+30FC 1
 62
   179
420
  2234388
370
     9
100
AcDbVertex
100
AcDb2dVertex
 10
107.5417628119366
 20
-135.2806469106244
 30
0.0
  0
SEQEND
  5
A3
330
A0
100
AcDbEntity
  8
_U+30EC_U+30A4_U+30E4_U+30FC 1
 62
   179
420
  2234388
370
     9
  0
POLYLINE
  5
A4
330
1F
100
AcDbEntity
  8
_U+30EC_U+30A4_U+30E4_U+30FC 1
 62
   179
420
  2234388
370
     9
100
AcDb2dPolyline
 66
     1
 10
0.0
 20
0.0
 30
0.0
  0
VERTEX
  5
A5
330
A4
100
AcDbEntity
  8
_U+30EC_U+30A4_U+30E4_U+30FC 1
 62
   179
420
  2234388
370
     9
100
AcDbVertex
100
AcDb2dVertex
 10
91.08178712075447
 20
-138.2806338543187
 30
0.0
  0
VERTEX
  5
A6
330
A4
100
AcDbEntity
  8
_U+30EC_U+30A4_U+30E4_U+30FC 1
 62
   179
420
  2234388
370
     9
100
AcDbVertex
100
AcDb2dVertex
 10
108.5415350086525
 20
-138.2806338543187
 30
0.0
  0
SEQEND
  5
A7
330
A4
100
AcDbEntity
  8
_U+30EC_U+30A4_U+30E4_U+30FC 1
 62
   179
420
  2234388
370
     9
  0
INSERT
  5
A9
330
1F
100
AcDbEntity
  8
_U+30EC_U+30A4_U+30E4_U+30FC 1
100
AcDbBlockReference
  2
block 3
 10
0.0
 20
0.0
 30
0.0
  0
POLYLINE
  5
AE
330
1F
100
AcDbEntity
  8
_U+30EC_U+30A4_U+30E4_U+30FC 1
 62
   179
420
  2234388
370
     9
100
AcDb2dPolyline
 66
     1
 10
0.0
 20
0.0
 30
0.0
  0
VERTEX
  5
AF
330
AE
100
AcDbEntity
  8
_U+30EC_U+30A4_U+30E4_U+30FC 1
 62
   179
420
  2234388
370
     9
100
AcDbVertex
100
AcDb2dVertex
 10
73.54142951269071
 20
-142.2803930199856
 30
0.0
  0
VERTEX
  5
B0
330
AE
100
AcDbEntity
  8
_U+30EC_U+30A4_U+30E4_U+30FC 1
 62
   179
420
  2234388
370
     9
100
AcDbVertex
100
AcDb2dVertex
 10
83.54183259089251
 20
-142.2803930199856
 30
0.0
  0
SEQEND
  5
B1
330
AE
100
AcDbEntity
  8
_U+30EC_U+30A4_U+30E4_U+30FC 1
 62
   179
420
  2234388
370
     9
  0
POLYLINE
  5
B2
330
1F
100
AcDbEntity
  8
_U+30EC_U+30A4_U+30E4_U+30FC 1
 62
   179
420
  2234388
370
     9
100
AcDb2dPolyline
 66
     1
 10
0.0
 20
0.0
 30
0.0
  0
VERTEX
  5
B3
330
B2
100
AcDbEntity
  8
_U+30EC_U+30A4_U+30E4_U+30FC 1
 62
   179
420
  2234388
370
     9
100
AcDbVertex
100
AcDb2dVertex
 10
73.54142951269071
 20
-124.8208210799059
 30
0.0
  0
VERTEX
  5
B4
330
B2
100
AcDbEntity
  8
_U+30EC_U+30A4_U+30E4_U+30FC 1
 62
   179
420
  2234388
370
     9
100
AcDbVertex
100
AcDb2dVertex
 10
73.54142951269071
 20
-143.2808355197355
 30
0.0
  0
SEQEND
  5
B5
330
B2
100
AcDbEntity
  8
_U+30EC_U+30A4_U+30E4_U+30FC 1
 62
   179
420
  2234388
370
     9
  0
POLYLINE
  5
B6
330
1F
100
AcDbEntity
  8
_U+30EC_U+30A4_U+30E4_U+30FC 1
 62
   179
420
  2234388
370
     9
100
AcDb2dPolyline
 66
     1
 10
0.0
 20
0.0
 30
0.0
  0
VERTEX
  5
B7
330
B6
100
AcDbEntity
  8
_U+30EC_U+30A4_U+30E4_U+30FC 1
 62
   179
420
  2234388
370
     9
100
AcDbVertex
100
AcDb2dVertex
 10
83.54183259089251
 20
-140.8203516314619
 30
0.0
  0
VERTEX
  5
B8
330
B6
100
AcDbEntity
  8
_U+30EC_U+30A4_U+30E4_U+30FC 1
 62
   179
420
  2234388
370
     9
100
AcDbVertex
100
AcDb2dVertex
 10
83.54183259089251
 20
-143.2808355197355
 30
0.0
  0
SEQEND
  5
B9
330
B6
100
AcDbEntity
  8
_U+30EC_U+30A4_U+30E4_U+30FC 1
 62
   179
420
  2234388
370
     9
  0
INSERT
  5
BB
330
1F
100
AcDbEntity
  8
_U+30EC_U+30A4_U+30E4_U+30FC 1
100
AcDbBlockReference
  2
block 4
 10
0.0
 20
0.0
 30
0.0
  0
POLYLINE
  5
C3
330
1F
100
AcDbEntity
  8
_U+30EC_U+30A4_U+30E4_U+30FC 1
 62
   179
420
  2234388
370
     9
100
AcDb2dPolyline
 66
     1
 10
0.0
 20
0.0
 30
0.0
  0
VERTEX
  5
C4
330
C3
100
AcDbEntity
  8
_U+30EC_U+30A4_U+30E4_U+30FC 1
 62
   179
420
  2234388
370
     9
100
AcDbVertex
100
AcDb2dVertex
 10
83.54183259089251
 20
-142.2803930199856
 30
0.0
  0
VERTEX
  5
C5
330
C3
100
AcDbEntity
  8
_U+30EC_U+30A4_U+30E4_U+30FC 1
 62
   179
420
  2234388
370
     9
100
AcDbVertex
100
AcDb2dVertex
 10
88.54136385223273
 20
-142.2803930199856
 30
0.0
  0
SEQEND
  5
C6
330
C3
100
AcDbEntity
  8
_U+30EC_U+30A4_U+30E4_U+30FC 1
 62
   179
420
  2234388
370
     9
  0
POLYLINE
  5
C7
330
1F
100
AcDbEntity
  8
_U+30EC_U+30A4_U+30E4_U+30FC 1
 62
   179
420
  2234388
370
     9
100
AcDb2dPolyline
 66
     1
 10
0.0
 20
0.0
 30
0.0
  0
VERTEX
  5
C8
330
C7
100
AcDbEntity
  8
_U+30EC_U+30A4_U+30E4_U+30FC 1
 62
   179
420
  2234388
370
     9
100
AcDbVertex
100
AcDb2dVertex
 10
88.54136385223273
 20
-140.8203516314619
 30
0.0
  0
VERTEX
  5
C9
330
C7
100
AcDbEntity
  8
_U+30EC_U+30A4_U+30E4_U+30FC 1
 62
   179
420
  2234388
370
     9
100
AcDbVertex
100
AcDb2dVertex
 10
88.54136385223273
 20
-143.2808355197355
 30
0.0
  0
SEQEND
  5
CA
330
C7
100
AcDbEntity
  8
_U+30EC_U+30A4_U+30E4_U+30FC 1
 62
   179
420
  2234388
370
     9
  0
INSERT
  5
CC
330
1F
100
AcDbEntity
  8
_U+30EC_U+30A4_U+30E4_U+30FC 1
100
AcDbBlockReference
  2
block 5
 10
0.0
 20
0.0
 30
0.0
  0
POLYLINE
  5
D1
330
1F
100
AcDbEntity
  8
_U+30EC_U+30A4_U+30E4_U+30FC 1
 62
   179
420
  2234388
370
     9
100
AcDb2dPolyline
 66
     1
 10
0.0
 20
0.0
 30
0.0
  0
VERTEX
  5
D2
330
D1
100
AcDbEntity
  8
_U+30EC_U+30A4_U+30E4_U+30FC 1
 62
   179
420
  2234388
370
     9
100
AcDbVertex
100
AcDb2dVertex
 10
73.54142951269071
 20
-117.280513581791
 30
0.0
  0
VERTEX
  5
D3
330
D1
100
AcDbEntity
  8
_U+30EC_U+30A4_U+30E4_U+30FC 1
 62
   179
420
  2234388
370
     9
100
AcDbVertex
100
AcDb2dVertex
 10
103.5412981917747
 20
-117.280513581791
 30
0.0
  0
SEQEND
  5
D4
330
D1
100
AcDbEntity
  8
_U+30EC_U+30A4_U+30E4_U+30FC 1
 62
   179
420
  2234388
370
     9
  0
POLYLINE
  5
D5
330
1F
100
AcDbEntity
  8
_U+30EC_U+30A4_U+30E4_U+30FC 1
 62
   179
420
  2234388
370
     9
100
AcDb2dPolyline
 66
     1
 10
0.0
 20
0.0
 30
0.0
  0
VERTEX
  5
D6
330
D5
100
AcDbEntity
  8
_U+30EC_U+30A4_U+30E4_U+30FC 1
 62
   179
420
  2234388
370
     9
100
AcDbVertex
100
AcDb2dVertex
 10
73.54142951269071
 20
-118.740554970315
 30
0.0
  0
VERTEX
  5
D7
330
D5
100
AcDbEntity
  8
_U+30EC_U+30A4_U+30E4_U+30FC 1
 62
   179
420
  2234388
370
     9
100
AcDbVertex
100
AcDb2dVertex
 10
73.54142951269071
 20
-116.2807413598187
 30
0.0
  0
SEQEND
  5
D8
330
D5
100
AcDbEntity
  8
_U+30EC_U+30A4_U+30E4_U+30FC 1
 62
   179
420
  2234388
370
     9
  0
POLYLINE
  5
D9
330
1F
100
AcDbEntity
  8
_U+30EC_U+30A4_U+30E4_U+30FC 1
 62
   179
420
  2234388
370
     9
100
AcDb2dPolyline
 66
     1
 10
0.0
 20
0.0
 30
0.0
  0
VERTEX
  5
DA
330
D9
100
AcDbEntity
  8
_U+30EC_U+30A4_U+30E4_U+30FC 1
 62
   179
420
  2234388
370
     9
100
AcDbVertex
100
AcDb2dVertex
 10
103.5412981917747
 20
-118.740554970315
 30
0.0
  0
VERTEX
  5
DB
330
D9
100
AcDbEntity
  8
_U+30EC_U+30A4_U+30E4_U+30FC 1
 62
   179
420
  2234388
370
     9
100
AcDbVertex
100
AcDb2dVertex
 10
103.5412981917747
 20
-116.2807413598187
 30
0.0
  0
SEQEND
  5
DC
330
D9
100
AcDbEntity
  8
_U+30EC_U+30A4_U+30E4_U+30FC 1
 62
   179
420
  2234388
370
     9
  0
INSERT
  5
DE
330
1F
100
AcDbEntity
  8
_U+30EC_U+30A4_U+30E4_U+30FC 1
100
AcDbBlockReference
  2
block 6
 10
0.0
 20
0.0
 30
0.0
  0
POLYLINE
  5
E6
330
1F
100
AcDbEntity
  8
_U+30EC_U+30A4_U+30E4_U+30FC 1
 62
   179
420
  2234388
370
     9
100
AcDb2dPolyline
 66
     1
 10
0.0
 20
0.0
 30
0.0
  0
VERTEX
  5
E7
330
E6
100
AcDbEntity
  8
_U+30EC_U+30A4_U+30E4_U+30FC 1
 62
   179
420
  2234388
370
     9
100
AcDbVertex
100
AcDb2dVertex
 10
107.5417628119366
 20
-135.2806469106244
 30
0.0
  0
VERTEX
  5
E8
330
E6
100
AcDbEntity
  8
_U+30EC_U+30A4_U+30E4_U+30FC 1
 62
   179
420
  2234388
370
     9
100
AcDbVertex
100
AcDb2dVertex
 10
107.5417628119366
 20
-122.2803977472078
 30
0.0
  0
SEQEND
  5
E9
330
E6
100
AcDbEntity
  8
_U+30EC_U+30A4_U+30E4_U+30FC 1
 62
   179
420
  2234388
370
     9
  0
POLYLINE
  5
EA
330
1F
100
AcDbEntity
  8
_U+30EC_U+30A4_U+30E4_U+30FC 1
 62
   179
420
  2234388
370
     9
100
AcDb2dPolyline
 66
     1
 10
0.0
 20
0.0
 30
0.0
  0
VERTEX
  5
EB
330
EA
100
AcDbEntity
  8
_U+30EC_U+30A4_U+30E4_U+30FC 1
 62
   179
420
  2234388
370
     9
100
AcDbVertex
100
AcDb2dVertex
 10
91.08178712075447
 20
-135.2806469106244
 30
0.0
  0
VERTEX
  5
EC
330
EA
100
AcDbEntity
  8
_U+30EC_U+30A4_U+30E4_U+30FC 1
 62
   179
420
  2234388
370
     9
100
AcDbVertex
100
AcDb2dVertex
 10
108.5415350086525
 20
-135.2806469106244
 30
0.0
  0
SEQEND
  5
ED
330
EA
100
AcDbEntity
  8
_U+30EC_U+30A4_U+30E4_U+30FC 1
 62
   179
420
  2234388
370
     9
  0
POLYLINE
  5
EE
330
1F
100
AcDbEntity
  8
_U+30EC_U+30A4_U+30E4_U+30FC 1
 62
   179
420
  2234388
370
     9
100
AcDb2dPolyline
 66
     1
 10
0.0
 20
0.0
 30
0.0
  0
VERTEX
  5
EF
330
EE
100
AcDbEntity
  8
_U+30EC_U+30A4_U+30E4_U+30FC 1
 62
   179
420
  2234388
370
     9
100
AcDbVertex
100
AcDb2dVertex
 10
106.0817214602965
 20
-122.2803977472078
 30
0.0
  0
VERTEX
  5
F0
330
EE
100
AcDbEntity
  8
_U+30EC_U+30A4_U+30E4_U+30FC 1
 62
   179
420
  2234388
370
     9
100
AcDbVertex
100
AcDb2dVertex
 10
108.5415350086525
 20
-122.2803977472078
 30
0.0
  0
SEQEND
  5
F1
330
EE
100
AcDbEntity
  8
_U+30EC_U+30A4_U+30E4_U+30FC 1
 62
   179
420
  2234388
370
     9
  0
INSERT
  5
F3
330
1F
100
AcDbEntity
  8
_U+30EC_U+30A4_U+30E4_U+30FC 1
100
AcDbBlockReference
  2
block 7
 10
0.0
 20
0.0
 30
0.0
  0
ENDSEC
  0
SECTION
  2
OBJECTS
  0
DICTIONARY
  5
C
330
0
100
AcDbDictionary
281
     1
  3
ACAD_GROUP
350
D
  3
ACAD_LAYOUT
350
1A
  3
ACAD_MATERIAL
350
3B
  3
ACAD_MLEADERSTYLE
350
FB
  3
ACAD_MLINESTYLE
350
17
  3
ACAD_PLOTSETTINGS
350
19
  3
ACAD_PLOTSTYLENAME
350
E
  3
ACAD_TABLESTYLE
350
FA
  3
ACAD_VISUALSTYLE
350
2A
  0
SUN
  5
3F
330
29
100
AcDbSun
 90
        1
290
     0
 63
     7
421
 16777215
 40
1.0
291
     1
 91
  2455826
 92
 54000000
292
     0
 70
     2
 71
   256
280
     1
  0
DICTIONARY
  5
D
102
{ACAD_REACTORS
330
C
102
}
330
C
100
AcDbDictionary
281
     1
  0
DICTIONARY
  5
1A
102
{ACAD_REACTORS
330
C
102
}
330
C
100
AcDbDictionary
281
     1
  3
Layout1
350
1E
  3
Layout2
350
26
  3
Model
350
22
  0
DICTIONARY
  5
3B
102
{ACAD_REACTORS
330
C
102
}
330
C
100
AcDbDictionary
281
     1
  3
ByBlock
350
3D
  3
ByLayer
350
3C
  3
Global
350
3E
  0
DICTIONARY
  5
FB
102
{ACAD_REACTORS
330
C
102
}
330
C
100
AcDbDictionary
281
     1
  0
DICTIONARY
  5
17
102
{ACAD_REACTORS
330
C
102
}
330
C
100
AcDbDictionary
281
     1
  3
Standard
350
18
  0
DICTIONARY
  5
19
102
{ACAD_REACTORS
330
C
102
}
330
C
100
AcDbDictionary
281
     1
  0
ACDBDICTIONARYWDFLT
  5
E
102
{ACAD_REACTORS
330
C
102
}
330
C
100
AcDbDictionary
281
     1
  3
Normal
350
F
100
AcDbDictionaryWithDefault
340
F
  0
DICTIONARY
  5
FA
102
{ACAD_REACTORS
330
C
102
}
330
C
100
AcDbDictionary
281
     1
  0
DICTIONARY
  5
2A
102
{ACAD_REACTORS
330
C
102
}
330
C
100
AcDbDictionary
281
     1
  3
2dWireframe
350
2F
  3
3D Hidden
350
31
  3
3dWireframe
350
30
  3
Basic
350
32
  3
Brighten
350
36
  3
ColorChange
350
3A
  3
Conceptual
350
34
  3
Dim
350
35
  3
Facepattern
350
39
  3
Flat
350
2B
  3
FlatWithEdges
350
2C
  3
Gouraud
350
2D
  3
GouraudWithEdges
350
2E
  3
Linepattern
350
38
  3
Realistic
350
33
  3
Thicken
350
37
  0
LAYOUT
  5
1E
102
{ACAD_REACTORS
330
1A
102
}
330
1A
100
AcDbPlotSettings
  1

  2
none_device
  4

  6

 40
0.0
 41
0.0
 42
0.0
 43
0.0
 44
0.0
 45
0.0
 46
0.0
 47
0.0
 48
0.0
 49
0.0
140
0.0
141
0.0
142
1.0
143
1.0
 70
   688
 72
     0
 73
     0
 74
     5
  7

 75
    16
 76
     0
 77
     2
 78
   300
147
1.0
148
0.0
149
0.0
100
AcDbLayout
  1
Layout1
 70
     1
 71
     1
 10
0.0
 20
0.0
 11
12.0
 21
9.0
 12
0.0
 22
0.0
 32
0.0
 14
1.000000000000000E+20
 24
1.000000000000000E+20
 34
1.000000000000000E+20
 15
-1.000000000000000E+20
 25
-1.000000000000000E+20
 35
-1.000000000000000E+20
146
0.0
 13
0.0
 23
0.0
 33
0.0
 16
1.0
 26
0.0
 36
0.0
 17
0.0
 27
1.0
 37
0.0
 76
     0
330
1B
  0
LAYOUT
  5
26
102
{ACAD_REACTORS
330
1A
102
}
330
1A
100
AcDbPlotSettings
  1

  2
none_device
  4

  6

 40
0.0
 41
0.0
 42
0.0
 43
0.0
 44
0.0
 45
0.0
 46
0.0
 47
0.0
 48
0.0
 49
0.0
140
0.0
141
0.0
142
1.0
143
1.0
 70
   688
 72
     0
 73
     0
 74
     5
  7

 75
    16
 76
     0
 77
     2
 78
   300
147
1.0
148
0.0
149
0.0
100
AcDbLayout
  1
Layout2
 70
     1
 71
     2
 10
0.0
 20
0.0
 11
0.0
 21
0.0
 12
0.0
 22
0.0
 32
0.0
 14
0.0
 24
0.0
 34
0.0
 15
0.0
 25
0.0
 35
0.0
146
0.0
 13
0.0
 23
0.0
 33
0.0
 16
1.0
 26
0.0
 36
0.0
 17
0.0
 27
1.0
 37
0.0
 76
     0
330
23
  0
LAYOUT
  5
22
102
{ACAD_REACTORS
330
1A
102
}
330
1A
100
AcDbPlotSettings
  1

  2
none_device
  4

  6

 40
0.0
 41
0.0
 42
0.0
 43
0.0
 44
0.0
 45
0.0
 46
0.0
 47
0.0
 48
0.0
 49
0.0
140
0.0
141
0.0
142
1.0
143
1.0
 70
  1712
 72
     0
 73
     0
 74
     0
  7

 75
     0
 76
     0
 77
     2
 78
   300
147
1.0
148
0.0
149
0.0
100
AcDbLayout
  1
Model
 70
     1
 71
     0
 10
0.0
 20
0.0
 11
12.0
 21
9.0
 12
0.0
 22
0.0
 32
0.0
 14
1.000000000000000E+20
 24
1.000000000000000E+20
 34
1.000000000000000E+20
 15
-1.000000000000000E+20
 25
-1.000000000000000E+20
 35
-1.000000000000000E+20
146
0.0
 13
0.0
 23
0.0
 33
0.0
 16
1.0
 26
0.0
 36
0.0
 17
0.0
 27
1.0
 37
0.0
 76
     0
330
1F
331
29
  0
MATERIAL
  5
3D
102
{ACAD_REACTORS
330
3B
102
}
330
3B
100
AcDbMaterial
  1
ByBlock
 72
     1
 94
      127
  0
MATERIAL
  5
3C
102
{ACAD_REACTORS
330
3B
102
}
330
3B
100
AcDbMaterial
  1
ByLayer
 72
     1
 94
      127
  0
MATERIAL
  5
3E
102
{ACAD_REACTORS
330
3B
102
}
330
3B
100
AcDbMaterial
  1
Global
 72
     1
 94
      127
  0
MLINESTYLE
  5
18
102
{ACAD_REACTORS
330
17
102
}
330
17
100
AcDbMlineStyle
  2
Standard
 70
     0
  3

 62
   256
 51
90.0
 52
90.0
 71
     2
 49
0.5
 62
   256
  6
BYLAYER
 49
-0.5
 62
   256
  6
BYLAYER
  0
ACDBPLACEHOLDER
  5
F
102
{ACAD_REACTORS
330
E
102
}
330
E
  0
VISUALSTYLE
  5
2F
102
{ACAD_REACTORS
330
2A
102
}
330
2A
100
AcDbVisualStyle
  2
2dWireframe
 70
     4
177
     2
291
     0
 71
     0
176
     1
 72
     2
176
     1
 73
     0
176
     1
 90
        0
176
     1
 40
-0.6
176
     1
 41
-30.0
176
     1
 62
     5
 63
     7
421
 16777215
176
     1
 74
     1
176
     1
 91
        4
176
     1
 64
     7
176
     1
 65
   257
176
     1
 75
     1
176
     1
175
     1
176
     1
 42
1.0
176
     1
 92
        0
176
     1
 66
   257
176
     1
 43
1.0
176
     1
 76
     1
176
     1
 77
     6
176
     1
 78
     2
176
     1
 67
     7
176
     1
 79
     5
176
     1
170
     0
176
     1
171
     0
176
     1
290
     0
176
     1
 93
        1
176
     1
 44
0.0
176
     1
173
     0
176
     1
  0
VISUALSTYLE
  5
31
102
{ACAD_REACTORS
330
2A
102
}
330
2A
100
AcDbVisualStyle
  2
3D Hidden
 70
     6
177
     2
291
     0
 71
     1
176
     1
 72
     2
176
     1
 73
     2
176
     1
 90
        0
176
     1
 40
-0.6
176
     1
 41
-30.0
176
     1
 62
     5
 63
     7
421
 16777215
176
     1
 74
     2
176
     1
 91
        2
176
     1
 64
     7
176
     1
 65
   257
176
     1
 75
     2
176
     1
175
     1
176
     1
 42
40.0
176
     1
 92
        0
176
     1
 66
   257
176
     1
 43
1.0
176
     1
 76
     1
176
     1
 77
     6
176
     1
 78
     2
176
     1
 67
     7
176
     1
 79
     3
176
     1
170
     0
176
     1
171
     0
176
     1
290
     0
176
     1
 93
        1
176
     1
 44
0.0
176
     1
173
     0
176
     1
  0
VISUALSTYLE
  5
30
102
{ACAD_REACTORS
330
2A
102
}
330
2A
100
AcDbVisualStyle
  2
3dWireframe
 70
     5
177
     2
291
     0
 71
     0
176
     1
 72
     2
176
     1
 73
     0
176
     1
 90
        0
176
     1
 40
-0.6
176
     1
 41
-30.0
176
     1
 62
     5
 63
     7
421
 16777215
176
     1
 74
     1
176
     1
 91
        4
176
     1
 64
     7
176
     1
 65
   257
176
     1
 75
     1
176
     1
175
     1
176
     1
 42
1.0
176
     1
 92
        0
176
     1
 66
   257
176
     1
 43
1.0
176
     1
 76
     1
176
     1
 77
     6
176
     1
 78
     2
176
     1
 67
     7
176
     1
 79
     5
176
     1
170
     0
176
     1
171
     0
176
     1
290
     0
176
     1
 93
        1
176
     1
 44
0.0
176
     1
173
     0
176
     1
  0
VISUALSTYLE
  5
32
102
{ACAD_REACTORS
330
2A
102
}
330
2A
100
AcDbVisualStyle
  2
Basic
 70
     7
177
     2
291
     1
 71
     1
176
     1
 72
     0
176
     1
 73
     1
176
     1
 90
        0
176
     1
 40
-0.6
176
     1
 41
-30.0
176
     1
 62
     5
 63
     7
421
 16777215
176
     1
 74
     0
176
     1
 91
        4
176
     1
 64
     7
176
     1
 65
   257
176
     1
 75
     1
176
     1
175
     1
176
     1
 42
1.0
176
     1
 92
        8
176
     1
 66
     7
176
     1
 43
1.0
176
     1
 76
     1
176
     1
 77
     6
176
     1
 78
     2
176
     1
 67
     7
176
     1
 79
     5
176
     1
170
     0
176
     1
171
     0
176
     1
290
     0
176
     1
 93
        1
176
     1
 44
0.0
176
     1
173
     0
176
     1
  0
VISUALSTYLE
  5
36
102
{ACAD_REACTORS
330
2A
102
}
330
2A
100
AcDbVisualStyle
  2
Brighten
 70
    12
177
     2
291
     1
 71
     2
176
     1
 72
     2
176
     1
 73
     0
176
     1
 90
        0
176
     1
 40
-0.6
176
     1
 41
-30.0
176
     1
 62
     5
 63
     7
421
 16777215
176
     1
 74
     1
176
     1
 91
        4
176
     1
 64
     7
176
     1
 65
   257
176
     1
 75
     1
176
     1
175
     1
176
     1
 42
1.0
176
     1
 92
        8
176
     1
 66
     7
176
     1
 43
1.0
176
     1
 76
     1
176
     1
 77
     6
176
     1
 78
     2
176
     1
 67
     7
176
     1
 79
     5
176
     1
170
     0
176
     1
171
     0
176
     1
290
     0
176
     1
 93
        1
176
     1
 44
50.0
176
     1
173
     0
176
     1
  0
VISUALSTYLE
  5
3A
102
{ACAD_REACTORS
330
2A
102
}
330
2A
100
AcDbVisualStyle
  2
ColorChange
 70
    16
177
     2
291
     1
 71
     2
176
     1
 72
     2
176
     1
 73
     3
176
     1
 90
        0
176
     1
 40
-0.6
176
     1
 41
-30.0
176
     1
 62
     5
 63
     8
421
  8421504
176
     1
 74
     1
176
     1
 91
        4
176
     1
 64
     7
176
     1
 65
   257
176
     1
 75
     1
176
     1
175
     1
176
     1
 42
1.0
176
     1
 92
        8
176
     1
 66
     8
424
  8421504
176
     1
 43
1.0
176
     1
 76
     1
176
     1
 77
     6
176
     1
 78
     2
176
     1
 67
     7
176
     1
 79
     5
176
     1
170
     0
176
     1
171
     0
176
     1
290
     0
176
     1
 93
        1
176
     1
 44
0.0
176
     1
173
     0
176
     1
  0
VISUALSTYLE
  5
34
102
{ACAD_REACTORS
330
2A
102
}
330
2A
100
AcDbVisualStyle
  2
Conceptual
 70
     9
177
     2
291
     0
 71
     3
176
     1
 72
     2
176
     1
 73
     0
176
     1
 90
        0
176
     1
 40
-0.6
176
     1
 41
-30.0
176
     1
 62
     5
 63
     7
421
 16777215
176
     1
 74
     2
176
     1
 91
        2
176
     1
 64
     7
176
     1
 65
   257
176
     1
 75
     1
176
     1
175
     1
176
     1
 42
40.0
176
     1
 92
        8
176
     1
 66
     7
176
     1
 43
1.0
176
     1
 76
     1
176
     1
 77
     6
176
     1
 78
     2
176
     1
 67
     7
176
     1
 79
     3
176
     1
170
     0
176
     1
171
     0
176
     1
290
     0
176
     1
 93
        1
176
     1
 44
0.0
176
     1
173
     0
176
     1
  0
VISUALSTYLE
  5
35
102
{ACAD_REACTORS
330
2A
102
}
330
2A
100
AcDbVisualStyle
  2
Dim
 70
    11
177
     2
291
     1
 71
     2
176
     1
 72
     2
176
     1
 73
     0
176
     1
 90
        0
176
     1
 40
-0.6
176
     1
 41
-30.0
176
     1
 62
     5
 63
     7
421
 16777215
176
     1
 74
     1
176
     1
 91
        4
176
     1
 64
     7
176
     1
 65
   257
176
     1
 75
     1
176
     1
175
     1
176
     1
 42
1.0
176
     1
 92
        8
176
     1
 66
     7
176
     1
 43
1.0
176
     1
 76
     1
176
     1
 77
     6
176
     1
 78
     2
176
     1
 67
     7
176
     1
 79
     5
176
     1
170
     0
176
     1
171
     0
176
     1
290
     0
176
     1
 93
        1
176
     1
 44
-50.0
176
     1
173
     0
176
     1
  0
VISUALSTYLE
  5
39
102
{ACAD_REACTORS
330
2A
102
}
330
2A
100
AcDbVisualStyle
  2
Facepattern
 70
    15
177
     2
291
     1
 71
     2
176
     1
 72
     2
176
     1
 73
     0
176
     1
 90
        0
176
     1
 40
-0.6
176
     1
 41
-30.0
176
     1
 62
     5
 63
     7
421
 16777215
176
     1
 74
     1
176
     1
 91
        4
176
     1
 64
     7
176
     1
 65
   257
176
     1
 75
     1
176
     1
175
     1
176
     1
 42
1.0
176
     1
 92
        8
176
     1
 66
     7
176
     1
 43
1.0
176
     1
 76
     1
176
     1
 77
     6
176
     1
 78
     2
176
     1
 67
     7
176
     1
 79
     5
176
     1
170
     0
176
     1
171
     0
176
     1
290
     0
176
     1
 93
        1
176
     1
 44
0.0
176
     1
173
     0
176
     1
  0
VISUALSTYLE
  5
2B
102
{ACAD_REACTORS
330
2A
102
}
330
2A
100
AcDbVisualStyle
  2
Flat
 70
     0
177
     2
291
     1
 71
     2
176
     1
 72
     1
176
     1
 73
     1
176
     1
 90
        2
176
     1
 40
-0.6
176
     1
 41
30.0
176
     1
 62
     5
 63
     7
421
 16777215
176
     1
 74
     0
176
     1
 91
        4
176
     1
 64
     7
176
     1
 65
   257
176
     1
 75
     1
176
     1
175
     1
176
     1
 42
1.0
176
     1
 92
        8
176
     1
 66
     7
176
     1
 43
1.0
176
     1
 76
     1
176
     1
 77
     6
176
     1
 78
     2
176
     1
 67
     7
176
     1
 79
     5
176
     1
170
     0
176
     1
171
     0
176
     1
290
     0
176
     1
 93
       13
176
     1
 44
0.0
176
     1
173
     0
176
     1
  0
VISUALSTYLE
  5
2C
102
{ACAD_REACTORS
330
2A
102
}
330
2A
100
AcDbVisualStyle
  2
FlatWithEdges
 70
     1
177
     2
291
     1
 71
     2
176
     1
 72
     1
176
     1
 73
     1
176
     1
 90
        2
176
     1
 40
-0.6
176
     1
 41
30.0
176
     1
 62
     5
 63
     7
421
 16777215
176
     1
 74
     1
176
     1
 91
        4
176
     1
 64
     7
176
     1
 65
   257
176
     1
 75
     1
176
     1
175
     1
176
     1
 42
1.0
176
     1
 92
        0
176
     1
 66
   257
176
     1
 43
1.0
176
     1
 76
     1
176
     1
 77
     6
176
     1
 78
     2
176
     1
 67
     7
176
     1
 79
     5
176
     1
170
     0
176
     1
171
     0
176
     1
290
     0
176
     1
 93
       13
176
     1
 44
0.0
176
     1
173
     0
176
     1
  0
VISUALSTYLE
  5
2D
102
{ACAD_REACTORS
330
2A
102
}
330
2A
100
AcDbVisualStyle
  2
Gouraud
 70
     2
177
     2
291
     1
 71
     2
176
     1
 72
     2
176
     1
 73
     1
176
     1
 90
        2
176
     1
 40
-0.6
176
     1
 41
30.0
176
     1
 62
     5
 63
     7
421
 16777215
176
     1
 74
     0
176
     1
 91
        4
176
     1
 64
     7
176
     1
 65
   257
176
     1
 75
     1
176
     1
175
     1
176
     1
 42
1.0
176
     1
 92
        0
176
     1
 66
     7
176
     1
 43
1.0
176
     1
 76
     1
176
     1
 77
     6
176
     1
 78
     2
176
     1
 67
     7
176
     1
 79
     5
176
     1
170
     0
176
     1
171
     0
176
     1
290
     0
176
     1
 93
       13
176
     1
 44
0.0
176
     1
173
     0
176
     1
  0
VISUALSTYLE
  5
2E
102
{ACAD_REACTORS
330
2A
102
}
330
2A
100
AcDbVisualStyle
  2
GouraudWithEdges
 70
     3
177
     2
291
     1
 71
     2
176
     1
 72
     2
176
     1
 73
     1
176
     1
 90
        2
176
     1
 40
-0.6
176
     1
 41
30.0
176
     1
 62
     5
 63
     7
421
 16777215
176
     1
 74
     1
176
     1
 91
        4
176
     1
 64
     7
176
     1
 65
   257
176
     1
 75
     1
176
     1
175
     1
176
     1
 42
1.0
176
     1
 92
        0
176
     1
 66
   257
176
     1
 43
1.0
176
     1
 76
     1
176
     1
 77
     6
176
     1
 78
     2
176
     1
 67
     7
176
     1
 79
     5
176
     1
170
     0
176
     1
171
     0
176
     1
290
     0
176
     1
 93
       13
176
     1
 44
0.0
176
     1
173
     0
176
     1
  0
VISUALSTYLE
  5
38
102
{ACAD_REACTORS
330
2A
102
}
330
2A
100
AcDbVisualStyle
  2
Linepattern
 70
    14
177
     2
291
     1
 71
     2
176
     1
 72
     2
176
     1
 73
     0
176
     1
 90
        0
176
     1
 40
-0.6
176
     1
 41
-30.0
176
     1
 62
     5
 63
     7
421
 16777215
176
     1
 74
     1
176
     1
 91
        4
176
     1
 64
     7
176
     1
 65
   257
176
     1
 75
     7
176
     1
175
     7
176
     1
 42
1.0
176
     1
 92
        8
176
     1
 66
     7
176
     1
 43
1.0
176
     1
 76
     1
176
     1
 77
     6
176
     1
 78
     2
176
     1
 67
     7
176
     1
 79
     5
176
     1
170
     0
176
     1
171
     0
176
     1
290
     0
176
     1
 93
        1
176
     1
 44
0.0
176
     1
173
     0
176
     1
  0
VISUALSTYLE
  5
33
102
{ACAD_REACTORS
330
2A
102
}
330
2A
100
AcDbVisualStyle
  2
Realistic
 70
     8
177
     2
291
     0
 71
     2
176
     1
 72
     2
176
     1
 73
     0
176
     1
 90
        0
176
     1
 40
-0.6
176
     1
 41
-30.0
176
     1
 62
     5
 63
     7
421
 16777215
176
     1
 74
     1
176
     1
 91
        0
176
     1
 64
     7
176
     1
 65
   257
176
     1
 75
     1
176
     1
175
     1
176
     1
 42
1.0
176
     1
 92
        8
176
     1
 66
     8
424
  7895160
176
     1
 43
1.0
176
     1
 76
     1
176
     1
 77
     6
176
     1
 78
     2
176
     1
 67
     7
176
     1
 79
     5
176
     1
170
     0
176
     1
171
     0
176
     1
290
     0
176
     1
 93
       13
176
     1
 44
0.0
176
     1
173
     0
176
     1
  0
VISUALSTYLE
  5
37
102
{ACAD_REACTORS
330
2A
102
}
330
2A
100
AcDbVisualStyle
  2
Thicken
 70
    13
177
     2
291
     1
 71
     2
176
     1
 72
     2
176
     1
 73
     0
176
     1
 90
        0
176
     1
 40
-0.6
176
     1
 41
-30.0
176
     1
 62
     5
 63
     7
421
 16777215
176
     1
 74
     1
176
     1
 91
        4
176
     1
 64
     7
176
     1
 65
   257
176
     1
 75
     1
176
     1
175
     1
176
     1
 42
1.0
176
     1
 92
       12
176
     1
 66
     7
176
     1
 43
1.0
176
     1
 76
     1
176
     1
 77
     6
176
     1
 78
     2
176
     1
 67
     7
176
     1
 79
     5
176
     1
170
     0
176
     1
171
     0
176
     1
290
     0
176
     1
 93
        1
176
     1
 44
0.0
176
     1
173
     0
176
     1
  0
ENDSEC
  0
EOF
