  0
SECTION
  2
HEADER
  9
$ACADVER
  1
AC1024
  9
$ACADMAINTVER
 70
     6
  9
$DWGCODEPAGE
  3
UNDEFINED
  9
$INSBASE
 10
0.0
 20
0.0
 30
0.0
  9
$EXTMIN
 10
1.000000000000000E+20
 20
1.000000000000000E+20
 30
1.000000000000000E+20
  9
$EXTMAX
 10
-1.000000000000000E+20
 20
-1.000000000000000E+20
 30
-1.000000000000000E+20
  9
$LIMMIN
 10
0.0
 20
0.0
  9
$LIMMAX
 10
12.0
 20
9.0
  9
$ORTHOMODE
 70
     0
  9
$REGENMODE
 70
     1
  9
$FILLMODE
 70
     1
  9
$QTEXTMODE
 70
     0
  9
$MIRRTEXT
 70
     1
  9
$LTSCALE
 40
1.0
  9
$ATTMODE
 70
     1
  9
$TEXTSIZE
 40
0.2
  9
$TRACEWID
 40
0.05
  9
$TEXTSTYLE
  7
Standard
  9
$CLAYER
  8
0
  9
$CELTYPE
  6
ByLayer
  9
$CECOLOR
 62
   256
  9
$CELTSCALE
 40
1.0
  9
$DISPSILH
 70
     0
  9
$DIMSCALE
 40
1.0
  9
$DIMASZ
 40
0.18
  9
$DIMEXO
 40
0.0625
  9
$DIMDLI
 40
0.38
  9
$DIMRND
 40
0.0
  9
$DIMDLE
 40
0.0
  9
$DIMEXE
 40
0.18
  9
$DIMTP
 40
0.0
  9
$DIMTM
 40
0.0
  9
$DIMTXT
 40
0.18
  9
$DIMCEN
 40
0.09
  9
$DIMTSZ
 40
0.0
  9
$DIMTOL
 70
     0
  9
$DIMLIM
 70
     0
  9
$DIMTIH
 70
     1
  9
$DIMTOH
 70
     1
  9
$DIMSE1
 70
     0
  9
$DIMSE2
 70
     0
  9
$DIMTAD
 70
     0
  9
$DIMZIN
 70
     0
  9
$DIMBLK
  1

  9
$DIMASO
 70
     1
  9
$DIMSHO
 70
     1
  9
$DIMPOST
  1

  9
$DIMAPOST
  1

  9
$DIMALT
 70
     0
  9
$DIMALTD
 70
     2
  9
$DIMALTF
 40
25.4
  9
$DIMLFAC
 40
1.0
  9
$DIMTOFL
 70
     0
  9
$DIMTVP
 40
0.0
  9
$DIMTIX
 70
     0
  9
$DIMSOXD
 70
     0
  9
$DIMSAH
 70
     0
  9
$DIMBLK1
  1

  9
$DIMBLK2
  1

  9
$DIMSTYLE
  2
Standard
  9
$DIMCLRD
 70
     0
  9
$DIMCLRE
 70
     0
  9
$DIMCLRT
 70
     0
  9
$DIMTFAC
 40
1.0
  9
$DIMGAP
 40
0.09
  9
$DIMJUST
 70
     0
  9
$DIMSD1
 70
     0
  9
$DIMSD2
 70
     0
  9
$DIMTOLJ
 70
     1
  9
$DIMTZIN
 70
     0
  9
$DIMALTZ
 70
     0
  9
$DIMALTTZ
 70
     0
  9
$DIMUPT
 70
     0
  9
$DIMDEC
 70
     4
  9
$DIMTDEC
 70
     4
  9
$DIMALTU
 70
     2
  9
$DIMALTTD
 70
     2
  9
$DIMTXSTY
  7
Standard
  9
$DIMAUNIT
 70
     0
  9
$DIMADEC
 70
     0
  9
$DIMALTRND
 40
0.0
  9
$DIMAZIN
 70
     0
  9
$DIMDSEP
 70
    46
  9
$DIMATFIT
 70
     3
  9
$DIMFRAC
 70
     0
  9
$DIMLDRBLK
  1

  9
$DIMLUNIT
 70
     2
  9
$DIMLWD
 70
    -2
  9
$DIMLWE
 70
    -2
  9
$DIMTMOVE
 70
     0
  9
$DIMFXL
 40
1.0
  9
$DIMFXLON
 70
     0
  9
$DIMJOGANG
 40
0.7853981633974483
  9
$DIMTFILL
 70
     0
  9
$DIMTFILLCLR
 70
     0
  9
$DIMARCSYM
 70
     0
  9
$DIMLTYPE
  6

  9
$DIMLTEX1
  6

  9
$DIMLTEX2
  6

  9
$DIMTXTDIRECTION
 70
     0
  9
$LUNITS
 70
     2
  9
$LUPREC
 70
     4
  9
$SKETCHINC
 40
0.1
  9
$FILLETRAD
 40
0.5
  9
$AUNITS
 70
     0
  9
$AUPREC
 70
     0
  9
$MENU
  1
.
  9
$ELEVATION
 40
0.0
  9
$PELEVATION
 40
0.0
  9
$THICKNESS
 40
0.0
  9
$LIMCHECK
 70
     0
  9
$CHAMFERA
 40
0.5
  9
$CHAMFERB
 40
0.5
  9
$CHAMFERC
 40
1.0
  9
$CHAMFERD
 40
0.0
  9
$SKPOLY
 70
     0
  9
$TDCREATE
 40
2457917.613009247
  9
$TDUCREATE
 40
2457917.238009259
  9
$TDUPDATE
 40
2457917.613009247
  9
$TDUUPDATE
 40
2457917.238009259
  9
$TDINDWG
 40
0.0000000116
  9
$TDUSRTIMER
 40
0.0000000116
  9
$USRTIMER
 70
     1
  9
$ANGBASE
 50
0.0
  9
$ANGDIR
 70
     0
  9
$PDMODE
 70
     0
  9
$PDSIZE
 40
0.0
  9
$PLINEWID
 40
0.0
  9
$SPLFRAME
 70
     0
  9
$SPLINETYPE
 70
     6
  9
$SPLINESEGS
 70
     8
  9
$HANDSEED
  5
F6
  9
$SURFTAB1
 70
     6
  9
$SURFTAB2
 70
     6
  9
$SURFTYPE
 70
     6
  9
$SURFU
 70
     6
  9
$SURFV
 70
     6
  9
$UCSBASE
  2

  9
$UCSNAME
  2

  9
$UCSORG
 10
0.0
 20
0.0
 30
0.0
  9
$UCSXDIR
 10
1.0
 20
0.0
 30
0.0
  9
$UCSYDIR
 10
0.0
 20
1.0
 30
0.0
  9
$UCSORTHOREF
  2

  9
$UCSORTHOVIEW
 70
     0
  9
$UCSORGTOP
 10
0.0
 20
0.0
 30
0.0
  9
$UCSORGBOTTOM
 10
0.0
 20
0.0
 30
0.0
  9
$UCSORGLEFT
 10
0.0
 20
0.0
 30
0.0
  9
$UCSORGRIGHT
 10
0.0
 20
0.0
 30
0.0
  9
$UCSORGFRONT
 10
0.0
 20
0.0
 30
0.0
  9
$UCSORGBACK
 10
0.0
 20
0.0
 30
0.0
  9
$PUCSBASE
  2

  9
$PUCSNAME
  2

  9
$PUCSORG
 10
0.0
 20
0.0
 30
0.0
  9
$PUCSXDIR
 10
1.0
 20
0.0
 30
0.0
  9
$PUCSYDIR
 10
0.0
 20
1.0
 30
0.0
  9
$PUCSORTHOREF
  2

  9
$PUCSORTHOVIEW
 70
     0
  9
$PUCSORGTOP
 10
0.0
 20
0.0
 30
0.0
  9
$PUCSORGBOTTOM
 10
0.0
 20
0.0
 30
0.0
  9
$PUCSORGLEFT
 10
0.0
 20
0.0
 30
0.0
  9
$PUCSORGRIGHT
 10
0.0
 20
0.0
 30
0.0
  9
$PUCSORGFRONT
 10
0.0
 20
0.0
 30
0.0
  9
$PUCSORGBACK
 10
0.0
 20
0.0
 30
0.0
  9
$USERI1
 70
     0
  9
$USERI2
 70
     0
  9
$USERI3
 70
     0
  9
$USERI4
 70
     0
  9
$USERI5
 70
     0
  9
$USERR1
 40
0.0
  9
$USERR2
 40
0.0
  9
$USERR3
 40
0.0
  9
$USERR4
 40
0.0
  9
$USERR5
 40
0.0
  9
$WORLDVIEW
 70
     1
  9
$SHADEDGE
 70
     3
  9
$SHADEDIF
 70
    70
  9
$TILEMODE
 70
     1
  9
$MAXACTVP
 70
    64
  9
$PINSBASE
 10
0.0
 20
0.0
 30
0.0
  9
$PLIMCHECK
 70
     0
  9
$PEXTMIN
 10
1.000000000000000E+20
 20
1.000000000000000E+20
 30
1.000000000000000E+20
  9
$PEXTMAX
 10
-1.000000000000000E+20
 20
-1.000000000000000E+20
 30
-1.000000000000000E+20
  9
$PLIMMIN
 10
0.0
 20
0.0
  9
$PLIMMAX
 10
12.0
 20
9.0
  9
$UNITMODE
 70
     0
  9
$VISRETAIN
 70
     1
  9
$PLINEGEN
 70
     0
  9
$PSLTSCALE
 70
     1
  9
$TREEDEPTH
 70
  3020
  9
$CMLSTYLE
  2
Standard
  9
$CMLJUST
 70
     0
  9
$CMLSCALE
 40
1.0
  9
$PROXYGRAPHICS
 70
     1
  9
$MEASUREMENT
 70
     0
  9
$CELWEIGHT
370
    -1
  9
$ENDCAPS
280
     0
  9
$JOINSTYLE
280
     0
  9
$LWDISPLAY
290
     1
  9
$INSUNITS
 70
     1
  9
$HYPERLINKBASE
  1

  9
$STYLESHEET
  1

  9
$XEDIT
290
     1
  9
$CEPSNTYPE
380
     0
  9
$PSTYLEMODE
290
     1
  9
$FINGERPRINTGUID
  2
{3555FE52-D8E1-DC27-94A0-0DEABEB3E4E9}
  9
$VERSIONGUID
  2
{FAEB1C32-E019-11D5-929B-00C0DF256EC4}
  9
$EXTNAMES
290
     1
  9
$PSVPSCALE
 40
0.0
  9
$OLESTARTUP
290
     0
  9
$SORTENTS
280
   127
  9
$INDEXCTL
280
     0
  9
$HIDETEXT
280
     1
  9
$XCLIPFRAME
280
     2
  9
$HALOGAP
280
     0
  9
$OBSCOLOR
 70
   257
  9
$OBSLTYPE
280
     0
  9
$INTERSECTIONDISPLAY
280
     0
  9
$INTERSECTIONCOLOR
 70
   257
  9
$DIMASSOC
280
     2
  9
$PROJECTNAME
  1

  9
$CAMERADISPLAY
290
     0
  9
$LENSLENGTH
 40
50.0
  9
$CAMERAHEIGHT
 40
0.0
  9
$STEPSPERSEC
 40
2.0
  9
$STEPSIZE
 40
6.0
  9
$3DDWFPREC
 40
2.0
  9
$PSOLWIDTH
 40
0.25
  9
$PSOLHEIGHT
 40
4.0
  9
$LOFTANG1
 40
1.570796326794897
  9
$LOFTANG2
 40
1.570796326794897
  9
$LOFTMAG1
 40
0.0
  9
$LOFTMAG2
 40
0.0
  9
$LOFTPARAM
 70
     7
  9
$LOFTNORMALS
280
     1
  9
$LATITUDE
 40
37.795
  9
$LONGITUDE
 40
-122.394
  9
$NORTHDIRECTION
 40
0.0
  9
$TIMEZONE
 70
 -8000
  9
$LIGHTGLYPHDISPLAY
280
     1
  9
$TILEMODELIGHTSYNCH
280
     1
  9
$CMATERIAL
347
3C
  9
$SOLIDHIST
280
     1
  9
$SHOWHIST
280
     1
  9
$DWFFRAME
280
     2
  9
$DGNFRAME
280
     2
  9
$REALWORLDSCALE
290
     1
  9
$INTERFERECOLOR
 62
   256
  9
$CSHADOW
280
     0
  9
$SHADOWPLANELOCATION
 40
0.0
  0
ENDSEC
  0
SECTION
  2
CLASSES
  0
CLASS
  1
ACDBDICTIONARYWDFLT
  2
AcDbDictionaryWithDefault
  3
ObjectDBX Classes
 90
        0
 91
        4
280
     0
281
     0
  0
CLASS
  1
VISUALSTYLE
  2
AcDbVisualStyle
  3
ObjectDBX Classes
 90
     4095
 91
        4
280
     0
281
     0
  0
CLASS
  1
MATERIAL
  2
AcDbMaterial
  3
ObjectDBX Classes
 90
     1153
 91
        4
280
     0
281
     0
  0
CLASS
  1
SUN
  2
AcDbSun
  3
SCENEOE
 90
     1024
 91
        4
280
     0
281
     0
  0
ENDSEC
  0
SECTION
  2
TABLES
  0
TABLE
  2
VPORT
  5
8
330
0
100
AcDbSymbolTable
 70
     1
  0
VPORT
  5
29
330
8
100
AcDbSymbolTableRecord
100
AcDbViewportTableRecord
  2
*Active
 70
     0
 10
0.0
 20
0.0
 11
1.0
 21
1.0
 12
0.0
 22
0.0
 13
0.0
 23
0.0
 14
0.5
 24
0.5
 15
0.5
 25
0.5
 16
0.0
 26
0.0
 36
1.0
 17
91.00082462281999
 27
-128.4993055234307
 37
0.0
 40
256.9986110468615
 41
0.7081814508812795
 42
50.0
 43
0.0
 44
0.0
 50
0.0
 51
0.0
 71
     0
 72
   100
 73
     1
 74
     3
 75
     0
 76
     0
 77
     0
 78
     0
281
     0
 65
     1
110
0.0
120
0.0
130
0.0
111
1.0
121
0.0
131
0.0
112
0.0
122
1.0
132
0.0
 79
     0
146
0.0
 60
     3
 61
     5
292
     1
282
     1
141
0.0
142
0.0
 63
   250
361
3F
  0
ENDTAB
  0
TABLE
  2
LTYPE
  5
5
330
0
100
AcDbSymbolTable
 70
     1
  0
LTYPE
  5
14
330
5
100
AcDbSymbolTableRecord
100
AcDbLinetypeTableRecord
  2
ByBlock
 70
     0
  3

 72
    65
 73
     0
 40
0.0
  0
LTYPE
  5
15
330
5
100
AcDbSymbolTableRecord
100
AcDbLinetypeTableRecord
  2
ByLayer
 70
     0
  3

 72
    65
 73
     0
 40
0.0
  0
LTYPE
  5
16
330
5
100
AcDbSymbolTableRecord
100
AcDbLinetypeTableRecord
  2
Continuous
 70
     0
  3
Solid line
 72
    65
 73
     0
 40
0.0
  0
ENDTAB
  0
TABLE
  2
LAYER
  5
2
330
0
100
AcDbSymbolTable
 70
     2
  0
LAYER
  5
10
330
2
100
AcDbSymbolTableRecord
100
AcDbLayerTableRecord
  2
0
 70
     0
 62
     7
  6
Continuous
370
    -3
390
F
347
3E
  0
LAYER
  5
40
330
2
100
AcDbSymbolTableRecord
100
AcDbLayerTableRecord
  2
_U+30EC_U+30A4_U+30E4_U+30FC 1
 70
     0
 62
     7
  6
Continuous
370
    -3
390
F
347
3E
  0
ENDTAB
  0
TABLE
  2
STYLE
  5
3
330
0
100
AcDbSymbolTable
 70
     1
  0
STYLE
  5
11
330
3
100
AcDbSymbolTableRecord
100
AcDbTextStyleTableRecord
  2
Standard
 70
     0
 40
0.0
 41
1.0
 50
0.0
 71
     0
 42
0.2
  3
txt
  4

  0
ENDTAB
  0
TABLE
  2
VIEW
  5
6
330
0
100
AcDbSymbolTable
 70
     0
  0
ENDTAB
  0
TABLE
  2
UCS
  5
7
330
0
100
AcDbSymbolTable
 70
     0
  0
ENDTAB
  0
TABLE
  2
APPID
  5
9
330
0
100
AcDbSymbolTable
 70
     1
  0
APPID
  5
12
330
9
100
AcDbSymbolTableRecord
100
AcDbRegAppTableRecord
  2
ACAD
 70
     0
  0
ENDTAB
  0
TABLE
  2
DIMSTYLE
  5
A
330
0
100
AcDbSymbolTable
 70
     1
100
AcDbDimStyleTable
  0
DIMSTYLE
105
27
330
A
100
AcDbSymbolTableRecord
100
AcDbDimStyleTableRecord
  2
Standard
 70
     0
178
     0
340
11
  0
ENDTAB
  0
TABLE
  2
BLOCK_RECORD
  5
1
330
0
100
AcDbSymbolTable
 70
     7
  0
BLOCK_RECORD
  5
1F
330
1
100
AcDbSymbolTableRecord
100
AcDbBlockTableRecord
  2
*Model_Space
340
22
 70
     0
280
     1
281
     0
  0
BLOCK_RECORD
  5
1B
330
1
100
AcDbSymbolTableRecord
100
AcDbBlockTableRecord
  2
*Paper_Space
340
1E
 70
     0
280
     1
281
     0
  0
BLOCK_RECORD
  5
23
330
1
100
AcDbSymbolTableRecord
100
AcDbBlockTableRecord
  2
*Paper_Space0
340
26
 70
     0
280
     1
281
     0
  0
BLOCK_RECORD
  5
9A
330
1
100
AcDbSymbolTableRecord
100
AcDbBlockTableRecord
  2
block 2
340
0
102
{BLKREFS
331
9B
102
}
 70
     0
280
     1
281
     0
  0
BLOCK_RECORD
  5
A8
330
1
100
AcDbSymbolTableRecord
100
AcDbBlockTableRecord
  2
block 3
340
0
102
{BLKREFS
331
A9
102
}
 70
     0
280
     1
281
     0
  0
BLOCK_RECORD
  5
BA
330
1
100
AcDbSymbolTableRecord
100
AcDbBlockTableRecord
  2
block 4
340
0
102
{BLKREFS
331
BB
102
}
 70
     0
280
     1
281
     0
  0
BLOCK_RECORD
  5
CB
330
1
100
AcDbSymbolTableRecord
100
AcDbBlockTableRecord
  2
block 5
340
0
102
{BLKREFS
331
CC
102
}
 70
     0
280
     1
281
     0
  0
BLOCK_RECORD
  5
DD
330
1
100
AcDbSymbolTableRecord
100
AcDbBlockTableRecord
  2
block 6
340
0
102
{BLKREFS
331
DE
102
}
 70
     0
280
     1
281
     0
  0
BLOCK_RECORD
  5
EE
330
1
100
AcDbSymbolTableRecord
100
AcDbBlockTableRecord
  2
block 7
340
0
102
{BLKREFS
331
EF
102
}
 70
     0
280
     1
281
     0
  0
ENDTAB
  0
ENDSEC
  0
SECTION
  2
BLOCKS
  0
BLOCK
  5
20
330
1F
100
AcDbEntity
  8
0
100
AcDbBlockBegin
  2
*Model_Space
 70
     0
 10
0.0
 20
0.0
 30
0.0
  3
*Model_Space
  1

  0
ENDBLK
  5
21
330
1F
100
AcDbEntity
  8
0
100
AcDbBlockEnd
  0
BLOCK
  5
1C
330
1B
100
AcDbEntity
 67
     1
  8
0
100
AcDbBlockBegin
  2
*Paper_Space
 70
     0
 10
0.0
 20
0.0
 30
0.0
  3
*Paper_Space
  1

  0
ENDBLK
  5
1D
330
1B
100
AcDbEntity
 67
     1
  8
0
100
AcDbBlockEnd
  0
BLOCK
  5
24
330
23
100
AcDbEntity
  8
0
100
AcDbBlockBegin
  2
*Paper_Space0
 70
     0
 10
0.0
 20
0.0
 30
0.0
  3
*Paper_Space0
  1

  0
ENDBLK
  5
25
330
23
100
AcDbEntity
  8
0
100
AcDbBlockEnd
  0
BLOCK
  5
9C
330
9A
100
AcDbEntity
  8
0
100
AcDbBlockBegin
  2
block 2
 70
     0
 10
0.0
 20
0.0
 30
0.0
  3
block 2
  1

  0
SPLINE
  5
9E
330
9A
100
AcDbEntity
  8
_U+30EC_U+30A4_U+30E4_U+30FC 1
370
     0
100
AcDbSpline
210
0.0
220
0.0
230
1.0
 70
    11
 71
     3
 72
    26
 73
    22
 74
     0
 42
0.0000000001
 43
0.0000000001
 12
1.0
 22
0.0
 32
0.0
 13
1.0
 23
0.0
 33
0.0
 40
0.0
 40
0.0
 40
0.0
 40
0.0
 40
1.0
 40
1.0
 40
1.0
 40
2.0
 40
2.0
 40
2.0
 40
3.0
 40
3.0
 40
3.0
 40
4.0
 40
4.0
 40
4.0
 40
5.0
 40
5.0
 40
5.0
 40
6.0
 40
6.0
 40
6.0
 40
7.0
 40
7.0
 40
7.0
 40
7.0
 10
105.8381564405544
 20
-124.9284640529693
 30
0.0
 10
105.8381564405544
 20
-124.9284640529693
 30
0.0
 10
104.7340033375318
 20
-124.9284640529693
 30
0.0
 10
104.7340033375318
 20
-124.9284640529693
 30
0.0
 10
104.7340033375318
 20
-124.9284640529693
 30
0.0
 10
104.7340033375318
 20
-125.2808973211103
 30
0.0
 10
104.7340033375318
 20
-125.2808973211103
 30
0.0
 10
104.7340033375318
 20
-125.2808973211103
 30
0.0
 10
104.585864231666
 20
-125.2808973211103
 30
0.0
 10
104.585864231666
 20
-125.2808973211103
 30
0.0
 10
104.5710503210795
 20
-124.9260524861296
 30
0.0
 10
104.4080973046271
 20
-124.876443111142
 30
0.0
 10
104.2937201345168
 20
-124.8447482326777
 30
0.0
 10
104.2937201345168
 20
-124.8447482326777
 30
0.0
 10
104.2937201345168
 20
-124.6886854071959
 30
0.0
 10
104.2937201345168
 20
-124.6886854071959
 30
0.0
 10
104.2937201345168
 20
-124.6886854071959
 30
0.0
 10
105.8381564405544
 20
-124.6886854071959
 30
0.0
 10
105.8381564405544
 20
-124.6886854071959
 30
0.0
 10
105.8381564405544
 20
-124.6886854071959
 30
0.0
 10
105.8381564405544
 20
-124.9284640529693
 30
0.0
 10
105.8381564405544
 20
-124.9284640529693
 30
0.0
  0
HATCH
  5
9F
330
9A
100
AcDbEntity
  8
_U+30EC_U+30A4_U+30E4_U+30FC 1
 62
   179
420
  2234388
100
AcDbHatch
 10
0.0
 20
0.0
 30
0.0
210
0.0
220
0.0
230
1.0
  2
SOLID
 70
     1
 71
     0
 91
        1
 92
        1
 93
        1
 72
     4
 94
        3
 73
     0
 74
     1
 95
       26
 96
       22
 40
0.0
 40
0.0
 40
0.0
 40
0.0
 40
1.0
 40
1.0
 40
1.0
 40
2.0
 40
2.0
 40
2.0
 40
3.0
 40
3.0
 40
3.0
 40
4.0
 40
4.0
 40
4.0
 40
5.0
 40
5.0
 40
5.0
 40
6.0
 40
6.0
 40
6.0
 40
7.0
 40
7.0
 40
7.0
 40
7.0
 10
105.8381564405544
 20
-124.9284640529693
 10
105.8381564405544
 20
-124.9284640529693
 10
104.7340033375318
 20
-124.9284640529693
 10
104.7340033375318
 20
-124.9284640529693
 10
104.7340033375318
 20
-124.9284640529693
 10
104.7340033375318
 20
-125.2808973211103
 10
104.7340033375318
 20
-125.2808973211103
 10
104.7340033375318
 20
-125.2808973211103
 10
104.585864231666
 20
-125.2808973211103
 10
104.585864231666
 20
-125.2808973211103
 10
104.5710503210795
 20
-124.9260524861296
 10
104.4080973046271
 20
-124.876443111142
 10
104.2937201345168
 20
-124.8447482326777
 10
104.2937201345168
 20
-124.8447482326777
 10
104.2937201345168
 20
-124.6886854071959
 10
104.2937201345168
 20
-124.6886854071959
 10
104.2937201345168
 20
-124.6886854071959
 10
105.8381564405544
 20
-124.6886854071959
 10
105.8381564405544
 20
-124.6886854071959
 10
105.8381564405544
 20
-124.6886854071959
 10
105.8381564405544
 20
-124.9284640529693
 10
105.8381564405544
 20
-124.9284640529693
 97
        0
 97
        0
 75
     2
 76
     1
 98
        0
  0
ENDBLK
  5
9D
330
9A
100
AcDbEntity
  8
0
100
AcDbBlockEnd
  0
BLOCK
  5
AA
330
A8
100
AcDbEntity
  8
0
100
AcDbBlockBegin
  2
block 3
 70
     0
 10
0.0
 20
0.0
 30
0.0
  3
block 3
  1

  0
SPLINE
  5
AC
330
A8
100
AcDbEntity
  8
_U+30EC_U+30A4_U+30E4_U+30FC 1
370
     0
100
AcDbSpline
210
0.0
220
0.0
230
1.0
 70
    11
 71
     3
 72
    62
 73
    58
 74
     0
 42
0.0000000001
 43
0.0000000001
 12
1.0
 22
0.0
 32
0.0
 13
1.0
 23
0.0
 33
0.0
 40
0.0
 40
0.0
 40
0.0
 40
0.0
 40
1.0
 40
1.0
 40
1.0
 40
2.0
 40
2.0
 40
2.0
 40
3.0
 40
3.0
 40
3.0
 40
4.0
 40
4.0
 40
4.0
 40
5.0
 40
5.0
 40
5.0
 40
6.0
 40
6.0
 40
6.0
 40
7.0
 40
7.0
 40
7.0
 40
8.0
 40
8.0
 40
8.0
 40
9.0
 40
9.0
 40
9.0
 40
10.0
 40
10.0
 40
10.0
 40
11.0
 40
11.0
 40
11.0
 40
12.0
 40
12.0
 40
12.0
 40
13.0
 40
13.0
 40
13.0
 40
14.0
 40
14.0
 40
14.0
 40
15.0
 40
15.0
 40
15.0
 40
16.0
 40
16.0
 40
16.0
 40
17.0
 40
17.0
 40
17.0
 40
18.0
 40
18.0
 40
18.0
 40
19.0
 40
19.0
 40
19.0
 40
19.0
 10
105.8887993441875
 20
-133.7406737946898
 30
0.0
 10
105.8887993441875
 20
-133.8423041115047
 30
0.0
 10
105.8677842617275
 20
-134.0751925663076
 30
0.0
 10
105.681749105524
 20
-134.2085177615868
 30
0.0
 10
105.5694389927049
 20
-134.2877549577475
 30
0.0
 10
105.4702202427297
 20
-134.2922335818783
 30
0.0
 10
105.3854708937925
 20
-134.2967122060092
 30
0.0
 10
105.3854708937925
 20
-134.2967122060092
 30
0.0
 10
105.3854708937925
 20
-134.0617566939151
 30
0.0
 10
105.3854708937925
 20
-134.0617566939151
 30
0.0
 10
105.4595404467254
 20
-134.0593451270755
 30
0.0
 10
105.6941514492709
 20
-134.0479763119741
 30
0.0
 10
105.6941514492709
 20
-133.7451524188207
 30
0.0
 10
105.6941514492709
 20
-133.5980468416005
 30
0.0
 10
105.6245605204689
 20
-133.4354383346967
 30
0.0
 10
105.3961506897968
 20
-133.4354383346967
 30
0.0
 10
105.2797064623954
 20
-133.4354383346967
 30
0.0
 10
105.2311306160533
 20
-133.4760904614226
 30
0.0
 10
105.199435737589
 20
-133.5098523971781
 30
0.0
 10
105.1253661846562
 20
-133.5890895933389
 30
0.0
 10
105.1126193313607
 20
-133.7134575403564
 30
0.0
 10
105.1126193313607
 20
-133.7723686731541
 30
0.0
 10
105.1126193313607
 20
-133.7926947365171
 30
0.0
 10
105.1146863886519
 20
-133.8309352964034
 30
0.0
 10
105.1188205032342
 20
-133.8605631175765
 30
0.0
 10
105.1188205032342
 20
-133.8605631175765
 30
0.0
 10
104.9241726083176
 20
-133.8605631175765
 30
0.0
 10
104.9241726083176
 20
-133.8605631175765
 30
0.0
 10
104.9307182897395
 20
-133.8199109908506
 30
0.0
 10
104.9327853470307
 20
-133.7744357304453
 30
0.0
 10
104.9327853470307
 20
-133.7678900490233
 30
0.0
 10
104.9327853470307
 20
-133.6976101011242
 30
0.0
 10
104.9114257550222
 20
-133.4850477096843
 30
0.0
 10
104.6747476951855
 20
-133.4850477096843
 30
0.0
 10
104.4969807681466
 20
-133.4850477096843
 30
0.0
 10
104.4418592403826
 20
-133.625263095934
 30
0.0
 10
104.4418592403826
 20
-133.742740851981
 30
0.0
 10
104.4418592403826
 20
-134.02558319132
 30
0.0
 10
104.6747476951855
 20
-134.0345404395817
 30
0.0
 10
104.7464056812787
 20
-134.0390190637125
 30
0.0
 10
104.7464056812787
 20
-134.0390190637125
 30
0.0
 10
104.7464056812787
 20
-134.2560600792832
 30
0.0
 10
104.7464056812787
 20
-134.2560600792832
 30
0.0
 10
104.6216932247126
 20
-134.2471028310216
 30
0.0
 10
104.2451442881748
 20
-134.217819519397
 30
0.0
 10
104.2451442881748
 20
-133.7293049795885
 30
0.0
 10
104.2451442881748
 20
-133.4895263338151
 30
0.0
 10
104.3722683115806
 20
-133.2318331915184
 30
0.0
 10
104.6682020137635
 20
-133.2318331915184
 30
0.0
 10
104.8545816795155
 20
-133.2318331915184
 30
0.0
 10
104.936919461613
 20
-133.3338080178818
 30
0.0
 10
104.9982421612504
 20
-133.4399169588275
 30
0.0
 10
105.0258029251324
 20
-133.3744601446078
 30
0.0
 10
105.1060736499388
 20
-133.1798122496912
 30
0.0
 10
105.3834038365014
 20
-133.1798122496912
 30
0.0
 10
105.7217122131529
 20
-133.1798122496912
 30
0.0
 10
105.8887993441875
 20
-133.4443955829584
 30
0.0
 10
105.8887993441875
 20
-133.7406737946898
 30
0.0
  0
HATCH
  5
AD
330
A8
100
AcDbEntity
  8
_U+30EC_U+30A4_U+30E4_U+30FC 1
 62
   179
420
  2234388
100
AcDbHatch
 10
0.0
 20
0.0
 30
0.0
210
0.0
220
0.0
230
1.0
  2
SOLID
 70
     1
 71
     0
 91
        1
 92
        1
 93
        1
 72
     4
 94
        3
 73
     0
 74
     1
 95
       62
 96
       58
 40
0.0
 40
0.0
 40
0.0
 40
0.0
 40
1.0
 40
1.0
 40
1.0
 40
2.0
 40
2.0
 40
2.0
 40
3.0
 40
3.0
 40
3.0
 40
4.0
 40
4.0
 40
4.0
 40
5.0
 40
5.0
 40
5.0
 40
6.0
 40
6.0
 40
6.0
 40
7.0
 40
7.0
 40
7.0
 40
8.0
 40
8.0
 40
8.0
 40
9.0
 40
9.0
 40
9.0
 40
10.0
 40
10.0
 40
10.0
 40
11.0
 40
11.0
 40
11.0
 40
12.0
 40
12.0
 40
12.0
 40
13.0
 40
13.0
 40
13.0
 40
14.0
 40
14.0
 40
14.0
 40
15.0
 40
15.0
 40
15.0
 40
16.0
 40
16.0
 40
16.0
 40
17.0
 40
17.0
 40
17.0
 40
18.0
 40
18.0
 40
18.0
 40
19.0
 40
19.0
 40
19.0
 40
19.0
 10
105.8887993441875
 20
-133.7406737946898
 10
105.8887993441875
 20
-133.8423041115047
 10
105.8677842617275
 20
-134.0751925663076
 10
105.681749105524
 20
-134.2085177615868
 10
105.5694389927049
 20
-134.2877549577475
 10
105.4702202427297
 20
-134.2922335818783
 10
105.3854708937925
 20
-134.2967122060092
 10
105.3854708937925
 20
-134.2967122060092
 10
105.3854708937925
 20
-134.0617566939151
 10
105.3854708937925
 20
-134.0617566939151
 10
105.4595404467254
 20
-134.0593451270755
 10
105.6941514492709
 20
-134.0479763119741
 10
105.6941514492709
 20
-133.7451524188207
 10
105.6941514492709
 20
-133.5980468416005
 10
105.6245605204689
 20
-133.4354383346967
 10
105.3961506897968
 20
-133.4354383346967
 10
105.2797064623954
 20
-133.4354383346967
 10
105.2311306160533
 20
-133.4760904614226
 10
105.199435737589
 20
-133.5098523971781
 10
105.1253661846562
 20
-133.5890895933389
 10
105.1126193313607
 20
-133.7134575403564
 10
105.1126193313607
 20
-133.7723686731541
 10
105.1126193313607
 20
-133.7926947365171
 10
105.1146863886519
 20
-133.8309352964034
 10
105.1188205032342
 20
-133.8605631175765
 10
105.1188205032342
 20
-133.8605631175765
 10
104.9241726083176
 20
-133.8605631175765
 10
104.9241726083176
 20
-133.8605631175765
 10
104.9307182897395
 20
-133.8199109908506
 10
104.9327853470307
 20
-133.7744357304453
 10
104.9327853470307
 20
-133.7678900490233
 10
104.9327853470307
 20
-133.6976101011242
 10
104.9114257550222
 20
-133.4850477096843
 10
104.6747476951855
 20
-133.4850477096843
 10
104.4969807681466
 20
-133.4850477096843
 10
104.4418592403826
 20
-133.625263095934
 10
104.4418592403826
 20
-133.742740851981
 10
104.4418592403826
 20
-134.02558319132
 10
104.6747476951855
 20
-134.0345404395817
 10
104.7464056812787
 20
-134.0390190637125
 10
104.7464056812787
 20
-134.0390190637125
 10
104.7464056812787
 20
-134.2560600792832
 10
104.7464056812787
 20
-134.2560600792832
 10
104.6216932247126
 20
-134.2471028310216
 10
104.2451442881748
 20
-134.217819519397
 10
104.2451442881748
 20
-133.7293049795885
 10
104.2451442881748
 20
-133.4895263338151
 10
104.3722683115806
 20
-133.2318331915184
 10
104.6682020137635
 20
-133.2318331915184
 10
104.8545816795155
 20
-133.2318331915184
 10
104.936919461613
 20
-133.3338080178818
 10
104.9982421612504
 20
-133.4399169588275
 10
105.0258029251324
 20
-133.3744601446078
 10
105.1060736499388
 20
-133.1798122496912
 10
105.3834038365014
 20
-133.1798122496912
 10
105.7217122131529
 20
-133.1798122496912
 10
105.8887993441875
 20
-133.4443955829584
 10
105.8887993441875
 20
-133.7406737946898
 97
        0
 97
        0
 75
     2
 76
     1
 98
        0
  0
ENDBLK
  5
AB
330
A8
100
AcDbEntity
  8
0
100
AcDbBlockEnd
  0
BLOCK
  5
BC
330
BA
100
AcDbEntity
  8
0
100
AcDbBlockBegin
  2
block 4
 70
     0
 10
0.0
 20
0.0
 30
0.0
  3
block 4
  1

  0
SPLINE
  5
BE
330
BA
100
AcDbEntity
  8
_U+30EC_U+30A4_U+30E4_U+30FC 1
370
     0
100
AcDbSpline
210
0.0
220
0.0
230
1.0
 70
    11
 71
     3
 72
    26
 73
    22
 74
     0
 42
0.0000000001
 43
0.0000000001
 12
1.0
 22
0.0
 32
0.0
 13
1.0
 23
0.0
 33
0.0
 40
0.0
 40
0.0
 40
0.0
 40
0.0
 40
1.0
 40
1.0
 40
1.0
 40
2.0
 40
2.0
 40
2.0
 40
3.0
 40
3.0
 40
3.0
 40
4.0
 40
4.0
 40
4.0
 40
5.0
 40
5.0
 40
5.0
 40
6.0
 40
6.0
 40
6.0
 40
7.0
 40
7.0
 40
7.0
 40
7.0
 10
77.89085284511063
 20
-138.5848225564996
 30
0.0
 10
77.89085284511063
 20
-138.5848225564996
 30
0.0
 10
77.89085284511063
 20
-137.4803249439285
 30
0.0
 10
77.89085284511063
 20
-137.4803249439285
 30
0.0
 10
77.89085284511063
 20
-137.4803249439285
 30
0.0
 10
77.53807506742103
 20
-137.4803249439285
 30
0.0
 10
77.53807506742103
 20
-137.4803249439285
 30
0.0
 10
77.53807506742103
 20
-137.4803249439285
 30
0.0
 10
77.53807506742103
 20
-137.3325303476113
 30
0.0
 10
77.53807506742103
 20
-137.3325303476113
 30
0.0
 10
77.89309215717604
 20
-137.3177164370248
 30
0.0
 10
77.9428737869379
 20
-137.1547634205724
 30
0.0
 10
77.97456866540219
 20
-137.0403862504621
 30
0.0
 10
77.97456866540219
 20
-137.0403862504621
 30
0.0
 10
78.13045923610974
 20
-137.0403862504621
 30
0.0
 10
78.13045923610974
 20
-137.0403862504621
 30
0.0
 10
78.13045923610974
 20
-137.0403862504621
 30
0.0
 10
78.13045923610974
 20
-138.5848225564996
 30
0.0
 10
78.13045923610974
 20
-138.5848225564996
 30
0.0
 10
78.13045923610974
 20
-138.5848225564996
 30
0.0
 10
77.89085284511063
 20
-138.5848225564996
 30
0.0
 10
77.89085284511063
 20
-138.5848225564996
 30
0.0
  0
HATCH
  5
BF
330
BA
100
AcDbEntity
  8
_U+30EC_U+30A4_U+30E4_U+30FC 1
 62
   179
420
  2234388
100
AcDbHatch
 10
0.0
 20
0.0
 30
0.0
210
0.0
220
0.0
230
1.0
  2
SOLID
 70
     1
 71
     0
 91
        1
 92
        1
 93
        1
 72
     4
 94
        3
 73
     0
 74
     1
 95
       26
 96
       22
 40
0.0
 40
0.0
 40
0.0
 40
0.0
 40
1.0
 40
1.0
 40
1.0
 40
2.0
 40
2.0
 40
2.0
 40
3.0
 40
3.0
 40
3.0
 40
4.0
 40
4.0
 40
4.0
 40
5.0
 40
5.0
 40
5.0
 40
6.0
 40
6.0
 40
6.0
 40
7.0
 40
7.0
 40
7.0
 40
7.0
 10
77.89085284511063
 20
-138.5848225564996
 10
77.89085284511063
 20
-138.5848225564996
 10
77.89085284511063
 20
-137.4803249439285
 10
77.89085284511063
 20
-137.4803249439285
 10
77.89085284511063
 20
-137.4803249439285
 10
77.53807506742103
 20
-137.4803249439285
 10
77.53807506742103
 20
-137.4803249439285
 10
77.53807506742103
 20
-137.4803249439285
 10
77.53807506742103
 20
-137.3325303476113
 10
77.53807506742103
 20
-137.3325303476113
 10
77.89309215717604
 20
-137.3177164370248
 10
77.9428737869379
 20
-137.1547634205724
 10
77.97456866540219
 20
-137.0403862504621
 10
77.97456866540219
 20
-137.0403862504621
 10
78.13045923610974
 20
-137.0403862504621
 10
78.13045923610974
 20
-137.0403862504621
 10
78.13045923610974
 20
-137.0403862504621
 10
78.13045923610974
 20
-138.5848225564996
 10
78.13045923610974
 20
-138.5848225564996
 10
78.13045923610974
 20
-138.5848225564996
 10
77.89085284511063
 20
-138.5848225564996
 10
77.89085284511063
 20
-138.5848225564996
 97
        0
 97
        0
 75
     2
 76
     1
 98
        0
  0
SPLINE
  5
C0
330
BA
100
AcDbEntity
  8
_U+30EC_U+30A4_U+30E4_U+30FC 1
370
     0
100
AcDbSpline
210
0.0
220
0.0
230
1.0
 70
    11
 71
     3
 72
    29
 73
    25
 74
     0
 42
0.0000000001
 43
0.0000000001
 12
1.0
 22
0.0
 32
0.0
 13
1.0
 23
0.0
 33
0.0
 40
0.0
 40
0.0
 40
0.0
 40
0.0
 40
1.0
 40
1.0
 40
1.0
 40
2.0
 40
2.0
 40
2.0
 40
3.0
 40
3.0
 40
3.0
 40
4.0
 40
4.0
 40
4.0
 40
5.0
 40
5.0
 40
5.0
 40
6.0
 40
6.0
 40
6.0
 40
7.0
 40
7.0
 40
7.0
 40
8.0
 40
8.0
 40
8.0
 40
8.0
 10
79.62563067670818
 20
-138.4070556294607
 30
0.0
 10
79.51039223272657
 20
-138.6165174349639
 30
0.0
 10
79.32504609562014
 20
-138.6354654601328
 30
0.0
 10
79.2006781486026
 20
-138.6354654601328
 30
0.0
 10
79.02876788388865
 20
-138.6354654601328
 30
0.0
 10
78.87735593731192
 20
-138.5889566710819
 30
0.0
 10
78.77555336572279
 20
-138.4070556294607
 30
0.0
 10
78.664793545872
 20
-138.2124077345441
 30
0.0
 10
78.64446748250903
 20
-137.9753851651589
 30
0.0
 10
78.64446748250903
 20
-137.8124321487066
 30
0.0
 10
78.64446748250903
 20
-137.6687716669717
 30
0.0
 10
78.66255423380659
 20
-137.416935187
 30
0.0
 10
78.77555336572279
 20
-137.218153177501
 30
0.0
 10
78.89096406447865
 20
-137.0148925438713
 30
0.0
 10
79.06270207441835
 20
-136.9918104041201
 30
0.0
 10
79.2006781486026
 20
-136.9918104041201
 30
0.0
 10
79.37017684647691
 20
-136.9918104041201
 30
0.0
 10
79.52400035989331
 20
-137.0362521358798
 30
0.0
 10
79.62563067670818
 20
-137.218153177501
 30
0.0
 10
79.73191187242814
 20
-137.4107340151265
 30
0.0
 10
79.75671655992194
 20
-137.6391438457985
 30
0.0
 10
79.75671655992194
 20
-137.8124321487066
 30
0.0
 10
79.75671655992194
 20
-137.9839979038721
 30
0.0
 10
79.73415118449356
 20
-138.2144747918353
 30
0.0
 10
79.62563067670818
 20
-138.4070556294607
 30
0.0
  0
SPLINE
  5
C1
330
BA
100
AcDbEntity
  8
_U+30EC_U+30A4_U+30E4_U+30FC 1
370
     0
100
AcDbSpline
210
0.0
220
0.0
230
1.0
 70
    11
 71
     3
 72
    17
 73
    13
 74
     0
 42
0.0000000001
 43
0.0000000001
 12
1.0
 22
0.0
 32
0.0
 13
1.0
 23
0.0
 33
0.0
 40
0.0
 40
0.0
 40
0.0
 40
0.0
 40
1.0
 40
1.0
 40
1.0
 40
2.0
 40
2.0
 40
2.0
 40
3.0
 40
3.0
 40
3.0
 40
4.0
 40
4.0
 40
4.0
 40
4.0
 10
79.2006781486026
 20
-137.1843912417456
 30
0.0
 10
78.93385550327001
 20
-137.1843912417456
 30
0.0
 10
78.88407387350816
 20
-137.4679226001816
 30
0.0
 10
78.88407387350816
 20
-137.8124321487066
 30
0.0
 10
78.88407387350816
 20
-138.1321370097378
 30
0.0
 10
78.92248668816869
 20
-138.4408175652162
 30
0.0
 10
79.2006781486026
 20
-138.4408175652162
 30
0.0
 10
79.46508922709553
 20
-138.4408175652162
 30
0.0
 10
79.51711016892281
 20
-138.1593532640713
 30
0.0
 10
79.51711016892281
 20
-137.8124321487066
 30
0.0
 10
79.51711016892281
 20
-137.493071797224
 30
0.0
 10
79.47645804219687
 20
-137.1843912417456
 30
0.0
 10
79.2006781486026
 20
-137.1843912417456
 30
0.0
  0
HATCH
  5
C2
330
BA
100
AcDbEntity
  8
_U+30EC_U+30A4_U+30E4_U+30FC 1
 62
   179
420
  2234388
100
AcDbHatch
 10
0.0
 20
0.0
 30
0.0
210
0.0
220
0.0
230
1.0
  2
SOLID
 70
     1
 71
     0
 91
        2
 92
        1
 93
        1
 72
     4
 94
        3
 73
     0
 74
     1
 95
       29
 96
       25
 40
0.0
 40
0.0
 40
0.0
 40
0.0
 40
1.0
 40
1.0
 40
1.0
 40
2.0
 40
2.0
 40
2.0
 40
3.0
 40
3.0
 40
3.0
 40
4.0
 40
4.0
 40
4.0
 40
5.0
 40
5.0
 40
5.0
 40
6.0
 40
6.0
 40
6.0
 40
7.0
 40
7.0
 40
7.0
 40
8.0
 40
8.0
 40
8.0
 40
8.0
 10
79.62563067670818
 20
-138.4070556294607
 10
79.51039223272657
 20
-138.6165174349639
 10
79.32504609562014
 20
-138.6354654601328
 10
79.2006781486026
 20
-138.6354654601328
 10
79.02876788388865
 20
-138.6354654601328
 10
78.87735593731192
 20
-138.5889566710819
 10
78.77555336572279
 20
-138.4070556294607
 10
78.664793545872
 20
-138.2124077345441
 10
78.64446748250903
 20
-137.9753851651589
 10
78.64446748250903
 20
-137.8124321487066
 10
78.64446748250903
 20
-137.6687716669717
 10
78.66255423380659
 20
-137.416935187
 10
78.77555336572279
 20
-137.218153177501
 10
78.89096406447865
 20
-137.0148925438713
 10
79.06270207441835
 20
-136.9918104041201
 10
79.2006781486026
 20
-136.9918104041201
 10
79.37017684647691
 20
-136.9918104041201
 10
79.52400035989331
 20
-137.0362521358798
 10
79.62563067670818
 20
-137.218153177501
 10
79.73191187242814
 20
-137.4107340151265
 10
79.75671655992194
 20
-137.6391438457985
 10
79.75671655992194
 20
-137.8124321487066
 10
79.75671655992194
 20
-137.9839979038721
 10
79.73415118449356
 20
-138.2144747918353
 10
79.62563067670818
 20
-138.4070556294607
 97
        0
 97
        0
 92
        1
 93
        1
 72
     4
 94
        3
 73
     0
 74
     1
 95
       17
 96
       13
 40
0.0
 40
0.0
 40
0.0
 40
0.0
 40
1.0
 40
1.0
 40
1.0
 40
2.0
 40
2.0
 40
2.0
 40
3.0
 40
3.0
 40
3.0
 40
4.0
 40
4.0
 40
4.0
 40
4.0
 10
79.2006781486026
 20
-137.1843912417456
 10
78.93385550327001
 20
-137.1843912417456
 10
78.88407387350816
 20
-137.4679226001816
 10
78.88407387350816
 20
-137.8124321487066
 10
78.88407387350816
 20
-138.1321370097378
 10
78.92248668816869
 20
-138.4408175652162
 10
79.2006781486026
 20
-138.4408175652162
 10
79.46508922709553
 20
-138.4408175652162
 10
79.51711016892281
 20
-138.1593532640713
 10
79.51711016892281
 20
-137.8124321487066
 10
79.51711016892281
 20
-137.493071797224
 10
79.47645804219687
 20
-137.1843912417456
 10
79.2006781486026
 20
-137.1843912417456
 97
        0
 97
        0
 75
     2
 76
     1
 98
        0
  0
ENDBLK
  5
BD
330
BA
100
AcDbEntity
  8
0
100
AcDbBlockEnd
  0
BLOCK
  5
CD
330
CB
100
AcDbEntity
  8
0
100
AcDbBlockBegin
  2
block 5
 70
     0
 10
0.0
 20
0.0
 30
0.0
  3
block 5
  1

  0
SPLINE
  5
CF
330
CB
100
AcDbEntity
  8
_U+30EC_U+30A4_U+30E4_U+30FC 1
370
     0
100
AcDbSpline
210
0.0
220
0.0
230
1.0
 70
    11
 71
     3
 72
    53
 73
    49
 74
     0
 42
0.0000000001
 43
0.0000000001
 12
1.0
 22
0.0
 32
0.0
 13
1.0
 23
0.0
 33
0.0
 40
0.0
 40
0.0
 40
0.0
 40
0.0
 40
1.0
 40
1.0
 40
1.0
 40
2.0
 40
2.0
 40
2.0
 40
3.0
 40
3.0
 40
3.0
 40
4.0
 40
4.0
 40
4.0
 40
5.0
 40
5.0
 40
5.0
 40
6.0
 40
6.0
 40
6.0
 40
7.0
 40
7.0
 40
7.0
 40
8.0
 40
8.0
 40
8.0
 40
9.0
 40
9.0
 40
9.0
 40
10.0
 40
10.0
 40
10.0
 40
11.0
 40
11.0
 40
11.0
 40
12.0
 40
12.0
 40
12.0
 40
13.0
 40
13.0
 40
13.0
 40
14.0
 40
14.0
 40
14.0
 40
15.0
 40
15.0
 40
15.0
 40
16.0
 40
16.0
 40
16.0
 40
16.0
 10
86.05142277579617
 20
-138.6354654601328
 30
0.0
 10
85.96770695550461
 20
-138.6354654601328
 30
0.0
 10
85.85918644771924
 20
-138.6185844922551
 30
0.0
 10
85.75066593993387
 20
-138.5551947353265
 30
0.0
 10
85.56531980282742
 20
-138.4449516797985
 30
0.0
 10
85.54275442739903
 20
-138.314038051359
 30
0.0
 10
85.5222561092618
 20
-138.2062065626707
 30
0.0
 10
85.5222561092618
 20
-138.2062065626707
 30
0.0
 10
85.75979544296978
 20
-138.2062065626707
 30
0.0
 10
85.75979544296978
 20
-138.2062065626707
 30
0.0
 10
85.8185343209933
 20
-138.4049885721696
 30
0.0
 10
85.95409882833786
 20
-138.4346163933427
 30
0.0
 10
86.05366208786158
 20
-138.4346163933427
 30
0.0
 10
86.20283472237291
 20
-138.4346163933427
 30
0.0
 10
86.36561548405096
 20
-138.335053133819
 30
0.0
 10
86.36561548405096
 20
-138.1025091885647
 30
0.0
 10
86.36561548405096
 20
-137.8465385940106
 30
0.0
 10
86.17337915597402
 20
-137.77660315566
 30
0.0
 10
86.04453258482567
 20
-137.77660315566
 30
0.0
 10
86.01059839429597
 20
-137.77660315566
 30
0.0
 10
85.85918644771924
 20
-137.77660315566
 30
0.0
 10
85.7642740671006
 20
-137.9057942363569
 30
0.0
 10
85.7642740671006
 20
-137.9057942363569
 30
0.0
 10
85.57651636315448
 20
-137.8865017016395
 30
0.0
 10
85.57651636315448
 20
-137.8865017016395
 30
0.0
 10
85.57651636315448
 20
-137.8865017016395
 30
0.0
 10
85.70536293430283
 20
-137.0403862504621
 30
0.0
 10
85.70536293430283
 20
-137.0403862504621
 30
0.0
 10
85.70536293430283
 20
-137.0403862504621
 30
0.0
 10
86.53735349399066
 20
-137.0403862504621
 30
0.0
 10
86.53735349399066
 20
-137.0403862504621
 30
0.0
 10
86.53735349399066
 20
-137.0403862504621
 30
0.0
 10
86.53735349399066
 20
-137.2350341453787
 30
0.0
 10
86.53735349399066
 20
-137.2350341453787
 30
0.0
 10
86.53735349399066
 20
-137.2350341453787
 30
0.0
 10
85.87951251108221
 20
-137.2350341453787
 30
0.0
 10
85.87951251108221
 20
-137.2350341453787
 30
0.0
 10
85.87951251108221
 20
-137.2350341453787
 30
0.0
 10
85.80940481795737
 20
-137.6580918709674
 30
0.0
 10
85.80940481795737
 20
-137.6580918709674
 30
0.0
 10
85.87503388695139
 20
-137.624329935212
 30
0.0
 10
85.96322833137378
 20
-137.5840223180346
 30
0.0
 10
86.08983559045672
 20
-137.5840223180346
 30
0.0
 10
86.36113685992014
 20
-137.5840223180346
 30
0.0
 10
86.614351378086
 20
-137.7704019837866
 30
0.0
 10
86.614351378086
 20
-138.0832166538472
 30
0.0
 10
86.614351378086
 20
-138.4008544575873
 30
0.0
 10
86.37474498708687
 20
-138.6354654601328
 30
0.0
 10
86.05142277579617
 20
-138.6354654601328
 30
0.0
  0
HATCH
  5
D0
330
CB
100
AcDbEntity
  8
_U+30EC_U+30A4_U+30E4_U+30FC 1
 62
   179
420
  2234388
100
AcDbHatch
 10
0.0
 20
0.0
 30
0.0
210
0.0
220
0.0
230
1.0
  2
SOLID
 70
     1
 71
     0
 91
        1
 92
        1
 93
        1
 72
     4
 94
        3
 73
     0
 74
     1
 95
       53
 96
       49
 40
0.0
 40
0.0
 40
0.0
 40
0.0
 40
1.0
 40
1.0
 40
1.0
 40
2.0
 40
2.0
 40
2.0
 40
3.0
 40
3.0
 40
3.0
 40
4.0
 40
4.0
 40
4.0
 40
5.0
 40
5.0
 40
5.0
 40
6.0
 40
6.0
 40
6.0
 40
7.0
 40
7.0
 40
7.0
 40
8.0
 40
8.0
 40
8.0
 40
9.0
 40
9.0
 40
9.0
 40
10.0
 40
10.0
 40
10.0
 40
11.0
 40
11.0
 40
11.0
 40
12.0
 40
12.0
 40
12.0
 40
13.0
 40
13.0
 40
13.0
 40
14.0
 40
14.0
 40
14.0
 40
15.0
 40
15.0
 40
15.0
 40
16.0
 40
16.0
 40
16.0
 40
16.0
 10
86.05142277579617
 20
-138.6354654601328
 10
85.96770695550461
 20
-138.6354654601328
 10
85.85918644771924
 20
-138.6185844922551
 10
85.75066593993387
 20
-138.5551947353265
 10
85.56531980282742
 20
-138.4449516797985
 10
85.54275442739903
 20
-138.314038051359
 10
85.5222561092618
 20
-138.2062065626707
 10
85.5222561092618
 20
-138.2062065626707
 10
85.75979544296978
 20
-138.2062065626707
 10
85.75979544296978
 20
-138.2062065626707
 10
85.8185343209933
 20
-138.4049885721696
 10
85.95409882833786
 20
-138.4346163933427
 10
86.05366208786158
 20
-138.4346163933427
 10
86.20283472237291
 20
-138.4346163933427
 10
86.36561548405096
 20
-138.335053133819
 10
86.36561548405096
 20
-138.1025091885647
 10
86.36561548405096
 20
-137.8465385940106
 10
86.17337915597402
 20
-137.77660315566
 10
86.04453258482567
 20
-137.77660315566
 10
86.01059839429597
 20
-137.77660315566
 10
85.85918644771924
 20
-137.77660315566
 10
85.7642740671006
 20
-137.9057942363569
 10
85.7642740671006
 20
-137.9057942363569
 10
85.57651636315448
 20
-137.8865017016395
 10
85.57651636315448
 20
-137.8865017016395
 10
85.57651636315448
 20
-137.8865017016395
 10
85.70536293430283
 20
-137.0403862504621
 10
85.70536293430283
 20
-137.0403862504621
 10
85.70536293430283
 20
-137.0403862504621
 10
86.53735349399066
 20
-137.0403862504621
 10
86.53735349399066
 20
-137.0403862504621
 10
86.53735349399066
 20
-137.0403862504621
 10
86.53735349399066
 20
-137.2350341453787
 10
86.53735349399066
 20
-137.2350341453787
 10
86.53735349399066
 20
-137.2350341453787
 10
85.87951251108221
 20
-137.2350341453787
 10
85.87951251108221
 20
-137.2350341453787
 10
85.87951251108221
 20
-137.2350341453787
 10
85.80940481795737
 20
-137.6580918709674
 10
85.80940481795737
 20
-137.6580918709674
 10
85.87503388695139
 20
-137.624329935212
 10
85.96322833137378
 20
-137.5840223180346
 10
86.08983559045672
 20
-137.5840223180346
 10
86.36113685992014
 20
-137.5840223180346
 10
86.614351378086
 20
-137.7704019837866
 10
86.614351378086
 20
-138.0832166538472
 10
86.614351378086
 20
-138.4008544575873
 10
86.37474498708687
 20
-138.6354654601328
 10
86.05142277579617
 20
-138.6354654601328
 97
        0
 97
        0
 75
     2
 76
     1
 98
        0
  0
ENDBLK
  5
CE
330
CB
100
AcDbEntity
  8
0
100
AcDbBlockEnd
  0
BLOCK
  5
DF
330
DD
100
AcDbEntity
  8
0
100
AcDbBlockBegin
  2
block 6
 70
     0
 10
0.0
 20
0.0
 30
0.0
  3
block 6
  1

  0
SPLINE
  5
E1
330
DD
100
AcDbEntity
  8
_U+30EC_U+30A4_U+30E4_U+30FC 1
370
     0
100
AcDbSpline
210
0.0
220
0.0
230
1.0
 70
    11
 71
     3
 72
    62
 73
    58
 74
     0
 42
0.0000000001
 43
0.0000000001
 12
1.0
 22
0.0
 32
0.0
 13
1.0
 23
0.0
 33
0.0
 40
0.0
 40
0.0
 40
0.0
 40
0.0
 40
1.0
 40
1.0
 40
1.0
 40
2.0
 40
2.0
 40
2.0
 40
3.0
 40
3.0
 40
3.0
 40
4.0
 40
4.0
 40
4.0
 40
5.0
 40
5.0
 40
5.0
 40
6.0
 40
6.0
 40
6.0
 40
7.0
 40
7.0
 40
7.0
 40
8.0
 40
8.0
 40
8.0
 40
9.0
 40
9.0
 40
9.0
 40
10.0
 40
10.0
 40
10.0
 40
11.0
 40
11.0
 40
11.0
 40
12.0
 40
12.0
 40
12.0
 40
13.0
 40
13.0
 40
13.0
 40
14.0
 40
14.0
 40
14.0
 40
15.0
 40
15.0
 40
15.0
 40
16.0
 40
16.0
 40
16.0
 40
17.0
 40
17.0
 40
17.0
 40
18.0
 40
18.0
 40
18.0
 40
19.0
 40
19.0
 40
19.0
 40
19.0
 10
87.93365069416242
 20
-119.6355916042057
 30
0.0
 10
87.83202037734756
 20
-119.6355916042057
 30
0.0
 10
87.59913192254467
 20
-119.6144042669714
 30
0.0
 10
87.4658067272655
 20
-119.4281968559936
 30
0.0
 10
87.38656953110475
 20
-119.3160589979488
 30
0.0
 10
87.38209090697393
 20
-119.2166679931993
 30
0.0
 10
87.3776122828431
 20
-119.1320908990364
 30
0.0
 10
87.3776122828431
 20
-119.1320908990364
 30
0.0
 10
87.61256779493714
 20
-119.1320908990364
 30
0.0
 10
87.61256779493714
 20
-119.1320908990364
 30
0.0
 10
87.61497936177682
 20
-119.2061604519693
 30
0.0
 10
87.62634817687814
 20
-119.4409437092891
 30
0.0
 10
87.9291720700316
 20
-119.4409437092891
 30
0.0
 10
88.07627764725177
 20
-119.4409437092891
 30
0.0
 10
88.23888615415557
 20
-119.3711805257128
 30
0.0
 10
88.23888615415557
 20
-119.1425984402664
 30
0.0
 10
88.23888615415557
 20
-119.0263264676393
 30
0.0
 10
88.1982340274296
 20
-118.977578366523
 30
0.0
 10
88.16447209167417
 20
-118.9458834880587
 30
0.0
 10
88.08523489551342
 20
-118.8718139351258
 30
0.0
 10
87.9608669484959
 20
-118.8592393366046
 30
0.0
 10
87.90195581569813
 20
-118.8592393366046
 30
0.0
 10
87.88162975233516
 20
-118.8592393366046
 30
0.0
 10
87.84338919244888
 20
-118.8613063938958
 30
0.0
 10
87.81376137127573
 20
-118.8654405084781
 30
0.0
 10
87.81376137127573
 20
-118.8654405084781
 30
0.0
 10
87.81376137127573
 20
-118.6707926135615
 30
0.0
 10
87.81376137127573
 20
-118.6707926135615
 30
0.0
 10
87.85441349800168
 20
-118.6771660402092
 30
0.0
 10
87.89988875840697
 20
-118.6794053522746
 30
0.0
 10
87.90643443982896
 20
-118.6794053522746
 30
0.0
 10
87.97671438772805
 20
-118.6794053522746
 30
0.0
 10
88.18927677916797
 20
-118.6582180150403
 30
0.0
 10
88.18927677916797
 20
-118.4211954456551
 30
0.0
 10
88.18927677916797
 20
-118.2436007733905
 30
0.0
 10
88.04906139291829
 20
-118.1884792456265
 30
0.0
 10
87.93158363687128
 20
-118.1884792456265
 30
0.0
 10
87.64874129753227
 20
-118.1884792456265
 30
0.0
 10
87.63978404927062
 20
-118.4211954456551
 30
0.0
 10
87.63530542513979
 20
-118.4931979412968
 30
0.0
 10
87.63530542513979
 20
-118.4931979412968
 30
0.0
 10
87.41826440956905
 20
-118.4931979412968
 30
0.0
 10
87.41826440956905
 20
-118.4931979412968
 30
0.0
 10
87.4272216578307
 20
-118.3683132299565
 30
0.0
 10
87.45650496945532
 20
-117.9917642934187
 30
0.0
 10
87.94501950926374
 20
-117.9917642934187
 30
0.0
 10
88.18479815503714
 20
-117.9917642934187
 30
0.0
 10
88.44249129733383
 20
-118.1187160620502
 30
0.0
 10
88.44249129733383
 20
-118.4148220190074
 30
0.0
 10
88.44249129733383
 20
-118.6010294299852
 30
0.0
 10
88.34051647097043
 20
-118.6835394668569
 30
0.0
 10
88.23440753002474
 20
-118.7448621664943
 30
0.0
 10
88.29986434424448
 20
-118.7724229303764
 30
0.0
 10
88.4945122391611
 20
-118.8528659099569
 30
0.0
 10
88.4945122391611
 20
-119.1300238417453
 30
0.0
 10
88.4945122391611
 20
-119.4685044731711
 30
0.0
 10
88.22992890589391
 20
-119.6355916042057
 30
0.0
 10
87.93365069416242
 20
-119.6355916042057
 30
0.0
  0
HATCH
  5
E2
330
DD
100
AcDbEntity
  8
_U+30EC_U+30A4_U+30E4_U+30FC 1
 62
   179
420
  2234388
100
AcDbHatch
 10
0.0
 20
0.0
 30
0.0
210
0.0
220
0.0
230
1.0
  2
SOLID
 70
     1
 71
     0
 91
        1
 92
        1
 93
        1
 72
     4
 94
        3
 73
     0
 74
     1
 95
       62
 96
       58
 40
0.0
 40
0.0
 40
0.0
 40
0.0
 40
1.0
 40
1.0
 40
1.0
 40
2.0
 40
2.0
 40
2.0
 40
3.0
 40
3.0
 40
3.0
 40
4.0
 40
4.0
 40
4.0
 40
5.0
 40
5.0
 40
5.0
 40
6.0
 40
6.0
 40
6.0
 40
7.0
 40
7.0
 40
7.0
 40
8.0
 40
8.0
 40
8.0
 40
9.0
 40
9.0
 40
9.0
 40
10.0
 40
10.0
 40
10.0
 40
11.0
 40
11.0
 40
11.0
 40
12.0
 40
12.0
 40
12.0
 40
13.0
 40
13.0
 40
13.0
 40
14.0
 40
14.0
 40
14.0
 40
15.0
 40
15.0
 40
15.0
 40
16.0
 40
16.0
 40
16.0
 40
17.0
 40
17.0
 40
17.0
 40
18.0
 40
18.0
 40
18.0
 40
19.0
 40
19.0
 40
19.0
 40
19.0
 10
87.93365069416242
 20
-119.6355916042057
 10
87.83202037734756
 20
-119.6355916042057
 10
87.59913192254467
 20
-119.6144042669714
 10
87.4658067272655
 20
-119.4281968559936
 10
87.38656953110475
 20
-119.3160589979488
 10
87.38209090697393
 20
-119.2166679931993
 10
87.3776122828431
 20
-119.1320908990364
 10
87.3776122828431
 20
-119.1320908990364
 10
87.61256779493714
 20
-119.1320908990364
 10
87.61256779493714
 20
-119.1320908990364
 10
87.61497936177682
 20
-119.2061604519693
 10
87.62634817687814
 20
-119.4409437092891
 10
87.9291720700316
 20
-119.4409437092891
 10
88.07627764725177
 20
-119.4409437092891
 10
88.23888615415557
 20
-119.3711805257128
 10
88.23888615415557
 20
-119.1425984402664
 10
88.23888615415557
 20
-119.0263264676393
 10
88.1982340274296
 20
-118.977578366523
 10
88.16447209167417
 20
-118.9458834880587
 10
88.08523489551342
 20
-118.8718139351258
 10
87.9608669484959
 20
-118.8592393366046
 10
87.90195581569813
 20
-118.8592393366046
 10
87.88162975233516
 20
-118.8592393366046
 10
87.84338919244888
 20
-118.8613063938958
 10
87.81376137127573
 20
-118.8654405084781
 10
87.81376137127573
 20
-118.8654405084781
 10
87.81376137127573
 20
-118.6707926135615
 10
87.81376137127573
 20
-118.6707926135615
 10
87.85441349800168
 20
-118.6771660402092
 10
87.89988875840697
 20
-118.6794053522746
 10
87.90643443982896
 20
-118.6794053522746
 10
87.97671438772805
 20
-118.6794053522746
 10
88.18927677916797
 20
-118.6582180150403
 10
88.18927677916797
 20
-118.4211954456551
 10
88.18927677916797
 20
-118.2436007733905
 10
88.04906139291829
 20
-118.1884792456265
 10
87.93158363687128
 20
-118.1884792456265
 10
87.64874129753227
 20
-118.1884792456265
 10
87.63978404927062
 20
-118.4211954456551
 10
87.63530542513979
 20
-118.4931979412968
 10
87.63530542513979
 20
-118.4931979412968
 10
87.41826440956905
 20
-118.4931979412968
 10
87.41826440956905
 20
-118.4931979412968
 10
87.4272216578307
 20
-118.3683132299565
 10
87.45650496945532
 20
-117.9917642934187
 10
87.94501950926374
 20
-117.9917642934187
 10
88.18479815503714
 20
-117.9917642934187
 10
88.44249129733383
 20
-118.1187160620502
 10
88.44249129733383
 20
-118.4148220190074
 10
88.44249129733383
 20
-118.6010294299852
 10
88.34051647097043
 20
-118.6835394668569
 10
88.23440753002474
 20
-118.7448621664943
 10
88.29986434424448
 20
-118.7724229303764
 10
88.4945122391611
 20
-118.8528659099569
 10
88.4945122391611
 20
-119.1300238417453
 10
88.4945122391611
 20
-119.4685044731711
 10
88.22992890589391
 20
-119.6355916042057
 10
87.93365069416242
 20
-119.6355916042057
 97
        0
 97
        0
 75
     2
 76
     1
 98
        0
  0
SPLINE
  5
E3
330
DD
100
AcDbEntity
  8
_U+30EC_U+30A4_U+30E4_U+30FC 1
370
     0
100
AcDbSpline
210
0.0
220
0.0
230
1.0
 70
    11
 71
     3
 72
    29
 73
    25
 74
     0
 42
0.0000000001
 43
0.0000000001
 12
1.0
 22
0.0
 32
0.0
 13
1.0
 23
0.0
 33
0.0
 40
0.0
 40
0.0
 40
0.0
 40
0.0
 40
1.0
 40
1.0
 40
1.0
 40
2.0
 40
2.0
 40
2.0
 40
3.0
 40
3.0
 40
3.0
 40
4.0
 40
4.0
 40
4.0
 40
5.0
 40
5.0
 40
5.0
 40
6.0
 40
6.0
 40
6.0
 40
7.0
 40
7.0
 40
7.0
 40
8.0
 40
8.0
 40
8.0
 40
8.0
 10
89.62553708696862
 20
-119.4070095187594
 30
0.0
 10
89.51012638821275
 20
-119.6164713242625
 30
0.0
 10
89.3247802511063
 20
-119.6355916042057
 30
0.0
 10
89.20041230408879
 20
-119.6355916042057
 30
0.0
 10
89.02884654892335
 20
-119.6355916042057
 30
0.0
 10
88.87726234757235
 20
-119.5890828151548
 30
0.0
 10
88.77563203075748
 20
-119.4070095187594
 30
0.0
 10
88.66469995613244
 20
-119.2123616238428
 30
0.0
 10
88.64437389276947
 20
-118.9755113092318
 30
0.0
 10
88.64437389276947
 20
-118.8125582927795
 30
0.0
 10
88.64437389276947
 20
-118.6687255562703
 30
0.0
 10
88.6626328988413
 20
-118.4170613310728
 30
0.0
 10
88.77563203075748
 20
-118.2181070667996
 30
0.0
 10
88.89069821996483
 20
-118.0150186879442
 30
0.0
 10
89.06260848467879
 20
-117.9917642934187
 30
0.0
 10
89.20041230408879
 20
-117.9917642934187
 30
0.0
 10
89.3702555115116
 20
-117.9917642934187
 30
0.0
 10
89.52390677015374
 20
-118.0362060251785
 30
0.0
 10
89.62553708696862
 20
-118.2181070667996
 30
0.0
 10
89.73199053746283
 20
-118.4106879044251
 30
0.0
 10
89.75679522495663
 20
-118.6390977350972
 30
0.0
 10
89.75679522495663
 20
-118.8125582927795
 30
0.0
 10
89.75679522495663
 20
-118.9839517931707
 30
0.0
 10
89.73405759475399
 20
-119.2146009359082
 30
0.0
 10
89.62553708696862
 20
-119.4070095187594
 30
0.0
  0
SPLINE
  5
E4
330
DD
100
AcDbEntity
  8
_U+30EC_U+30A4_U+30E4_U+30FC 1
370
     0
100
AcDbSpline
210
0.0
220
0.0
230
1.0
 70
    11
 71
     3
 72
    17
 73
    13
 74
     0
 42
0.0000000001
 43
0.0000000001
 12
1.0
 22
0.0
 32
0.0
 13
1.0
 23
0.0
 33
0.0
 40
0.0
 40
0.0
 40
0.0
 40
0.0
 40
1.0
 40
1.0
 40
1.0
 40
2.0
 40
2.0
 40
2.0
 40
3.0
 40
3.0
 40
3.0
 40
4.0
 40
4.0
 40
4.0
 40
4.0
 10
89.20041230408879
 20
-118.1843451310442
 30
0.0
 10
88.93376191353045
 20
-118.1843451310442
 30
0.0
 10
88.88415253854285
 20
-118.4678764894803
 30
0.0
 10
88.88415253854285
 20
-118.8125582927795
 30
0.0
 10
88.88415253854285
 20
-119.1320908990364
 30
0.0
 10
88.92239309842913
 20
-119.4409437092891
 30
0.0
 10
89.20041230408879
 20
-119.4409437092891
 30
0.0
 10
89.46499563735598
 20
-119.4409437092891
 30
0.0
 10
89.51701657918325
 20
-119.1594794081442
 30
0.0
 10
89.51701657918325
 20
-118.8125582927795
 30
0.0
 10
89.51701657918325
 20
-118.4931979412968
 30
0.0
 10
89.4763644524573
 20
-118.1843451310442
 30
0.0
 10
89.20041230408879
 20
-118.1843451310442
 30
0.0
  0
HATCH
  5
E5
330
DD
100
AcDbEntity
  8
_U+30EC_U+30A4_U+30E4_U+30FC 1
 62
   179
420
  2234388
100
AcDbHatch
 10
0.0
 20
0.0
 30
0.0
210
0.0
220
0.0
230
1.0
  2
SOLID
 70
     1
 71
     0
 91
        2
 92
        1
 93
        1
 72
     4
 94
        3
 73
     0
 74
     1
 95
       29
 96
       25
 40
0.0
 40
0.0
 40
0.0
 40
0.0
 40
1.0
 40
1.0
 40
1.0
 40
2.0
 40
2.0
 40
2.0
 40
3.0
 40
3.0
 40
3.0
 40
4.0
 40
4.0
 40
4.0
 40
5.0
 40
5.0
 40
5.0
 40
6.0
 40
6.0
 40
6.0
 40
7.0
 40
7.0
 40
7.0
 40
8.0
 40
8.0
 40
8.0
 40
8.0
 10
89.62553708696862
 20
-119.4070095187594
 10
89.51012638821275
 20
-119.6164713242625
 10
89.3247802511063
 20
-119.6355916042057
 10
89.20041230408879
 20
-119.6355916042057
 10
89.02884654892335
 20
-119.6355916042057
 10
88.87726234757235
 20
-119.5890828151548
 10
88.77563203075748
 20
-119.4070095187594
 10
88.66469995613244
 20
-119.2123616238428
 10
88.64437389276947
 20
-118.9755113092318
 10
88.64437389276947
 20
-118.8125582927795
 10
88.64437389276947
 20
-118.6687255562703
 10
88.6626328988413
 20
-118.4170613310728
 10
88.77563203075748
 20
-118.2181070667996
 10
88.89069821996483
 20
-118.0150186879442
 10
89.06260848467879
 20
-117.9917642934187
 10
89.20041230408879
 20
-117.9917642934187
 10
89.3702555115116
 20
-117.9917642934187
 10
89.52390677015374
 20
-118.0362060251785
 10
89.62553708696862
 20
-118.2181070667996
 10
89.73199053746283
 20
-118.4106879044251
 10
89.75679522495663
 20
-118.6390977350972
 10
89.75679522495663
 20
-118.8125582927795
 10
89.75679522495663
 20
-118.9839517931707
 10
89.73405759475399
 20
-119.2146009359082
 10
89.62553708696862
 20
-119.4070095187594
 97
        0
 97
        0
 92
        1
 93
        1
 72
     4
 94
        3
 73
     0
 74
     1
 95
       17
 96
       13
 40
0.0
 40
0.0
 40
0.0
 40
0.0
 40
1.0
 40
1.0
 40
1.0
 40
2.0
 40
2.0
 40
2.0
 40
3.0
 40
3.0
 40
3.0
 40
4.0
 40
4.0
 40
4.0
 40
4.0
 10
89.20041230408879
 20
-118.1843451310442
 10
88.93376191353045
 20
-118.1843451310442
 10
88.88415253854285
 20
-118.4678764894803
 10
88.88415253854285
 20
-118.8125582927795
 10
88.88415253854285
 20
-119.1320908990364
 10
88.92239309842913
 20
-119.4409437092891
 10
89.20041230408879
 20
-119.4409437092891
 10
89.46499563735598
 20
-119.4409437092891
 10
89.51701657918325
 20
-119.1594794081442
 10
89.51701657918325
 20
-118.8125582927795
 10
89.51701657918325
 20
-118.4931979412968
 10
89.4763644524573
 20
-118.1843451310442
 10
89.20041230408879
 20
-118.1843451310442
 97
        0
 97
        0
 75
     2
 76
     1
 98
        0
  0
ENDBLK
  5
E0
330
DD
100
AcDbEntity
  8
0
100
AcDbBlockEnd
  0
BLOCK
  5
F0
330
EE
100
AcDbEntity
  8
0
100
AcDbBlockBegin
  2
block 7
 70
     0
 10
0.0
 20
0.0
 30
0.0
  3
block 7
  1

  0
SPLINE
  5
F2
330
EE
100
AcDbEntity
  8
_U+30EC_U+30A4_U+30E4_U+30FC 1
370
     0
100
AcDbSpline
210
0.0
220
0.0
230
1.0
 70
    11
 71
     3
 72
    26
 73
    22
 74
     0
 42
0.0000000001
 43
0.0000000001
 12
1.0
 22
0.0
 32
0.0
 13
1.0
 23
0.0
 33
0.0
 40
0.0
 40
0.0
 40
0.0
 40
0.0
 40
1.0
 40
1.0
 40
1.0
 40
2.0
 40
2.0
 40
2.0
 40
3.0
 40
3.0
 40
3.0
 40
4.0
 40
4.0
 40
4.0
 40
5.0
 40
5.0
 40
5.0
 40
6.0
 40
6.0
 40
6.0
 40
7.0
 40
7.0
 40
7.0
 40
7.0
 10
105.8381564405544
 20
-128.8262450849809
 30
0.0
 10
105.8381564405544
 20
-128.8262450849809
 30
0.0
 10
105.8381564405544
 20
-129.0794596031468
 30
0.0
 10
105.8381564405544
 20
-129.0794596031468
 30
0.0
 10
105.5291313755274
 20
-129.0525878583618
 30
0.0
 10
105.0109890145459
 20
-128.8465711483439
 30
0.0
 10
104.5052489973112
 20
-128.4124891172024
 30
0.0
 10
104.5052489973112
 20
-128.4124891172024
 30
0.0
 10
104.5052489973112
 20
-129.3078694338189
 30
0.0
 10
104.5052489973112
 20
-129.3078694338189
 30
0.0
 10
104.5052489973112
 20
-129.3078694338189
 30
0.0
 10
104.2937201345168
 20
-129.3078694338189
 30
0.0
 10
104.2937201345168
 20
-129.3078694338189
 30
0.0
 10
104.2937201345168
 20
-129.3078694338189
 30
0.0
 10
104.2937201345168
 20
-128.1592745990366
 30
0.0
 10
104.2937201345168
 20
-128.1592745990366
 30
0.0
 10
104.2937201345168
 20
-128.1592745990366
 30
0.0
 10
104.5052489973112
 20
-128.1592745990366
 30
0.0
 10
104.5052489973112
 20
-128.1592745990366
 30
0.0
 10
104.7953260371692
 20
-128.5051621857557
 30
0.0
 10
105.3875379510837
 20
-128.7900715823858
 30
0.0
 10
105.8381564405544
 20
-128.8262450849809
 30
0.0
  0
HATCH
  5
F3
330
EE
100
AcDbEntity
  8
_U+30EC_U+30A4_U+30E4_U+30FC 1
 62
   179
420
  2234388
100
AcDbHatch
 10
0.0
 20
0.0
 30
0.0
210
0.0
220
0.0
230
1.0
  2
SOLID
 70
     1
 71
     0
 91
        1
 92
        1
 93
        1
 72
     4
 94
        3
 73
     0
 74
     1
 95
       26
 96
       22
 40
0.0
 40
0.0
 40
0.0
 40
0.0
 40
1.0
 40
1.0
 40
1.0
 40
2.0
 40
2.0
 40
2.0
 40
3.0
 40
3.0
 40
3.0
 40
4.0
 40
4.0
 40
4.0
 40
5.0
 40
5.0
 40
5.0
 40
6.0
 40
6.0
 40
6.0
 40
7.0
 40
7.0
 40
7.0
 40
7.0
 10
105.8381564405544
 20
-128.8262450849809
 10
105.8381564405544
 20
-128.8262450849809
 10
105.8381564405544
 20
-129.0794596031468
 10
105.8381564405544
 20
-129.0794596031468
 10
105.5291313755274
 20
-129.0525878583618
 10
105.0109890145459
 20
-128.8465711483439
 10
104.5052489973112
 20
-128.4124891172024
 10
104.5052489973112
 20
-128.4124891172024
 10
104.5052489973112
 20
-129.3078694338189
 10
104.5052489973112
 20
-129.3078694338189
 10
104.5052489973112
 20
-129.3078694338189
 10
104.2937201345168
 20
-129.3078694338189
 10
104.2937201345168
 20
-129.3078694338189
 10
104.2937201345168
 20
-129.3078694338189
 10
104.2937201345168
 20
-128.1592745990366
 10
104.2937201345168
 20
-128.1592745990366
 10
104.2937201345168
 20
-128.1592745990366
 10
104.5052489973112
 20
-128.1592745990366
 10
104.5052489973112
 20
-128.1592745990366
 10
104.7953260371692
 20
-128.5051621857557
 10
105.3875379510837
 20
-128.7900715823858
 10
105.8381564405544
 20
-128.8262450849809
 97
        0
 97
        0
 75
     2
 76
     1
 98
        0
  0
ENDBLK
  5
F1
330
EE
100
AcDbEntity
  8
0
100
AcDbBlockEnd
  0
ENDSEC
  0
SECTION
  2
ENTITIES
  0
POLYLINE
  5
41
330
1F
100
AcDbEntity
  8
_U+30EC_U+30A4_U+30E4_U+30FC 1
370
     0
100
AcDb2dPolyline
 66
     1
 10
0.0
 20
0.0
 30
0.0
  0
VERTEX
  5
42
330
41
100
AcDbEntity
  8
_U+30EC_U+30A4_U+30E4_U+30FC 1
370
     0
100
AcDbVertex
100
AcDb2dVertex
 10
73.57208590079749
 20
-125.2300785798036
 30
0.0
  0
VERTEX
  5
43
330
41
100
AcDbEntity
  8
_U+30EC_U+30A4_U+30E4_U+30FC 1
370
     0
100
AcDbVertex
100
AcDb2dVertex
 10
83.5721714790074
 20
-125.2300785798036
 30
0.0
  0
VERTEX
  5
44
330
41
100
AcDbEntity
  8
_U+30EC_U+30A4_U+30E4_U+30FC 1
370
     0
100
AcDbVertex
100
AcDb2dVertex
 10
83.5721714790074
 20
-135.2303407995255
 30
0.0
  0
VERTEX
  5
45
330
41
100
AcDbEntity
  8
_U+30EC_U+30A4_U+30E4_U+30FC 1
370
     0
100
AcDbVertex
100
AcDb2dVertex
 10
88.57202024033951
 20
-135.2303407995255
 30
0.0
  0
VERTEX
  5
46
330
41
100
AcDbEntity
  8
_U+30EC_U+30A4_U+30E4_U+30FC 1
370
     0
100
AcDbVertex
100
AcDb2dVertex
 10
88.57202024033951
 20
-132.2303538558311
 30
0.0
  0
VERTEX
  5
47
330
41
100
AcDbEntity
  8
_U+30EC_U+30A4_U+30E4_U+30FC 1
370
     0
100
AcDbVertex
100
AcDb2dVertex
 10
87.5719305436317
 20
-132.2303538558311
 30
0.0
  0
VERTEX
  5
48
330
41
100
AcDbEntity
  8
_U+30EC_U+30A4_U+30E4_U+30FC 1
370
     0
100
AcDbVertex
100
AcDb2dVertex
 10
87.5719305436317
 20
-134.2305685775536
 30
0.0
  0
VERTEX
  5
49
330
41
100
AcDbEntity
  8
_U+30EC_U+30A4_U+30E4_U+30FC 1
370
     0
100
AcDbVertex
100
AcDb2dVertex
 10
84.47200173382859
 20
-134.2305685775536
 30
0.0
  0
VERTEX
  5
4A
330
41
100
AcDbEntity
  8
_U+30EC_U+30A4_U+30E4_U+30FC 1
370
     0
100
AcDbVertex
100
AcDb2dVertex
 10
84.47200173382859
 20
-125.2300785798036
 30
0.0
  0
VERTEX
  5
4B
330
41
100
AcDbEntity
  8
_U+30EC_U+30A4_U+30E4_U+30FC 1
370
     0
100
AcDbVertex
100
AcDb2dVertex
 10
103.5719545798815
 20
-125.2300785798036
 30
0.0
  0
VERTEX
  5
4C
330
41
100
AcDbEntity
  8
_U+30EC_U+30A4_U+30E4_U+30FC 1
370
     0
100
AcDbVertex
100
AcDb2dVertex
 10
103.5719545798815
 20
-124.2303063578314
 30
0.0
  0
VERTEX
  5
4D
330
41
100
AcDbEntity
  8
_U+30EC_U+30A4_U+30E4_U+30FC 1
370
     0
100
AcDbVertex
100
AcDb2dVertex
 10
73.57208590079749
 20
-124.2303063578314
 30
0.0
  0
VERTEX
  5
4E
330
41
100
AcDbEntity
  8
_U+30EC_U+30A4_U+30E4_U+30FC 1
370
     0
100
AcDbVertex
100
AcDb2dVertex
 10
73.57208590079749
 20
-125.2300785798036
 30
0.0
  0
SEQEND
  5
50
330
41
100
AcDbEntity
  8
_U+30EC_U+30A4_U+30E4_U+30FC 1
370
     0
  0
HATCH
  5
4F
330
1F
100
AcDbEntity
  8
_U+30EC_U+30A4_U+30E4_U+30FC 1
 62
   253
420
 11711154
100
AcDbHatch
 10
0.0
 20
0.0
 30
0.0
210
0.0
220
0.0
230
1.0
  2
SOLID
 70
     1
 71
     0
 91
        1
 92
        1
 93
       12
 72
     1
 10
73.57208590079749
 20
-125.2300785798036
 11
83.5721714790074
 21
-125.2300785798036
 72
     1
 10
83.5721714790074
 20
-125.2300785798036
 11
83.5721714790074
 21
-135.2303407995255
 72
     1
 10
83.5721714790074
 20
-135.2303407995255
 11
88.57202024033951
 21
-135.2303407995255
 72
     1
 10
88.57202024033951
 20
-135.2303407995255
 11
88.57202024033951
 21
-132.2303538558311
 72
     1
 10
88.57202024033951
 20
-132.2303538558311
 11
87.5719305436317
 21
-132.2303538558311
 72
     1
 10
87.5719305436317
 20
-132.2303538558311
 11
87.5719305436317
 21
-134.2305685775536
 72
     1
 10
87.5719305436317
 20
-134.2305685775536
 11
84.47200173382859
 21
-134.2305685775536
 72
     1
 10
84.47200173382859
 20
-134.2305685775536
 11
84.47200173382859
 21
-125.2300785798036
 72
     1
 10
84.47200173382859
 20
-125.2300785798036
 11
103.5719545798815
 21
-125.2300785798036
 72
     1
 10
103.5719545798815
 20
-125.2300785798036
 11
103.5719545798815
 21
-124.2303063578314
 72
     1
 10
103.5719545798815
 20
-124.2303063578314
 11
73.57208590079749
 21
-124.2303063578314
 72
     1
 10
73.57208590079749
 20
-124.2303063578314
 11
73.57208590079749
 21
-125.2300785798036
 97
        0
 75
     2
 76
     1
 98
        0
  0
POLYLINE
  5
51
330
1F
100
AcDbEntity
  8
_U+30EC_U+30A4_U+30E4_U+30FC 1
 62
   179
420
  2234388
370
    25
100
AcDb2dPolyline
 66
     1
 10
0.0
 20
0.0
 30
0.0
  0
VERTEX
  5
52
330
51
100
AcDbEntity
  8
_U+30EC_U+30A4_U+30E4_U+30FC 1
 62
   179
420
  2234388
370
    25
100
AcDbVertex
100
AcDb2dVertex
 10
73.57208590079749
 20
-124.2303063578314
 30
0.0
  0
VERTEX
  5
53
330
51
100
AcDbEntity
  8
_U+30EC_U+30A4_U+30E4_U+30FC 1
 62
   179
420
  2234388
370
    25
100
AcDbVertex
100
AcDb2dVertex
 10
103.5719545798815
 20
-124.2303063578314
 30
0.0
  0
SEQEND
  5
54
330
51
100
AcDbEntity
  8
_U+30EC_U+30A4_U+30E4_U+30FC 1
 62
   179
420
  2234388
370
    25
  0
POLYLINE
  5
55
330
1F
100
AcDbEntity
  8
_U+30EC_U+30A4_U+30E4_U+30FC 1
 62
   179
420
  2234388
370
    25
100
AcDb2dPolyline
 66
     1
 10
0.0
 20
0.0
 30
0.0
  0
VERTEX
  5
56
330
55
100
AcDbEntity
  8
_U+30EC_U+30A4_U+30E4_U+30FC 1
 62
   179
420
  2234388
370
    25
100
AcDbVertex
100
AcDb2dVertex
 10
73.57208590079749
 20
-125.2300785798036
 30
0.0
  0
VERTEX
  5
57
330
55
100
AcDbEntity
  8
_U+30EC_U+30A4_U+30E4_U+30FC 1
 62
   179
420
  2234388
370
    25
100
AcDbVertex
100
AcDb2dVertex
 10
83.5721714790074
 20
-125.2300785798036
 30
0.0
  0
SEQEND
  5
58
330
55
100
AcDbEntity
  8
_U+30EC_U+30A4_U+30E4_U+30FC 1
 62
   179
420
  2234388
370
    25
  0
POLYLINE
  5
59
330
1F
100
AcDbEntity
  8
_U+30EC_U+30A4_U+30E4_U+30FC 1
 62
   179
420
  2234388
370
    25
100
AcDb2dPolyline
 66
     1
 10
0.0
 20
0.0
 30
0.0
  0
VERTEX
  5
5A
330
59
100
AcDbEntity
  8
_U+30EC_U+30A4_U+30E4_U+30FC 1
 62
   179
420
  2234388
370
    25
100
AcDbVertex
100
AcDb2dVertex
 10
103.5719545798815
 20
-125.2300785798036
 30
0.0
  0
VERTEX
  5
5B
330
59
100
AcDbEntity
  8
_U+30EC_U+30A4_U+30E4_U+30FC 1
 62
   179
420
  2234388
370
    25
100
AcDbVertex
100
AcDb2dVertex
 10
103.5719545798815
 20
-124.2303063578314
 30
0.0
  0
SEQEND
  5
5C
330
59
100
AcDbEntity
  8
_U+30EC_U+30A4_U+30E4_U+30FC 1
 62
   179
420
  2234388
370
    25
  0
POLYLINE
  5
5D
330
1F
100
AcDbEntity
  8
_U+30EC_U+30A4_U+30E4_U+30FC 1
 62
   179
420
  2234388
370
    25
100
AcDb2dPolyline
 66
     1
 10
0.0
 20
0.0
 30
0.0
  0
VERTEX
  5
5E
330
5D
100
AcDbEntity
  8
_U+30EC_U+30A4_U+30E4_U+30FC 1
 62
   179
420
  2234388
370
    25
100
AcDbVertex
100
AcDb2dVertex
 10
84.47200173382859
 20
-125.2300785798036
 30
0.0
  0
VERTEX
  5
5F
330
5D
100
AcDbEntity
  8
_U+30EC_U+30A4_U+30E4_U+30FC 1
 62
   179
420
  2234388
370
    25
100
AcDbVertex
100
AcDb2dVertex
 10
103.5719545798815
 20
-125.2300785798036
 30
0.0
  0
SEQEND
  5
60
330
5D
100
AcDbEntity
  8
_U+30EC_U+30A4_U+30E4_U+30FC 1
 62
   179
420
  2234388
370
    25
  0
POLYLINE
  5
61
330
1F
100
AcDbEntity
  8
_U+30EC_U+30A4_U+30E4_U+30FC 1
 62
   179
420
  2234388
370
    25
100
AcDb2dPolyline
 66
     1
 10
0.0
 20
0.0
 30
0.0
  0
VERTEX
  5
62
330
61
100
AcDbEntity
  8
_U+30EC_U+30A4_U+30E4_U+30FC 1
 62
   179
420
  2234388
370
    25
100
AcDbVertex
100
AcDb2dVertex
 10
73.57208590079749
 20
-125.2300785798036
 30
0.0
  0
VERTEX
  5
63
330
61
100
AcDbEntity
  8
_U+30EC_U+30A4_U+30E4_U+30FC 1
 62
   179
420
  2234388
370
    25
100
AcDbVertex
100
AcDb2dVertex
 10
73.57208590079749
 20
-124.2303063578314
 30
0.0
  0
SEQEND
  5
64
330
61
100
AcDbEntity
  8
_U+30EC_U+30A4_U+30E4_U+30FC 1
 62
   179
420
  2234388
370
    25
  0
POLYLINE
  5
65
330
1F
100
AcDbEntity
  8
_U+30EC_U+30A4_U+30E4_U+30FC 1
 62
   179
420
  2234388
370
    25
100
AcDb2dPolyline
 66
     1
 10
0.0
 20
0.0
 30
0.0
  0
VERTEX
  5
66
330
65
100
AcDbEntity
  8
_U+30EC_U+30A4_U+30E4_U+30FC 1
 62
   179
420
  2234388
370
    25
100
AcDbVertex
100
AcDb2dVertex
 10
83.5721714790074
 20
-135.2303407995255
 30
0.0
  0
VERTEX
  5
67
330
65
100
AcDbEntity
  8
_U+30EC_U+30A4_U+30E4_U+30FC 1
 62
   179
420
  2234388
370
    25
100
AcDbVertex
100
AcDb2dVertex
 10
83.5721714790074
 20
-125.2300785798036
 30
0.0
  0
SEQEND
  5
68
330
65
100
AcDbEntity
  8
_U+30EC_U+30A4_U+30E4_U+30FC 1
 62
   179
420
  2234388
370
    25
  0
POLYLINE
  5
69
330
1F
100
AcDbEntity
  8
_U+30EC_U+30A4_U+30E4_U+30FC 1
 62
   179
420
  2234388
370
    25
100
AcDb2dPolyline
 66
     1
 10
0.0
 20
0.0
 30
0.0
  0
VERTEX
  5
6A
330
69
100
AcDbEntity
  8
_U+30EC_U+30A4_U+30E4_U+30FC 1
 62
   179
420
  2234388
370
    25
100
AcDbVertex
100
AcDb2dVertex
 10
87.5719305436317
 20
-132.2303538558311
 30
0.0
  0
VERTEX
  5
6B
330
69
100
AcDbEntity
  8
_U+30EC_U+30A4_U+30E4_U+30FC 1
 62
   179
420
  2234388
370
    25
100
AcDbVertex
100
AcDb2dVertex
 10
88.57202024033951
 20
-132.2303538558311
 30
0.0
  0
SEQEND
  5
6C
330
69
100
AcDbEntity
  8
_U+30EC_U+30A4_U+30E4_U+30FC 1
 62
   179
420
  2234388
370
    25
  0
POLYLINE
  5
6D
330
1F
100
AcDbEntity
  8
_U+30EC_U+30A4_U+30E4_U+30FC 1
 62
   179
420
  2234388
370
    25
100
AcDb2dPolyline
 66
     1
 10
0.0
 20
0.0
 30
0.0
  0
VERTEX
  5
6E
330
6D
100
AcDbEntity
  8
_U+30EC_U+30A4_U+30E4_U+30FC 1
 62
   179
420
  2234388
370
    25
100
AcDbVertex
100
AcDb2dVertex
 10
83.5721714790074
 20
-135.2303407995255
 30
0.0
  0
VERTEX
  5
6F
330
6D
100
AcDbEntity
  8
_U+30EC_U+30A4_U+30E4_U+30FC 1
 62
   179
420
  2234388
370
    25
100
AcDbVertex
100
AcDb2dVertex
 10
88.57202024033951
 20
-135.2303407995255
 30
0.0
  0
SEQEND
  5
70
330
6D
100
AcDbEntity
  8
_U+30EC_U+30A4_U+30E4_U+30FC 1
 62
   179
420
  2234388
370
    25
  0
POLYLINE
  5
71
330
1F
100
AcDbEntity
  8
_U+30EC_U+30A4_U+30E4_U+30FC 1
 62
   179
420
  2234388
370
    25
100
AcDb2dPolyline
 66
     1
 10
0.0
 20
0.0
 30
0.0
  0
VERTEX
  5
72
330
71
100
AcDbEntity
  8
_U+30EC_U+30A4_U+30E4_U+30FC 1
 62
   179
420
  2234388
370
    25
100
AcDbVertex
100
AcDb2dVertex
 10
84.47200173382859
 20
-134.2305685775536
 30
0.0
  0
VERTEX
  5
73
330
71
100
AcDbEntity
  8
_U+30EC_U+30A4_U+30E4_U+30FC 1
 62
   179
420
  2234388
370
    25
100
AcDbVertex
100
AcDb2dVertex
 10
87.5719305436317
 20
-134.2305685775536
 30
0.0
  0
SEQEND
  5
74
330
71
100
AcDbEntity
  8
_U+30EC_U+30A4_U+30E4_U+30FC 1
 62
   179
420
  2234388
370
    25
  0
POLYLINE
  5
75
330
1F
100
AcDbEntity
  8
_U+30EC_U+30A4_U+30E4_U+30FC 1
 62
   179
420
  2234388
370
    25
100
AcDb2dPolyline
 66
     1
 10
0.0
 20
0.0
 30
0.0
  0
VERTEX
  5
76
330
75
100
AcDbEntity
  8
_U+30EC_U+30A4_U+30E4_U+30FC 1
 62
   179
420
  2234388
370
    25
100
AcDbVertex
100
AcDb2dVertex
 10
88.57202024033951
 20
-135.2303407995255
 30
0.0
  0
VERTEX
  5
77
330
75
100
AcDbEntity
  8
_U+30EC_U+30A4_U+30E4_U+30FC 1
 62
   179
420
  2234388
370
    25
100
AcDbVertex
100
AcDb2dVertex
 10
88.57202024033951
 20
-132.2303538558311
 30
0.0
  0
SEQEND
  5
78
330
75
100
AcDbEntity
  8
_U+30EC_U+30A4_U+30E4_U+30FC 1
 62
   179
420
  2234388
370
    25
  0
POLYLINE
  5
79
330
1F
100
AcDbEntity
  8
_U+30EC_U+30A4_U+30E4_U+30FC 1
 62
   179
420
  2234388
370
    25
100
AcDb2dPolyline
 66
     1
 10
0.0
 20
0.0
 30
0.0
  0
VERTEX
  5
7A
330
79
100
AcDbEntity
  8
_U+30EC_U+30A4_U+30E4_U+30FC 1
 62
   179
420
  2234388
370
    25
100
AcDbVertex
100
AcDb2dVertex
 10
87.5719305436317
 20
-134.2305685775536
 30
0.0
  0
VERTEX
  5
7B
330
79
100
AcDbEntity
  8
_U+30EC_U+30A4_U+30E4_U+30FC 1
 62
   179
420
  2234388
370
    25
100
AcDbVertex
100
AcDb2dVertex
 10
87.5719305436317
 20
-132.2303538558311
 30
0.0
  0
SEQEND
  5
7C
330
79
100
AcDbEntity
  8
_U+30EC_U+30A4_U+30E4_U+30FC 1
 62
   179
420
  2234388
370
    25
  0
POLYLINE
  5
7D
330
1F
100
AcDbEntity
  8
_U+30EC_U+30A4_U+30E4_U+30FC 1
 62
   179
420
  2234388
370
    25
100
AcDb2dPolyline
 66
     1
 10
0.0
 20
0.0
 30
0.0
  0
VERTEX
  5
7E
330
7D
100
AcDbEntity
  8
_U+30EC_U+30A4_U+30E4_U+30FC 1
 62
   179
420
  2234388
370
    25
100
AcDbVertex
100
AcDb2dVertex
 10
84.47200173382859
 20
-134.2305685775536
 30
0.0
  0
VERTEX
  5
7F
330
7D
100
AcDbEntity
  8
_U+30EC_U+30A4_U+30E4_U+30FC 1
 62
   179
420
  2234388
370
    25
100
AcDbVertex
100
AcDb2dVertex
 10
84.47200173382859
 20
-125.2300785798036
 30
0.0
  0
SEQEND
  5
80
330
7D
100
AcDbEntity
  8
_U+30EC_U+30A4_U+30E4_U+30FC 1
 62
   179
420
  2234388
370
    25
  0
SPLINE
  5
81
330
1F
100
AcDbEntity
  8
_U+30EC_U+30A4_U+30E4_U+30FC 1
 62
   179
420
  2234388
370
     9
100
AcDbSpline
210
0.0
220
0.0
230
1.0
 70
    11
 71
     3
 72
    17
 73
    13
 74
     0
 42
0.0000000001
 43
0.0000000001
 12
1.0
 22
0.0
 32
0.0
 13
1.0
 23
0.0
 33
0.0
 40
0.0
 40
0.0
 40
0.0
 40
0.0
 40
1.0
 40
1.0
 40
1.0
 40
2.0
 40
2.0
 40
2.0
 40
3.0
 40
3.0
 40
3.0
 40
4.0
 40
4.0
 40
4.0
 40
4.0
 10
73.67199442602639
 20
-120.2302296921646
 30
0.0
 10
73.67199442602639
 20
-120.1750905255118
 30
0.0
 10
73.62719164826
 20
-120.1303230255229
 30
0.0
 10
73.57208590079749
 20
-120.1303230255229
 30
0.0
 10
73.51694673553754
 20
-120.1303230255229
 30
0.0
 10
73.47217923667966
 20
-120.1750905255118
 30
0.0
 10
73.47217923667966
 20
-120.2302296921646
 30
0.0
 10
73.47217923667966
 20
-120.2856863588176
 30
0.0
 10
73.51694673553754
 20
-120.3304538588061
 30
0.0
 10
73.57208590079749
 20
-120.3304538588061
 30
0.0
 10
73.62719164826
 20
-120.3304538588061
 30
0.0
 10
73.67199442602639
 20
-120.2856863588176
 30
0.0
 10
73.67199442602639
 20
-120.2302296921646
 30
0.0
  0
SPLINE
  5
82
330
1F
100
AcDbEntity
  8
_U+30EC_U+30A4_U+30E4_U+30FC 1
 62
   179
420
  2234388
370
     9
100
AcDbSpline
210
0.0
220
0.0
230
1.0
 70
    11
 71
     3
 72
    17
 73
    13
 74
     0
 42
0.0000000001
 43
0.0000000001
 12
1.0
 22
0.0
 32
0.0
 13
1.0
 23
0.0
 33
0.0
 40
0.0
 40
0.0
 40
0.0
 40
0.0
 40
1.0
 40
1.0
 40
1.0
 40
2.0
 40
2.0
 40
2.0
 40
3.0
 40
3.0
 40
3.0
 40
4.0
 40
4.0
 40
4.0
 40
4.0
 10
103.6722166407485
 20
-120.2302296921646
 30
0.0
 10
103.6722166407485
 20
-120.1750905255118
 30
0.0
 10
103.6274465229102
 20
-120.1303230255229
 30
0.0
 10
103.5719545798815
 20
-120.1303230255229
 30
0.0
 10
103.5168506923984
 20
-120.1303230255229
 30
0.0
 10
103.4720479157637
 20
-120.1750905255118
 30
0.0
 10
103.4720479157637
 20
-120.2302296921646
 30
0.0
 10
103.4720479157637
 20
-120.2856863588176
 30
0.0
 10
103.5168506923984
 20
-120.3304538588061
 30
0.0
 10
103.5719545798815
 20
-120.3304538588061
 30
0.0
 10
103.6274465229102
 20
-120.3304538588061
 30
0.0
 10
103.6722166407485
 20
-120.2856863588176
 30
0.0
 10
103.6722166407485
 20
-120.2302296921646
 30
0.0
  0
SPLINE
  5
83
330
1F
100
AcDbEntity
  8
_U+30EC_U+30A4_U+30E4_U+30FC 1
 62
   179
420
  2234388
370
     9
100
AcDbSpline
210
0.0
220
0.0
230
1.0
 70
    11
 71
     3
 72
    17
 73
    13
 74
     0
 42
0.0000000001
 43
0.0000000001
 12
1.0
 22
0.0
 32
0.0
 13
1.0
 23
0.0
 33
0.0
 40
0.0
 40
0.0
 40
0.0
 40
0.0
 40
1.0
 40
1.0
 40
1.0
 40
2.0
 40
2.0
 40
2.0
 40
3.0
 40
3.0
 40
3.0
 40
4.0
 40
4.0
 40
4.0
 40
4.0
 10
107.6719730863925
 20
-124.2303063578314
 30
0.0
 10
107.6719730863925
 20
-124.1752024689561
 30
0.0
 10
107.6272083064262
 20
-124.1303996911897
 30
0.0
 10
107.5720664222746
 20
-124.1303996911897
 30
0.0
 10
107.5169625347915
 20
-124.1303996911897
 30
0.0
 10
107.4721597581568
 20
-124.1752024689561
 30
0.0
 10
107.4721597581568
 20
-124.2303063578314
 30
0.0
 10
107.4721597581568
 20
-124.2854455244841
 30
0.0
 10
107.5169625347915
 20
-124.330213024473
 30
0.0
 10
107.5720664222746
 20
-124.330213024473
 30
0.0
 10
107.6272083064262
 20
-124.330213024473
 30
0.0
 10
107.6719730863925
 20
-124.2854455244841
 30
0.0
 10
107.6719730863925
 20
-124.2303063578314
 30
0.0
  0
SPLINE
  5
84
330
1F
100
AcDbEntity
  8
_U+30EC_U+30A4_U+30E4_U+30FC 1
 62
   179
420
  2234388
370
     9
100
AcDbSpline
210
0.0
220
0.0
230
1.0
 70
    11
 71
     3
 72
    17
 73
    13
 74
     0
 42
0.0000000001
 43
0.0000000001
 12
1.0
 22
0.0
 32
0.0
 13
1.0
 23
0.0
 33
0.0
 40
0.0
 40
0.0
 40
0.0
 40
0.0
 40
1.0
 40
1.0
 40
1.0
 40
2.0
 40
2.0
 40
2.0
 40
3.0
 40
3.0
 40
3.0
 40
4.0
 40
4.0
 40
4.0
 40
4.0
 10
107.6719730863925
 20
-125.2300785798036
 30
0.0
 10
107.6719730863925
 20
-125.1749746909284
 30
0.0
 10
107.6272083064262
 20
-125.1301719131619
 30
0.0
 10
107.5720664222746
 20
-125.1301719131619
 30
0.0
 10
107.5169625347915
 20
-125.1301719131619
 30
0.0
 10
107.4721597581568
 20
-125.1749746909284
 30
0.0
 10
107.4721597581568
 20
-125.2300785798036
 30
0.0
 10
107.4721597581568
 20
-125.2855352464563
 30
0.0
 10
107.5169625347915
 20
-125.330338024223
 30
0.0
 10
107.5720664222746
 20
-125.330338024223
 30
0.0
 10
107.6272083064262
 20
-125.330338024223
 30
0.0
 10
107.6719730863925
 20
-125.2855352464563
 30
0.0
 10
107.6719730863925
 20
-125.2300785798036
 30
0.0
  0
SPLINE
  5
85
330
1F
100
AcDbEntity
  8
_U+30EC_U+30A4_U+30E4_U+30FC 1
 62
   179
420
  2234388
370
     9
100
AcDbSpline
210
0.0
220
0.0
230
1.0
 70
    11
 71
     3
 72
    17
 73
    13
 74
     0
 42
0.0000000001
 43
0.0000000001
 12
1.0
 22
0.0
 32
0.0
 13
1.0
 23
0.0
 33
0.0
 40
0.0
 40
0.0
 40
0.0
 40
0.0
 40
1.0
 40
1.0
 40
1.0
 40
2.0
 40
2.0
 40
2.0
 40
3.0
 40
3.0
 40
3.0
 40
4.0
 40
4.0
 40
4.0
 40
4.0
 10
107.6719730863925
 20
-132.2303538558311
 30
0.0
 10
107.6719730863925
 20
-132.1752146891787
 30
0.0
 10
107.6272083064262
 20
-132.1304471891895
 30
0.0
 10
107.5720664222746
 20
-132.1304471891895
 30
0.0
 10
107.5169625347915
 20
-132.1304471891895
 30
0.0
 10
107.4721597581568
 20
-132.1752146891787
 30
0.0
 10
107.4721597581568
 20
-132.2303538558311
 30
0.0
 10
107.4721597581568
 20
-132.2854577447067
 30
0.0
 10
107.5169625347915
 20
-132.3302605224728
 30
0.0
 10
107.5720664222746
 20
-132.3302605224728
 30
0.0
 10
107.6272083064262
 20
-132.3302605224728
 30
0.0
 10
107.6719730863925
 20
-132.2854577447067
 30
0.0
 10
107.6719730863925
 20
-132.2303538558311
 30
0.0
  0
SPLINE
  5
86
330
1F
100
AcDbEntity
  8
_U+30EC_U+30A4_U+30E4_U+30FC 1
 62
   179
420
  2234388
370
     9
100
AcDbSpline
210
0.0
220
0.0
230
1.0
 70
    11
 71
     3
 72
    17
 73
    13
 74
     0
 42
0.0000000001
 43
0.0000000001
 12
1.0
 22
0.0
 32
0.0
 13
1.0
 23
0.0
 33
0.0
 40
0.0
 40
0.0
 40
0.0
 40
0.0
 40
1.0
 40
1.0
 40
1.0
 40
2.0
 40
2.0
 40
2.0
 40
3.0
 40
3.0
 40
3.0
 40
4.0
 40
4.0
 40
4.0
 40
4.0
 10
107.6719730863925
 20
-135.2303407995255
 30
0.0
 10
107.6719730863925
 20
-135.175201632873
 30
0.0
 10
107.6272083064262
 20
-135.1304341328838
 30
0.0
 10
107.5720664222746
 20
-135.1304341328838
 30
0.0
 10
107.5169625347915
 20
-135.1304341328838
 30
0.0
 10
107.4721597581568
 20
-135.175201632873
 30
0.0
 10
107.4721597581568
 20
-135.2303407995255
 30
0.0
 10
107.4721597581568
 20
-135.285444688401
 30
0.0
 10
107.5169625347915
 20
-135.3302474661677
 30
0.0
 10
107.5720664222746
 20
-135.3302474661677
 30
0.0
 10
107.6272083064262
 20
-135.3302474661677
 30
0.0
 10
107.6719730863925
 20
-135.285444688401
 30
0.0
 10
107.6719730863925
 20
-135.2303407995255
 30
0.0
  0
SPLINE
  5
87
330
1F
100
AcDbEntity
  8
_U+30EC_U+30A4_U+30E4_U+30FC 1
 62
   179
420
  2234388
370
     9
100
AcDbSpline
210
0.0
220
0.0
230
1.0
 70
    11
 71
     3
 72
    17
 73
    13
 74
     0
 42
0.0000000001
 43
0.0000000001
 12
1.0
 22
0.0
 32
0.0
 13
1.0
 23
0.0
 33
0.0
 40
0.0
 40
0.0
 40
0.0
 40
0.0
 40
1.0
 40
1.0
 40
1.0
 40
2.0
 40
2.0
 40
2.0
 40
3.0
 40
3.0
 40
3.0
 40
4.0
 40
4.0
 40
4.0
 40
4.0
 10
83.67207814312522
 20
-139.2300999651924
 30
0.0
 10
83.67207814312522
 20
-139.1749607985393
 30
0.0
 10
83.62727536649047
 20
-139.1301932985507
 30
0.0
 10
83.5721714790074
 20
-139.1301932985507
 30
0.0
 10
83.51703231374744
 20
-139.1301932985507
 30
0.0
 10
83.47226481488956
 20
-139.1749607985393
 30
0.0
 10
83.47226481488956
 20
-139.2300999651924
 30
0.0
 10
83.47226481488956
 20
-139.2852038540673
 30
0.0
 10
83.51703231374744
 20
-139.330006631834
 30
0.0
 10
83.5721714790074
 20
-139.330006631834
 30
0.0
 10
83.62727536649047
 20
-139.330006631834
 30
0.0
 10
83.67207814312522
 20
-139.2852038540673
 30
0.0
 10
83.67207814312522
 20
-139.2300999651924
 30
0.0
  0
SPLINE
  5
88
330
1F
100
AcDbEntity
  8
_U+30EC_U+30A4_U+30E4_U+30FC 1
 62
   179
420
  2234388
370
     9
100
AcDbSpline
210
0.0
220
0.0
230
1.0
 70
    11
 71
     3
 72
    17
 73
    13
 74
     0
 42
0.0000000001
 43
0.0000000001
 12
1.0
 22
0.0
 32
0.0
 13
1.0
 23
0.0
 33
0.0
 40
0.0
 40
0.0
 40
0.0
 40
0.0
 40
1.0
 40
1.0
 40
1.0
 40
2.0
 40
2.0
 40
2.0
 40
3.0
 40
3.0
 40
3.0
 40
4.0
 40
4.0
 40
4.0
 40
4.0
 10
88.67192690445735
 20
-139.2300999651924
 30
0.0
 10
88.67192690445735
 20
-139.1749607985393
 30
0.0
 10
88.62715940559946
 20
-139.1301932985507
 30
0.0
 10
88.57202024033951
 20
-139.1301932985507
 30
0.0
 10
88.51691635285644
 20
-139.1301932985507
 30
0.0
 10
88.47211357622167
 20
-139.1749607985393
 30
0.0
 10
88.47211357622167
 20
-139.2300999651924
 30
0.0
 10
88.47211357622167
 20
-139.2852038540673
 30
0.0
 10
88.51691635285644
 20
-139.330006631834
 30
0.0
 10
88.57202024033951
 20
-139.330006631834
 30
0.0
 10
88.62715940559946
 20
-139.330006631834
 30
0.0
 10
88.67192690445735
 20
-139.2852038540673
 30
0.0
 10
88.67192690445735
 20
-139.2300999651924
 30
0.0
  0
SPLINE
  5
89
330
1F
100
AcDbEntity
  8
_U+30EC_U+30A4_U+30E4_U+30FC 1
 62
   179
420
  2234388
370
     9
100
AcDbSpline
210
0.0
220
0.0
230
1.0
 70
    11
 71
     3
 72
    17
 73
    13
 74
     0
 42
0.0000000001
 43
0.0000000001
 12
1.0
 22
0.0
 32
0.0
 13
1.0
 23
0.0
 33
0.0
 40
0.0
 40
0.0
 40
0.0
 40
0.0
 40
1.0
 40
1.0
 40
1.0
 40
2.0
 40
2.0
 40
2.0
 40
3.0
 40
3.0
 40
3.0
 40
4.0
 40
4.0
 40
4.0
 40
4.0
 10
73.67199442602639
 20
-139.2300999651924
 30
0.0
 10
73.67199442602639
 20
-139.1749607985393
 30
0.0
 10
73.62719164826
 20
-139.1301932985507
 30
0.0
 10
73.57208590079749
 20
-139.1301932985507
 30
0.0
 10
73.51694673553754
 20
-139.1301932985507
 30
0.0
 10
73.47217923667966
 20
-139.1749607985393
 30
0.0
 10
73.47217923667966
 20
-139.2300999651924
 30
0.0
 10
73.47217923667966
 20
-139.2852038540673
 30
0.0
 10
73.51694673553754
 20
-139.330006631834
 30
0.0
 10
73.57208590079749
 20
-139.330006631834
 30
0.0
 10
73.62719164826
 20
-139.330006631834
 30
0.0
 10
73.67199442602639
 20
-139.2852038540673
 30
0.0
 10
73.67199442602639
 20
-139.2300999651924
 30
0.0
  0
POLYLINE
  5
8A
330
1F
100
AcDbEntity
  8
_U+30EC_U+30A4_U+30E4_U+30FC 1
 62
   179
420
  2234388
370
     9
100
AcDb2dPolyline
 66
     1
 10
0.0
 20
0.0
 30
0.0
  0
VERTEX
  5
8B
330
8A
100
AcDbEntity
  8
_U+30EC_U+30A4_U+30E4_U+30FC 1
 62
   179
420
  2234388
370
     9
100
AcDbVertex
100
AcDb2dVertex
 10
107.5720664222746
 20
-124.2303063578314
 30
0.0
  0
VERTEX
  5
8C
330
8A
100
AcDbEntity
  8
_U+30EC_U+30A4_U+30E4_U+30FC 1
 62
   179
420
  2234388
370
     9
100
AcDbVertex
100
AcDb2dVertex
 10
107.5720664222746
 20
-120.4599938587739
 30
0.0
  0
SEQEND
  5
8D
330
8A
100
AcDbEntity
  8
_U+30EC_U+30A4_U+30E4_U+30FC 1
 62
   179
420
  2234388
370
     9
  0
POLYLINE
  5
8E
330
1F
100
AcDbEntity
  8
_U+30EC_U+30A4_U+30E4_U+30FC 1
 62
   179
420
  2234388
370
     9
100
AcDb2dPolyline
 66
     1
 10
0.0
 20
0.0
 30
0.0
  0
VERTEX
  5
8F
330
8E
100
AcDbEntity
  8
_U+30EC_U+30A4_U+30E4_U+30FC 1
 62
   179
420
  2234388
370
     9
100
AcDbVertex
100
AcDb2dVertex
 10
107.5720664222746
 20
-124.2303063578314
 30
0.0
  0
VERTEX
  5
90
330
8E
100
AcDbEntity
  8
_U+30EC_U+30A4_U+30E4_U+30FC 1
 62
   179
420
  2234388
370
     9
100
AcDbVertex
100
AcDb2dVertex
 10
107.5720664222746
 20
-125.2300785798036
 30
0.0
  0
SEQEND
  5
91
330
8E
100
AcDbEntity
  8
_U+30EC_U+30A4_U+30E4_U+30FC 1
 62
   179
420
  2234388
370
     9
  0
POLYLINE
  5
92
330
1F
100
AcDbEntity
  8
_U+30EC_U+30A4_U+30E4_U+30FC 1
 62
   179
420
  2234388
370
     9
100
AcDb2dPolyline
 66
     1
 10
0.0
 20
0.0
 30
0.0
  0
VERTEX
  5
93
330
92
100
AcDbEntity
  8
_U+30EC_U+30A4_U+30E4_U+30FC 1
 62
   179
420
  2234388
370
     9
100
AcDbVertex
100
AcDb2dVertex
 10
106.1120277512501
 20
-124.2303063578314
 30
0.0
  0
VERTEX
  5
94
330
92
100
AcDbEntity
  8
_U+30EC_U+30A4_U+30E4_U+30FC 1
 62
   179
420
  2234388
370
     9
100
AcDbVertex
100
AcDb2dVertex
 10
108.5721913967593
 20
-124.2303063578314
 30
0.0
  0
SEQEND
  5
95
330
92
100
AcDbEntity
  8
_U+30EC_U+30A4_U+30E4_U+30FC 1
 62
   179
420
  2234388
370
     9
  0
POLYLINE
  5
96
330
1F
100
AcDbEntity
  8
_U+30EC_U+30A4_U+30E4_U+30FC 1
 62
   179
420
  2234388
370
     9
100
AcDb2dPolyline
 66
     1
 10
0.0
 20
0.0
 30
0.0
  0
VERTEX
  5
97
330
96
100
AcDbEntity
  8
_U+30EC_U+30A4_U+30E4_U+30FC 1
 62
   179
420
  2234388
370
     9
100
AcDbVertex
100
AcDb2dVertex
 10
106.1120277512501
 20
-125.2300785798036
 30
0.0
  0
VERTEX
  5
98
330
96
100
AcDbEntity
  8
_U+30EC_U+30A4_U+30E4_U+30FC 1
 62
   179
420
  2234388
370
     9
100
AcDbVertex
100
AcDb2dVertex
 10
108.5721913967593
 20
-125.2300785798036
 30
0.0
  0
SEQEND
  5
99
330
96
100
AcDbEntity
  8
_U+30EC_U+30A4_U+30E4_U+30FC 1
 62
   179
420
  2234388
370
     9
  0
INSERT
  5
9B
330
1F
100
AcDbEntity
  8
_U+30EC_U+30A4_U+30E4_U+30FC 1
100
AcDbBlockReference
  2
block 2
 10
0.0
 20
0.0
 30
0.0
  0
POLYLINE
  5
A0
330
1F
100
AcDbEntity
  8
_U+30EC_U+30A4_U+30E4_U+30FC 1
 62
   179
420
  2234388
370
     9
100
AcDb2dPolyline
 66
     1
 10
0.0
 20
0.0
 30
0.0
  0
VERTEX
  5
A1
330
A0
100
AcDbEntity
  8
_U+30EC_U+30A4_U+30E4_U+30FC 1
 62
   179
420
  2234388
370
     9
100
AcDbVertex
100
AcDb2dVertex
 10
107.5720664222746
 20
-135.2303407995255
 30
0.0
  0
VERTEX
  5
A2
330
A0
100
AcDbEntity
  8
_U+30EC_U+30A4_U+30E4_U+30FC 1
 62
   179
420
  2234388
370
     9
100
AcDbVertex
100
AcDb2dVertex
 10
107.5720664222746
 20
-132.2303538558311
 30
0.0
  0
SEQEND
  5
A3
330
A0
100
AcDbEntity
  8
_U+30EC_U+30A4_U+30E4_U+30FC 1
 62
   179
420
  2234388
370
     9
  0
POLYLINE
  5
A4
330
1F
100
AcDbEntity
  8
_U+30EC_U+30A4_U+30E4_U+30FC 1
 62
   179
420
  2234388
370
     9
100
AcDb2dPolyline
 66
     1
 10
0.0
 20
0.0
 30
0.0
  0
VERTEX
  5
A5
330
A4
100
AcDbEntity
  8
_U+30EC_U+30A4_U+30E4_U+30FC 1
 62
   179
420
  2234388
370
     9
100
AcDbVertex
100
AcDb2dVertex
 10
91.11209073109247
 20
-135.2303407995255
 30
0.0
  0
VERTEX
  5
A6
330
A4
100
AcDbEntity
  8
_U+30EC_U+30A4_U+30E4_U+30FC 1
 62
   179
420
  2234388
370
     9
100
AcDbVertex
100
AcDb2dVertex
 10
108.5721913967593
 20
-135.2303407995255
 30
0.0
  0
SEQEND
  5
A7
330
A4
100
AcDbEntity
  8
_U+30EC_U+30A4_U+30E4_U+30FC 1
 62
   179
420
  2234388
370
     9
  0
INSERT
  5
A9
330
1F
100
AcDbEntity
  8
_U+30EC_U+30A4_U+30E4_U+30FC 1
100
AcDbBlockReference
  2
block 3
 10
0.0
 20
0.0
 30
0.0
  0
POLYLINE
  5
AE
330
1F
100
AcDbEntity
  8
_U+30EC_U+30A4_U+30E4_U+30FC 1
 62
   179
420
  2234388
370
     9
100
AcDb2dPolyline
 66
     1
 10
0.0
 20
0.0
 30
0.0
  0
VERTEX
  5
AF
330
AE
100
AcDbEntity
  8
_U+30EC_U+30A4_U+30E4_U+30FC 1
 62
   179
420
  2234388
370
     9
100
AcDbVertex
100
AcDb2dVertex
 10
73.57208590079749
 20
-139.2300999651924
 30
0.0
  0
VERTEX
  5
B0
330
AE
100
AcDbEntity
  8
_U+30EC_U+30A4_U+30E4_U+30FC 1
 62
   179
420
  2234388
370
     9
100
AcDbVertex
100
AcDb2dVertex
 10
83.5721714790074
 20
-139.2300999651924
 30
0.0
  0
SEQEND
  5
B1
330
AE
100
AcDbEntity
  8
_U+30EC_U+30A4_U+30E4_U+30FC 1
 62
   179
420
  2234388
370
     9
  0
POLYLINE
  5
B2
330
1F
100
AcDbEntity
  8
_U+30EC_U+30A4_U+30E4_U+30FC 1
 62
   179
420
  2234388
370
     9
100
AcDb2dPolyline
 66
     1
 10
0.0
 20
0.0
 30
0.0
  0
VERTEX
  5
B3
330
B2
100
AcDbEntity
  8
_U+30EC_U+30A4_U+30E4_U+30FC 1
 62
   179
420
  2234388
370
     9
100
AcDbVertex
100
AcDb2dVertex
 10
73.57208590079749
 20
-127.7703255236131
 30
0.0
  0
VERTEX
  5
B4
330
B2
100
AcDbEntity
  8
_U+30EC_U+30A4_U+30E4_U+30FC 1
 62
   179
420
  2234388
370
     9
100
AcDbVertex
100
AcDb2dVertex
 10
73.57208590079749
 20
-140.2305424649423
 30
0.0
  0
SEQEND
  5
B5
330
B2
100
AcDbEntity
  8
_U+30EC_U+30A4_U+30E4_U+30FC 1
 62
   179
420
  2234388
370
     9
  0
POLYLINE
  5
B6
330
1F
100
AcDbEntity
  8
_U+30EC_U+30A4_U+30E4_U+30FC 1
 62
   179
420
  2234388
370
     9
100
AcDb2dPolyline
 66
     1
 10
0.0
 20
0.0
 30
0.0
  0
VERTEX
  5
B7
330
B6
100
AcDbEntity
  8
_U+30EC_U+30A4_U+30E4_U+30FC 1
 62
   179
420
  2234388
370
     9
100
AcDbVertex
100
AcDb2dVertex
 10
83.5721714790074
 20
-137.7700585766686
 30
0.0
  0
VERTEX
  5
B8
330
B6
100
AcDbEntity
  8
_U+30EC_U+30A4_U+30E4_U+30FC 1
 62
   179
420
  2234388
370
     9
100
AcDbVertex
100
AcDb2dVertex
 10
83.5721714790074
 20
-140.2305424649423
 30
0.0
  0
SEQEND
  5
B9
330
B6
100
AcDbEntity
  8
_U+30EC_U+30A4_U+30E4_U+30FC 1
 62
   179
420
  2234388
370
     9
  0
INSERT
  5
BB
330
1F
100
AcDbEntity
  8
_U+30EC_U+30A4_U+30E4_U+30FC 1
100
AcDbBlockReference
  2
block 4
 10
0.0
 20
0.0
 30
0.0
  0
POLYLINE
  5
C3
330
1F
100
AcDbEntity
  8
_U+30EC_U+30A4_U+30E4_U+30FC 1
 62
   179
420
  2234388
370
     9
100
AcDb2dPolyline
 66
     1
 10
0.0
 20
0.0
 30
0.0
  0
VERTEX
  5
C4
330
C3
100
AcDbEntity
  8
_U+30EC_U+30A4_U+30E4_U+30FC 1
 62
   179
420
  2234388
370
     9
100
AcDbVertex
100
AcDb2dVertex
 10
83.5721714790074
 20
-139.2300999651924
 30
0.0
  0
VERTEX
  5
C5
330
C3
100
AcDbEntity
  8
_U+30EC_U+30A4_U+30E4_U+30FC 1
 62
   179
420
  2234388
370
     9
100
AcDbVertex
100
AcDb2dVertex
 10
88.57202024033951
 20
-139.2300999651924
 30
0.0
  0
SEQEND
  5
C6
330
C3
100
AcDbEntity
  8
_U+30EC_U+30A4_U+30E4_U+30FC 1
 62
   179
420
  2234388
370
     9
  0
POLYLINE
  5
C7
330
1F
100
AcDbEntity
  8
_U+30EC_U+30A4_U+30E4_U+30FC 1
 62
   179
420
  2234388
370
     9
100
AcDb2dPolyline
 66
     1
 10
0.0
 20
0.0
 30
0.0
  0
VERTEX
  5
C8
330
C7
100
AcDbEntity
  8
_U+30EC_U+30A4_U+30E4_U+30FC 1
 62
   179
420
  2234388
370
     9
100
AcDbVertex
100
AcDb2dVertex
 10
88.57202024033951
 20
-137.7700585766686
 30
0.0
  0
VERTEX
  5
C9
330
C7
100
AcDbEntity
  8
_U+30EC_U+30A4_U+30E4_U+30FC 1
 62
   179
420
  2234388
370
     9
100
AcDbVertex
100
AcDb2dVertex
 10
88.57202024033951
 20
-140.2305424649423
 30
0.0
  0
SEQEND
  5
CA
330
C7
100
AcDbEntity
  8
_U+30EC_U+30A4_U+30E4_U+30FC 1
 62
   179
420
  2234388
370
     9
  0
INSERT
  5
CC
330
1F
100
AcDbEntity
  8
_U+30EC_U+30A4_U+30E4_U+30FC 1
100
AcDbBlockReference
  2
block 5
 10
0.0
 20
0.0
 30
0.0
  0
POLYLINE
  5
D1
330
1F
100
AcDbEntity
  8
_U+30EC_U+30A4_U+30E4_U+30FC 1
 62
   179
420
  2234388
370
     9
100
AcDb2dPolyline
 66
     1
 10
0.0
 20
0.0
 30
0.0
  0
VERTEX
  5
D2
330
D1
100
AcDbEntity
  8
_U+30EC_U+30A4_U+30E4_U+30FC 1
 62
   179
420
  2234388
370
     9
100
AcDbVertex
100
AcDb2dVertex
 10
73.57208590079749
 20
-120.2302296921646
 30
0.0
  0
VERTEX
  5
D3
330
D1
100
AcDbEntity
  8
_U+30EC_U+30A4_U+30E4_U+30FC 1
 62
   179
420
  2234388
370
     9
100
AcDbVertex
100
AcDb2dVertex
 10
103.5719545798815
 20
-120.2302296921646
 30
0.0
  0
SEQEND
  5
D4
330
D1
100
AcDbEntity
  8
_U+30EC_U+30A4_U+30E4_U+30FC 1
 62
   179
420
  2234388
370
     9
  0
POLYLINE
  5
D5
330
1F
100
AcDbEntity
  8
_U+30EC_U+30A4_U+30E4_U+30FC 1
 62
   179
420
  2234388
370
     9
100
AcDb2dPolyline
 66
     1
 10
0.0
 20
0.0
 30
0.0
  0
VERTEX
  5
D6
330
D5
100
AcDbEntity
  8
_U+30EC_U+30A4_U+30E4_U+30FC 1
 62
   179
420
  2234388
370
     9
100
AcDbVertex
100
AcDb2dVertex
 10
73.57208590079749
 20
-121.6902358029107
 30
0.0
  0
VERTEX
  5
D7
330
D5
100
AcDbEntity
  8
_U+30EC_U+30A4_U+30E4_U+30FC 1
 62
   179
420
  2234388
370
     9
100
AcDbVertex
100
AcDb2dVertex
 10
73.57208590079749
 20
-119.2301046924146
 30
0.0
  0
SEQEND
  5
D8
330
D5
100
AcDbEntity
  8
_U+30EC_U+30A4_U+30E4_U+30FC 1
 62
   179
420
  2234388
370
     9
  0
POLYLINE
  5
D9
330
1F
100
AcDbEntity
  8
_U+30EC_U+30A4_U+30E4_U+30FC 1
 62
   179
420
  2234388
370
     9
100
AcDb2dPolyline
 66
     1
 10
0.0
 20
0.0
 30
0.0
  0
VERTEX
  5
DA
330
D9
100
AcDbEntity
  8
_U+30EC_U+30A4_U+30E4_U+30FC 1
 62
   179
420
  2234388
370
     9
100
AcDbVertex
100
AcDb2dVertex
 10
103.5719545798815
 20
-121.6902358029107
 30
0.0
  0
VERTEX
  5
DB
330
D9
100
AcDbEntity
  8
_U+30EC_U+30A4_U+30E4_U+30FC 1
 62
   179
420
  2234388
370
     9
100
AcDbVertex
100
AcDb2dVertex
 10
103.5719545798815
 20
-119.2301046924146
 30
0.0
  0
SEQEND
  5
DC
330
D9
100
AcDbEntity
  8
_U+30EC_U+30A4_U+30E4_U+30FC 1
 62
   179
420
  2234388
370
     9
  0
INSERT
  5
DE
330
1F
100
AcDbEntity
  8
_U+30EC_U+30A4_U+30E4_U+30FC 1
100
AcDbBlockReference
  2
block 6
 10
0.0
 20
0.0
 30
0.0
  0
POLYLINE
  5
E6
330
1F
100
AcDbEntity
  8
_U+30EC_U+30A4_U+30E4_U+30FC 1
 62
   179
420
  2234388
370
     9
100
AcDb2dPolyline
 66
     1
 10
0.0
 20
0.0
 30
0.0
  0
VERTEX
  5
E7
330
E6
100
AcDbEntity
  8
_U+30EC_U+30A4_U+30E4_U+30FC 1
 62
   179
420
  2234388
370
     9
100
AcDbVertex
100
AcDb2dVertex
 10
107.5720664222746
 20
-125.2300785798036
 30
0.0
  0
VERTEX
  5
E8
330
E6
100
AcDbEntity
  8
_U+30EC_U+30A4_U+30E4_U+30FC 1
 62
   179
420
  2234388
370
     9
100
AcDbVertex
100
AcDb2dVertex
 10
107.5720664222746
 20
-132.2303538558311
 30
0.0
  0
SEQEND
  5
E9
330
E6
100
AcDbEntity
  8
_U+30EC_U+30A4_U+30E4_U+30FC 1
 62
   179
420
  2234388
370
     9
  0
POLYLINE
  5
EA
330
1F
100
AcDbEntity
  8
_U+30EC_U+30A4_U+30E4_U+30FC 1
 62
   179
420
  2234388
370
     9
100
AcDb2dPolyline
 66
     1
 10
0.0
 20
0.0
 30
0.0
  0
VERTEX
  5
EB
330
EA
100
AcDbEntity
  8
_U+30EC_U+30A4_U+30E4_U+30FC 1
 62
   179
420
  2234388
370
     9
100
AcDbVertex
100
AcDb2dVertex
 10
91.11209073109247
 20
-132.2303538558311
 30
0.0
  0
VERTEX
  5
EC
330
EA
100
AcDbEntity
  8
_U+30EC_U+30A4_U+30E4_U+30FC 1
 62
   179
420
  2234388
370
     9
100
AcDbVertex
100
AcDb2dVertex
 10
108.5721913967593
 20
-132.2303538558311
 30
0.0
  0
SEQEND
  5
ED
330
EA
100
AcDbEntity
  8
_U+30EC_U+30A4_U+30E4_U+30FC 1
 62
   179
420
  2234388
370
     9
  0
INSERT
  5
EF
330
1F
100
AcDbEntity
  8
_U+30EC_U+30A4_U+30E4_U+30FC 1
100
AcDbBlockReference
  2
block 7
 10
0.0
 20
0.0
 30
0.0
  0
ENDSEC
  0
SECTION
  2
OBJECTS
  0
DICTIONARY
  5
C
330
0
100
AcDbDictionary
281
     1
  3
ACAD_GROUP
350
D
  3
ACAD_LAYOUT
350
1A
  3
ACAD_MATERIAL
350
3B
  3
ACAD_MLEADERSTYLE
350
F5
  3
ACAD_MLINESTYLE
350
17
  3
ACAD_PLOTSETTINGS
350
19
  3
ACAD_PLOTSTYLENAME
350
E
  3
ACAD_TABLESTYLE
350
F4
  3
ACAD_VISUALSTYLE
350
2A
  0
SUN
  5
3F
330
29
100
AcDbSun
 90
        1
290
     0
 63
     7
421
 16777215
 40
1.0
291
     1
 91
  2455826
 92
 54000000
292
     0
 70
     2
 71
   256
280
     1
  0
DICTIONARY
  5
D
102
{ACAD_REACTORS
330
C
102
}
330
C
100
AcDbDictionary
281
     1
  0
DICTIONARY
  5
1A
102
{ACAD_REACTORS
330
C
102
}
330
C
100
AcDbDictionary
281
     1
  3
Layout1
350
1E
  3
Layout2
350
26
  3
Model
350
22
  0
DICTIONARY
  5
3B
102
{ACAD_REACTORS
330
C
102
}
330
C
100
AcDbDictionary
281
     1
  3
ByBlock
350
3D
  3
ByLayer
350
3C
  3
Global
350
3E
  0
DICTIONARY
  5
F5
102
{ACAD_REACTORS
330
C
102
}
330
C
100
AcDbDictionary
281
     1
  0
DICTIONARY
  5
17
102
{ACAD_REACTORS
330
C
102
}
330
C
100
AcDbDictionary
281
     1
  3
Standard
350
18
  0
DICTIONARY
  5
19
102
{ACAD_REACTORS
330
C
102
}
330
C
100
AcDbDictionary
281
     1
  0
ACDBDICTIONARYWDFLT
  5
E
102
{ACAD_REACTORS
330
C
102
}
330
C
100
AcDbDictionary
281
     1
  3
Normal
350
F
100
AcDbDictionaryWithDefault
340
F
  0
DICTIONARY
  5
F4
102
{ACAD_REACTORS
330
C
102
}
330
C
100
AcDbDictionary
281
     1
  0
DICTIONARY
  5
2A
102
{ACAD_REACTORS
330
C
102
}
330
C
100
AcDbDictionary
281
     1
  3
2dWireframe
350
2F
  3
3D Hidden
350
31
  3
3dWireframe
350
30
  3
Basic
350
32
  3
Brighten
350
36
  3
ColorChange
350
3A
  3
Conceptual
350
34
  3
Dim
350
35
  3
Facepattern
350
39
  3
Flat
350
2B
  3
FlatWithEdges
350
2C
  3
Gouraud
350
2D
  3
GouraudWithEdges
350
2E
  3
Linepattern
350
38
  3
Realistic
350
33
  3
Thicken
350
37
  0
LAYOUT
  5
1E
102
{ACAD_REACTORS
330
1A
102
}
330
1A
100
AcDbPlotSettings
  1

  2
none_device
  4

  6

 40
0.0
 41
0.0
 42
0.0
 43
0.0
 44
0.0
 45
0.0
 46
0.0
 47
0.0
 48
0.0
 49
0.0
140
0.0
141
0.0
142
1.0
143
1.0
 70
   688
 72
     0
 73
     0
 74
     5
  7

 75
    16
 76
     0
 77
     2
 78
   300
147
1.0
148
0.0
149
0.0
100
AcDbLayout
  1
Layout1
 70
     1
 71
     1
 10
0.0
 20
0.0
 11
12.0
 21
9.0
 12
0.0
 22
0.0
 32
0.0
 14
1.000000000000000E+20
 24
1.000000000000000E+20
 34
1.000000000000000E+20
 15
-1.000000000000000E+20
 25
-1.000000000000000E+20
 35
-1.000000000000000E+20
146
0.0
 13
0.0
 23
0.0
 33
0.0
 16
1.0
 26
0.0
 36
0.0
 17
0.0
 27
1.0
 37
0.0
 76
     0
330
1B
  0
LAYOUT
  5
26
102
{ACAD_REACTORS
330
1A
102
}
330
1A
100
AcDbPlotSettings
  1

  2
none_device
  4

  6

 40
0.0
 41
0.0
 42
0.0
 43
0.0
 44
0.0
 45
0.0
 46
0.0
 47
0.0
 48
0.0
 49
0.0
140
0.0
141
0.0
142
1.0
143
1.0
 70
   688
 72
     0
 73
     0
 74
     5
  7

 75
    16
 76
     0
 77
     2
 78
   300
147
1.0
148
0.0
149
0.0
100
AcDbLayout
  1
Layout2
 70
     1
 71
     2
 10
0.0
 20
0.0
 11
0.0
 21
0.0
 12
0.0
 22
0.0
 32
0.0
 14
0.0
 24
0.0
 34
0.0
 15
0.0
 25
0.0
 35
0.0
146
0.0
 13
0.0
 23
0.0
 33
0.0
 16
1.0
 26
0.0
 36
0.0
 17
0.0
 27
1.0
 37
0.0
 76
     0
330
23
  0
LAYOUT
  5
22
102
{ACAD_REACTORS
330
1A
102
}
330
1A
100
AcDbPlotSettings
  1

  2
none_device
  4

  6

 40
0.0
 41
0.0
 42
0.0
 43
0.0
 44
0.0
 45
0.0
 46
0.0
 47
0.0
 48
0.0
 49
0.0
140
0.0
141
0.0
142
1.0
143
1.0
 70
  1712
 72
     0
 73
     0
 74
     0
  7

 75
     0
 76
     0
 77
     2
 78
   300
147
1.0
148
0.0
149
0.0
100
AcDbLayout
  1
Model
 70
     1
 71
     0
 10
0.0
 20
0.0
 11
12.0
 21
9.0
 12
0.0
 22
0.0
 32
0.0
 14
1.000000000000000E+20
 24
1.000000000000000E+20
 34
1.000000000000000E+20
 15
-1.000000000000000E+20
 25
-1.000000000000000E+20
 35
-1.000000000000000E+20
146
0.0
 13
0.0
 23
0.0
 33
0.0
 16
1.0
 26
0.0
 36
0.0
 17
0.0
 27
1.0
 37
0.0
 76
     0
330
1F
331
29
  0
MATERIAL
  5
3D
102
{ACAD_REACTORS
330
3B
102
}
330
3B
100
AcDbMaterial
  1
ByBlock
 72
     1
 94
      127
  0
MATERIAL
  5
3C
102
{ACAD_REACTORS
330
3B
102
}
330
3B
100
AcDbMaterial
  1
ByLayer
 72
     1
 94
      127
  0
MATERIAL
  5
3E
102
{ACAD_REACTORS
330
3B
102
}
330
3B
100
AcDbMaterial
  1
Global
 72
     1
 94
      127
  0
MLINESTYLE
  5
18
102
{ACAD_REACTORS
330
17
102
}
330
17
100
AcDbMlineStyle
  2
Standard
 70
     0
  3

 62
   256
 51
90.0
 52
90.0
 71
     2
 49
0.5
 62
   256
  6
BYLAYER
 49
-0.5
 62
   256
  6
BYLAYER
  0
ACDBPLACEHOLDER
  5
F
102
{ACAD_REACTORS
330
E
102
}
330
E
  0
VISUALSTYLE
  5
2F
102
{ACAD_REACTORS
330
2A
102
}
330
2A
100
AcDbVisualStyle
  2
2dWireframe
 70
     4
177
     2
291
     0
 71
     0
176
     1
 72
     2
176
     1
 73
     0
176
     1
 90
        0
176
     1
 40
-0.6
176
     1
 41
-30.0
176
     1
 62
     5
 63
     7
421
 16777215
176
     1
 74
     1
176
     1
 91
        4
176
     1
 64
     7
176
     1
 65
   257
176
     1
 75
     1
176
     1
175
     1
176
     1
 42
1.0
176
     1
 92
        0
176
     1
 66
   257
176
     1
 43
1.0
176
     1
 76
     1
176
     1
 77
     6
176
     1
 78
     2
176
     1
 67
     7
176
     1
 79
     5
176
     1
170
     0
176
     1
171
     0
176
     1
290
     0
176
     1
 93
        1
176
     1
 44
0.0
176
     1
173
     0
176
     1
  0
VISUALSTYLE
  5
31
102
{ACAD_REACTORS
330
2A
102
}
330
2A
100
AcDbVisualStyle
  2
3D Hidden
 70
     6
177
     2
291
     0
 71
     1
176
     1
 72
     2
176
     1
 73
     2
176
     1
 90
        0
176
     1
 40
-0.6
176
     1
 41
-30.0
176
     1
 62
     5
 63
     7
421
 16777215
176
     1
 74
     2
176
     1
 91
        2
176
     1
 64
     7
176
     1
 65
   257
176
     1
 75
     2
176
     1
175
     1
176
     1
 42
40.0
176
     1
 92
        0
176
     1
 66
   257
176
     1
 43
1.0
176
     1
 76
     1
176
     1
 77
     6
176
     1
 78
     2
176
     1
 67
     7
176
     1
 79
     3
176
     1
170
     0
176
     1
171
     0
176
     1
290
     0
176
     1
 93
        1
176
     1
 44
0.0
176
     1
173
     0
176
     1
  0
VISUALSTYLE
  5
30
102
{ACAD_REACTORS
330
2A
102
}
330
2A
100
AcDbVisualStyle
  2
3dWireframe
 70
     5
177
     2
291
     0
 71
     0
176
     1
 72
     2
176
     1
 73
     0
176
     1
 90
        0
176
     1
 40
-0.6
176
     1
 41
-30.0
176
     1
 62
     5
 63
     7
421
 16777215
176
     1
 74
     1
176
     1
 91
        4
176
     1
 64
     7
176
     1
 65
   257
176
     1
 75
     1
176
     1
175
     1
176
     1
 42
1.0
176
     1
 92
        0
176
     1
 66
   257
176
     1
 43
1.0
176
     1
 76
     1
176
     1
 77
     6
176
     1
 78
     2
176
     1
 67
     7
176
     1
 79
     5
176
     1
170
     0
176
     1
171
     0
176
     1
290
     0
176
     1
 93
        1
176
     1
 44
0.0
176
     1
173
     0
176
     1
  0
VISUALSTYLE
  5
32
102
{ACAD_REACTORS
330
2A
102
}
330
2A
100
AcDbVisualStyle
  2
Basic
 70
     7
177
     2
291
     1
 71
     1
176
     1
 72
     0
176
     1
 73
     1
176
     1
 90
        0
176
     1
 40
-0.6
176
     1
 41
-30.0
176
     1
 62
     5
 63
     7
421
 16777215
176
     1
 74
     0
176
     1
 91
        4
176
     1
 64
     7
176
     1
 65
   257
176
     1
 75
     1
176
     1
175
     1
176
     1
 42
1.0
176
     1
 92
        8
176
     1
 66
     7
176
     1
 43
1.0
176
     1
 76
     1
176
     1
 77
     6
176
     1
 78
     2
176
     1
 67
     7
176
     1
 79
     5
176
     1
170
     0
176
     1
171
     0
176
     1
290
     0
176
     1
 93
        1
176
     1
 44
0.0
176
     1
173
     0
176
     1
  0
VISUALSTYLE
  5
36
102
{ACAD_REACTORS
330
2A
102
}
330
2A
100
AcDbVisualStyle
  2
Brighten
 70
    12
177
     2
291
     1
 71
     2
176
     1
 72
     2
176
     1
 73
     0
176
     1
 90
        0
176
     1
 40
-0.6
176
     1
 41
-30.0
176
     1
 62
     5
 63
     7
421
 16777215
176
     1
 74
     1
176
     1
 91
        4
176
     1
 64
     7
176
     1
 65
   257
176
     1
 75
     1
176
     1
175
     1
176
     1
 42
1.0
176
     1
 92
        8
176
     1
 66
     7
176
     1
 43
1.0
176
     1
 76
     1
176
     1
 77
     6
176
     1
 78
     2
176
     1
 67
     7
176
     1
 79
     5
176
     1
170
     0
176
     1
171
     0
176
     1
290
     0
176
     1
 93
        1
176
     1
 44
50.0
176
     1
173
     0
176
     1
  0
VISUALSTYLE
  5
3A
102
{ACAD_REACTORS
330
2A
102
}
330
2A
100
AcDbVisualStyle
  2
ColorChange
 70
    16
177
     2
291
     1
 71
     2
176
     1
 72
     2
176
     1
 73
     3
176
     1
 90
        0
176
     1
 40
-0.6
176
     1
 41
-30.0
176
     1
 62
     5
 63
     8
421
  8421504
176
     1
 74
     1
176
     1
 91
        4
176
     1
 64
     7
176
     1
 65
   257
176
     1
 75
     1
176
     1
175
     1
176
     1
 42
1.0
176
     1
 92
        8
176
     1
 66
     8
424
  8421504
176
     1
 43
1.0
176
     1
 76
     1
176
     1
 77
     6
176
     1
 78
     2
176
     1
 67
     7
176
     1
 79
     5
176
     1
170
     0
176
     1
171
     0
176
     1
290
     0
176
     1
 93
        1
176
     1
 44
0.0
176
     1
173
     0
176
     1
  0
VISUALSTYLE
  5
34
102
{ACAD_REACTORS
330
2A
102
}
330
2A
100
AcDbVisualStyle
  2
Conceptual
 70
     9
177
     2
291
     0
 71
     3
176
     1
 72
     2
176
     1
 73
     0
176
     1
 90
        0
176
     1
 40
-0.6
176
     1
 41
-30.0
176
     1
 62
     5
 63
     7
421
 16777215
176
     1
 74
     2
176
     1
 91
        2
176
     1
 64
     7
176
     1
 65
   257
176
     1
 75
     1
176
     1
175
     1
176
     1
 42
40.0
176
     1
 92
        8
176
     1
 66
     7
176
     1
 43
1.0
176
     1
 76
     1
176
     1
 77
     6
176
     1
 78
     2
176
     1
 67
     7
176
     1
 79
     3
176
     1
170
     0
176
     1
171
     0
176
     1
290
     0
176
     1
 93
        1
176
     1
 44
0.0
176
     1
173
     0
176
     1
  0
VISUALSTYLE
  5
35
102
{ACAD_REACTORS
330
2A
102
}
330
2A
100
AcDbVisualStyle
  2
Dim
 70
    11
177
     2
291
     1
 71
     2
176
     1
 72
     2
176
     1
 73
     0
176
     1
 90
        0
176
     1
 40
-0.6
176
     1
 41
-30.0
176
     1
 62
     5
 63
     7
421
 16777215
176
     1
 74
     1
176
     1
 91
        4
176
     1
 64
     7
176
     1
 65
   257
176
     1
 75
     1
176
     1
175
     1
176
     1
 42
1.0
176
     1
 92
        8
176
     1
 66
     7
176
     1
 43
1.0
176
     1
 76
     1
176
     1
 77
     6
176
     1
 78
     2
176
     1
 67
     7
176
     1
 79
     5
176
     1
170
     0
176
     1
171
     0
176
     1
290
     0
176
     1
 93
        1
176
     1
 44
-50.0
176
     1
173
     0
176
     1
  0
VISUALSTYLE
  5
39
102
{ACAD_REACTORS
330
2A
102
}
330
2A
100
AcDbVisualStyle
  2
Facepattern
 70
    15
177
     2
291
     1
 71
     2
176
     1
 72
     2
176
     1
 73
     0
176
     1
 90
        0
176
     1
 40
-0.6
176
     1
 41
-30.0
176
     1
 62
     5
 63
     7
421
 16777215
176
     1
 74
     1
176
     1
 91
        4
176
     1
 64
     7
176
     1
 65
   257
176
     1
 75
     1
176
     1
175
     1
176
     1
 42
1.0
176
     1
 92
        8
176
     1
 66
     7
176
     1
 43
1.0
176
     1
 76
     1
176
     1
 77
     6
176
     1
 78
     2
176
     1
 67
     7
176
     1
 79
     5
176
     1
170
     0
176
     1
171
     0
176
     1
290
     0
176
     1
 93
        1
176
     1
 44
0.0
176
     1
173
     0
176
     1
  0
VISUALSTYLE
  5
2B
102
{ACAD_REACTORS
330
2A
102
}
330
2A
100
AcDbVisualStyle
  2
Flat
 70
     0
177
     2
291
     1
 71
     2
176
     1
 72
     1
176
     1
 73
     1
176
     1
 90
        2
176
     1
 40
-0.6
176
     1
 41
30.0
176
     1
 62
     5
 63
     7
421
 16777215
176
     1
 74
     0
176
     1
 91
        4
176
     1
 64
     7
176
     1
 65
   257
176
     1
 75
     1
176
     1
175
     1
176
     1
 42
1.0
176
     1
 92
        8
176
     1
 66
     7
176
     1
 43
1.0
176
     1
 76
     1
176
     1
 77
     6
176
     1
 78
     2
176
     1
 67
     7
176
     1
 79
     5
176
     1
170
     0
176
     1
171
     0
176
     1
290
     0
176
     1
 93
       13
176
     1
 44
0.0
176
     1
173
     0
176
     1
  0
VISUALSTYLE
  5
2C
102
{ACAD_REACTORS
330
2A
102
}
330
2A
100
AcDbVisualStyle
  2
FlatWithEdges
 70
     1
177
     2
291
     1
 71
     2
176
     1
 72
     1
176
     1
 73
     1
176
     1
 90
        2
176
     1
 40
-0.6
176
     1
 41
30.0
176
     1
 62
     5
 63
     7
421
 16777215
176
     1
 74
     1
176
     1
 91
        4
176
     1
 64
     7
176
     1
 65
   257
176
     1
 75
     1
176
     1
175
     1
176
     1
 42
1.0
176
     1
 92
        0
176
     1
 66
   257
176
     1
 43
1.0
176
     1
 76
     1
176
     1
 77
     6
176
     1
 78
     2
176
     1
 67
     7
176
     1
 79
     5
176
     1
170
     0
176
     1
171
     0
176
     1
290
     0
176
     1
 93
       13
176
     1
 44
0.0
176
     1
173
     0
176
     1
  0
VISUALSTYLE
  5
2D
102
{ACAD_REACTORS
330
2A
102
}
330
2A
100
AcDbVisualStyle
  2
Gouraud
 70
     2
177
     2
291
     1
 71
     2
176
     1
 72
     2
176
     1
 73
     1
176
     1
 90
        2
176
     1
 40
-0.6
176
     1
 41
30.0
176
     1
 62
     5
 63
     7
421
 16777215
176
     1
 74
     0
176
     1
 91
        4
176
     1
 64
     7
176
     1
 65
   257
176
     1
 75
     1
176
     1
175
     1
176
     1
 42
1.0
176
     1
 92
        0
176
     1
 66
     7
176
     1
 43
1.0
176
     1
 76
     1
176
     1
 77
     6
176
     1
 78
     2
176
     1
 67
     7
176
     1
 79
     5
176
     1
170
     0
176
     1
171
     0
176
     1
290
     0
176
     1
 93
       13
176
     1
 44
0.0
176
     1
173
     0
176
     1
  0
VISUALSTYLE
  5
2E
102
{ACAD_REACTORS
330
2A
102
}
330
2A
100
AcDbVisualStyle
  2
GouraudWithEdges
 70
     3
177
     2
291
     1
 71
     2
176
     1
 72
     2
176
     1
 73
     1
176
     1
 90
        2
176
     1
 40
-0.6
176
     1
 41
30.0
176
     1
 62
     5
 63
     7
421
 16777215
176
     1
 74
     1
176
     1
 91
        4
176
     1
 64
     7
176
     1
 65
   257
176
     1
 75
     1
176
     1
175
     1
176
     1
 42
1.0
176
     1
 92
        0
176
     1
 66
   257
176
     1
 43
1.0
176
     1
 76
     1
176
     1
 77
     6
176
     1
 78
     2
176
     1
 67
     7
176
     1
 79
     5
176
     1
170
     0
176
     1
171
     0
176
     1
290
     0
176
     1
 93
       13
176
     1
 44
0.0
176
     1
173
     0
176
     1
  0
VISUALSTYLE
  5
38
102
{ACAD_REACTORS
330
2A
102
}
330
2A
100
AcDbVisualStyle
  2
Linepattern
 70
    14
177
     2
291
     1
 71
     2
176
     1
 72
     2
176
     1
 73
     0
176
     1
 90
        0
176
     1
 40
-0.6
176
     1
 41
-30.0
176
     1
 62
     5
 63
     7
421
 16777215
176
     1
 74
     1
176
     1
 91
        4
176
     1
 64
     7
176
     1
 65
   257
176
     1
 75
     7
176
     1
175
     7
176
     1
 42
1.0
176
     1
 92
        8
176
     1
 66
     7
176
     1
 43
1.0
176
     1
 76
     1
176
     1
 77
     6
176
     1
 78
     2
176
     1
 67
     7
176
     1
 79
     5
176
     1
170
     0
176
     1
171
     0
176
     1
290
     0
176
     1
 93
        1
176
     1
 44
0.0
176
     1
173
     0
176
     1
  0
VISUALSTYLE
  5
33
102
{ACAD_REACTORS
330
2A
102
}
330
2A
100
AcDbVisualStyle
  2
Realistic
 70
     8
177
     2
291
     0
 71
     2
176
     1
 72
     2
176
     1
 73
     0
176
     1
 90
        0
176
     1
 40
-0.6
176
     1
 41
-30.0
176
     1
 62
     5
 63
     7
421
 16777215
176
     1
 74
     1
176
     1
 91
        0
176
     1
 64
     7
176
     1
 65
   257
176
     1
 75
     1
176
     1
175
     1
176
     1
 42
1.0
176
     1
 92
        8
176
     1
 66
     8
424
  7895160
176
     1
 43
1.0
176
     1
 76
     1
176
     1
 77
     6
176
     1
 78
     2
176
     1
 67
     7
176
     1
 79
     5
176
     1
170
     0
176
     1
171
     0
176
     1
290
     0
176
     1
 93
       13
176
     1
 44
0.0
176
     1
173
     0
176
     1
  0
VISUALSTYLE
  5
37
102
{ACAD_REACTORS
330
2A
102
}
330
2A
100
AcDbVisualStyle
  2
Thicken
 70
    13
177
     2
291
     1
 71
     2
176
     1
 72
     2
176
     1
 73
     0
176
     1
 90
        0
176
     1
 40
-0.6
176
     1
 41
-30.0
176
     1
 62
     5
 63
     7
421
 16777215
176
     1
 74
     1
176
     1
 91
        4
176
     1
 64
     7
176
     1
 65
   257
176
     1
 75
     1
176
     1
175
     1
176
     1
 42
1.0
176
     1
 92
       12
176
     1
 66
     7
176
     1
 43
1.0
176
     1
 76
     1
176
     1
 77
     6
176
     1
 78
     2
176
     1
 67
     7
176
     1
 79
     5
176
     1
170
     0
176
     1
171
     0
176
     1
290
     0
176
     1
 93
        1
176
     1
 44
0.0
176
     1
173
     0
176
     1
  0
ENDSEC
  0
EOF
